  0
SECTION
  2
HEADER
  9
$ACADVER
  1
AC1015
  9
$ACADMAINTVER
 70
    13
  9
$DWGCODEPAGE
  3
ANSI_1252
  9
$INSBASE
 10
0.0
 20
0.0
 30
0.0
  9
$EXTMIN
 10
0.0
 20
0.0
 30
0.0
  9
$EXTMAX
 10
700.0
 20
200.0
 30
0.0
  9
$LIMMIN
 10
0.0
 20
0.0
  9
$LIMMAX
 10
12.0
 20
9.0
  9
$ORTHOMODE
 70
     0
  9
$REGENMODE
 70
     1
  9
$FILLMODE
 70
     1
  9
$QTEXTMODE
 70
     0
  9
$MIRRTEXT
 70
     1
  9
$LTSCALE
 40
1.0
  9
$ATTMODE
 70
     1
  9
$TEXTSIZE
 40
0.2
  9
$TRACEWID
 40
0.05
  9
$TEXTSTYLE
  7
Standard
  9
$CLAYER
  8
0
  9
$CELTYPE
  6
Continuous
  9
$CECOLOR
 62
   256
  9
$CELTSCALE
 40
1.0
  9
$DISPSILH
 70
     0
  9
$DIMSCALE
 40
1.0
  9
$DIMASZ
 40
0.18
  9
$DIMEXO
 40
0.0625
  9
$DIMDLI
 40
0.38
  9
$DIMRND
 40
0.0
  9
$DIMDLE
 40
0.0
  9
$DIMEXE
 40
0.18
  9
$DIMTP
 40
0.0
  9
$DIMTM
 40
0.0
  9
$DIMTXT
 40
0.18
  9
$DIMCEN
 40
0.09
  9
$DIMTSZ
 40
0.0
  9
$DIMTOL
 70
     0
  9
$DIMLIM
 70
     0
  9
$DIMTIH
 70
     1
  9
$DIMTOH
 70
     1
  9
$DIMSE1
 70
     0
  9
$DIMSE2
 70
     0
  9
$DIMTAD
 70
     0
  9
$DIMZIN
 70
     0
  9
$DIMBLK
  1

  9
$DIMASO
 70
     1
  9
$DIMSHO
 70
     1
  9
$DIMPOST
  1

  9
$DIMAPOST
  1

  9
$DIMALT
 70
     0
  9
$DIMALTD
 70
     2
  9
$DIMALTF
 40
25.4
  9
$DIMLFAC
 40
1.0
  9
$DIMTOFL
 70
     0
  9
$DIMTVP
 40
0.0
  9
$DIMTIX
 70
     0
  9
$DIMSOXD
 70
     0
  9
$DIMSAH
 70
     0
  9
$DIMBLK1
  1

  9
$DIMBLK2
  1

  9
$DIMSTYLE
  2
Standard
  9
$DIMCLRD
 70
     0
  9
$DIMCLRE
 70
     0
  9
$DIMCLRT
 70
     0
  9
$DIMTFAC
 40
1.0
  9
$DIMGAP
 40
0.09
  9
$DIMJUST
 70
     0
  9
$DIMSD1
 70
     0
  9
$DIMSD2
 70
     0
  9
$DIMTOLJ
 70
     1
  9
$DIMTZIN
 70
     0
  9
$DIMALTZ
 70
     0
  9
$DIMALTTZ
 70
     0
  9
$DIMUPT
 70
     0
  9
$DIMDEC
 70
     4
  9
$DIMTDEC
 70
     4
  9
$DIMALTU
 70
     2
  9
$DIMALTTD
 70
     2
  9
$DIMTXSTY
  7
Standard
  9
$DIMAUNIT
 70
     0
  9
$DIMADEC
 70
     0
  9
$DIMALTRND
 40
0.0
  9
$DIMAZIN
 70
     0
  9
$DIMDSEP
 70
    46
  9
$DIMATFIT
 70
     3
  9
$DIMFRAC
 70
     0
  9
$DIMLDRBLK
  1

  9
$DIMLUNIT
 70
     2
  9
$DIMLWD
 70
    -2
  9
$DIMLWE
 70
    -2
  9
$DIMTMOVE
 70
     0
  9
$LUNITS
 70
     2
  9
$LUPREC
 70
     4
  9
$SKETCHINC
 40
0.1
  9
$FILLETRAD
 40
0.0
  9
$AUNITS
 70
     0
  9
$AUPREC
 70
     0
  9
$MENU
  1
.
  9
$ELEVATION
 40
0.0
  9
$PELEVATION
 40
0.0
  9
$THICKNESS
 40
0.0
  9
$LIMCHECK
 70
     0
  9
$CHAMFERA
 40
0.0
  9
$CHAMFERB
 40
0.0
  9
$CHAMFERC
 40
0.0
  9
$CHAMFERD
 40
0.0
  9
$SKPOLY
 70
     0
  9
$TDCREATE
 40
2455655.554321829
  9
$TDUCREATE
 40
2455655.470988495
  9
$TDUPDATE
 40
2455655.559871238
  9
$TDUUPDATE
 40
2455655.476537905
  9
$TDINDWG
 40
0.0055495833
  9
$TDUSRTIMER
 40
0.0055495833
  9
$USRTIMER
 70
     1
  9
$ANGBASE
 50
0.0
  9
$ANGDIR
 70
     0
  9
$PDMODE
 70
     0
  9
$PDSIZE
 40
0.0
  9
$PLINEWID
 40
0.0
  9
$SPLFRAME
 70
     0
  9
$SPLINETYPE
 70
     6
  9
$SPLINESEGS
 70
     8
  9
$HANDSEED
  5
4F2
  9
$SURFTAB1
 70
     6
  9
$SURFTAB2
 70
     6
  9
$SURFTYPE
 70
     6
  9
$SURFU
 70
     6
  9
$SURFV
 70
     6
  9
$UCSBASE
  2

  9
$UCSNAME
  2

  9
$UCSORG
 10
0.0
 20
0.0
 30
0.0
  9
$UCSXDIR
 10
1.0
 20
0.0
 30
0.0
  9
$UCSYDIR
 10
0.0
 20
1.0
 30
0.0
  9
$UCSORTHOREF
  2

  9
$UCSORTHOVIEW
 70
     1
  9
$UCSORGTOP
 10
0.0
 20
0.0
 30
0.0
  9
$UCSORGBOTTOM
 10
0.0
 20
0.0
 30
0.0
  9
$UCSORGLEFT
 10
0.0
 20
0.0
 30
0.0
  9
$UCSORGRIGHT
 10
0.0
 20
0.0
 30
0.0
  9
$UCSORGFRONT
 10
0.0
 20
0.0
 30
0.0
  9
$UCSORGBACK
 10
0.0
 20
0.0
 30
0.0
  9
$PUCSBASE
  2

  9
$PUCSNAME
  2

  9
$PUCSORG
 10
0.0
 20
0.0
 30
0.0
  9
$PUCSXDIR
 10
1.0
 20
0.0
 30
0.0
  9
$PUCSYDIR
 10
0.0
 20
1.0
 30
0.0
  9
$PUCSORTHOREF
  2

  9
$PUCSORTHOVIEW
 70
     0
  9
$PUCSORGTOP
 10
0.0
 20
0.0
 30
0.0
  9
$PUCSORGBOTTOM
 10
0.0
 20
0.0
 30
0.0
  9
$PUCSORGLEFT
 10
0.0
 20
0.0
 30
0.0
  9
$PUCSORGRIGHT
 10
0.0
 20
0.0
 30
0.0
  9
$PUCSORGFRONT
 10
0.0
 20
0.0
 30
0.0
  9
$PUCSORGBACK
 10
0.0
 20
0.0
 30
0.0
  9
$USERI1
 70
     0
  9
$USERI2
 70
     0
  9
$USERI3
 70
     0
  9
$USERI4
 70
     0
  9
$USERI5
 70
     0
  9
$USERR1
 40
0.0
  9
$USERR2
 40
0.0
  9
$USERR3
 40
0.0
  9
$USERR4
 40
0.0
  9
$USERR5
 40
0.0
  9
$WORLDVIEW
 70
     1
  9
$SHADEDGE
 70
     3
  9
$SHADEDIF
 70
    70
  9
$TILEMODE
 70
     1
  9
$MAXACTVP
 70
    64
  9
$PINSBASE
 10
0.0
 20
0.0
 30
0.0
  9
$PLIMCHECK
 70
     0
  9
$PEXTMIN
 10
1.000000000000000E+20
 20
1.000000000000000E+20
 30
1.000000000000000E+20
  9
$PEXTMAX
 10
-1.000000000000000E+20
 20
-1.000000000000000E+20
 30
-1.000000000000000E+20
  9
$PLIMMIN
 10
0.0
 20
0.0
  9
$PLIMMAX
 10
12.0
 20
9.0
  9
$UNITMODE
 70
     0
  9
$VISRETAIN
 70
     1
  9
$PLINEGEN
 70
     0
  9
$PSLTSCALE
 70
     1
  9
$TREEDEPTH
 70
  3020
  9
$CMLSTYLE
  2
Standard
  9
$CMLJUST
 70
     0
  9
$CMLSCALE
 40
1.0
  9
$PROXYGRAPHICS
 70
     1
  9
$MEASUREMENT
 70
     0
  9
$CELWEIGHT
370
    -1
  9
$ENDCAPS
280
     0
  9
$JOINSTYLE
280
     0
  9
$LWDISPLAY
290
     0
  9
$INSUNITS
 70
     0
  9
$HYPERLINKBASE
  1

  9
$STYLESHEET
  1

  9
$XEDIT
290
     1
  9
$CEPSNTYPE
380
     0
  9
$PSTYLEMODE
290
     1
  9
$FINGERPRINTGUID
  2
{3BAA9016-A35A-480E-B9BC-1195AD5126A9}
  9
$VERSIONGUID
  2
{B440DB76-7FA5-4FD5-8BBE-DEB2B04B4549}
  9
$EXTNAMES
290
     1
  9
$PSVPSCALE
 40
0.0
  9
$OLESTARTUP
290
     0
  0
ENDSEC
  0
SECTION
  2
CLASSES
  0
CLASS
  1
ACDBDICTIONARYWDFLT
  2
AcDbDictionaryWithDefault
  3
AutoCAD 2000
 90
        0
280
     0
281
     0
  0
CLASS
  1
ACDBPLACEHOLDER
  2
AcDbPlaceHolder
  3
AutoCAD 2000
 90
        0
280
     0
281
     0
  0
CLASS
  1
LAYOUT
  2
AcDbLayout
  3
AutoCAD 2000
 90
        0
280
     0
281
     0
  0
CLASS
  1
DICTIONARYVAR
  2
AcDbDictionaryVar
  3
AutoCAD 2000
 90
        0
280
     0
281
     0
  0
ENDSEC
  0
SECTION
  2
TABLES
  0
TABLE
  2
VPORT
  5
8
330
0
100
AcDbSymbolTable
 70
     3
  0
VPORT
  5
4F1
330
8
100
AcDbSymbolTableRecord
100
AcDbViewportTableRecord
  2
*Active
 70
     0
 10
0.0
 20
0.0
 11
1.0
 21
1.0
 12
350.0
 22
100.0
 13
0.0
 23
0.0
 14
1.0
 24
1.0
 15
0.0
 25
0.0
 16
0.0
 26
0.0
 36
1.0
 17
0.0
 27
0.0
 37
0.0
 40
338.717796378753
 41
2.073363431151241
 42
50.0
 43
0.0
 44
0.0
 50
0.0
 51
0.0
 71
     0
 72
   100
 73
     1
 74
     3
 75
     0
 76
     0
 77
     0
 78
     0
281
     0
 65
     1
110
0.0
120
0.0
130
0.0
111
1.0
121
0.0
131
0.0
112
0.0
122
1.0
132
0.0
 79
     1
146
0.0
  0
ENDTAB
  0
TABLE
  2
LTYPE
  5
5
330
0
100
AcDbSymbolTable
 70
     1
  0
LTYPE
  5
13
330
5
100
AcDbSymbolTableRecord
100
AcDbLinetypeTableRecord
  2
ByBlock
 70
     0
  3

 72
    65
 73
     0
 40
0.0
  0
LTYPE
  5
14
330
5
100
AcDbSymbolTableRecord
100
AcDbLinetypeTableRecord
  2
ByLayer
 70
     0
  3

 72
    65
 73
     0
 40
0.0
  0
LTYPE
  5
15
330
5
100
AcDbSymbolTableRecord
100
AcDbLinetypeTableRecord
  2
Continuous
 70
     0
  3
Solid line
 72
    65
 73
     0
 40
0.0
  0
ENDTAB
  0
TABLE
  2
LAYER
  5
2
330
0
100
AcDbSymbolTable
 70
     1
  0
LAYER
  5
10
330
2
100
AcDbSymbolTableRecord
100
AcDbLayerTableRecord
  2
0
 70
     0
 62
     7
  6
Continuous
370
    -3
390
F
  0
ENDTAB
  0
TABLE
  2
STYLE
  5
3
330
0
100
AcDbSymbolTable
 70
     1
  0
STYLE
  5
11
330
3
100
AcDbSymbolTableRecord
100
AcDbTextStyleTableRecord
  2
Standard
 70
     0
 40
0.0
 41
1.0
 50
0.0
 71
     0
 42
0.2
  3
txt
  4

  0
ENDTAB
  0
TABLE
  2
VIEW
  5
6
330
0
100
AcDbSymbolTable
 70
     0
  0
ENDTAB
  0
TABLE
  2
UCS
  5
7
330
0
100
AcDbSymbolTable
 70
     0
  0
ENDTAB
  0
TABLE
  2
APPID
  5
9
330
0
100
AcDbSymbolTable
 70
     1
  0
APPID
  5
12
330
9
100
AcDbSymbolTableRecord
100
AcDbRegAppTableRecord
  2
ACAD
 70
     0
  0
ENDTAB
  0
TABLE
  2
DIMSTYLE
  5
A
330
0
100
AcDbSymbolTable
 70
     1
100
AcDbDimStyleTable
 71
     0
  0
DIMSTYLE
105
443
330
A
100
AcDbSymbolTableRecord
100
AcDbDimStyleTableRecord
  2
Standard
 70
     0
340
11
  0
ENDTAB
  0
TABLE
  2
BLOCK_RECORD
  5
1
330
0
100
AcDbSymbolTable
 70
     0
  0
BLOCK_RECORD
  5
1E
330
1
100
AcDbSymbolTableRecord
100
AcDbBlockTableRecord
  2
*Model_Space
340
21
  0
BLOCK_RECORD
  5
1A
330
1
100
AcDbSymbolTableRecord
100
AcDbBlockTableRecord
  2
*Paper_Space
340
1D
  0
ENDTAB
  0
ENDSEC
  0
SECTION
  2
BLOCKS
  0
BLOCK
  5
1F
330
1E
100
AcDbEntity
  8
0
100
AcDbBlockBegin
  2
*Model_Space
 70
     0
 10
0.0
 20
0.0
 30
0.0
  3
*Model_Space
  1

  0
ENDBLK
  5
20
330
1E
100
AcDbEntity
  8
0
100
AcDbBlockEnd
  0
BLOCK
  5
1B
330
1A
100
AcDbEntity
 67
     1
  8
0
100
AcDbBlockBegin
  2
*Paper_Space
 70
     0
 10
0.0
 20
0.0
 30
0.0
  3
*Paper_Space
  1

  0
ENDBLK
  5
1C
330
1A
100
AcDbEntity
 67
     1
  8
0
100
AcDbBlockEnd
  0
ENDSEC
  0
SECTION
  2
ENTITIES
  0
LINE
  5
22
330
1E
100
AcDbEntity
  8
0
100
AcDbLine
 10
0.0
 20
0.0
 30
0.0
 11
149.0
 21
50.0
 31
0.0
  0
LINE
  5
23
330
1E
100
AcDbEntity
  8
0
100
AcDbLine
 10
0.0
 20
0.0000000000000056
 30
0.0
 11
0.0
 21
200.0
 31
0.0
  0
LINE
  5
24
330
1E
100
AcDbEntity
  8
0
100
AcDbLine
 10
0.0
 20
0.0000000000000056
 30
0.0
 11
149.0
 21
50.0
 31
0.0
  0
LINE
  5
25
330
1E
100
AcDbEntity
  8
0
100
AcDbLine
 10
149.0
 20
50.0
 30
0.0
 11
149.0
 21
150.0
 31
0.0
  0
LINE
  5
26
330
1E
100
AcDbEntity
  8
0
100
AcDbLine
 10
149.0
 20
50.0
 30
0.0
 11
149.0
 21
150.0
 31
0.0
  0
LINE
  5
27
330
1E
100
AcDbEntity
  8
0
100
AcDbLine
 10
149.0
 20
50.0
 30
0.0
 11
551.0
 21
50.0
 31
0.0
  0
LINE
  5
28
330
1E
100
AcDbEntity
  8
0
100
AcDbLine
 10
0.0
 20
0.0000000000000028
 30
0.0
 11
0.0
 21
200.0
 31
0.0
  0
LINE
  5
29
330
1E
100
AcDbEntity
  8
0
100
AcDbLine
 10
0.0
 20
0.0000000000000028
 30
0.0
 11
700.0
 21
0.0000000000000028
 31
0.0
  0
LINE
  5
2A
330
1E
100
AcDbEntity
  8
0
100
AcDbLine
 10
199.476
 20
93.1591
 30
0.0
 11
199.952
 21
93.0
 31
0.0
  0
LINE
  5
2B
330
1E
100
AcDbEntity
  8
0
100
AcDbLine
 10
199.476
 20
93.1591
 30
0.0
 11
199.476
 21
93.2678000000001
 31
0.0
  0
LINE
  5
2C
330
1E
100
AcDbEntity
  8
0
100
AcDbLine
 10
234.624
 20
79.756
 30
0.0
 11
240.0
 21
79.0
 31
0.0
  0
LINE
  5
2D
330
1E
100
AcDbEntity
  8
0
100
AcDbLine
 10
229.584
 20
81.77199999999999
 30
0.0
 11
234.624
 21
79.756
 31
0.0
  0
LINE
  5
2E
330
1E
100
AcDbEntity
  8
0
100
AcDbLine
 10
240.0
 20
79.0
 30
0.0
 11
245.3759999999999
 21
79.756
 31
0.0
  0
LINE
  5
2F
330
1E
100
AcDbEntity
  8
0
100
AcDbLine
 10
234.88
 20
80.72
 30
0.0
 11
240.0
 21
80.0
 31
0.0
  0
LINE
  5
30
330
1E
100
AcDbEntity
  8
0
100
AcDbLine
 10
230.08
 20
82.64000000000001
 30
0.0
 11
234.88
 21
80.72
 31
0.0
  0
LINE
  5
31
330
1E
100
AcDbEntity
  8
0
100
AcDbLine
 10
240.0
 20
80.0
 30
0.0
 11
245.12
 21
80.72
 31
0.0
  0
LINE
  5
32
330
1E
100
AcDbEntity
  8
0
100
AcDbLine
 10
225.132
 20
85.13200000000001
 30
0.0
 11
229.584
 21
81.77199999999999
 31
0.0
  0
LINE
  5
33
330
1E
100
AcDbEntity
  8
0
100
AcDbLine
 10
225.8399999999999
 20
85.84000000000001
 30
0.0
 11
230.08
 21
82.64000000000001
 31
0.0
  0
LINE
  5
34
330
1E
100
AcDbEntity
  8
0
100
AcDbLine
 10
236.16
 20
85.54
 30
0.0
 11
240.0
 21
85.0
 31
0.0
  0
LINE
  5
35
330
1E
100
AcDbEntity
  8
0
100
AcDbLine
 10
232.56
 20
86.98
 30
0.0
 11
236.16
 21
85.54
 31
0.0
  0
LINE
  5
36
330
1E
100
AcDbEntity
  8
0
100
AcDbLine
 10
240.0
 20
85.0
 30
0.0
 11
243.84
 21
85.54
 31
0.0
  0
LINE
  5
37
330
1E
100
AcDbEntity
  8
0
100
AcDbLine
 10
245.3759999999999
 20
79.756
 30
0.0
 11
250.416
 21
81.77199999999999
 31
0.0
  0
LINE
  5
38
330
1E
100
AcDbEntity
  8
0
100
AcDbLine
 10
250.416
 20
81.77199999999999
 30
0.0
 11
254.868
 21
85.13200000000001
 31
0.0
  0
LINE
  5
39
330
1E
100
AcDbEntity
  8
0
100
AcDbLine
 10
245.12
 20
80.72
 30
0.0
 11
249.92
 21
82.64000000000001
 31
0.0
  0
LINE
  5
3A
330
1E
100
AcDbEntity
  8
0
100
AcDbLine
 10
249.92
 20
82.64000000000001
 30
0.0
 11
254.1599999999999
 21
85.84000000000001
 31
0.0
  0
LINE
  5
3B
330
1E
100
AcDbEntity
  8
0
100
AcDbLine
 10
243.84
 20
85.54
 30
0.0
 11
247.44
 21
86.98
 31
0.0
  0
LINE
  5
3C
330
1E
100
AcDbEntity
  8
0
100
AcDbLine
 10
221.772
 20
89.58400000000001
 30
0.0
 11
225.132
 21
85.13200000000001
 31
0.0
  0
LINE
  5
3D
330
1E
100
AcDbEntity
  8
0
100
AcDbLine
 10
215.0
 20
91.0
 30
0.0
 11
215.0
 21
91.324
 31
0.0
  0
LINE
  5
3E
330
1E
100
AcDbEntity
  8
0
100
AcDbLine
 10
215.0
 20
91.0
 30
0.0
 11
221.2056
 21
91.0
 31
0.0
  0
LINE
  5
3F
330
1E
100
AcDbEntity
  8
0
100
AcDbLine
 10
215.0
 20
91.324
 30
0.0
 11
215.0
 21
92.18799999999999
 31
0.0
  0
LINE
  5
40
330
1E
100
AcDbEntity
  8
0
100
AcDbLine
 10
215.0
 20
91.324
 30
0.0
 11
215.0
 21
91.0
 31
0.0
  0
LINE
  5
41
330
1E
100
AcDbEntity
  8
0
100
AcDbLine
 10
215.0
 20
92.18799999999999
 30
0.0
 11
215.0
 21
93.62799999999998
 31
0.0
  0
LINE
  5
42
330
1E
100
AcDbEntity
  8
0
100
AcDbLine
 10
215.0
 20
92.18799999999999
 30
0.0
 11
215.0
 21
91.324
 31
0.0
  0
LINE
  5
43
330
1E
100
AcDbEntity
  8
0
100
AcDbLine
 10
215.0
 20
92.18799999999999
 30
0.0
 11
215.0
 21
93.0
 31
0.0
  0
LINE
  5
44
330
1E
100
AcDbEntity
  8
0
100
AcDbLine
 10
222.6399999999999
 20
90.08
 30
0.0
 11
225.8399999999999
 21
85.84000000000001
 31
0.0
  0
LINE
  5
45
330
1E
100
AcDbEntity
  8
0
100
AcDbLine
 10
240.0
 20
89.0
 30
0.0
 11
242.8159999999999
 21
89.396
 31
0.0
  0
LINE
  5
46
330
1E
100
AcDbEntity
  8
0
100
AcDbLine
 10
237.184
 20
89.396
 30
0.0
 11
240.0
 21
89.0
 31
0.0
  0
LINE
  5
47
330
1E
100
AcDbEntity
  8
0
100
AcDbLine
 10
242.8159999999999
 20
89.396
 30
0.0
 11
245.4559999999999
 21
90.45200000000001
 31
0.0
  0
LINE
  5
48
330
1E
100
AcDbEntity
  8
0
100
AcDbLine
 10
245.4559999999999
 20
90.45200000000001
 30
0.0
 11
247.7879999999999
 21
92.21200000000001
 31
0.0
  0
LINE
  5
4E
330
1E
100
AcDbEntity
  8
0
100
AcDbLine
 10
242.1759999999999
 20
92.00749999999999
 30
0.0
 11
244.072
 21
93.09620000000009
 31
0.0
  0
LINE
  5
51
330
1E
100
AcDbEntity
  8
0
100
AcDbLine
 10
240.0
 20
91.20449999999999
 30
0.0
 11
242.1759999999999
 21
92.00749999999999
 31
0.0
  0
LINE
  5
5A
330
1E
100
AcDbEntity
  8
0
100
AcDbLine
 10
237.824
 20
92.00749999999999
 30
0.0
 11
240.0
 21
91.20449999999999
 31
0.0
  0
LINE
  5
5B
330
1E
100
AcDbEntity
  8
0
100
AcDbLine
 10
247.7879999999999
 20
92.21200000000001
 30
0.0
 11
249.548
 21
94.5440000000001
 31
0.0
  0
LINE
  5
5C
330
1E
100
AcDbEntity
  8
0
100
AcDbLine
 10
234.5439999999999
 20
90.45200000000001
 30
0.0
 11
237.184
 21
89.396
 31
0.0
  0
LINE
  5
5D
330
1E
100
AcDbEntity
  8
0
100
AcDbLine
 10
232.212
 20
92.21200000000001
 30
0.0
 11
234.5439999999999
 21
90.45200000000001
 31
0.0
  0
LINE
  5
5E
330
1E
100
AcDbEntity
  8
0
100
AcDbLine
 10
229.38
 20
89.38
 30
0.0
 11
232.56
 21
86.98
 31
0.0
  0
LINE
  5
5F
330
1E
100
AcDbEntity
  8
0
100
AcDbLine
 10
226.98
 20
92.56
 30
0.0
 11
229.38
 21
89.38
 31
0.0
  0
LINE
  5
60
330
1E
100
AcDbEntity
  8
0
100
AcDbLine
 10
247.44
 20
86.98
 30
0.0
 11
250.62
 21
89.38
 31
0.0
  0
LINE
  5
61
330
1E
100
AcDbEntity
  8
0
100
AcDbLine
 10
254.868
 20
85.13200000000001
 30
0.0
 11
258.228
 21
89.58400000000001
 31
0.0
  0
LINE
  5
62
330
1E
100
AcDbEntity
  8
0
100
AcDbLine
 10
258.228
 20
89.58400000000001
 30
0.0
 11
260.244
 21
94.624
 31
0.0
  0
LINE
  5
63
330
1E
100
AcDbEntity
  8
0
100
AcDbLine
 10
254.1599999999999
 20
85.84000000000001
 30
0.0
 11
257.36
 21
90.08
 31
0.0
  0
LINE
  5
64
330
1E
100
AcDbEntity
  8
0
100
AcDbLine
 10
257.36
 20
90.08
 30
0.0
 11
259.2799999999999
 21
94.87999999999999
 31
0.0
  0
LINE
  5
65
330
1E
100
AcDbEntity
  8
0
100
AcDbLine
 10
258.7943999999999
 20
91.0
 30
0.0
 11
265.0
 21
91.0
 31
0.0
  0
LINE
  5
66
330
1E
100
AcDbEntity
  8
0
100
AcDbLine
 10
265.0
 20
91.0
 30
0.0
 11
265.0
 21
91.324
 31
0.0
  0
LINE
  5
67
330
1E
100
AcDbEntity
  8
0
100
AcDbLine
 10
265.0
 20
91.324
 30
0.0
 11
265.0
 21
92.18799999999999
 31
0.0
  0
LINE
  5
68
330
1E
100
AcDbEntity
  8
0
100
AcDbLine
 10
265.0
 20
91.324
 30
0.0
 11
265.0
 21
91.0
 31
0.0
  0
LINE
  5
69
330
1E
100
AcDbEntity
  8
0
100
AcDbLine
 10
265.0
 20
92.18799999999999
 30
0.0
 11
265.0
 21
93.62799999999998
 31
0.0
  0
LINE
  5
6A
330
1E
100
AcDbEntity
  8
0
100
AcDbLine
 10
265.0
 20
92.18799999999999
 30
0.0
 11
265.0
 21
91.324
 31
0.0
  0
LINE
  5
6B
330
1E
100
AcDbEntity
  8
0
100
AcDbLine
 10
250.62
 20
89.38
 30
0.0
 11
253.02
 21
92.56
 31
0.0
  0
LINE
  5
6C
330
1E
100
AcDbEntity
  8
0
100
AcDbLine
 10
215.0
 20
93.0
 30
0.0
 11
215.0
 21
93.252
 31
0.0
  0
LINE
  5
6D
330
1E
100
AcDbEntity
  8
0
100
AcDbLine
 10
215.0
 20
93.0
 30
0.0
 11
215.0
 21
92.18799999999999
 31
0.0
  0
LINE
  5
6E
330
1E
100
AcDbEntity
  8
0
100
AcDbLine
 10
209.0
 20
93.0
 30
0.0
 11
209.0
 21
93.252
 31
0.0
  0
LINE
  5
6F
330
1E
100
AcDbEntity
  8
0
100
AcDbLine
 10
209.0
 20
93.0
 30
0.0
 11
215.0
 21
93.0
 31
0.0
  0
LINE
  5
74
330
1E
100
AcDbEntity
  8
0
100
AcDbLine
 10
244.072
 20
93.09620000000009
 30
0.0
 11
245.979
 21
94.1909
 31
0.0
  0
LINE
  5
76
330
1E
100
AcDbEntity
  8
0
100
AcDbLine
 10
235.928
 20
93.09620000000009
 30
0.0
 11
237.824
 21
92.00749999999999
 31
0.0
  0
LINE
  5
78
330
1E
100
AcDbEntity
  8
0
100
AcDbLine
 10
253.02
 20
92.56
 30
0.0
 11
254.4599999999999
 21
96.15999999999999
 31
0.0
  0
LINE
  5
79
330
1E
100
AcDbEntity
  8
0
100
AcDbLine
 10
208.048
 20
93.0
 30
0.0
 11
208.524
 21
93.1591
 31
0.0
  0
LINE
  5
7A
330
1E
100
AcDbEntity
  8
0
100
AcDbLine
 10
208.524
 20
93.1591
 30
0.0
 11
208.8569999999999
 21
93.6363
 31
0.0
  0
LINE
  5
7B
330
1E
100
AcDbEntity
  8
0
100
AcDbLine
 10
208.524
 20
93.1591
 30
0.0
 11
208.524
 21
93.2678000000001
 31
0.0
  0
LINE
  5
7C
330
1E
100
AcDbEntity
  8
0
100
AcDbLine
 10
199.952
 20
93.0
 30
0.0
 11
208.048
 21
93.0
 31
0.0
  0
LINE
  5
7D
330
1E
100
AcDbEntity
  8
0
100
AcDbLine
 10
215.0
 20
93.252
 30
0.0
 11
215.0
 21
93.924
 31
0.0
  0
LINE
  5
7E
330
1E
100
AcDbEntity
  8
0
100
AcDbLine
 10
209.0
 20
93.252
 30
0.0
 11
209.0
 21
93.924
 31
0.0
  0
LINE
  5
7F
330
1E
100
AcDbEntity
  8
0
100
AcDbLine
 10
209.0
 20
93.252
 30
0.0
 11
209.0
 21
93.0
 31
0.0
  0
LINE
  5
82
330
1E
100
AcDbEntity
  8
0
100
AcDbLine
 10
199.476
 20
93.2678000000001
 30
0.0
 11
199.476
 21
93.1591
 31
0.0
  0
LINE
  5
83
330
1E
100
AcDbEntity
  8
0
100
AcDbLine
 10
208.524
 20
93.2678000000001
 30
0.0
 11
208.8009999999999
 21
93.78360000000009
 31
0.0
  0
LINE
  5
85
330
1E
100
AcDbEntity
  8
0
100
AcDbLine
 10
208.524
 20
93.2678000000001
 30
0.0
 11
208.524
 21
93.1591
 31
0.0
  0
LINE
  5
8E
330
1E
100
AcDbEntity
  8
0
100
AcDbLine
 10
199.199
 20
93.78360000000009
 30
0.0
 11
199.476
 21
93.2678000000001
 31
0.0
  0
LINE
  5
90
330
1E
100
AcDbEntity
  8
0
100
AcDbLine
 10
208.8009999999999
 20
93.78360000000009
 30
0.0
 11
208.904
 21
94.63039999999999
 31
0.0
  0
LINE
  5
92
330
1E
100
AcDbEntity
  8
0
100
AcDbLine
 10
199.0
 20
94.11369999999999
 30
0.0
 11
199.143
 21
93.6363
 31
0.0
  0
LINE
  5
93
330
1E
100
AcDbEntity
  8
0
100
AcDbLine
 10
199.0
 20
94.11369999999999
 30
0.0
 11
199.0
 21
94.33629999999999
 31
0.0
  0
LINE
  5
94
330
1E
100
AcDbEntity
  8
0
100
AcDbLine
 10
199.143
 20
93.6363
 30
0.0
 11
199.476
 21
93.1591
 31
0.0
  0
LINE
  5
96
330
1E
100
AcDbEntity
  8
0
100
AcDbLine
 10
215.0
 20
93.62799999999998
 30
0.0
 11
215.0
 21
95.53600000000001
 31
0.0
  0
LINE
  5
97
330
1E
100
AcDbEntity
  8
0
100
AcDbLine
 10
215.0
 20
93.62799999999998
 30
0.0
 11
215.0
 21
92.18799999999999
 31
0.0
  0
LINE
  5
98
330
1E
100
AcDbEntity
  8
0
100
AcDbLine
 10
215.0
 20
93.924
 30
0.0
 11
215.0
 21
95.04400000000009
 31
0.0
  0
LINE
  5
99
330
1E
100
AcDbEntity
  8
0
100
AcDbLine
 10
209.0
 20
93.924
 30
0.0
 11
209.0
 21
95.04400000000009
 31
0.0
  0
LINE
  5
9A
330
1E
100
AcDbEntity
  8
0
100
AcDbLine
 10
209.0
 20
93.924
 30
0.0
 11
209.0
 21
93.252
 31
0.0
  0
LINE
  5
9B
330
1E
100
AcDbEntity
  8
0
100
AcDbLine
 10
209.0
 20
93.924
 30
0.0
 11
209.0
 21
94.11369999999999
 31
0.0
  0
LINE
  5
9D
330
1E
100
AcDbEntity
  8
0
100
AcDbLine
 10
265.0
 20
93.62799999999998
 30
0.0
 11
265.0
 21
95.53600000000001
 31
0.0
  0
LINE
  5
9E
330
1E
100
AcDbEntity
  8
0
100
AcDbLine
 10
265.0
 20
93.62799999999998
 30
0.0
 11
265.0
 21
92.18799999999999
 31
0.0
  0
LINE
  5
A1
330
1E
100
AcDbEntity
  8
0
100
AcDbLine
 10
240.013
 20
93.3891
 30
0.0
 11
241.7009999999999
 21
93.7021
 31
0.0
  0
LINE
  5
A4
330
1E
100
AcDbEntity
  8
0
100
AcDbLine
 10
241.7009999999999
 20
93.7021
 30
0.0
 11
243.257
 21
94.3627
 31
0.0
  0
LINE
  5
A6
330
1E
100
AcDbEntity
  8
0
100
AcDbLine
 10
238.2589999999999
 20
93.6847
 30
0.0
 11
240.013
 21
93.3891
 31
0.0
  0
LINE
  5
A9
330
1E
100
AcDbEntity
  8
0
100
AcDbLine
 10
209.0
 20
94.11369999999999
 30
0.0
 11
209.0
 21
94.33629999999999
 31
0.0
  0
LINE
  5
AA
330
1E
100
AcDbEntity
  8
0
100
AcDbLine
 10
209.0
 20
94.11369999999999
 30
0.0
 11
209.0
 21
93.924
 31
0.0
  0
LINE
  5
AB
330
1E
100
AcDbEntity
  8
0
100
AcDbLine
 10
208.8569999999999
 20
93.6363
 30
0.0
 11
209.0
 21
94.11369999999999
 31
0.0
  0
LINE
  5
AC
330
1E
100
AcDbEntity
  8
0
100
AcDbLine
 10
245.979
 20
94.1909
 30
0.0
 11
247.314
 21
94.95760000000009
 31
0.0
  0
LINE
  5
AF
330
1E
100
AcDbEntity
  8
0
100
AcDbLine
 10
234.0209999999999
 20
94.1909
 30
0.0
 11
235.928
 21
93.09620000000009
 31
0.0
  0
LINE
  5
B1
330
1E
100
AcDbEntity
  8
0
100
AcDbLine
 10
209.0
 20
94.33629999999999
 30
0.0
 11
209.0
 21
94.11369999999999
 31
0.0
  0
LINE
  5
B2
330
1E
100
AcDbEntity
  8
0
100
AcDbLine
 10
209.0
 20
94.33629999999999
 30
0.0
 11
209.0
 21
94.9091000000001
 31
0.0
  0
LINE
  5
B3
330
1E
100
AcDbEntity
  8
0
100
AcDbLine
 10
199.0
 20
94.33629999999999
 30
0.0
 11
199.0
 21
94.9091000000001
 31
0.0
  0
LINE
  5
B4
330
1E
100
AcDbEntity
  8
0
100
AcDbLine
 10
199.0
 20
94.33629999999999
 30
0.0
 11
199.0
 21
94.11369999999999
 31
0.0
  0
LINE
  5
B7
330
1E
100
AcDbEntity
  8
0
100
AcDbLine
 10
243.257
 20
94.3627
 30
0.0
 11
244.6029999999999
 21
95.51019999999999
 31
0.0
  0
LINE
  5
B8
330
1E
100
AcDbEntity
  8
0
100
AcDbLine
 10
236.805
 20
94.3454
 30
0.0
 11
238.2589999999999
 21
93.6847
 31
0.0
  0
LINE
  5
B9
330
1E
100
AcDbEntity
  8
0
100
AcDbLine
 10
249.548
 20
94.5440000000001
 30
0.0
 11
250.604
 21
97.184
 31
0.0
  0
LINE
  5
BA
330
1E
100
AcDbEntity
  8
0
100
AcDbLine
 10
219.7559999999999
 20
94.624
 30
0.0
 11
221.772
 21
89.58400000000001
 31
0.0
  0
LINE
  5
BB
330
1E
100
AcDbEntity
  8
0
100
AcDbLine
 10
260.244
 20
94.624
 30
0.0
 11
261.0
 21
100.0
 31
0.0
  0
LINE
  5
BC
330
1E
100
AcDbEntity
  8
0
100
AcDbLine
 10
230.452
 20
94.5440000000001
 30
0.0
 11
232.212
 21
92.21200000000001
 31
0.0
  0
LINE
  5
C2
330
1E
100
AcDbEntity
  8
0
100
AcDbLine
 10
220.7199999999999
 20
94.87999999999999
 30
0.0
 11
222.6399999999999
 21
90.08
 31
0.0
  0
LINE
  5
C3
330
1E
100
AcDbEntity
  8
0
100
AcDbLine
 10
259.2799999999999
 20
94.87999999999999
 30
0.0
 11
260.0
 21
100.0
 31
0.0
  0
LINE
  5
C6
330
1E
100
AcDbEntity
  8
0
100
AcDbLine
 10
209.0
 20
94.9091000000001
 30
0.0
 11
209.0
 21
94.33629999999999
 31
0.0
  0
LINE
  5
C7
330
1E
100
AcDbEntity
  8
0
100
AcDbLine
 10
199.0959999999999
 20
94.63039999999999
 30
0.0
 11
199.173
 21
95.4818
 31
0.0
  0
LINE
  5
C8
330
1E
100
AcDbEntity
  8
0
100
AcDbLine
 10
199.0959999999999
 20
94.63039999999999
 30
0.0
 11
199.199
 21
93.78360000000009
 31
0.0
  0
LINE
  5
C9
330
1E
100
AcDbEntity
  8
0
100
AcDbLine
 10
199.0
 20
94.8582
 30
0.0
 11
199.0
 21
95.0881
 31
0.0
  0
LINE
  5
CA
330
1E
100
AcDbEntity
  8
0
100
AcDbLine
 10
199.0
 20
95.6155
 30
0.0
 11
199.0
 21
96.5079
 31
0.0
  0
LINE
  5
CB
330
1E
100
AcDbEntity
  8
0
100
AcDbLine
 10
199.0
 20
95.6155
 30
0.0
 11
199.0
 21
95.1016
 31
0.0
  0
LINE
  5
CC
330
1E
100
AcDbEntity
  8
0
100
AcDbLine
 10
199.0
 20
95.1016
 30
0.0
 11
199.0
 21
94.8582
 31
0.0
  0
LINE
  5
CD
330
1E
100
AcDbEntity
  8
0
100
AcDbLine
 10
199.0
 20
95.1016
 30
0.0
 11
199.0
 21
95.6155
 31
0.0
  0
LINE
  5
CE
330
1E
100
AcDbEntity
  8
0
100
AcDbLine
 10
199.0
 20
95.6019
 30
0.0
 11
199.0
 21
96.5215
 31
0.0
  0
LINE
  5
CF
330
1E
100
AcDbEntity
  8
0
100
AcDbLine
 10
199.0
 20
95.6019
 30
0.0
 11
199.0
 21
95.0881
 31
0.0
  0
LINE
  5
D0
330
1E
100
AcDbEntity
  8
0
100
AcDbLine
 10
199.0
 20
95.8318
 30
0.0
 11
199.0
 21
94.9091000000001
 31
0.0
  0
LINE
  5
D3
330
1E
100
AcDbEntity
  8
0
100
AcDbLine
 10
199.0
 20
95.8318
 30
0.0
 11
199.0
 21
97.07270000000001
 31
0.0
  0
LINE
  5
D4
330
1E
100
AcDbEntity
  8
0
100
AcDbLine
 10
215.0
 20
95.04400000000009
 30
0.0
 11
215.0
 21
96.52799999999999
 31
0.0
  0
LINE
  5
D5
330
1E
100
AcDbEntity
  8
0
100
AcDbLine
 10
209.0
 20
95.04400000000009
 30
0.0
 11
209.0
 21
96.52799999999999
 31
0.0
  0
LINE
  5
D6
330
1E
100
AcDbEntity
  8
0
100
AcDbLine
 10
209.0
 20
95.04400000000009
 30
0.0
 11
209.0
 21
93.924
 31
0.0
  0
LINE
  5
DA
330
1E
100
AcDbEntity
  8
0
100
AcDbLine
 10
247.314
 20
94.95760000000009
 30
0.0
 11
248.0
 21
95.48860000000001
 31
0.0
  0
LINE
  5
DB
330
1E
100
AcDbEntity
  8
0
100
AcDbLine
 10
232.6859999999999
 20
94.95760000000009
 30
0.0
 11
234.0209999999999
 21
94.1909
 31
0.0
  0
LINE
  5
DD
330
1E
100
AcDbEntity
  8
0
100
AcDbLine
 10
208.827
 20
95.4818
 30
0.0
 11
208.904
 21
94.63039999999999
 31
0.0
  0
LINE
  5
DE
330
1E
100
AcDbEntity
  8
0
100
AcDbLine
 10
248.0
 20
95.48860000000001
 30
0.0
 11
248.0
 21
96.0279
 31
0.0
  0
LINE
  5
DF
330
1E
100
AcDbEntity
  8
0
100
AcDbLine
 10
215.0
 20
95.53600000000001
 30
0.0
 11
215.0
 21
97.696
 31
0.0
  0
LINE
  5
E0
330
1E
100
AcDbEntity
  8
0
100
AcDbLine
 10
215.0
 20
95.53600000000001
 30
0.0
 11
215.0
 21
93.62799999999998
 31
0.0
  0
LINE
  5
E3
330
1E
100
AcDbEntity
  8
0
100
AcDbLine
 10
232.168
 20
95.62269999999999
 30
0.0
 11
232.6859999999999
 21
94.95760000000009
 31
0.0
  0
LINE
  5
E4
330
1E
100
AcDbEntity
  8
0
100
AcDbLine
 10
265.0
 20
95.53600000000001
 30
0.0
 11
265.0
 21
97.696
 31
0.0
  0
LINE
  5
E5
330
1E
100
AcDbEntity
  8
0
100
AcDbLine
 10
265.0
 20
95.53600000000001
 30
0.0
 11
265.0
 21
93.62799999999998
 31
0.0
  0
LINE
  5
E9
330
1E
100
AcDbEntity
  8
0
100
AcDbLine
 10
244.6029999999999
 20
95.51019999999999
 30
0.0
 11
245.595
 21
96.988
 31
0.0
  0
LINE
  5
EA
330
1E
100
AcDbEntity
  8
0
100
AcDbLine
 10
235.415
 20
95.52760000000001
 30
0.0
 11
236.805
 21
94.3454
 31
0.0
  0
LINE
  5
EF
330
1E
100
AcDbEntity
  8
0
100
AcDbLine
 10
209.0
 20
95.8318
 30
0.0
 11
209.0
 21
102.9273
 31
0.0
  0
LINE
  5
F0
330
1E
100
AcDbEntity
  8
0
100
AcDbLine
 10
199.173
 20
95.4818
 30
0.0
 11
199.476
 21
96.0781
 31
0.0
  0
LINE
  5
F2
330
1E
100
AcDbEntity
  8
0
100
AcDbLine
 10
199.0
 20
95.0881
 30
0.0
 11
199.0
 21
95.6019
 31
0.0
  0
LINE
  5
F3
330
1E
100
AcDbEntity
  8
0
100
AcDbLine
 10
199.0
 20
95.0881
 30
0.0
 11
199.0
 21
94.8582
 31
0.0
  0
LINE
  5
F4
330
1E
100
AcDbEntity
  8
0
100
AcDbLine
 10
199.0
 20
94.9091000000001
 30
0.0
 11
199.0
 21
94.33629999999999
 31
0.0
  0
LINE
  5
F5
330
1E
100
AcDbEntity
  8
0
100
AcDbLine
 10
199.0
 20
94.9091000000001
 30
0.0
 11
199.0
 21
95.8318
 31
0.0
  0
LINE
  5
F9
330
1E
100
AcDbEntity
  8
0
100
AcDbLine
 10
199.0
 20
96.5079
 30
0.0
 11
199.0
 21
97.65730000000001
 31
0.0
  0
LINE
  5
FA
330
1E
100
AcDbEntity
  8
0
100
AcDbLine
 10
199.0
 20
96.5079
 30
0.0
 11
199.0
 21
95.6155
 31
0.0
  0
LINE
  5
FB
330
1E
100
AcDbEntity
  8
0
100
AcDbLine
 10
199.0
 20
97.65730000000001
 30
0.0
 11
199.0
 21
98.77970000000001
 31
0.0
  0
LINE
  5
FC
330
1E
100
AcDbEntity
  8
0
100
AcDbLine
 10
199.0
 20
97.65730000000001
 30
0.0
 11
199.0
 21
96.5079
 31
0.0
  0
LINE
  5
FD
330
1E
100
AcDbEntity
  8
0
100
AcDbLine
 10
199.0
 20
97.07270000000001
 30
0.0
 11
199.0
 21
98.47270000000001
 31
0.0
  0
LINE
  5
FE
330
1E
100
AcDbEntity
  8
0
100
AcDbLine
 10
199.0
 20
97.07270000000001
 30
0.0
 11
199.0
 21
95.8318
 31
0.0
  0
LINE
  5
101
330
1E
100
AcDbEntity
  8
0
100
AcDbLine
 10
199.0
 20
97.6438
 30
0.0
 11
199.0
 21
96.5215
 31
0.0
  0
LINE
  5
102
330
1E
100
AcDbEntity
  8
0
100
AcDbLine
 10
199.0
 20
97.6438
 30
0.0
 11
199.0
 21
98.77970000000001
 31
0.0
  0
LINE
  5
103
330
1E
100
AcDbEntity
  8
0
100
AcDbLine
 10
199.0
 20
96.5215
 30
0.0
 11
199.0
 21
95.6019
 31
0.0
  0
LINE
  5
104
330
1E
100
AcDbEntity
  8
0
100
AcDbLine
 10
199.0
 20
96.5215
 30
0.0
 11
199.0
 21
97.6438
 31
0.0
  0
LINE
  5
105
330
1E
100
AcDbEntity
  8
0
100
AcDbLine
 10
199.0
 20
98.77970000000001
 30
0.0
 11
199.0
 21
99.9832000000001
 31
0.0
  0
LINE
  5
106
330
1E
100
AcDbEntity
  8
0
100
AcDbLine
 10
199.0
 20
98.77970000000001
 30
0.0
 11
199.0
 21
97.6438
 31
0.0
  0
LINE
  5
107
330
1E
100
AcDbEntity
  8
0
100
AcDbLine
 10
199.0
 20
98.77970000000001
 30
0.0
 11
199.0
 21
99.99670000000001
 31
0.0
  0
LINE
  5
108
330
1E
100
AcDbEntity
  8
0
100
AcDbLine
 10
199.0
 20
98.77970000000001
 30
0.0
 11
199.0
 21
97.65730000000001
 31
0.0
  0
LINE
  5
109
330
1E
100
AcDbEntity
  8
0
100
AcDbLine
 10
199.0
 20
99.99670000000001
 30
0.0
 11
199.0
 21
101.2002
 31
0.0
  0
LINE
  5
10A
330
1E
100
AcDbEntity
  8
0
100
AcDbLine
 10
199.0
 20
99.99670000000001
 30
0.0
 11
199.0
 21
98.77970000000001
 31
0.0
  0
LINE
  5
10B
330
1E
100
AcDbEntity
  8
0
100
AcDbLine
 10
199.0
 20
101.2002
 30
0.0
 11
199.0
 21
99.99670000000001
 31
0.0
  0
LINE
  5
10C
330
1E
100
AcDbEntity
  8
0
100
AcDbLine
 10
199.0
 20
101.2002
 30
0.0
 11
199.0
 21
102.3495999999999
 31
0.0
  0
LINE
  5
10D
330
1E
100
AcDbEntity
  8
0
100
AcDbLine
 10
199.0
 20
101.5273
 30
0.0
 11
199.0
 21
102.9273
 31
0.0
  0
LINE
  5
10E
330
1E
100
AcDbEntity
  8
0
100
AcDbLine
 10
199.0
 20
101.5273
 30
0.0
 11
199.0
 21
100.0
 31
0.0
  0
LINE
  5
110
330
1E
100
AcDbEntity
  8
0
100
AcDbLine
 10
199.0
 20
101.1867
 30
0.0
 11
199.0
 21
102.3360999999999
 31
0.0
  0
LINE
  5
111
330
1E
100
AcDbEntity
  8
0
100
AcDbLine
 10
199.0
 20
101.1867
 30
0.0
 11
199.0
 21
99.9832000000001
 31
0.0
  0
LINE
  5
112
330
1E
100
AcDbEntity
  8
0
100
AcDbLine
 10
199.0
 20
100.0
 30
0.0
 11
199.0
 21
98.47270000000001
 31
0.0
  0
LINE
  5
113
330
1E
100
AcDbEntity
  8
0
100
AcDbLine
 10
199.0
 20
100.0
 30
0.0
 11
199.0
 21
101.5273
 31
0.0
  0
LINE
  5
114
330
1E
100
AcDbEntity
  8
0
100
AcDbLine
 10
199.0
 20
99.9832000000001
 30
0.0
 11
199.0
 21
98.77970000000001
 31
0.0
  0
LINE
  5
115
330
1E
100
AcDbEntity
  8
0
100
AcDbLine
 10
199.0
 20
99.9832000000001
 30
0.0
 11
199.0
 21
101.1867
 31
0.0
  0
LINE
  5
118
330
1E
100
AcDbEntity
  8
0
100
AcDbLine
 10
248.0
 20
96.0279
 30
0.0
 11
248.0
 21
95.48860000000001
 31
0.0
  0
LINE
  5
119
330
1E
100
AcDbEntity
  8
0
100
AcDbLine
 10
248.0
 20
96.0279
 30
0.0
 11
248.0
 21
97.9382
 31
0.0
  0
LINE
  5
11C
330
1E
100
AcDbEntity
  8
0
100
AcDbLine
 10
232.0
 20
96.0279
 30
0.0
 11
232.0
 21
97.9382
 31
0.0
  0
LINE
  5
11E
330
1E
100
AcDbEntity
  8
0
100
AcDbLine
 10
232.0
 20
96.0279
 30
0.0
 11
232.168
 21
95.62269999999999
 31
0.0
  0
LINE
  5
11F
330
1E
100
AcDbEntity
  8
0
100
AcDbLine
 10
208.524
 20
96.0781
 30
0.0
 11
208.827
 21
95.4818
 31
0.0
  0
LINE
  5
121
330
1E
100
AcDbEntity
  8
0
100
AcDbLine
 10
208.524
 20
96.0781
 30
0.0
 11
208.524
 21
96.59539999999999
 31
0.0
  0
LINE
  5
125
330
1E
100
AcDbEntity
  8
0
100
AcDbLine
 10
199.476
 20
96.59539999999999
 30
0.0
 11
199.476
 21
96.9106000000001
 31
0.0
  0
LINE
  5
126
330
1E
100
AcDbEntity
  8
0
100
AcDbLine
 10
199.476
 20
96.59539999999999
 30
0.0
 11
199.476
 21
96.0781
 31
0.0
  0
LINE
  5
12B
330
1E
100
AcDbEntity
  8
0
100
AcDbLine
 10
208.524
 20
96.59539999999999
 30
0.0
 11
208.524
 21
96.0781
 31
0.0
  0
LINE
  5
12C
330
1E
100
AcDbEntity
  8
0
100
AcDbLine
 10
208.524
 20
96.59539999999999
 30
0.0
 11
208.524
 21
96.9106000000001
 31
0.0
  0
LINE
  5
12F
330
1E
100
AcDbEntity
  8
0
100
AcDbLine
 10
199.476
 20
96.9106000000001
 30
0.0
 11
199.476
 21
96.59539999999999
 31
0.0
  0
LINE
  5
130
330
1E
100
AcDbEntity
  8
0
100
AcDbLine
 10
225.5399999999999
 20
96.15999999999999
 30
0.0
 11
226.98
 21
92.56
 31
0.0
  0
LINE
  5
131
330
1E
100
AcDbEntity
  8
0
100
AcDbLine
 10
215.0
 20
96.52799999999999
 30
0.0
 11
215.0
 21
98.208
 31
0.0
  0
LINE
  5
132
330
1E
100
AcDbEntity
  8
0
100
AcDbLine
 10
209.0
 20
96.52799999999999
 30
0.0
 11
209.0
 21
102.9273
 31
0.0
  0
LINE
  5
133
330
1E
100
AcDbEntity
  8
0
100
AcDbLine
 10
209.0
 20
96.52799999999999
 30
0.0
 11
209.0
 21
95.04400000000009
 31
0.0
  0
LINE
  5
139
330
1E
100
AcDbEntity
  8
0
100
AcDbLine
 10
240.0
 20
97.0
 30
0.0
 11
240.768
 21
97.10799999999998
 31
0.0
  0
LINE
  5
13A
330
1E
100
AcDbEntity
  8
0
100
AcDbLine
 10
245.595
 20
96.988
 30
0.0
 11
246.0749999999999
 21
98.43099999999999
 31
0.0
  0
LINE
  5
13C
330
1E
100
AcDbEntity
  8
0
100
AcDbLine
 10
254.4599999999999
 20
96.15999999999999
 30
0.0
 11
255.0
 21
100.0
 31
0.0
  0
LINE
  5
13D
330
1E
100
AcDbEntity
  8
0
100
AcDbLine
 10
208.524
 20
96.9106000000001
 30
0.0
 11
208.8859999999999
 21
98.39629999999999
 31
0.0
  0
LINE
  5
13E
330
1E
100
AcDbEntity
  8
0
100
AcDbLine
 10
208.524
 20
96.9106000000001
 30
0.0
 11
208.524
 21
96.59539999999999
 31
0.0
  0
LINE
  5
13F
330
1E
100
AcDbEntity
  8
0
100
AcDbLine
 10
199.114
 20
98.39629999999999
 30
0.0
 11
199.476
 21
96.9106000000001
 31
0.0
  0
LINE
  5
141
330
1E
100
AcDbEntity
  8
0
100
AcDbLine
 10
215.0
 20
97.696
 30
0.0
 11
215.0
 21
100.0
 31
0.0
  0
LINE
  5
142
330
1E
100
AcDbEntity
  8
0
100
AcDbLine
 10
215.0
 20
97.696
 30
0.0
 11
215.0
 21
95.53600000000001
 31
0.0
  0
LINE
  5
143
330
1E
100
AcDbEntity
  8
0
100
AcDbLine
 10
215.0
 20
98.208
 30
0.0
 11
215.0
 21
100.0
 31
0.0
  0
LINE
  5
144
330
1E
100
AcDbEntity
  8
0
100
AcDbLine
 10
219.0
 20
100.0
 30
0.0
 11
219.7559999999999
 21
105.376
 31
0.0
  0
LINE
  5
145
330
1E
100
AcDbEntity
  8
0
100
AcDbLine
 10
219.0
 20
100.0
 30
0.0
 11
219.7559999999999
 21
94.624
 31
0.0
  0
LINE
  5
146
330
1E
100
AcDbEntity
  8
0
100
AcDbLine
 10
215.0
 20
100.0
 30
0.0
 11
215.0
 21
101.7919999999999
 31
0.0
  0
LINE
  5
147
330
1E
100
AcDbEntity
  8
0
100
AcDbLine
 10
215.0
 20
100.0
 30
0.0
 11
215.0
 21
102.3039999999999
 31
0.0
  0
LINE
  5
148
330
1E
100
AcDbEntity
  8
0
100
AcDbLine
 10
215.0
 20
100.0
 30
0.0
 11
215.0
 21
97.696
 31
0.0
  0
LINE
  5
149
330
1E
100
AcDbEntity
  8
0
100
AcDbLine
 10
220.0
 20
100.0
 30
0.0
 11
220.7199999999999
 21
105.12
 31
0.0
  0
LINE
  5
14A
330
1E
100
AcDbEntity
  8
0
100
AcDbLine
 10
220.0
 20
100.0
 30
0.0
 11
220.7199999999999
 21
94.87999999999999
 31
0.0
  0
LINE
  5
14B
330
1E
100
AcDbEntity
  8
0
100
AcDbLine
 10
239.232
 20
97.10799999999998
 30
0.0
 11
240.0
 21
97.0
 31
0.0
  0
LINE
  5
14C
330
1E
100
AcDbEntity
  8
0
100
AcDbLine
 10
240.768
 20
97.10799999999998
 30
0.0
 11
241.488
 21
97.39600000000001
 31
0.0
  0
LINE
  5
14E
330
1E
100
AcDbEntity
  8
0
100
AcDbLine
 10
234.372
 20
97.07489999999999
 30
0.0
 11
235.415
 21
95.52760000000001
 31
0.0
  0
LINE
  5
14F
330
1E
100
AcDbEntity
  8
0
100
AcDbLine
 10
250.604
 20
97.184
 30
0.0
 11
251.0
 21
100.0
 31
0.0
  0
LINE
  5
150
330
1E
100
AcDbEntity
  8
0
100
AcDbLine
 10
232.0
 20
100.0
 30
0.0
 11
232.0
 21
97.9382
 31
0.0
  0
LINE
  5
151
330
1E
100
AcDbEntity
  8
0
100
AcDbLine
 10
232.0
 20
100.0
 30
0.0
 11
232.0
 21
102.0618
 31
0.0
  0
LINE
  5
153
330
1E
100
AcDbEntity
  8
0
100
AcDbLine
 10
238.512
 20
97.39600000000001
 30
0.0
 11
239.232
 21
97.10799999999998
 31
0.0
  0
LINE
  5
154
330
1E
100
AcDbEntity
  8
0
100
AcDbLine
 10
237.8759999999999
 20
97.87600000000001
 30
0.0
 11
238.512
 21
97.39600000000001
 31
0.0
  0
LINE
  5
155
330
1E
100
AcDbEntity
  8
0
100
AcDbLine
 10
241.488
 20
97.39600000000001
 30
0.0
 11
242.124
 21
97.87600000000001
 31
0.0
  0
LINE
  5
156
330
1E
100
AcDbEntity
  8
0
100
AcDbLine
 10
242.124
 20
97.87600000000001
 30
0.0
 11
242.6039999999999
 21
98.512
 31
0.0
  0
LINE
  5
157
330
1E
100
AcDbEntity
  8
0
100
AcDbLine
 10
246.0749999999999
 20
98.43099999999999
 30
0.0
 11
246.2899999999999
 21
99.99580000000001
 31
0.0
  0
LINE
  5
15C
330
1E
100
AcDbEntity
  8
0
100
AcDbLine
 10
265.0
 20
97.696
 30
0.0
 11
265.0
 21
100.0
 31
0.0
  0
LINE
  5
15D
330
1E
100
AcDbEntity
  8
0
100
AcDbLine
 10
265.0
 20
97.696
 30
0.0
 11
265.0
 21
95.53600000000001
 31
0.0
  0
LINE
  5
15E
330
1E
100
AcDbEntity
  8
0
100
AcDbLine
 10
248.0
 20
97.9382
 30
0.0
 11
248.0
 21
96.0279
 31
0.0
  0
LINE
  5
15F
330
1E
100
AcDbEntity
  8
0
100
AcDbLine
 10
237.3959999999999
 20
98.512
 30
0.0
 11
237.8759999999999
 21
97.87600000000001
 31
0.0
  0
LINE
  5
160
330
1E
100
AcDbEntity
  8
0
100
AcDbLine
 10
237.108
 20
99.23200000000001
 30
0.0
 11
237.3959999999999
 21
98.512
 31
0.0
  0
LINE
  5
161
330
1E
100
AcDbEntity
  8
0
100
AcDbLine
 10
242.6039999999999
 20
98.512
 30
0.0
 11
242.892
 21
99.23200000000001
 31
0.0
  0
LINE
  5
162
330
1E
100
AcDbEntity
  8
0
100
AcDbLine
 10
242.892
 20
99.23200000000001
 30
0.0
 11
243.0
 21
100.0
 31
0.0
  0
LINE
  5
163
330
1E
100
AcDbEntity
  8
0
100
AcDbLine
 10
237.0
 20
100.0
 30
0.0
 11
237.108
 21
100.7679999999999
 31
0.0
  0
LINE
  5
164
330
1E
100
AcDbEntity
  8
0
100
AcDbLine
 10
237.0
 20
100.0
 30
0.0
 11
237.108
 21
99.23200000000001
 31
0.0
  0
LINE
  5
165
330
1E
100
AcDbEntity
  8
0
100
AcDbLine
 10
265.0
 20
100.0
 30
0.0
 11
265.0
 21
102.3039999999999
 31
0.0
  0
LINE
  5
166
330
1E
100
AcDbEntity
  8
0
100
AcDbLine
 10
265.0
 20
100.0
 30
0.0
 11
265.0
 21
97.696
 31
0.0
  0
LINE
  5
168
330
1E
100
AcDbEntity
  8
0
100
AcDbLine
 10
248.0
 20
100.0
 30
0.0
 11
248.0
 21
97.9382
 31
0.0
  0
LINE
  5
169
330
1E
100
AcDbEntity
  8
0
100
AcDbLine
 10
233.903258627228
 20
98.4658759049852
 30
0.0
 11
234.372
 21
97.07489999999999
 31
0.0
  0
LINE
  5
16B
330
1E
100
AcDbEntity
  8
0
100
AcDbLine
 10
233.7409999999999
 20
99.9784
 30
0.0
 11
233.9069999999999
 21
98.43099999999999
 31
0.0
  0
LINE
  5
16C
330
1E
100
AcDbEntity
  8
0
100
AcDbLine
 10
233.7409999999999
 20
99.9784
 30
0.0
 11
233.8899999999999
 21
101.5257
 31
0.0
  0
LINE
  5
16F
330
1E
100
AcDbEntity
  8
0
100
AcDbLine
 10
232.0
 20
97.9382
 30
0.0
 11
232.0
 21
100.0
 31
0.0
  0
LINE
  5
170
330
1E
100
AcDbEntity
  8
0
100
AcDbLine
 10
232.0
 20
97.9382
 30
0.0
 11
232.0
 21
96.0279
 31
0.0
  0
LINE
  5
174
330
1E
100
AcDbEntity
  8
0
100
AcDbLine
 10
229.3959999999999
 20
97.184
 30
0.0
 11
230.452
 21
94.5440000000001
 31
0.0
  0
LINE
  5
175
330
1E
100
AcDbEntity
  8
0
100
AcDbLine
 10
229.0
 20
100.0
 30
0.0
 11
229.3959999999999
 21
97.184
 31
0.0
  0
LINE
  5
176
330
1E
100
AcDbEntity
  8
0
100
AcDbLine
 10
229.0
 20
100.0
 30
0.0
 11
229.3959999999999
 21
102.8159999999999
 31
0.0
  0
LINE
  5
177
330
1E
100
AcDbEntity
  8
0
100
AcDbLine
 10
225.0
 20
100.0
 30
0.0
 11
225.5399999999999
 21
103.8399999999999
 31
0.0
  0
LINE
  5
178
330
1E
100
AcDbEntity
  8
0
100
AcDbLine
 10
225.0
 20
100.0
 30
0.0
 11
225.5399999999999
 21
96.15999999999999
 31
0.0
  0
LINE
  5
17B
330
1E
100
AcDbEntity
  8
0
100
AcDbLine
 10
242.892
 20
100.7679999999999
 30
0.0
 11
243.0
 21
100.0
 31
0.0
  0
LINE
  5
17C
330
1E
100
AcDbEntity
  8
0
100
AcDbLine
 10
242.6039999999999
 20
101.488
 30
0.0
 11
242.892
 21
100.7679999999999
 31
0.0
  0
LINE
  5
17D
330
1E
100
AcDbEntity
  8
0
100
AcDbLine
 10
237.3959999999999
 20
101.488
 30
0.0
 11
237.8759999999999
 21
102.1239999999999
 31
0.0
  0
LINE
  5
17E
330
1E
100
AcDbEntity
  8
0
100
AcDbLine
 10
237.108
 20
100.7679999999999
 30
0.0
 11
237.3959999999999
 21
101.488
 31
0.0
  0
LINE
  5
17F
330
1E
100
AcDbEntity
  8
0
100
AcDbLine
 10
233.8899999999999
 20
101.5257
 30
0.0
 11
234.4199999999999
 21
103.0035
 31
0.0
  0
LINE
  5
182
330
1E
100
AcDbEntity
  8
0
100
AcDbLine
 10
208.8859999999999
 20
98.39629999999999
 30
0.0
 11
208.9519999999999
 21
100.0
 31
0.0
  0
LINE
  5
183
330
1E
100
AcDbEntity
  8
0
100
AcDbLine
 10
209.0
 20
102.9273
 30
0.0
 11
209.0
 21
95.8318
 31
0.0
  0
LINE
  5
184
330
1E
100
AcDbEntity
  8
0
100
AcDbLine
 10
209.0
 20
102.9273
 30
0.0
 11
209.0
 21
96.52799999999999
 31
0.0
  0
LINE
  5
185
330
1E
100
AcDbEntity
  8
0
100
AcDbLine
 10
199.0479999999999
 20
100.0
 30
0.0
 11
199.114
 21
101.6037
 31
0.0
  0
LINE
  5
186
330
1E
100
AcDbEntity
  8
0
100
AcDbLine
 10
199.0479999999999
 20
100.0
 30
0.0
 11
199.114
 21
98.39629999999999
 31
0.0
  0
LINE
  5
189
330
1E
100
AcDbEntity
  8
0
100
AcDbLine
 10
199.0
 20
98.47270000000001
 30
0.0
 11
199.0
 21
100.0
 31
0.0
  0
LINE
  5
18A
330
1E
100
AcDbEntity
  8
0
100
AcDbLine
 10
199.0
 20
98.47270000000001
 30
0.0
 11
199.0
 21
97.07270000000001
 31
0.0
  0
LINE
  5
18C
330
1E
100
AcDbEntity
  8
0
100
AcDbLine
 10
199.0
 20
102.3495999999999
 30
0.0
 11
199.0
 21
103.4855
 31
0.0
  0
LINE
  5
18D
330
1E
100
AcDbEntity
  8
0
100
AcDbLine
 10
199.0
 20
102.3495999999999
 30
0.0
 11
199.0
 21
101.2002
 31
0.0
  0
LINE
  5
18E
330
1E
100
AcDbEntity
  8
0
100
AcDbLine
 10
199.0
 20
103.4855
 30
0.0
 11
199.0
 21
104.4049999999999
 31
0.0
  0
LINE
  5
18F
330
1E
100
AcDbEntity
  8
0
100
AcDbLine
 10
199.0
 20
103.4855
 30
0.0
 11
199.0
 21
102.3495999999999
 31
0.0
  0
LINE
  5
190
330
1E
100
AcDbEntity
  8
0
100
AcDbLine
 10
199.0
 20
104.4049999999999
 30
0.0
 11
199.0
 21
103.4855
 31
0.0
  0
LINE
  5
191
330
1E
100
AcDbEntity
  8
0
100
AcDbLine
 10
199.0
 20
104.4049999999999
 30
0.0
 11
199.0
 21
104.9323999999999
 31
0.0
  0
LINE
  5
192
330
1E
100
AcDbEntity
  8
0
100
AcDbLine
 10
199.0
 20
105.0909
 30
0.0
 11
199.0
 21
104.1681999999999
 31
0.0
  0
LINE
  5
193
330
1E
100
AcDbEntity
  8
0
100
AcDbLine
 10
199.0
 20
105.0909
 30
0.0
 11
199.0
 21
105.6636
 31
0.0
  0
LINE
  5
196
330
1E
100
AcDbEntity
  8
0
100
AcDbLine
 10
199.0
 20
104.4184999999999
 30
0.0
 11
199.0
 21
104.9323999999999
 31
0.0
  0
LINE
  5
197
330
1E
100
AcDbEntity
  8
0
100
AcDbLine
 10
199.0
 20
104.4184999999999
 30
0.0
 11
199.0
 21
103.5395999999999
 31
0.0
  0
LINE
  5
198
330
1E
100
AcDbEntity
  8
0
100
AcDbLine
 10
199.0
 20
103.5395999999999
 30
0.0
 11
199.0
 21
102.3360999999999
 31
0.0
  0
LINE
  5
199
330
1E
100
AcDbEntity
  8
0
100
AcDbLine
 10
199.0
 20
103.5395999999999
 30
0.0
 11
199.0
 21
104.4184999999999
 31
0.0
  0
LINE
  5
19A
330
1E
100
AcDbEntity
  8
0
100
AcDbLine
 10
199.0
 20
104.1681999999999
 30
0.0
 11
199.0
 21
102.9273
 31
0.0
  0
LINE
  5
19B
330
1E
100
AcDbEntity
  8
0
100
AcDbLine
 10
199.0
 20
104.1681999999999
 30
0.0
 11
199.0
 21
105.0909
 31
0.0
  0
LINE
  5
19E
330
1E
100
AcDbEntity
  8
0
100
AcDbLine
 10
199.0
 20
102.3360999999999
 30
0.0
 11
199.0
 21
103.5395999999999
 31
0.0
  0
LINE
  5
19F
330
1E
100
AcDbEntity
  8
0
100
AcDbLine
 10
199.0
 20
102.3360999999999
 30
0.0
 11
199.0
 21
101.1867
 31
0.0
  0
LINE
  5
1A0
330
1E
100
AcDbEntity
  8
0
100
AcDbLine
 10
199.0
 20
102.9273
 30
0.0
 11
199.0
 21
101.5273
 31
0.0
  0
LINE
  5
1A1
330
1E
100
AcDbEntity
  8
0
100
AcDbLine
 10
199.0
 20
102.9273
 30
0.0
 11
199.0
 21
104.1681999999999
 31
0.0
  0
LINE
  5
1A3
330
1E
100
AcDbEntity
  8
0
100
AcDbLine
 10
199.0
 20
105.6636
 30
0.0
 11
199.0
 21
105.0909
 31
0.0
  0
LINE
  5
1A5
330
1E
100
AcDbEntity
  8
0
100
AcDbLine
 10
199.0
 20
105.6636
 30
0.0
 11
199.0
 21
105.8864
 31
0.0
  0
LINE
  5
1A6
330
1E
100
AcDbEntity
  8
0
100
AcDbLine
 10
199.0
 20
105.8864
 30
0.0
 11
199.143
 21
106.3636
 31
0.0
  0
LINE
  5
1A7
330
1E
100
AcDbEntity
  8
0
100
AcDbLine
 10
199.0
 20
105.8864
 30
0.0
 11
199.0
 21
105.6636
 31
0.0
  0
LINE
  5
1A8
330
1E
100
AcDbEntity
  8
0
100
AcDbLine
 10
199.0
 20
105.1352
 30
0.0
 11
199.0
 21
104.9323999999999
 31
0.0
  0
LINE
  5
1A9
330
1E
100
AcDbEntity
  8
0
100
AcDbLine
 10
199.114
 20
101.6037
 30
0.0
 11
199.476
 21
103.0893999999999
 31
0.0
  0
LINE
  5
1AD
330
1E
100
AcDbEntity
  8
0
100
AcDbLine
 10
199.0959999999999
 20
105.3695999999999
 30
0.0
 11
199.173
 21
104.5182
 31
0.0
  0
LINE
  5
1AE
330
1E
100
AcDbEntity
  8
0
100
AcDbLine
 10
199.0959999999999
 20
105.3695999999999
 30
0.0
 11
199.199
 21
106.2163999999999
 31
0.0
  0
LINE
  5
1AF
330
1E
100
AcDbEntity
  8
0
100
AcDbLine
 10
208.8859999999999
 20
101.6037
 30
0.0
 11
208.9519999999999
 21
100.0
 31
0.0
  0
LINE
  5
1B0
330
1E
100
AcDbEntity
  8
0
100
AcDbLine
 10
208.524
 20
103.0893999999999
 30
0.0
 11
208.8859999999999
 21
101.6037
 31
0.0
  0
LINE
  5
1B1
330
1E
100
AcDbEntity
  8
0
100
AcDbLine
 10
208.524
 20
103.0893999999999
 30
0.0
 11
208.524
 21
103.4045
 31
0.0
  0
LINE
  5
1B3
330
1E
100
AcDbEntity
  8
0
100
AcDbLine
 10
199.476
 20
103.4045
 30
0.0
 11
199.476
 21
103.0893999999999
 31
0.0
  0
LINE
  5
1B6
330
1E
100
AcDbEntity
  8
0
100
AcDbLine
 10
199.476
 20
103.9218999999999
 30
0.0
 11
199.476
 21
103.4045
 31
0.0
  0
LINE
  5
1BA
330
1E
100
AcDbEntity
  8
0
100
AcDbLine
 10
209.0
 20
103.472
 30
0.0
 11
209.0
 21
104.956
 31
0.0
  0
LINE
  5
1BB
330
1E
100
AcDbEntity
  8
0
100
AcDbLine
 10
209.0
 20
103.472
 30
0.0
 11
209.0
 21
102.9273
 31
0.0
  0
LINE
  5
1BC
330
1E
100
AcDbEntity
  8
0
100
AcDbLine
 10
208.524
 20
103.4045
 30
0.0
 11
208.524
 21
103.0893999999999
 31
0.0
  0
LINE
  5
1BE
330
1E
100
AcDbEntity
  8
0
100
AcDbLine
 10
208.524
 20
103.4045
 30
0.0
 11
208.524
 21
103.9218999999999
 31
0.0
  0
LINE
  5
1BF
330
1E
100
AcDbEntity
  8
0
100
AcDbLine
 10
199.476
 20
103.0893999999999
 30
0.0
 11
199.476
 21
103.4045
 31
0.0
  0
LINE
  5
1C1
330
1E
100
AcDbEntity
  8
0
100
AcDbLine
 10
215.0
 20
101.7919999999999
 30
0.0
 11
215.0
 21
103.472
 31
0.0
  0
LINE
  5
1C4
330
1E
100
AcDbEntity
  8
0
100
AcDbLine
 10
246.1079999999999
 20
101.5430999999999
 30
0.0
 11
246.2899999999999
 21
99.99580000000001
 31
0.0
  0
LINE
  5
1C6
330
1E
100
AcDbEntity
  8
0
100
AcDbLine
 10
215.0
 20
102.3039999999999
 30
0.0
 11
215.0
 21
104.464
 31
0.0
  0
LINE
  5
1C7
330
1E
100
AcDbEntity
  8
0
100
AcDbLine
 10
215.0
 20
102.3039999999999
 30
0.0
 11
215.0
 21
100.0
 31
0.0
  0
LINE
  5
1C8
330
1E
100
AcDbEntity
  8
0
100
AcDbLine
 10
241.488
 20
102.604
 30
0.0
 11
242.124
 21
102.1239999999999
 31
0.0
  0
LINE
  5
1C9
330
1E
100
AcDbEntity
  8
0
100
AcDbLine
 10
242.124
 20
102.1239999999999
 30
0.0
 11
242.6039999999999
 21
101.488
 31
0.0
  0
LINE
  5
1CA
330
1E
100
AcDbEntity
  8
0
100
AcDbLine
 10
238.512
 20
102.604
 30
0.0
 11
239.232
 21
102.892
 31
0.0
  0
LINE
  5
1CB
330
1E
100
AcDbEntity
  8
0
100
AcDbLine
 10
237.8759999999999
 20
102.1239999999999
 30
0.0
 11
238.512
 21
102.604
 31
0.0
  0
LINE
  5
1CC
330
1E
100
AcDbEntity
  8
0
100
AcDbLine
 10
248.0
 20
102.0618
 30
0.0
 11
248.0
 21
103.9720999999999
 31
0.0
  0
LINE
  5
1CD
330
1E
100
AcDbEntity
  8
0
100
AcDbLine
 10
248.0
 20
102.0618
 30
0.0
 11
248.0
 21
100.0
 31
0.0
  0
LINE
  5
1CE
330
1E
100
AcDbEntity
  8
0
100
AcDbLine
 10
232.0
 20
102.0618
 30
0.0
 11
232.0
 21
100.0
 31
0.0
  0
LINE
  5
1CF
330
1E
100
AcDbEntity
  8
0
100
AcDbLine
 10
232.0
 20
102.0618
 30
0.0
 11
232.0
 21
103.9720999999999
 31
0.0
  0
LINE
  5
1D4
330
1E
100
AcDbEntity
  8
0
100
AcDbLine
 10
250.604
 20
102.8159999999999
 30
0.0
 11
251.0
 21
100.0
 31
0.0
  0
LINE
  5
1D5
330
1E
100
AcDbEntity
  8
0
100
AcDbLine
 10
215.0
 20
103.472
 30
0.0
 11
215.0
 21
104.956
 31
0.0
  0
LINE
  5
1D6
330
1E
100
AcDbEntity
  8
0
100
AcDbLine
 10
240.0
 20
103.0
 30
0.0
 11
240.768
 21
102.892
 31
0.0
  0
LINE
  5
1D7
330
1E
100
AcDbEntity
  8
0
100
AcDbLine
 10
240.768
 20
102.892
 30
0.0
 11
241.488
 21
102.604
 31
0.0
  0
LINE
  5
1D8
330
1E
100
AcDbEntity
  8
0
100
AcDbLine
 10
239.232
 20
102.892
 30
0.0
 11
240.0
 21
103.0
 31
0.0
  0
LINE
  5
1D9
330
1E
100
AcDbEntity
  8
0
100
AcDbLine
 10
245.562
 20
103.0208999999999
 30
0.0
 11
246.1079999999999
 21
101.5430999999999
 31
0.0
  0
LINE
  5
1E0
330
1E
100
AcDbEntity
  8
0
100
AcDbLine
 10
234.4199999999999
 20
103.0035
 30
0.0
 11
235.3979999999999
 21
104.5509
 31
0.0
  0
LINE
  5
1E2
330
1E
100
AcDbEntity
  8
0
100
AcDbLine
 10
229.3959999999999
 20
102.8159999999999
 30
0.0
 11
230.452
 21
105.4559999999999
 31
0.0
  0
LINE
  5
1E7
330
1E
100
AcDbEntity
  8
0
100
AcDbLine
 10
265.0
 20
102.3039999999999
 30
0.0
 11
265.0
 21
104.464
 31
0.0
  0
LINE
  5
1E8
330
1E
100
AcDbEntity
  8
0
100
AcDbLine
 10
265.0
 20
102.3039999999999
 30
0.0
 11
265.0
 21
100.0
 31
0.0
  0
LINE
  5
1E9
330
1E
100
AcDbEntity
  8
0
100
AcDbLine
 10
254.4599999999999
 20
103.8399999999999
 30
0.0
 11
255.0
 21
100.0
 31
0.0
  0
LINE
  5
1EA
330
1E
100
AcDbEntity
  8
0
100
AcDbLine
 10
225.5399999999999
 20
103.8399999999999
 30
0.0
 11
226.98
 21
107.44
 31
0.0
  0
LINE
  5
1EB
330
1E
100
AcDbEntity
  8
0
100
AcDbLine
 10
209.0
 20
102.9273
 30
0.0
 11
209.0
 21
104.1681999999999
 31
0.0
  0
LINE
  5
1EC
330
1E
100
AcDbEntity
  8
0
100
AcDbLine
 10
209.0
 20
102.9273
 30
0.0
 11
209.0
 21
103.472
 31
0.0
  0
LINE
  5
1ED
330
1E
100
AcDbEntity
  8
0
100
AcDbLine
 10
248.0
 20
103.9720999999999
 30
0.0
 11
248.0
 21
102.0618
 31
0.0
  0
LINE
  5
1EE
330
1E
100
AcDbEntity
  8
0
100
AcDbLine
 10
248.0
 20
103.9720999999999
 30
0.0
 11
248.0
 21
104.5113999999999
 31
0.0
  0
LINE
  5
1F3
330
1E
100
AcDbEntity
  8
0
100
AcDbLine
 10
232.0
 20
103.9720999999999
 30
0.0
 11
232.0
 21
102.0618
 31
0.0
  0
LINE
  5
1F5
330
1E
100
AcDbEntity
  8
0
100
AcDbLine
 10
232.0
 20
103.9720999999999
 30
0.0
 11
232.168
 21
104.3773
 31
0.0
  0
LINE
  5
1F6
330
1E
100
AcDbEntity
  8
0
100
AcDbLine
 10
209.0
 20
104.956
 30
0.0
 11
209.0
 21
106.076
 31
0.0
  0
LINE
  5
1F7
330
1E
100
AcDbEntity
  8
0
100
AcDbLine
 10
209.0
 20
104.956
 30
0.0
 11
209.0
 21
103.472
 31
0.0
  0
LINE
  5
1F9
330
1E
100
AcDbEntity
  8
0
100
AcDbLine
 10
215.0
 20
104.464
 30
0.0
 11
215.0
 21
106.372
 31
0.0
  0
LINE
  5
1FA
330
1E
100
AcDbEntity
  8
0
100
AcDbLine
 10
215.0
 20
104.464
 30
0.0
 11
215.0
 21
102.3039999999999
 31
0.0
  0
LINE
  5
1FD
330
1E
100
AcDbEntity
  8
0
100
AcDbLine
 10
244.619
 20
104.4812999999999
 30
0.0
 11
245.562
 21
103.0208999999999
 31
0.0
  0
LINE
  5
1FE
330
1E
100
AcDbEntity
  8
0
100
AcDbLine
 10
248.0
 20
104.5113999999999
 30
0.0
 11
248.0
 21
103.9720999999999
 31
0.0
  0
LINE
  5
201
330
1E
100
AcDbEntity
  8
0
100
AcDbLine
 10
235.3979999999999
 20
104.5509
 30
0.0
 11
236.738
 21
105.6808999999999
 31
0.0
  0
LINE
  5
203
330
1E
100
AcDbEntity
  8
0
100
AcDbLine
 10
232.168
 20
104.3773
 30
0.0
 11
234.0209999999999
 21
105.8091
 31
0.0
  0
LINE
  5
209
330
1E
100
AcDbEntity
  8
0
100
AcDbLine
 10
215.0
 20
104.956
 30
0.0
 11
215.0
 21
106.076
 31
0.0
  0
LINE
  5
20A
330
1E
100
AcDbEntity
  8
0
100
AcDbLine
 10
219.7559999999999
 20
105.376
 30
0.0
 11
221.772
 21
110.416
 31
0.0
  0
LINE
  5
20B
330
1E
100
AcDbEntity
  8
0
100
AcDbLine
 10
220.7199999999999
 20
105.12
 30
0.0
 11
222.6399999999999
 21
109.9199999999999
 31
0.0
  0
LINE
  5
20F
330
1E
100
AcDbEntity
  8
0
100
AcDbLine
 10
247.314
 20
105.0424
 30
0.0
 11
248.0
 21
104.5113999999999
 31
0.0
  0
LINE
  5
214
330
1E
100
AcDbEntity
  8
0
100
AcDbLine
 10
260.244
 20
105.376
 30
0.0
 11
261.0
 21
100.0
 31
0.0
  0
LINE
  5
215
330
1E
100
AcDbEntity
  8
0
100
AcDbLine
 10
259.2799999999999
 20
105.12
 30
0.0
 11
260.0
 21
100.0
 31
0.0
  0
LINE
  5
216
330
1E
100
AcDbEntity
  8
0
100
AcDbLine
 10
265.0
 20
104.464
 30
0.0
 11
265.0
 21
106.372
 31
0.0
  0
LINE
  5
217
330
1E
100
AcDbEntity
  8
0
100
AcDbLine
 10
265.0
 20
104.464
 30
0.0
 11
265.0
 21
102.3039999999999
 31
0.0
  0
LINE
  5
218
330
1E
100
AcDbEntity
  8
0
100
AcDbLine
 10
249.548
 20
105.4559999999999
 30
0.0
 11
250.604
 21
102.8159999999999
 31
0.0
  0
LINE
  5
219
330
1E
100
AcDbEntity
  8
0
100
AcDbLine
 10
243.245
 20
105.6636
 30
0.0
 11
244.619
 21
104.4812999999999
 31
0.0
  0
LINE
  5
21A
330
1E
100
AcDbEntity
  8
0
100
AcDbLine
 10
230.452
 20
105.4559999999999
 30
0.0
 11
232.212
 21
107.7879999999999
 31
0.0
  0
LINE
  5
21B
330
1E
100
AcDbEntity
  8
0
100
AcDbLine
 10
209.0
 20
105.0909
 30
0.0
 11
209.0
 21
105.6636
 31
0.0
  0
LINE
  5
21C
330
1E
100
AcDbEntity
  8
0
100
AcDbLine
 10
209.0
 20
104.1681999999999
 30
0.0
 11
209.0
 21
102.9273
 31
0.0
  0
LINE
  5
21D
330
1E
100
AcDbEntity
  8
0
100
AcDbLine
 10
208.827
 20
104.5182
 30
0.0
 11
208.904
 21
105.3695999999999
 31
0.0
  0
LINE
  5
21E
330
1E
100
AcDbEntity
  8
0
100
AcDbLine
 10
208.524
 20
103.9218999999999
 30
0.0
 11
208.827
 21
104.5182
 31
0.0
  0
LINE
  5
220
330
1E
100
AcDbEntity
  8
0
100
AcDbLine
 10
208.524
 20
103.9218999999999
 30
0.0
 11
208.524
 21
103.4045
 31
0.0
  0
LINE
  5
221
330
1E
100
AcDbEntity
  8
0
100
AcDbLine
 10
199.173
 20
104.5182
 30
0.0
 11
199.476
 21
103.9218999999999
 31
0.0
  0
LINE
  5
224
330
1E
100
AcDbEntity
  8
0
100
AcDbLine
 10
245.979
 20
105.8091
 30
0.0
 11
247.314
 21
105.0424
 31
0.0
  0
LINE
  5
228
330
1E
100
AcDbEntity
  8
0
100
AcDbLine
 10
236.738
 20
105.6808999999999
 30
0.0
 11
238.3269999999999
 21
106.3415999999999
 31
0.0
  0
LINE
  5
229
330
1E
100
AcDbEntity
  8
0
100
AcDbLine
 10
234.0209999999999
 20
105.8091
 30
0.0
 11
235.928
 21
106.9038
 31
0.0
  0
LINE
  5
22B
330
1E
100
AcDbEntity
  8
0
100
AcDbLine
 10
209.0
 20
105.8864
 30
0.0
 11
209.0
 21
105.6636
 31
0.0
  0
LINE
  5
22C
330
1E
100
AcDbEntity
  8
0
100
AcDbLine
 10
209.0
 20
105.8864
 30
0.0
 11
209.0
 21
106.076
 31
0.0
  0
LINE
  5
22D
330
1E
100
AcDbEntity
  8
0
100
AcDbLine
 10
209.0
 20
105.6636
 30
0.0
 11
209.0
 21
105.8864
 31
0.0
  0
LINE
  5
22E
330
1E
100
AcDbEntity
  8
0
100
AcDbLine
 10
209.0
 20
105.6636
 30
0.0
 11
209.0
 21
105.0909
 31
0.0
  0
LINE
  5
22F
330
1E
100
AcDbEntity
  8
0
100
AcDbLine
 10
199.0
 20
104.9323999999999
 30
0.0
 11
199.0
 21
105.1352
 31
0.0
  0
LINE
  5
230
330
1E
100
AcDbEntity
  8
0
100
AcDbLine
 10
199.0
 20
104.9323999999999
 30
0.0
 11
199.0
 21
104.4184999999999
 31
0.0
  0
LINE
  5
231
330
1E
100
AcDbEntity
  8
0
100
AcDbLine
 10
199.0
 20
104.9323999999999
 30
0.0
 11
199.0
 21
104.4049999999999
 31
0.0
  0
LINE
  5
23D
330
1E
100
AcDbEntity
  8
0
100
AcDbLine
 10
208.524
 20
106.7322
 30
0.0
 11
208.524
 21
106.8409
 31
0.0
  0
LINE
  5
23F
330
1E
100
AcDbEntity
  8
0
100
AcDbLine
 10
208.524
 20
106.7322
 30
0.0
 11
208.8009999999999
 21
106.2163999999999
 31
0.0
  0
LINE
  5
240
330
1E
100
AcDbEntity
  8
0
100
AcDbLine
 10
199.476
 20
106.7322
 30
0.0
 11
199.476
 21
106.8409
 31
0.0
  0
LINE
  5
242
330
1E
100
AcDbEntity
  8
0
100
AcDbLine
 10
199.199
 20
106.2163999999999
 30
0.0
 11
199.476
 21
106.7322
 31
0.0
  0
LINE
  5
243
330
1E
100
AcDbEntity
  8
0
100
AcDbLine
 10
199.952
 20
107.0
 30
0.0
 11
208.048
 21
107.0
 31
0.0
  0
LINE
  5
244
330
1E
100
AcDbEntity
  8
0
100
AcDbLine
 10
199.476
 20
106.8409
 30
0.0
 11
199.952
 21
107.0
 31
0.0
  0
LINE
  5
245
330
1E
100
AcDbEntity
  8
0
100
AcDbLine
 10
199.476
 20
106.8409
 30
0.0
 11
199.476
 21
106.7322
 31
0.0
  0
LINE
  5
246
330
1E
100
AcDbEntity
  8
0
100
AcDbLine
 10
199.143
 20
106.3636
 30
0.0
 11
199.476
 21
106.8409
 31
0.0
  0
LINE
  5
248
330
1E
100
AcDbEntity
  8
0
100
AcDbLine
 10
149.0
 20
150.0
 30
0.0
 11
551.0
 21
150.0
 31
0.0
  0
LINE
  5
249
330
1E
100
AcDbEntity
  8
0
100
AcDbLine
 10
149.0
 20
150.0
 30
0.0
 11
149.0
 21
50.0
 31
0.0
  0
LINE
  5
24A
330
1E
100
AcDbEntity
  8
0
100
AcDbLine
 10
0.0
 20
200.0
 30
0.0
 11
700.0
 21
200.0
 31
0.0
  0
LINE
  5
24B
330
1E
100
AcDbEntity
  8
0
100
AcDbLine
 10
0.0
 20
200.0
 30
0.0
 11
0.0
 21
0.0
 31
0.0
  0
LINE
  5
24C
330
1E
100
AcDbEntity
  8
0
100
AcDbLine
 10
0.0
 20
200.0
 30
0.0
 11
149.0
 21
150.0
 31
0.0
  0
LINE
  5
24D
330
1E
100
AcDbEntity
  8
0
100
AcDbLine
 10
208.048
 20
107.0
 30
0.0
 11
208.524
 21
106.8409
 31
0.0
  0
LINE
  5
24E
330
1E
100
AcDbEntity
  8
0
100
AcDbLine
 10
215.0
 20
106.076
 30
0.0
 11
215.0
 21
106.7479999999999
 31
0.0
  0
LINE
  5
24F
330
1E
100
AcDbEntity
  8
0
100
AcDbLine
 10
209.0
 20
106.076
 30
0.0
 11
209.0
 21
105.8864
 31
0.0
  0
LINE
  5
250
330
1E
100
AcDbEntity
  8
0
100
AcDbLine
 10
209.0
 20
106.076
 30
0.0
 11
209.0
 21
106.7479999999999
 31
0.0
  0
LINE
  5
251
330
1E
100
AcDbEntity
  8
0
100
AcDbLine
 10
209.0
 20
106.076
 30
0.0
 11
209.0
 21
104.956
 31
0.0
  0
LINE
  5
254
330
1E
100
AcDbEntity
  8
0
100
AcDbLine
 10
241.7059999999999
 20
106.3415999999999
 30
0.0
 11
243.245
 21
105.6636
 31
0.0
  0
LINE
  5
256
330
1E
100
AcDbEntity
  8
0
100
AcDbLine
 10
238.3269999999999
 20
106.3415999999999
 30
0.0
 11
240.114
 21
106.6024
 31
0.0
  0
LINE
  5
259
330
1E
100
AcDbEntity
  8
0
100
AcDbLine
 10
208.8009999999999
 20
106.2163999999999
 30
0.0
 11
208.904
 21
105.3695999999999
 31
0.0
  0
LINE
  5
25A
330
1E
100
AcDbEntity
  8
0
100
AcDbLine
 10
209.0
 20
107.0
 30
0.0
 11
209.0
 21
106.7479999999999
 31
0.0
  0
LINE
  5
25B
330
1E
100
AcDbEntity
  8
0
100
AcDbLine
 10
209.0
 20
107.0
 30
0.0
 11
215.0
 21
107.0
 31
0.0
  0
LINE
  5
25C
330
1E
100
AcDbEntity
  8
0
100
AcDbLine
 10
215.0
 20
106.372
 30
0.0
 11
215.0
 21
107.812
 31
0.0
  0
LINE
  5
25D
330
1E
100
AcDbEntity
  8
0
100
AcDbLine
 10
215.0
 20
106.372
 30
0.0
 11
215.0
 21
104.464
 31
0.0
  0
LINE
  5
25E
330
1E
100
AcDbEntity
  8
0
100
AcDbLine
 10
215.0
 20
107.0
 30
0.0
 11
215.0
 21
107.812
 31
0.0
  0
LINE
  5
25F
330
1E
100
AcDbEntity
  8
0
100
AcDbLine
 10
215.0
 20
109.0
 30
0.0
 11
215.0
 21
108.6759999999999
 31
0.0
  0
LINE
  5
260
330
1E
100
AcDbEntity
  8
0
100
AcDbLine
 10
215.0
 20
109.0
 30
0.0
 11
221.2056
 21
109.0
 31
0.0
  0
LINE
  5
261
330
1E
100
AcDbEntity
  8
0
100
AcDbLine
 10
215.0
 20
108.6759999999999
 30
0.0
 11
215.0
 21
107.812
 31
0.0
  0
LINE
  5
262
330
1E
100
AcDbEntity
  8
0
100
AcDbLine
 10
215.0
 20
108.6759999999999
 30
0.0
 11
215.0
 21
109.0
 31
0.0
  0
LINE
  5
263
330
1E
100
AcDbEntity
  8
0
100
AcDbLine
 10
215.0
 20
107.812
 30
0.0
 11
215.0
 21
107.0
 31
0.0
  0
LINE
  5
264
330
1E
100
AcDbEntity
  8
0
100
AcDbLine
 10
215.0
 20
107.812
 30
0.0
 11
215.0
 21
108.6759999999999
 31
0.0
  0
LINE
  5
265
330
1E
100
AcDbEntity
  8
0
100
AcDbLine
 10
215.0
 20
107.812
 30
0.0
 11
215.0
 21
106.372
 31
0.0
  0
LINE
  5
266
330
1E
100
AcDbEntity
  8
0
100
AcDbLine
 10
215.0
 20
106.7479999999999
 30
0.0
 11
215.0
 21
107.0
 31
0.0
  0
LINE
  5
267
330
1E
100
AcDbEntity
  8
0
100
AcDbLine
 10
209.0
 20
106.7479999999999
 30
0.0
 11
209.0
 21
106.076
 31
0.0
  0
LINE
  5
268
330
1E
100
AcDbEntity
  8
0
100
AcDbLine
 10
209.0
 20
106.7479999999999
 30
0.0
 11
209.0
 21
107.0
 31
0.0
  0
LINE
  5
269
330
1E
100
AcDbEntity
  8
0
100
AcDbLine
 10
225.132
 20
114.8679999999999
 30
0.0
 11
229.584
 21
118.2279999999999
 31
0.0
  0
LINE
  5
26A
330
1E
100
AcDbEntity
  8
0
100
AcDbLine
 10
221.772
 20
110.416
 30
0.0
 11
225.132
 21
114.8679999999999
 31
0.0
  0
LINE
  5
26B
330
1E
100
AcDbEntity
  8
0
100
AcDbLine
 10
225.8399999999999
 20
114.1599999999999
 30
0.0
 11
230.08
 21
117.3599999999999
 31
0.0
  0
LINE
  5
26C
330
1E
100
AcDbEntity
  8
0
100
AcDbLine
 10
222.6399999999999
 20
109.9199999999999
 30
0.0
 11
225.8399999999999
 21
114.1599999999999
 31
0.0
  0
LINE
  5
26F
330
1E
100
AcDbEntity
  8
0
100
AcDbLine
 10
240.0
 20
109.0
 30
0.0
 11
240.463
 21
108.9369
 31
0.0
  0
LINE
  5
273
330
1E
100
AcDbEntity
  8
0
100
AcDbLine
 10
239.537
 20
108.9369
 30
0.0
 11
240.0
 21
109.0
 31
0.0
  0
LINE
  5
276
330
1E
100
AcDbEntity
  8
0
100
AcDbLine
 10
239.0109999999999
 20
108.6556999999999
 30
0.0
 11
239.537
 21
108.9369
 31
0.0
  0
LINE
  5
278
330
1E
100
AcDbEntity
  8
0
100
AcDbLine
 10
237.824
 20
107.9925
 30
0.0
 11
239.0109999999999
 21
108.6556999999999
 31
0.0
  0
LINE
  5
27C
330
1E
100
AcDbEntity
  8
0
100
AcDbLine
 10
235.928
 20
106.9038
 30
0.0
 11
237.824
 21
107.9925
 31
0.0
  0
LINE
  5
281
330
1E
100
AcDbEntity
  8
0
100
AcDbLine
 10
240.114
 20
106.6024
 30
0.0
 11
241.7059999999999
 21
106.3415999999999
 31
0.0
  0
LINE
  5
282
330
1E
100
AcDbEntity
  8
0
100
AcDbLine
 10
244.072
 20
106.9038
 30
0.0
 11
245.979
 21
105.8091
 31
0.0
  0
LINE
  5
284
330
1E
100
AcDbEntity
  8
0
100
AcDbLine
 10
242.1759999999999
 20
107.9925
 30
0.0
 11
244.072
 21
106.9038
 31
0.0
  0
LINE
  5
286
330
1E
100
AcDbEntity
  8
0
100
AcDbLine
 10
240.989
 20
108.6556999999999
 30
0.0
 11
242.1759999999999
 21
107.9925
 31
0.0
  0
LINE
  5
287
330
1E
100
AcDbEntity
  8
0
100
AcDbLine
 10
240.463
 20
108.9369
 30
0.0
 11
240.989
 21
108.6556999999999
 31
0.0
  0
LINE
  5
28C
330
1E
100
AcDbEntity
  8
0
100
AcDbLine
 10
245.4559999999999
 20
109.548
 30
0.0
 11
247.7879999999999
 21
107.7879999999999
 31
0.0
  0
LINE
  5
28D
330
1E
100
AcDbEntity
  8
0
100
AcDbLine
 10
247.7879999999999
 20
107.7879999999999
 30
0.0
 11
249.548
 21
105.4559999999999
 31
0.0
  0
LINE
  5
28E
330
1E
100
AcDbEntity
  8
0
100
AcDbLine
 10
242.8159999999999
 20
110.6039999999999
 30
0.0
 11
245.4559999999999
 21
109.548
 31
0.0
  0
LINE
  5
28F
330
1E
100
AcDbEntity
  8
0
100
AcDbLine
 10
237.184
 20
110.6039999999999
 30
0.0
 11
240.0
 21
111.0
 31
0.0
  0
LINE
  5
290
330
1E
100
AcDbEntity
  8
0
100
AcDbLine
 10
234.5439999999999
 20
109.548
 30
0.0
 11
237.184
 21
110.6039999999999
 31
0.0
  0
LINE
  5
291
330
1E
100
AcDbEntity
  8
0
100
AcDbLine
 10
232.212
 20
107.7879999999999
 30
0.0
 11
234.5439999999999
 21
109.548
 31
0.0
  0
LINE
  5
292
330
1E
100
AcDbEntity
  8
0
100
AcDbLine
 10
250.62
 20
110.62
 30
0.0
 11
253.02
 21
107.44
 31
0.0
  0
LINE
  5
294
330
1E
100
AcDbEntity
  8
0
100
AcDbLine
 10
265.0
 20
109.0
 30
0.0
 11
265.0
 21
108.6759999999999
 31
0.0
  0
LINE
  5
295
330
1E
100
AcDbEntity
  8
0
100
AcDbLine
 10
265.0
 20
108.6759999999999
 30
0.0
 11
265.0
 21
109.0
 31
0.0
  0
LINE
  5
296
330
1E
100
AcDbEntity
  8
0
100
AcDbLine
 10
265.0
 20
108.6759999999999
 30
0.0
 11
265.0
 21
107.812
 31
0.0
  0
LINE
  5
297
330
1E
100
AcDbEntity
  8
0
100
AcDbLine
 10
265.0
 20
107.812
 30
0.0
 11
265.0
 21
108.6759999999999
 31
0.0
  0
LINE
  5
298
330
1E
100
AcDbEntity
  8
0
100
AcDbLine
 10
265.0
 20
107.812
 30
0.0
 11
265.0
 21
106.372
 31
0.0
  0
LINE
  5
29C
330
1E
100
AcDbEntity
  8
0
100
AcDbLine
 10
265.0
 20
106.372
 30
0.0
 11
265.0
 21
107.812
 31
0.0
  0
LINE
  5
29D
330
1E
100
AcDbEntity
  8
0
100
AcDbLine
 10
265.0
 20
106.372
 30
0.0
 11
265.0
 21
104.464
 31
0.0
  0
LINE
  5
29E
330
1E
100
AcDbEntity
  8
0
100
AcDbLine
 10
258.228
 20
110.416
 30
0.0
 11
260.244
 21
105.376
 31
0.0
  0
LINE
  5
29F
330
1E
100
AcDbEntity
  8
0
100
AcDbLine
 10
257.36
 20
109.9199999999999
 30
0.0
 11
259.2799999999999
 21
105.12
 31
0.0
  0
LINE
  5
2A0
330
1E
100
AcDbEntity
  8
0
100
AcDbLine
 10
258.7943999999999
 20
109.0
 30
0.0
 11
265.0
 21
109.0
 31
0.0
  0
LINE
  5
2A1
330
1E
100
AcDbEntity
  8
0
100
AcDbLine
 10
253.02
 20
107.44
 30
0.0
 11
254.4599999999999
 21
103.8399999999999
 31
0.0
  0
LINE
  5
2A2
330
1E
100
AcDbEntity
  8
0
100
AcDbLine
 10
229.584
 20
118.2279999999999
 30
0.0
 11
234.624
 21
120.2439999999999
 31
0.0
  0
LINE
  5
2A3
330
1E
100
AcDbEntity
  8
0
100
AcDbLine
 10
230.08
 20
117.3599999999999
 30
0.0
 11
234.88
 21
119.28
 31
0.0
  0
LINE
  5
2A4
330
1E
100
AcDbEntity
  8
0
100
AcDbLine
 10
240.0
 20
111.0
 30
0.0
 11
242.8159999999999
 21
110.6039999999999
 31
0.0
  0
LINE
  5
2A5
330
1E
100
AcDbEntity
  8
0
100
AcDbLine
 10
243.84
 20
114.46
 30
0.0
 11
247.44
 21
113.02
 31
0.0
  0
LINE
  5
2A6
330
1E
100
AcDbEntity
  8
0
100
AcDbLine
 10
254.1599999999999
 20
114.1599999999999
 30
0.0
 11
257.36
 21
109.9199999999999
 31
0.0
  0
LINE
  5
2A7
330
1E
100
AcDbEntity
  8
0
100
AcDbLine
 10
247.44
 20
113.02
 30
0.0
 11
250.62
 21
110.62
 31
0.0
  0
LINE
  5
2A8
330
1E
100
AcDbEntity
  8
0
100
AcDbLine
 10
240.0
 20
121.0
 30
0.0
 11
245.3759999999999
 21
120.2439999999999
 31
0.0
  0
LINE
  5
2A9
330
1E
100
AcDbEntity
  8
0
100
AcDbLine
 10
234.624
 20
120.2439999999999
 30
0.0
 11
240.0
 21
121.0
 31
0.0
  0
LINE
  5
2AA
330
1E
100
AcDbEntity
  8
0
100
AcDbLine
 10
240.0
 20
120.0
 30
0.0
 11
245.12
 21
119.28
 31
0.0
  0
LINE
  5
2AB
330
1E
100
AcDbEntity
  8
0
100
AcDbLine
 10
234.88
 20
119.28
 30
0.0
 11
240.0
 21
120.0
 31
0.0
  0
LINE
  5
2AC
330
1E
100
AcDbEntity
  8
0
100
AcDbLine
 10
254.868
 20
114.8679999999999
 30
0.0
 11
258.228
 21
110.416
 31
0.0
  0
LINE
  5
2AD
330
1E
100
AcDbEntity
  8
0
100
AcDbLine
 10
245.3759999999999
 20
120.2439999999999
 30
0.0
 11
250.416
 21
118.2279999999999
 31
0.0
  0
LINE
  5
2AE
330
1E
100
AcDbEntity
  8
0
100
AcDbLine
 10
250.416
 20
118.2279999999999
 30
0.0
 11
254.868
 21
114.8679999999999
 31
0.0
  0
LINE
  5
2AF
330
1E
100
AcDbEntity
  8
0
100
AcDbLine
 10
245.12
 20
119.28
 30
0.0
 11
249.92
 21
117.3599999999999
 31
0.0
  0
LINE
  5
2B0
330
1E
100
AcDbEntity
  8
0
100
AcDbLine
 10
249.92
 20
117.3599999999999
 30
0.0
 11
254.1599999999999
 21
114.1599999999999
 31
0.0
  0
LINE
  5
2B1
330
1E
100
AcDbEntity
  8
0
100
AcDbLine
 10
240.0
 20
115.0
 30
0.0
 11
243.84
 21
114.46
 31
0.0
  0
LINE
  5
2B2
330
1E
100
AcDbEntity
  8
0
100
AcDbLine
 10
236.16
 20
114.46
 30
0.0
 11
240.0
 21
115.0
 31
0.0
  0
LINE
  5
2B3
330
1E
100
AcDbEntity
  8
0
100
AcDbLine
 10
232.56
 20
113.02
 30
0.0
 11
236.16
 21
114.46
 31
0.0
  0
LINE
  5
2B4
330
1E
100
AcDbEntity
  8
0
100
AcDbLine
 10
229.38
 20
110.62
 30
0.0
 11
232.56
 21
113.02
 31
0.0
  0
LINE
  5
2B5
330
1E
100
AcDbEntity
  8
0
100
AcDbLine
 10
226.98
 20
107.44
 30
0.0
 11
229.38
 21
110.62
 31
0.0
  0
LINE
  5
2B6
330
1E
100
AcDbEntity
  8
0
100
AcDbLine
 10
208.8569999999999
 20
106.3636
 30
0.0
 11
209.0
 21
105.8864
 31
0.0
  0
LINE
  5
2B7
330
1E
100
AcDbEntity
  8
0
100
AcDbLine
 10
208.524
 20
106.8409
 30
0.0
 11
208.8569999999999
 21
106.3636
 31
0.0
  0
LINE
  5
2B8
330
1E
100
AcDbEntity
  8
0
100
AcDbLine
 10
208.524
 20
106.8409
 30
0.0
 11
208.524
 21
106.7322
 31
0.0
  0
LINE
  5
333
330
1E
100
AcDbEntity
  8
0
100
AcDbLine
 10
312.257
 20
75.7601
 30
0.0
 11
313.2519999999999
 21
78.24809999999999
 31
0.0
  0
LINE
  5
334
330
1E
100
AcDbEntity
  8
0
100
AcDbLine
 10
311.9629999999999
 20
72.9773
 30
0.0
 11
312.4519999999999
 21
70.1675
 31
0.0
  0
LINE
  5
335
330
1E
100
AcDbEntity
  8
0
100
AcDbLine
 10
311.9629999999999
 20
72.9773
 30
0.0
 11
312.257
 21
75.7601
 31
0.0
  0
LINE
  5
336
330
1E
100
AcDbEntity
  8
0
100
AcDbLine
 10
315.115
 20
77.9302
 30
0.0
 11
315.388588317107
 21
80.56579492349939
 31
0.0
  0
LINE
  5
337
330
1E
100
AcDbEntity
  8
0
100
AcDbLine
 10
315.115
 20
77.9302
 30
0.0
 11
315.388588317107
 21
80.56579492349939
 31
0.0
  0
LINE
  5
338
330
1E
100
AcDbEntity
  8
0
100
AcDbLine
 10
315.115
 20
77.9302
 30
0.0
 11
315.6709999999999
 21
74.7009
 31
0.0
  0
LINE
  5
339
330
1E
100
AcDbEntity
  8
0
100
AcDbLine
 10
314.829
 20
80.3856
 30
0.0
 11
315.431450539082
 21
80.9879878099543
 31
0.0
  0
LINE
  5
33A
330
1E
100
AcDbEntity
  8
0
100
AcDbLine
 10
313.2519999999999
 20
78.24809999999999
 30
0.0
 11
314.829
 21
80.3856
 31
0.0
  0
LINE
  5
33B
330
1E
100
AcDbEntity
  8
0
100
AcDbLine
 10
312.4519999999999
 20
70.1675
 30
0.0
 11
313.622
 21
67.6042
 31
0.0
  0
LINE
  5
33C
330
1E
100
AcDbEntity
  8
0
100
AcDbLine
 10
313.622
 20
67.6042
 30
0.0
 11
315.352
 21
65.3518
 31
0.0
  0
LINE
  5
33D
330
1E
100
AcDbEntity
  8
0
100
AcDbLine
 10
315.6709999999999
 20
74.7009
 30
0.0
 11
317.028
 21
71.6787
 31
0.0
  0
LINE
  5
33E
330
1E
100
AcDbEntity
  8
0
100
AcDbLine
 10
319.0509999999999
 20
69.0509
 30
0.0
 11
321.679
 21
67.02850000000011
 31
0.0
  0
LINE
  5
33F
330
1E
100
AcDbEntity
  8
0
100
AcDbLine
 10
317.028
 20
71.6787
 30
0.0
 11
319.0509999999999
 21
69.0509
 31
0.0
  0
LINE
  5
340
330
1E
100
AcDbEntity
  8
0
100
AcDbLine
 10
317.604
 20
63.6218
 30
0.0
 11
320.168
 21
62.4516
 31
0.0
  0
LINE
  5
341
330
1E
100
AcDbEntity
  8
0
100
AcDbLine
 10
315.352
 20
65.3518
 30
0.0
 11
317.604
 21
63.6218
 31
0.0
  0
LINE
  5
342
330
1E
100
AcDbEntity
  8
0
100
AcDbLine
 10
315.47
 20
81.3677
 30
0.0
 11
316.619
 21
84.35509999999998
 31
0.0
  0
LINE
  5
343
330
1E
100
AcDbEntity
  8
0
100
AcDbLine
 10
316.619
 20
84.35509999999998
 30
0.0
 11
318.489
 21
86.87359999999999
 31
0.0
  0
LINE
  5
344
330
1E
100
AcDbEntity
  8
0
100
AcDbLine
 10
318.489
 20
86.87359999999999
 30
0.0
 11
321.1088961039649
 21
89.49345919362301
 31
0.0
  0
LINE
  5
345
330
1E
100
AcDbEntity
  8
0
100
AcDbLine
 10
318.489
 20
86.87359999999999
 30
0.0
 11
321.1088961039649
 21
89.49345919362301
 31
0.0
  0
LINE
  5
346
330
1E
100
AcDbEntity
  8
0
100
AcDbLine
 10
319.894
 20
80.90810000000001
 30
0.0
 11
320.299
 21
78.0146
 31
0.0
  0
LINE
  5
347
330
1E
100
AcDbEntity
  8
0
100
AcDbLine
 10
319.894
 20
80.90810000000001
 30
0.0
 11
320.299
 21
83.8016
 31
0.0
  0
LINE
  5
348
330
1E
100
AcDbEntity
  8
0
100
AcDbLine
 10
322.977
 20
61.9635
 30
0.0
 11
325.76
 21
62.25719999999999
 31
0.0
  0
LINE
  5
349
330
1E
100
AcDbEntity
  8
0
100
AcDbLine
 10
321.679
 20
67.02850000000011
 30
0.0
 11
324.7009999999999
 21
65.6707
 31
0.0
  0
LINE
  5
34A
330
1E
100
AcDbEntity
  8
0
100
AcDbLine
 10
320.168
 20
62.4516
 30
0.0
 11
322.977
 21
61.9635
 31
0.0
  0
LINE
  5
34B
330
1E
100
AcDbEntity
  8
0
100
AcDbLine
 10
323.13
 20
73.1299
 30
0.0
 11
325.401
 21
71.4187
 31
0.0
  0
LINE
  5
34C
330
1E
100
AcDbEntity
  8
0
100
AcDbLine
 10
321.419
 20
75.4012
 30
0.0
 11
323.13
 21
73.1299
 31
0.0
  0
LINE
  5
34D
330
1E
100
AcDbEntity
  8
0
100
AcDbLine
 10
322.679
 20
75.8353
 30
0.0
 11
323.137
 21
74.7662
 31
0.0
  0
LINE
  5
34E
330
1E
100
AcDbEntity
  8
0
100
AcDbLine
 10
323.137
 20
74.7662
 30
0.0
 11
323.8369999999999
 21
73.8371
 31
0.0
  0
LINE
  5
34F
330
1E
100
AcDbEntity
  8
0
100
AcDbLine
 10
324.7009999999999
 20
65.6707
 30
0.0
 11
327.93
 21
65.11490000000001
 31
0.0
  0
LINE
  5
350
330
1E
100
AcDbEntity
  8
0
100
AcDbLine
 10
325.76
 20
62.25719999999999
 30
0.0
 11
328.248
 21
63.2518
 31
0.0
  0
LINE
  5
351
330
1E
100
AcDbEntity
  8
0
100
AcDbLine
 10
325.401
 20
71.4187
 30
0.0
 11
328.0149999999999
 21
70.29870000000011
 31
0.0
  0
LINE
  5
352
330
1E
100
AcDbEntity
  8
0
100
AcDbLine
 10
327.93
 20
65.11490000000001
 30
0.0
 11
330.4549794643889
 21
65.37742522573779
 31
0.0
  0
LINE
  5
353
330
1E
100
AcDbEntity
  8
0
100
AcDbLine
 10
328.0149999999999
 20
70.29870000000011
 30
0.0
 11
330.908
 21
69.89419999999999
 31
0.0
  0
LINE
  5
354
330
1E
100
AcDbEntity
  8
0
100
AcDbLine
 10
327.0189999999999
 20
72.5134
 30
0.0
 11
328.203
 21
72.67879999999999
 31
0.0
  0
LINE
  5
355
330
1E
100
AcDbEntity
  8
0
100
AcDbLine
 10
325.835
 20
72.67879999999999
 30
0.0
 11
327.0189999999999
 21
72.5134
 31
0.0
  0
LINE
  5
356
330
1E
100
AcDbEntity
  8
0
100
AcDbLine
 10
324.7659999999999
 20
73.137
 30
0.0
 11
325.835
 21
72.67879999999999
 31
0.0
  0
LINE
  5
357
330
1E
100
AcDbEntity
  8
0
100
AcDbLine
 10
323.8369999999999
 20
73.8371
 30
0.0
 11
324.7659999999999
 21
73.137
 31
0.0
  0
LINE
  5
358
330
1E
100
AcDbEntity
  8
0
100
AcDbLine
 10
320.299
 20
78.0146
 30
0.0
 11
321.419
 21
75.4012
 31
0.0
  0
LINE
  5
359
330
1E
100
AcDbEntity
  8
0
100
AcDbLine
 10
323.137
 20
79.2719
 30
0.0
 11
323.8369999999999
 21
80.20100000000009
 31
0.0
  0
LINE
  5
35A
330
1E
100
AcDbEntity
  8
0
100
AcDbLine
 10
322.679
 20
78.20270000000009
 30
0.0
 11
323.137
 21
79.2719
 31
0.0
  0
LINE
  5
35B
330
1E
100
AcDbEntity
  8
0
100
AcDbLine
 10
322.513
 20
77.01899999999999
 30
0.0
 11
322.679
 21
75.8353
 31
0.0
  0
LINE
  5
35C
330
1E
100
AcDbEntity
  8
0
100
AcDbLine
 10
322.513
 20
77.01899999999999
 30
0.0
 11
322.679
 21
78.20270000000009
 31
0.0
  0
LINE
  5
35D
330
1E
100
AcDbEntity
  8
0
100
AcDbLine
 10
320.299
 20
83.8016
 30
0.0
 11
321.419
 21
86.4151
 31
0.0
  0
LINE
  5
35E
330
1E
100
AcDbEntity
  8
0
100
AcDbLine
 10
323.8369999999999
 20
80.20100000000009
 30
0.0
 11
324.7659999999999
 21
80.90100000000001
 31
0.0
  0
LINE
  5
35F
330
1E
100
AcDbEntity
  8
0
100
AcDbLine
 10
324.7659999999999
 20
80.90100000000001
 30
0.0
 11
325.664018732638
 21
81.2859971797644
 31
0.0
  0
LINE
  5
360
330
1E
100
AcDbEntity
  8
0
100
AcDbLine
 10
328.248
 20
63.2518
 30
0.0
 11
330.3859999999999
 21
64.8292
 31
0.0
  0
LINE
  5
361
330
1E
100
AcDbEntity
  8
0
100
AcDbLine
 10
329.272
 20
73.137
 30
0.0
 11
330.2009999999999
 21
73.8371
 31
0.0
  0
LINE
  5
362
330
1E
100
AcDbEntity
  8
0
100
AcDbLine
 10
328.203
 20
72.67879999999999
 30
0.0
 11
329.272
 21
73.137
 31
0.0
  0
LINE
  5
363
330
1E
100
AcDbEntity
  8
0
100
AcDbLine
 10
328.0799999999999
 20
78.0797
 30
0.0
 11
334.48
 21
73.2572
 31
0.0
  0
LINE
  5
364
330
1E
100
AcDbEntity
  8
0
100
AcDbLine
 10
321.419
 20
86.4151
 30
0.0
 11
321.8020758537369
 21
87.87577621104508
 31
0.0
  0
LINE
  5
365
330
1E
100
AcDbEntity
  8
0
100
AcDbLine
 10
323.2569999999999
 20
84.4804
 30
0.0
 11
328.0799999999999
 21
78.0797
 31
0.0
  0
LINE
  5
366
330
1E
100
AcDbEntity
  8
0
100
AcDbLine
 10
320.101
 20
91.84560000000001
 30
0.0
 11
323.2569999999999
 21
84.4804
 31
0.0
  0
LINE
  5
367
330
1E
100
AcDbEntity
  8
0
100
AcDbLine
 10
318.961
 20
100.0
 30
0.0
 11
320.101
 21
108.1544
 31
0.0
  0
LINE
  5
368
330
1E
100
AcDbEntity
  8
0
100
AcDbLine
 10
318.961
 20
100.0
 30
0.0
 11
320.101
 21
91.84560000000001
 31
0.0
  0
LINE
  5
369
330
1E
100
AcDbEntity
  8
0
100
AcDbLine
 10
331.368
 20
65.47029999999999
 30
0.0
 11
334.355
 21
66.6191
 31
0.0
  0
LINE
  5
36A
330
1E
100
AcDbEntity
  8
0
100
AcDbLine
 10
330.3859999999999
 20
64.8292
 30
0.0
 11
330.9877129915339
 21
65.43098818999171
 31
0.0
  0
LINE
  5
36B
330
1E
100
AcDbEntity
  8
0
100
AcDbLine
 10
330.908
 20
69.89419999999999
 30
0.0
 11
333.8019999999999
 21
70.29870000000011
 31
0.0
  0
LINE
  5
36C
330
1E
100
AcDbEntity
  8
0
100
AcDbLine
 10
330.2009999999999
 20
73.8371
 30
0.0
 11
330.901
 21
74.7662
 31
0.0
  0
LINE
  5
36D
330
1E
100
AcDbEntity
  8
0
100
AcDbLine
 10
330.901
 20
74.7662
 30
0.0
 11
331.2856862835869
 21
75.664165296469
 31
0.0
  0
LINE
  5
36E
330
1E
100
AcDbEntity
  8
0
100
AcDbLine
 10
336.874
 20
68.4888
 30
0.0
 11
339.4937468148289
 21
71.1086944581855
 31
0.0
  0
LINE
  5
36F
330
1E
100
AcDbEntity
  8
0
100
AcDbLine
 10
334.355
 20
66.6191
 30
0.0
 11
336.874
 21
68.4888
 31
0.0
  0
LINE
  5
370
330
1E
100
AcDbEntity
  8
0
100
AcDbLine
 10
336.415
 20
71.4187
 30
0.0
 11
337.8757894457319
 21
71.8020263120483
 31
0.0
  0
LINE
  5
371
330
1E
100
AcDbEntity
  8
0
100
AcDbLine
 10
333.8019999999999
 20
70.29870000000011
 30
0.0
 11
336.415
 21
71.4187
 31
0.0
  0
LINE
  5
372
330
1E
100
AcDbEntity
  8
0
100
AcDbLine
 10
334.48
 20
73.2572
 30
0.0
 11
341.846
 21
70.1007
 31
0.0
  0
LINE
  5
373
330
1E
100
AcDbEntity
  8
0
100
AcDbLine
 10
341.846
 20
70.1007
 30
0.0
 11
350.0
 21
68.96080000000001
 31
0.0
  0
LINE
  5
374
330
1E
100
AcDbEntity
  8
0
100
AcDbLine
 10
335.8579999999999
 20
85.85790000000001
 30
0.0
 11
339.9869999999999
 21
82.7466
 31
0.0
  0
LINE
  5
375
330
1E
100
AcDbEntity
  8
0
100
AcDbLine
 10
339.9869999999999
 20
82.7466
 30
0.0
 11
344.739
 21
80.7101000000001
 31
0.0
  0
LINE
  5
376
330
1E
100
AcDbEntity
  8
0
100
AcDbLine
 10
332.7469999999999
 20
89.9874000000001
 30
0.0
 11
335.8579999999999
 21
85.85790000000001
 31
0.0
  0
LINE
  5
377
330
1E
100
AcDbEntity
  8
0
100
AcDbLine
 10
330.7099999999999
 20
94.7391
 30
0.0
 11
332.7469999999999
 21
89.9874000000001
 31
0.0
  0
LINE
  5
378
330
1E
100
AcDbEntity
  8
0
100
AcDbLine
 10
329.975
 20
100.0
 30
0.0
 11
330.7099999999999
 21
105.2609
 31
0.0
  0
LINE
  5
379
330
1E
100
AcDbEntity
  8
0
100
AcDbLine
 10
329.975
 20
100.0
 30
0.0
 11
330.7099999999999
 21
94.7391
 31
0.0
  0
LINE
  5
37D
330
1E
100
AcDbEntity
  8
0
100
AcDbLine
 10
344.3659999999999
 20
98.4726
 30
0.0
 11
344.943
 21
97.08110000000001
 31
0.0
  0
LINE
  5
37E
330
1E
100
AcDbEntity
  8
0
100
AcDbLine
 10
344.1619999999999
 20
100.0
 30
0.0
 11
344.3659999999999
 21
101.5274
 31
0.0
  0
LINE
  5
37F
330
1E
100
AcDbEntity
  8
0
100
AcDbLine
 10
344.1619999999999
 20
100.0
 30
0.0
 11
344.3659999999999
 21
98.4726
 31
0.0
  0
LINE
  5
382
330
1E
100
AcDbEntity
  8
0
100
AcDbLine
 10
344.739
 20
80.7101000000001
 30
0.0
 11
350.0
 21
79.97469999999999
 31
0.0
  0
LINE
  5
383
330
1E
100
AcDbEntity
  8
0
100
AcDbLine
 10
350.0
 20
68.96080000000001
 30
0.0
 11
358.1539999999999
 21
70.1007
 31
0.0
  0
LINE
  5
384
330
1E
100
AcDbEntity
  8
0
100
AcDbLine
 10
350.0
 20
79.97469999999999
 30
0.0
 11
355.2609999999999
 21
80.7101000000001
 31
0.0
  0
LINE
  5
385
330
1E
100
AcDbEntity
  8
0
100
AcDbLine
 10
350.0
 20
94.1621000000001
 30
0.0
 11
351.527
 21
94.36580000000009
 31
0.0
  0
LINE
  5
386
330
1E
100
AcDbEntity
  8
0
100
AcDbLine
 10
348.473
 20
94.36580000000009
 30
0.0
 11
350.0
 21
94.1621000000001
 31
0.0
  0
LINE
  5
389
330
1E
100
AcDbEntity
  8
0
100
AcDbLine
 10
358.1539999999999
 20
70.1007
 30
0.0
 11
365.5199999999999
 21
73.2572
 31
0.0
  0
LINE
  5
38A
330
1E
100
AcDbEntity
  8
0
100
AcDbLine
 10
355.2609999999999
 20
80.7101000000001
 30
0.0
 11
360.013
 21
82.7466
 31
0.0
  0
LINE
  5
38B
330
1E
100
AcDbEntity
  8
0
100
AcDbLine
 10
360.013
 20
82.7466
 30
0.0
 11
364.142
 21
85.85790000000001
 31
0.0
  0
LINE
  5
38C
330
1E
100
AcDbEntity
  8
0
100
AcDbLine
 10
365.5199999999999
 20
73.2572
 30
0.0
 11
371.92
 21
78.0797
 31
0.0
  0
LINE
  5
38D
330
1E
100
AcDbEntity
  8
0
100
AcDbLine
 10
371.92
 20
78.0797
 30
0.0
 11
376.743
 21
84.4804
 31
0.0
  0
LINE
  5
38E
330
1E
100
AcDbEntity
  8
0
100
AcDbLine
 10
453.3439999999999
 20
74.936
 30
0.0
 11
460.0
 21
74.0
 31
0.0
  0
LINE
  5
38F
330
1E
100
AcDbEntity
  8
0
100
AcDbLine
 10
460.0
 20
74.0
 30
0.0
 11
466.656
 21
74.936
 31
0.0
  0
LINE
  5
390
330
1E
100
AcDbEntity
  8
0
100
AcDbLine
 10
447.104
 20
77.432
 30
0.0
 11
453.3439999999999
 21
74.936
 31
0.0
  0
LINE
  5
391
330
1E
100
AcDbEntity
  8
0
100
AcDbLine
 10
453.6
 20
75.9
 30
0.0
 11
460.0
 21
75.0
 31
0.0
  0
LINE
  5
392
330
1E
100
AcDbEntity
  8
0
100
AcDbLine
 10
447.5999999999999
 20
78.3
 30
0.0
 11
453.6
 21
75.9
 31
0.0
  0
LINE
  5
393
330
1E
100
AcDbEntity
  8
0
100
AcDbLine
 10
460.0
 20
75.0
 30
0.0
 11
466.3999999999999
 21
75.9
 31
0.0
  0
LINE
  5
394
330
1E
100
AcDbEntity
  8
0
100
AcDbLine
 10
466.656
 20
74.936
 30
0.0
 11
472.8959999999999
 21
77.432
 31
0.0
  0
LINE
  5
395
330
1E
100
AcDbEntity
  8
0
100
AcDbLine
 10
472.8959999999999
 20
77.432
 30
0.0
 11
478.408
 21
81.592
 31
0.0
  0
LINE
  5
396
330
1E
100
AcDbEntity
  8
0
100
AcDbLine
 10
466.3999999999999
 20
75.9
 30
0.0
 11
472.4
 21
78.3
 31
0.0
  0
LINE
  5
397
330
1E
100
AcDbEntity
  8
0
100
AcDbLine
 10
437.4319999999999
 20
87.10399999999999
 30
0.0
 11
441.5919999999999
 21
81.592
 31
0.0
  0
LINE
  5
398
330
1E
100
AcDbEntity
  8
0
100
AcDbLine
 10
441.5919999999999
 20
81.592
 30
0.0
 11
447.104
 21
77.432
 31
0.0
  0
LINE
  5
399
330
1E
100
AcDbEntity
  8
0
100
AcDbLine
 10
442.3
 20
82.3
 30
0.0
 11
447.5999999999999
 21
78.3
 31
0.0
  0
LINE
  5
39A
330
1E
100
AcDbEntity
  8
0
100
AcDbLine
 10
438.3
 20
87.59999999999999
 30
0.0
 11
442.3
 21
82.3
 31
0.0
  0
LINE
  5
39B
330
1E
100
AcDbEntity
  8
0
100
AcDbLine
 10
472.4
 20
78.3
 30
0.0
 11
477.7
 21
82.3
 31
0.0
  0
LINE
  5
39C
330
1E
100
AcDbEntity
  8
0
100
AcDbLine
 10
700.0
 20
0.0000000000000056
 30
0.0
 11
700.0
 21
200.0
 31
0.0
  0
LINE
  5
39D
330
1E
100
AcDbEntity
  8
0
100
AcDbLine
 10
478.408
 20
81.592
 30
0.0
 11
482.568
 21
87.10399999999999
 31
0.0
  0
LINE
  5
39E
330
1E
100
AcDbEntity
  8
0
100
AcDbLine
 10
482.568
 20
87.10399999999999
 30
0.0
 11
485.064
 21
93.34400000000009
 31
0.0
  0
LINE
  5
39F
330
1E
100
AcDbEntity
  8
0
100
AcDbLine
 10
551.0
 20
50.0
 30
0.0
 11
551.0
 21
150.0
 31
0.0
  0
LINE
  5
3A0
330
1E
100
AcDbEntity
  8
0
100
AcDbLine
 10
551.0
 20
50.0
 30
0.0
 11
700.0
 21
0.0000000000000056
 31
0.0
  0
LINE
  5
3A1
330
1E
100
AcDbEntity
  8
0
100
AcDbLine
 10
551.0
 20
50.0
 30
0.0
 11
700.0
 21
0.0
 31
0.0
  0
LINE
  5
3A2
330
1E
100
AcDbEntity
  8
0
100
AcDbLine
 10
477.7
 20
82.3
 30
0.0
 11
481.7
 21
87.59999999999999
 31
0.0
  0
LINE
  5
3A3
330
1E
100
AcDbEntity
  8
0
100
AcDbLine
 10
481.7
 20
87.59999999999999
 30
0.0
 11
484.1
 21
93.59999999999999
 31
0.0
  0
LINE
  5
3A4
330
1E
100
AcDbEntity
  8
0
100
AcDbLine
 10
376.743
 20
84.4804
 30
0.0
 11
379.8989999999999
 21
91.84560000000001
 31
0.0
  0
LINE
  5
3A5
330
1E
100
AcDbEntity
  8
0
100
AcDbLine
 10
434.9359999999999
 20
93.34400000000009
 30
0.0
 11
437.4319999999999
 21
87.10399999999999
 31
0.0
  0
LINE
  5
3A6
330
1E
100
AcDbEntity
  8
0
100
AcDbLine
 10
485.064
 20
93.34400000000009
 30
0.0
 11
486.0
 21
100.0
 31
0.0
  0
LINE
  5
3A7
330
1E
100
AcDbEntity
  8
0
100
AcDbLine
 10
435.8999999999999
 20
93.59999999999999
 30
0.0
 11
438.3
 21
87.59999999999999
 31
0.0
  0
LINE
  5
3A8
330
1E
100
AcDbEntity
  8
0
100
AcDbLine
 10
484.1
 20
93.59999999999999
 30
0.0
 11
485.0
 21
100.0
 31
0.0
  0
LINE
  5
3A9
330
1E
100
AcDbEntity
  8
0
100
AcDbLine
 10
379.8989999999999
 20
91.84560000000001
 30
0.0
 11
381.0389999999999
 21
100.0
 31
0.0
  0
LINE
  5
3AA
330
1E
100
AcDbEntity
  8
0
100
AcDbLine
 10
367.253
 20
89.9874000000001
 30
0.0
 11
369.29
 21
94.7391
 31
0.0
  0
LINE
  5
3AB
330
1E
100
AcDbEntity
  8
0
100
AcDbLine
 10
364.142
 20
85.85790000000001
 30
0.0
 11
367.253
 21
89.9874000000001
 31
0.0
  0
LINE
  5
3AC
330
1E
100
AcDbEntity
  8
0
100
AcDbLine
 10
369.29
 20
94.7391
 30
0.0
 11
370.025
 21
100.0
 31
0.0
  0
LINE
  5
3AD
330
1E
100
AcDbEntity
  8
0
100
AcDbLine
 10
351.527
 20
94.36580000000009
 30
0.0
 11
352.919
 21
94.94280000000001
 31
0.0
  0
LINE
  5
3AF
330
1E
100
AcDbEntity
  8
0
100
AcDbLine
 10
347.0809999999999
 20
94.94280000000001
 30
0.0
 11
348.473
 21
94.36580000000009
 31
0.0
  0
LINE
  5
3B0
330
1E
100
AcDbEntity
  8
0
100
AcDbLine
 10
352.919
 20
94.94280000000001
 30
0.0
 11
354.1409999999999
 21
95.85919999999999
 31
0.0
  0
LINE
  5
3B1
330
1E
100
AcDbEntity
  8
0
100
AcDbLine
 10
345.859
 20
95.85919999999999
 30
0.0
 11
347.0809999999999
 21
94.94280000000001
 31
0.0
  0
LINE
  5
3B2
330
1E
100
AcDbEntity
  8
0
100
AcDbLine
 10
355.0569999999999
 20
97.08110000000001
 30
0.0
 11
355.634
 21
98.4726
 31
0.0
  0
LINE
  5
3B3
330
1E
100
AcDbEntity
  8
0
100
AcDbLine
 10
354.1409999999999
 20
95.85919999999999
 30
0.0
 11
355.0569999999999
 21
97.08110000000001
 31
0.0
  0
LINE
  5
3B7
330
1E
100
AcDbEntity
  8
0
100
AcDbLine
 10
355.634
 20
101.5274
 30
0.0
 11
355.838
 21
100.0
 31
0.0
  0
LINE
  5
3B8
330
1E
100
AcDbEntity
  8
0
100
AcDbLine
 10
355.634
 20
98.4726
 30
0.0
 11
355.838
 21
100.0
 31
0.0
  0
LINE
  5
3B9
330
1E
100
AcDbEntity
  8
0
100
AcDbLine
 10
434.0
 20
100.0
 30
0.0
 11
434.9359999999999
 21
106.656
 31
0.0
  0
LINE
  5
3BA
330
1E
100
AcDbEntity
  8
0
100
AcDbLine
 10
434.0
 20
100.0
 30
0.0
 11
434.9359999999999
 21
93.34400000000009
 31
0.0
  0
LINE
  5
3BB
330
1E
100
AcDbEntity
  8
0
100
AcDbLine
 10
435.0
 20
100.0
 30
0.0
 11
435.8999999999999
 21
106.4
 31
0.0
  0
LINE
  5
3BC
330
1E
100
AcDbEntity
  8
0
100
AcDbLine
 10
435.0
 20
100.0
 30
0.0
 11
435.8999999999999
 21
93.59999999999999
 31
0.0
  0
LINE
  5
3BE
330
1E
100
AcDbEntity
  8
0
100
AcDbLine
 10
344.943
 20
97.08110000000001
 30
0.0
 11
345.859
 21
95.85919999999999
 31
0.0
  0
LINE
  5
3BF
330
1E
100
AcDbEntity
  8
0
100
AcDbLine
 10
344.3659999999999
 20
101.5274
 30
0.0
 11
344.943
 21
102.9188999999999
 31
0.0
  0
LINE
  5
3C2
330
1E
100
AcDbEntity
  8
0
100
AcDbLine
 10
344.943
 20
102.9188999999999
 30
0.0
 11
345.859
 21
104.1408
 31
0.0
  0
LINE
  5
3C3
330
1E
100
AcDbEntity
  8
0
100
AcDbLine
 10
330.7099999999999
 20
105.2609
 30
0.0
 11
332.7469999999999
 21
110.0126
 31
0.0
  0
LINE
  5
3C5
330
1E
100
AcDbEntity
  8
0
100
AcDbLine
 10
355.0569999999999
 20
102.9188999999999
 30
0.0
 11
355.634
 21
101.5274
 31
0.0
  0
LINE
  5
3C6
330
1E
100
AcDbEntity
  8
0
100
AcDbLine
 10
354.1409999999999
 20
104.1408
 30
0.0
 11
355.0569999999999
 21
102.9188999999999
 31
0.0
  0
LINE
  5
3C9
330
1E
100
AcDbEntity
  8
0
100
AcDbLine
 10
352.919
 20
105.0572
 30
0.0
 11
354.1409999999999
 21
104.1408
 31
0.0
  0
LINE
  5
3CA
330
1E
100
AcDbEntity
  8
0
100
AcDbLine
 10
369.29
 20
105.2609
 30
0.0
 11
370.025
 21
100.0
 31
0.0
  0
LINE
  5
3CC
330
1E
100
AcDbEntity
  8
0
100
AcDbLine
 10
351.527
 20
105.6342
 30
0.0
 11
352.919
 21
105.0572
 31
0.0
  0
LINE
  5
3CE
330
1E
100
AcDbEntity
  8
0
100
AcDbLine
 10
350.0
 20
105.8378999999999
 30
0.0
 11
351.527
 21
105.6342
 31
0.0
  0
LINE
  5
3D0
330
1E
100
AcDbEntity
  8
0
100
AcDbLine
 10
348.473
 20
105.6342
 30
0.0
 11
350.0
 21
105.8378999999999
 31
0.0
  0
LINE
  5
3D2
330
1E
100
AcDbEntity
  8
0
100
AcDbLine
 10
347.0809999999999
 20
105.0572
 30
0.0
 11
348.473
 21
105.6342
 31
0.0
  0
LINE
  5
3D3
330
1E
100
AcDbEntity
  8
0
100
AcDbLine
 10
345.859
 20
104.1408
 30
0.0
 11
347.0809999999999
 21
105.0572
 31
0.0
  0
LINE
  5
3D6
330
1E
100
AcDbEntity
  8
0
100
AcDbLine
 10
320.101
 20
108.1544
 30
0.0
 11
323.2569999999999
 21
115.52
 31
0.0
  0
LINE
  5
3D7
330
1E
100
AcDbEntity
  8
0
100
AcDbLine
 10
332.7469999999999
 20
110.0126
 30
0.0
 11
335.8579999999999
 21
114.1421
 31
0.0
  0
LINE
  5
3D8
330
1E
100
AcDbEntity
  8
0
100
AcDbLine
 10
323.2569999999999
 20
115.52
 30
0.0
 11
328.0799999999999
 21
121.92
 31
0.0
  0
LINE
  5
3D9
330
1E
100
AcDbEntity
  8
0
100
AcDbLine
 10
334.48
 20
126.743
 30
0.0
 11
341.846
 21
129.899
 31
0.0
  0
LINE
  5
3DA
330
1E
100
AcDbEntity
  8
0
100
AcDbLine
 10
328.0799999999999
 20
121.92
 30
0.0
 11
334.48
 21
126.743
 31
0.0
  0
LINE
  5
3DB
330
1E
100
AcDbEntity
  8
0
100
AcDbLine
 10
350.0
 20
131.0389999999999
 30
0.0
 11
358.1539999999999
 21
129.899
 31
0.0
  0
LINE
  5
3DC
330
1E
100
AcDbEntity
  8
0
100
AcDbLine
 10
341.846
 20
129.899
 30
0.0
 11
350.0
 21
131.0389999999999
 31
0.0
  0
LINE
  5
3DD
330
1E
100
AcDbEntity
  8
0
100
AcDbLine
 10
350.0
 20
120.025
 30
0.0
 11
355.2609999999999
 21
119.29
 31
0.0
  0
LINE
  5
3DE
330
1E
100
AcDbEntity
  8
0
100
AcDbLine
 10
344.739
 20
119.29
 30
0.0
 11
350.0
 21
120.025
 31
0.0
  0
LINE
  5
3DF
330
1E
100
AcDbEntity
  8
0
100
AcDbLine
 10
339.9869999999999
 20
117.2529999999999
 30
0.0
 11
344.739
 21
119.29
 31
0.0
  0
LINE
  5
3E0
330
1E
100
AcDbEntity
  8
0
100
AcDbLine
 10
335.8579999999999
 20
114.1421
 30
0.0
 11
339.9869999999999
 21
117.2529999999999
 31
0.0
  0
LINE
  5
3E1
330
1E
100
AcDbEntity
  8
0
100
AcDbLine
 10
484.1
 20
106.4
 30
0.0
 11
485.0
 21
100.0
 31
0.0
  0
LINE
  5
3E2
330
1E
100
AcDbEntity
  8
0
100
AcDbLine
 10
485.064
 20
106.656
 30
0.0
 11
486.0
 21
100.0
 31
0.0
  0
LINE
  5
3E3
330
1E
100
AcDbEntity
  8
0
100
AcDbLine
 10
434.9359999999999
 20
106.656
 30
0.0
 11
437.4319999999999
 21
112.8959999999999
 31
0.0
  0
LINE
  5
3E4
330
1E
100
AcDbEntity
  8
0
100
AcDbLine
 10
435.8999999999999
 20
106.4
 30
0.0
 11
438.3
 21
112.4
 31
0.0
  0
LINE
  5
3E5
330
1E
100
AcDbEntity
  8
0
100
AcDbLine
 10
380.043
 20
108.2626
 30
0.0
 11
380.134
 21
106.5247999999999
 31
0.0
  0
LINE
  5
3E6
330
1E
100
AcDbEntity
  8
0
100
AcDbLine
 10
379.8989999999999
 20
108.1544
 30
0.0
 11
381.0389999999999
 21
100.0
 31
0.0
  0
LINE
  5
3E7
330
1E
100
AcDbEntity
  8
0
100
AcDbLine
 10
378.1979592209069
 20
112.124357529304
 30
0.0
 11
378.5809999999999
 21
113.5849
 31
0.0
  0
LINE
  5
3E8
330
1E
100
AcDbEntity
  8
0
100
AcDbLine
 10
379.648
 20
110.0187
 30
0.0
 11
380.043
 21
108.2626
 31
0.0
  0
LINE
  5
3E9
330
1E
100
AcDbEntity
  8
0
100
AcDbLine
 10
379.270299220328
 20
110.8857307883859
 30
0.0
 11
379.648
 21
110.0187
 31
0.0
  0
LINE
  5
3EA
330
1E
100
AcDbEntity
  8
0
100
AcDbLine
 10
481.7
 20
112.4
 30
0.0
 11
484.1
 21
106.4
 31
0.0
  0
LINE
  5
3EB
330
1E
100
AcDbEntity
  8
0
100
AcDbLine
 10
482.568
 20
112.8959999999999
 30
0.0
 11
485.064
 21
106.656
 31
0.0
  0
LINE
  5
3EC
330
1E
100
AcDbEntity
  8
0
100
AcDbLine
 10
437.4319999999999
 20
112.8959999999999
 30
0.0
 11
441.5919999999999
 21
118.4079999999999
 31
0.0
  0
LINE
  5
3ED
330
1E
100
AcDbEntity
  8
0
100
AcDbLine
 10
438.3
 20
112.4
 30
0.0
 11
442.3
 21
117.7
 31
0.0
  0
LINE
  5
3EE
330
1E
100
AcDbEntity
  8
0
100
AcDbLine
 10
381.5109999999999
 20
113.1264
 30
0.0
 11
383.3809999999999
 21
115.6449999999999
 31
0.0
  0
LINE
  5
3EF
330
1E
100
AcDbEntity
  8
0
100
AcDbLine
 10
378.8911422134149
 20
110.5065791232169
 30
0.0
 11
381.5109999999999
 21
113.1264
 31
0.0
  0
LINE
  5
3F0
330
1E
100
AcDbEntity
  8
0
100
AcDbLine
 10
378.5809999999999
 20
113.5849
 30
0.0
 11
379.7009999999999
 21
116.198
 31
0.0
  0
LINE
  5
3F1
330
1E
100
AcDbEntity
  8
0
100
AcDbLine
 10
441.5919999999999
 20
118.4079999999999
 30
0.0
 11
447.104
 21
122.568
 31
0.0
  0
LINE
  5
3F2
330
1E
100
AcDbEntity
  8
0
100
AcDbLine
 10
478.408
 20
118.4079999999999
 30
0.0
 11
482.568
 21
112.8959999999999
 31
0.0
  0
LINE
  5
3F3
330
1E
100
AcDbEntity
  8
0
100
AcDbLine
 10
477.7
 20
117.7
 30
0.0
 11
481.7
 21
112.4
 31
0.0
  0
LINE
  5
3F4
330
1E
100
AcDbEntity
  8
0
100
AcDbLine
 10
442.3
 20
117.7
 30
0.0
 11
447.5999999999999
 21
121.7
 31
0.0
  0
LINE
  5
3F5
330
1E
100
AcDbEntity
  8
0
100
AcDbLine
 10
383.3809999999999
 20
115.6449999999999
 30
0.0
 11
384.5299999999999
 21
118.632
 31
0.0
  0
LINE
  5
3F6
330
1E
100
AcDbEntity
  8
0
100
AcDbLine
 10
384.56853723446
 20
119.011650149181
 30
0.0
 11
385.171
 21
119.6139999999999
 31
0.0
  0
LINE
  5
3F7
330
1E
100
AcDbEntity
  8
0
100
AcDbLine
 10
379.7009999999999
 20
116.198
 30
0.0
 11
380.106
 21
119.092
 31
0.0
  0
LINE
  5
3F8
330
1E
100
AcDbEntity
  8
0
100
AcDbLine
 10
375.234
 20
119.099
 30
0.0
 11
376.163
 21
119.7989999999999
 31
0.0
  0
LINE
  5
3F9
330
1E
100
AcDbEntity
  8
0
100
AcDbLine
 10
374.33586655583
 20
118.714205689963
 30
0.0
 11
375.234
 21
119.099
 31
0.0
  0
LINE
  5
3FA
330
1E
100
AcDbEntity
  8
0
100
AcDbLine
 10
376.743
 20
115.52
 30
0.0
 11
379.8989999999999
 21
108.1544
 31
0.0
  0
LINE
  5
3FB
330
1E
100
AcDbEntity
  8
0
100
AcDbLine
 10
364.142
 20
114.1421
 30
0.0
 11
367.253
 21
110.0126
 31
0.0
  0
LINE
  5
3FC
330
1E
100
AcDbEntity
  8
0
100
AcDbLine
 10
367.253
 20
110.0126
 30
0.0
 11
369.29
 21
105.2609
 31
0.0
  0
LINE
  5
3FD
330
1E
100
AcDbEntity
  8
0
100
AcDbLine
 10
360.013
 20
117.2529999999999
 30
0.0
 11
364.142
 21
114.1421
 31
0.0
  0
LINE
  5
3FE
330
1E
100
AcDbEntity
  8
0
100
AcDbLine
 10
369.799
 20
126.163
 30
0.0
 11
370.728
 21
126.8629999999999
 31
0.0
  0
LINE
  5
3FF
330
1E
100
AcDbEntity
  8
0
100
AcDbLine
 10
369.0989999999999
 20
125.234
 30
0.0
 11
369.799
 21
126.163
 31
0.0
  0
LINE
  5
400
330
1E
100
AcDbEntity
  8
0
100
AcDbLine
 10
368.714205689963
 20
124.33586655583
 30
0.0
 11
369.0989999999999
 21
125.234
 31
0.0
  0
LINE
  5
401
330
1E
100
AcDbEntity
  8
0
100
AcDbLine
 10
376.163
 20
119.7989999999999
 30
0.0
 11
376.863
 21
120.7279999999999
 31
0.0
  0
LINE
  5
402
330
1E
100
AcDbEntity
  8
0
100
AcDbLine
 10
376.863
 20
120.7279999999999
 30
0.0
 11
377.3209999999999
 21
121.797
 31
0.0
  0
LINE
  5
403
330
1E
100
AcDbEntity
  8
0
100
AcDbLine
 10
384.61048474347
 20
119.424896669764
 30
0.0
 11
384.885
 21
122.0699999999999
 31
0.0
  0
LINE
  5
404
330
1E
100
AcDbEntity
  8
0
100
AcDbLine
 10
384.61048474347
 20
119.424896669764
 30
0.0
 11
384.885
 21
122.0699999999999
 31
0.0
  0
LINE
  5
405
330
1E
100
AcDbEntity
  8
0
100
AcDbLine
 10
385.171
 20
119.6139999999999
 30
0.0
 11
386.748
 21
121.752
 31
0.0
  0
LINE
  5
406
330
1E
100
AcDbEntity
  8
0
100
AcDbLine
 10
472.4
 20
121.7
 30
0.0
 11
477.7
 21
117.7
 31
0.0
  0
LINE
  5
407
330
1E
100
AcDbEntity
  8
0
100
AcDbLine
 10
447.5999999999999
 20
121.7
 30
0.0
 11
453.6
 21
124.0999999999999
 31
0.0
  0
LINE
  5
408
330
1E
100
AcDbEntity
  8
0
100
AcDbLine
 10
386.748
 20
121.752
 30
0.0
 11
387.743
 21
124.2399999999999
 31
0.0
  0
LINE
  5
409
330
1E
100
AcDbEntity
  8
0
100
AcDbLine
 10
447.104
 20
122.568
 30
0.0
 11
453.3439999999999
 21
125.0639999999999
 31
0.0
  0
LINE
  5
40A
330
1E
100
AcDbEntity
  8
0
100
AcDbLine
 10
472.8959999999999
 20
122.568
 30
0.0
 11
478.408
 21
118.4079999999999
 31
0.0
  0
LINE
  5
40B
330
1E
100
AcDbEntity
  8
0
100
AcDbLine
 10
466.3999999999999
 20
124.0999999999999
 30
0.0
 11
472.4
 21
121.7
 31
0.0
  0
LINE
  5
40C
330
1E
100
AcDbEntity
  8
0
100
AcDbLine
 10
453.6
 20
124.0999999999999
 30
0.0
 11
460.0
 21
125.0
 31
0.0
  0
LINE
  5
40D
330
1E
100
AcDbEntity
  8
0
100
AcDbLine
 10
379.7009999999999
 20
121.985
 30
0.0
 11
380.106
 21
119.092
 31
0.0
  0
LINE
  5
40E
330
1E
100
AcDbEntity
  8
0
100
AcDbLine
 10
377.3209999999999
 20
121.797
 30
0.0
 11
377.4869999999999
 21
122.981
 31
0.0
  0
LINE
  5
40F
330
1E
100
AcDbEntity
  8
0
100
AcDbLine
 10
460.0
 20
126.0
 30
0.0
 11
466.656
 21
125.0639999999999
 31
0.0
  0
LINE
  5
410
330
1E
100
AcDbEntity
  8
0
100
AcDbLine
 10
466.656
 20
125.0639999999999
 30
0.0
 11
472.8959999999999
 21
122.568
 31
0.0
  0
LINE
  5
411
330
1E
100
AcDbEntity
  8
0
100
AcDbLine
 10
453.3439999999999
 20
125.0639999999999
 30
0.0
 11
460.0
 21
126.0
 31
0.0
  0
LINE
  5
412
330
1E
100
AcDbEntity
  8
0
100
AcDbLine
 10
460.0
 20
125.0
 30
0.0
 11
466.3999999999999
 21
124.0999999999999
 31
0.0
  0
LINE
  5
413
330
1E
100
AcDbEntity
  8
0
100
AcDbLine
 10
384.329
 20
125.299
 30
0.0
 11
384.885
 21
122.0699999999999
 31
0.0
  0
LINE
  5
414
330
1E
100
AcDbEntity
  8
0
100
AcDbLine
 10
387.743
 20
124.2399999999999
 30
0.0
 11
388.0369999999999
 21
127.0229999999999
 31
0.0
  0
LINE
  5
415
330
1E
100
AcDbEntity
  8
0
100
AcDbLine
 10
378.5809999999999
 20
124.5989999999999
 30
0.0
 11
379.7009999999999
 21
121.985
 31
0.0
  0
LINE
  5
416
330
1E
100
AcDbEntity
  8
0
100
AcDbLine
 10
377.3209999999999
 20
124.165
 30
0.0
 11
377.4869999999999
 21
122.981
 31
0.0
  0
LINE
  5
417
330
1E
100
AcDbEntity
  8
0
100
AcDbLine
 10
376.863
 20
125.234
 30
0.0
 11
377.3209999999999
 21
124.165
 31
0.0
  0
LINE
  5
418
330
1E
100
AcDbEntity
  8
0
100
AcDbLine
 10
376.163
 20
126.163
 30
0.0
 11
376.863
 21
125.234
 31
0.0
  0
LINE
  5
419
330
1E
100
AcDbEntity
  8
0
100
AcDbLine
 10
371.92
 20
121.92
 30
0.0
 11
376.743
 21
115.52
 31
0.0
  0
LINE
  5
41A
330
1E
100
AcDbEntity
  8
0
100
AcDbLine
 10
362.124167487953
 20
128.197961635626
 30
0.0
 11
363.585
 21
128.581
 31
0.0
  0
LINE
  5
41B
330
1E
100
AcDbEntity
  8
0
100
AcDbLine
 10
365.6449999999999
 20
133.3809999999999
 30
0.0
 11
368.6319999999999
 21
134.5299999999999
 31
0.0
  0
LINE
  5
41C
330
1E
100
AcDbEntity
  8
0
100
AcDbLine
 10
363.1259999999999
 20
131.511
 30
0.0
 11
365.6449999999999
 21
133.3809999999999
 31
0.0
  0
LINE
  5
41D
330
1E
100
AcDbEntity
  8
0
100
AcDbLine
 10
360.506320793682
 20
128.8911362442489
 30
0.0
 11
363.1259999999999
 21
131.511
 31
0.0
  0
LINE
  5
41E
330
1E
100
AcDbEntity
  8
0
100
AcDbLine
 10
363.585
 20
128.581
 30
0.0
 11
366.198
 21
129.701
 31
0.0
  0
LINE
  5
41F
330
1E
100
AcDbEntity
  8
0
100
AcDbLine
 10
369.462094448159
 20
134.614260586863
 30
0.0
 11
372.0699999999999
 21
134.8849999999999
 31
0.0
  0
LINE
  5
420
330
1E
100
AcDbEntity
  8
0
100
AcDbLine
 10
369.614
 20
135.1709999999999
 30
0.0
 11
371.7519999999999
 21
136.748
 31
0.0
  0
LINE
  5
421
330
1E
100
AcDbEntity
  8
0
100
AcDbLine
 10
369.0124050608579
 20
134.569279754684
 30
0.0
 11
369.614
 21
135.1709999999999
 31
0.0
  0
LINE
  5
422
330
1E
100
AcDbEntity
  8
0
100
AcDbLine
 10
371.7519999999999
 20
136.748
 30
0.0
 11
374.2399999999999
 21
137.7429999999999
 31
0.0
  0
LINE
  5
423
330
1E
100
AcDbEntity
  8
0
100
AcDbLine
 10
369.0919999999999
 20
130.1059999999999
 30
0.0
 11
371.985
 21
129.701
 31
0.0
  0
LINE
  5
424
330
1E
100
AcDbEntity
  8
0
100
AcDbLine
 10
366.198
 20
129.701
 30
0.0
 11
369.0919999999999
 21
130.1059999999999
 31
0.0
  0
LINE
  5
425
330
1E
100
AcDbEntity
  8
0
100
AcDbLine
 10
370.728
 20
126.8629999999999
 30
0.0
 11
371.7969999999999
 21
127.3209999999999
 31
0.0
  0
LINE
  5
426
330
1E
100
AcDbEntity
  8
0
100
AcDbLine
 10
372.0699999999999
 20
134.8849999999999
 30
0.0
 11
375.299
 21
134.329
 31
0.0
  0
LINE
  5
427
330
1E
100
AcDbEntity
  8
0
100
AcDbLine
 10
371.985
 20
129.701
 30
0.0
 11
374.5989999999999
 21
128.581
 31
0.0
  0
LINE
  5
428
330
1E
100
AcDbEntity
  8
0
100
AcDbLine
 10
372.981
 20
127.487
 30
0.0
 11
374.165
 21
127.3209999999999
 31
0.0
  0
LINE
  5
429
330
1E
100
AcDbEntity
  8
0
100
AcDbLine
 10
374.2399999999999
 20
137.7429999999999
 30
0.0
 11
377.023
 21
138.036
 31
0.0
  0
LINE
  5
42A
330
1E
100
AcDbEntity
  8
0
100
AcDbLine
 10
375.299
 20
134.329
 30
0.0
 11
378.3209999999999
 21
132.971
 31
0.0
  0
LINE
  5
42B
330
1E
100
AcDbEntity
  8
0
100
AcDbLine
 10
382.972
 20
128.3209999999999
 30
0.0
 11
384.329
 21
125.299
 31
0.0
  0
LINE
  5
42C
330
1E
100
AcDbEntity
  8
0
100
AcDbLine
 10
380.949
 20
130.9489999999999
 30
0.0
 11
382.972
 21
128.3209999999999
 31
0.0
  0
LINE
  5
42D
330
1E
100
AcDbEntity
  8
0
100
AcDbLine
 10
378.3209999999999
 20
132.971
 30
0.0
 11
380.949
 21
130.9489999999999
 31
0.0
  0
LINE
  5
42E
330
1E
100
AcDbEntity
  8
0
100
AcDbLine
 10
387.5479999999999
 20
129.8319999999999
 30
0.0
 11
388.0369999999999
 21
127.0229999999999
 31
0.0
  0
LINE
  5
42F
330
1E
100
AcDbEntity
  8
0
100
AcDbLine
 10
386.378
 20
132.396
 30
0.0
 11
387.5479999999999
 21
129.8319999999999
 31
0.0
  0
LINE
  5
430
330
1E
100
AcDbEntity
  8
0
100
AcDbLine
 10
377.023
 20
138.036
 30
0.0
 11
379.8319999999999
 21
137.548
 31
0.0
  0
LINE
  5
431
330
1E
100
AcDbEntity
  8
0
100
AcDbLine
 10
379.8319999999999
 20
137.548
 30
0.0
 11
382.3959999999999
 21
136.3779999999999
 31
0.0
  0
LINE
  5
432
330
1E
100
AcDbEntity
  8
0
100
AcDbLine
 10
700.0
 20
200.0
 30
0.0
 11
700.0
 21
0.0
 31
0.0
  0
LINE
  5
433
330
1E
100
AcDbEntity
  8
0
100
AcDbLine
 10
551.0
 20
150.0
 30
0.0
 11
551.0
 21
50.0
 31
0.0
  0
LINE
  5
434
330
1E
100
AcDbEntity
  8
0
100
AcDbLine
 10
551.0
 20
150.0
 30
0.0
 11
700.0
 21
200.0
 31
0.0
  0
LINE
  5
435
330
1E
100
AcDbEntity
  8
0
100
AcDbLine
 10
551.0
 20
150.0
 30
0.0
 11
551.0
 21
50.0
 31
0.0
  0
LINE
  5
436
330
1E
100
AcDbEntity
  8
0
100
AcDbLine
 10
382.3959999999999
 20
136.3779999999999
 30
0.0
 11
384.648
 21
134.6479999999999
 31
0.0
  0
LINE
  5
437
330
1E
100
AcDbEntity
  8
0
100
AcDbLine
 10
384.648
 20
134.6479999999999
 30
0.0
 11
386.378
 21
132.396
 31
0.0
  0
LINE
  5
438
330
1E
100
AcDbEntity
  8
0
100
AcDbLine
 10
374.5989999999999
 20
128.581
 30
0.0
 11
376.8699999999999
 21
126.87
 31
0.0
  0
LINE
  5
439
330
1E
100
AcDbEntity
  8
0
100
AcDbLine
 10
376.8699999999999
 20
126.87
 30
0.0
 11
378.5809999999999
 21
124.5989999999999
 31
0.0
  0
LINE
  5
43A
330
1E
100
AcDbEntity
  8
0
100
AcDbLine
 10
374.165
 20
127.3209999999999
 30
0.0
 11
375.234
 21
126.8629999999999
 31
0.0
  0
LINE
  5
43B
330
1E
100
AcDbEntity
  8
0
100
AcDbLine
 10
375.234
 20
126.8629999999999
 30
0.0
 11
376.163
 21
126.163
 31
0.0
  0
LINE
  5
43C
330
1E
100
AcDbEntity
  8
0
100
AcDbLine
 10
371.7969999999999
 20
127.3209999999999
 30
0.0
 11
372.981
 21
127.487
 31
0.0
  0
LINE
  5
43D
330
1E
100
AcDbEntity
  8
0
100
AcDbLine
 10
365.5199999999999
 20
126.743
 30
0.0
 11
371.92
 21
121.92
 31
0.0
  0
LINE
  5
43E
330
1E
100
AcDbEntity
  8
0
100
AcDbLine
 10
358.1539999999999
 20
129.899
 30
0.0
 11
365.5199999999999
 21
126.743
 31
0.0
  0
LINE
  5
43F
330
1E
100
AcDbEntity
  8
0
100
AcDbLine
 10
355.2609999999999
 20
119.29
 30
0.0
 11
360.013
 21
117.2529999999999
 31
0.0
  0
LINE
  5
447
330
1E
100
AcDbEntity
  8
0
100
AcDbLine
 10
271.0
 20
102.9273
 30
0.0
 11
271.0
 21
95.8318
 31
0.0
  0
LINE
  5
448
330
1E
100
AcDbEntity
  8
0
100
AcDbLine
 10
271.0
 20
95.8318
 30
0.0
 11
271.0
 21
102.9273
 31
0.0
  0
LINE
  5
449
330
1E
100
AcDbEntity
  8
0
100
AcDbLine
 10
271.0
 20
102.9273
 30
0.0
 11
271.0
 21
96.52799999999999
 31
0.0
  0
LINE
  5
44A
330
1E
100
AcDbEntity
  8
0
100
AcDbLine
 10
271.0
 20
96.52799999999999
 30
0.0
 11
271.0
 21
102.9273
 31
0.0
  0
LINE
  5
44B
330
1E
100
AcDbEntity
  8
0
100
AcDbLine
 10
271.114
 20
101.6037
 30
0.0
 11
271.048
 21
100.0
 31
0.0
  0
LINE
  5
44C
330
1E
100
AcDbEntity
  8
0
100
AcDbLine
 10
280.952
 20
100.0
 30
0.0
 11
280.8859999999999
 21
101.6037
 31
0.0
  0
LINE
  5
44D
330
1E
100
AcDbEntity
  8
0
100
AcDbLine
 10
281.0
 20
99.9832000000001
 30
0.0
 11
281.0
 21
101.1867
 31
0.0
  0
LINE
  5
44E
330
1E
100
AcDbEntity
  8
0
100
AcDbLine
 10
281.0
 20
100.0
 30
0.0
 11
281.0
 21
101.5273
 31
0.0
  0
LINE
  5
44F
330
1E
100
AcDbEntity
  8
0
100
AcDbLine
 10
281.0
 20
101.1867
 30
0.0
 11
281.0
 21
99.9832000000001
 31
0.0
  0
LINE
  5
450
330
1E
100
AcDbEntity
  8
0
100
AcDbLine
 10
281.0
 20
101.5273
 30
0.0
 11
281.0
 21
100.0
 31
0.0
  0
LINE
  5
451
330
1E
100
AcDbEntity
  8
0
100
AcDbLine
 10
281.0
 20
101.2002
 30
0.0
 11
281.0
 21
99.99670000000001
 31
0.0
  0
LINE
  5
452
330
1E
100
AcDbEntity
  8
0
100
AcDbLine
 10
281.0
 20
99.99670000000001
 30
0.0
 11
281.0
 21
101.2002
 31
0.0
  0
LINE
  5
453
330
1E
100
AcDbEntity
  8
0
100
AcDbLine
 10
271.0
 20
93.0
 30
0.0
 11
265.0
 21
93.0
 31
0.0
  0
LINE
  5
454
330
1E
100
AcDbEntity
  8
0
100
AcDbLine
 10
280.5239999999999
 20
93.1591
 30
0.0
 11
280.0479999999999
 21
93.0
 31
0.0
  0
LINE
  5
455
330
1E
100
AcDbEntity
  8
0
100
AcDbLine
 10
280.5239999999999
 20
96.59539999999999
 30
0.0
 11
280.5239999999999
 21
96.0781
 31
0.0
  0
LINE
  5
456
330
1E
100
AcDbEntity
  8
0
100
AcDbLine
 10
281.0
 20
96.5215
 30
0.0
 11
281.0
 21
95.6019
 31
0.0
  0
LINE
  5
457
330
1E
100
AcDbEntity
  8
0
100
AcDbLine
 10
281.0
 20
97.07270000000001
 30
0.0
 11
281.0
 21
95.8318
 31
0.0
  0
LINE
  5
458
330
1E
100
AcDbEntity
  8
0
100
AcDbLine
 10
281.0
 20
96.5079
 30
0.0
 11
281.0
 21
95.6155
 31
0.0
  0
LINE
  5
459
330
1E
100
AcDbEntity
  8
0
100
AcDbLine
 10
281.0
 20
95.8318
 30
0.0
 11
281.0
 21
97.07270000000001
 31
0.0
  0
LINE
  5
45A
330
1E
100
AcDbEntity
  8
0
100
AcDbLine
 10
281.0
 20
95.6019
 30
0.0
 11
281.0
 21
96.5215
 31
0.0
  0
LINE
  5
45B
330
1E
100
AcDbEntity
  8
0
100
AcDbLine
 10
281.0
 20
95.6155
 30
0.0
 11
281.0
 21
96.5079
 31
0.0
  0
LINE
  5
45C
330
1E
100
AcDbEntity
  8
0
100
AcDbLine
 10
281.0
 20
94.9091000000001
 30
0.0
 11
281.0
 21
95.8318
 31
0.0
  0
LINE
  5
45D
330
1E
100
AcDbEntity
  8
0
100
AcDbLine
 10
281.0
 20
94.9091000000001
 30
0.0
 11
281.0
 21
94.33629999999999
 31
0.0
  0
LINE
  5
45E
330
1E
100
AcDbEntity
  8
0
100
AcDbLine
 10
281.0
 20
95.0881
 30
0.0
 11
281.0
 21
94.8582
 31
0.0
  0
LINE
  5
45F
330
1E
100
AcDbEntity
  8
0
100
AcDbLine
 10
281.0
 20
95.0881
 30
0.0
 11
281.0
 21
95.6019
 31
0.0
  0
LINE
  5
460
330
1E
100
AcDbEntity
  8
0
100
AcDbLine
 10
280.8269999999999
 20
95.4818
 30
0.0
 11
280.5239999999999
 21
96.0781
 31
0.0
  0
LINE
  5
461
330
1E
100
AcDbEntity
  8
0
100
AcDbLine
 10
281.0
 20
95.8318
 30
0.0
 11
281.0
 21
94.9091000000001
 31
0.0
  0
LINE
  5
462
330
1E
100
AcDbEntity
  8
0
100
AcDbLine
 10
281.0
 20
95.6019
 30
0.0
 11
281.0
 21
95.0881
 31
0.0
  0
LINE
  5
463
330
1E
100
AcDbEntity
  8
0
100
AcDbLine
 10
281.0
 20
95.1016
 30
0.0
 11
281.0
 21
95.6155
 31
0.0
  0
LINE
  5
464
330
1E
100
AcDbEntity
  8
0
100
AcDbLine
 10
281.0
 20
95.1016
 30
0.0
 11
281.0
 21
94.8582
 31
0.0
  0
LINE
  5
465
330
1E
100
AcDbEntity
  8
0
100
AcDbLine
 10
281.0
 20
95.6155
 30
0.0
 11
281.0
 21
95.1016
 31
0.0
  0
LINE
  5
466
330
1E
100
AcDbEntity
  8
0
100
AcDbLine
 10
281.0
 20
94.8582
 30
0.0
 11
281.0
 21
95.0881
 31
0.0
  0
LINE
  5
467
330
1E
100
AcDbEntity
  8
0
100
AcDbLine
 10
280.9039999999999
 20
94.63039999999999
 30
0.0
 11
280.8009999999999
 21
93.78360000000009
 31
0.0
  0
LINE
  5
468
330
1E
100
AcDbEntity
  8
0
100
AcDbLine
 10
280.9039999999999
 20
94.63039999999999
 30
0.0
 11
280.8269999999999
 21
95.4818
 31
0.0
  0
LINE
  5
469
330
1E
100
AcDbEntity
  8
0
100
AcDbLine
 10
281.0
 20
94.33629999999999
 30
0.0
 11
281.0
 21
94.11369999999999
 31
0.0
  0
LINE
  5
46A
330
1E
100
AcDbEntity
  8
0
100
AcDbLine
 10
281.0
 20
94.33629999999999
 30
0.0
 11
281.0
 21
94.9091000000001
 31
0.0
  0
LINE
  5
46B
330
1E
100
AcDbEntity
  8
0
100
AcDbLine
 10
280.8569999999999
 20
93.6363
 30
0.0
 11
280.5239999999999
 21
93.1591
 31
0.0
  0
LINE
  5
46C
330
1E
100
AcDbEntity
  8
0
100
AcDbLine
 10
281.0
 20
94.11369999999999
 30
0.0
 11
281.0
 21
94.33629999999999
 31
0.0
  0
LINE
  5
46D
330
1E
100
AcDbEntity
  8
0
100
AcDbLine
 10
281.0
 20
94.11369999999999
 30
0.0
 11
280.8569999999999
 21
93.6363
 31
0.0
  0
LINE
  5
46E
330
1E
100
AcDbEntity
  8
0
100
AcDbLine
 10
280.8009999999999
 20
93.78360000000009
 30
0.0
 11
280.5239999999999
 21
93.2678000000001
 31
0.0
  0
LINE
  5
46F
330
1E
100
AcDbEntity
  8
0
100
AcDbLine
 10
280.5239999999999
 20
93.2678000000001
 30
0.0
 11
280.5239999999999
 21
93.1591
 31
0.0
  0
LINE
  5
470
330
1E
100
AcDbEntity
  8
0
100
AcDbLine
 10
280.5239999999999
 20
93.1591
 30
0.0
 11
280.5239999999999
 21
93.2678000000001
 31
0.0
  0
LINE
  5
471
330
1E
100
AcDbEntity
  8
0
100
AcDbLine
 10
281.0
 20
98.47270000000001
 30
0.0
 11
281.0
 21
97.07270000000001
 31
0.0
  0
LINE
  5
472
330
1E
100
AcDbEntity
  8
0
100
AcDbLine
 10
281.0
 20
98.47270000000001
 30
0.0
 11
281.0
 21
100.0
 31
0.0
  0
LINE
  5
473
330
1E
100
AcDbEntity
  8
0
100
AcDbLine
 10
280.952
 20
100.0
 30
0.0
 11
280.8859999999999
 21
98.39629999999999
 31
0.0
  0
LINE
  5
474
330
1E
100
AcDbEntity
  8
0
100
AcDbLine
 10
280.8859999999999
 20
98.39629999999999
 30
0.0
 11
280.5239999999999
 21
96.9106000000001
 31
0.0
  0
LINE
  5
475
330
1E
100
AcDbEntity
  8
0
100
AcDbLine
 10
280.5239999999999
 20
96.9106000000001
 30
0.0
 11
280.5239999999999
 21
96.59539999999999
 31
0.0
  0
LINE
  5
476
330
1E
100
AcDbEntity
  8
0
100
AcDbLine
 10
280.5239999999999
 20
96.59539999999999
 30
0.0
 11
280.5239999999999
 21
96.9106000000001
 31
0.0
  0
LINE
  5
477
330
1E
100
AcDbEntity
  8
0
100
AcDbLine
 10
281.0
 20
99.9832000000001
 30
0.0
 11
281.0
 21
98.77970000000001
 31
0.0
  0
LINE
  5
478
330
1E
100
AcDbEntity
  8
0
100
AcDbLine
 10
281.0
 20
100.0
 30
0.0
 11
281.0
 21
98.47270000000001
 31
0.0
  0
LINE
  5
479
330
1E
100
AcDbEntity
  8
0
100
AcDbLine
 10
281.0
 20
99.99670000000001
 30
0.0
 11
281.0
 21
98.77970000000001
 31
0.0
  0
LINE
  5
47A
330
1E
100
AcDbEntity
  8
0
100
AcDbLine
 10
281.0
 20
98.77970000000001
 30
0.0
 11
281.0
 21
97.65730000000001
 31
0.0
  0
LINE
  5
47B
330
1E
100
AcDbEntity
  8
0
100
AcDbLine
 10
281.0
 20
98.77970000000001
 30
0.0
 11
281.0
 21
99.99670000000001
 31
0.0
  0
LINE
  5
47C
330
1E
100
AcDbEntity
  8
0
100
AcDbLine
 10
281.0
 20
98.77970000000001
 30
0.0
 11
281.0
 21
97.6438
 31
0.0
  0
LINE
  5
47D
330
1E
100
AcDbEntity
  8
0
100
AcDbLine
 10
281.0
 20
98.77970000000001
 30
0.0
 11
281.0
 21
99.9832000000001
 31
0.0
  0
LINE
  5
47E
330
1E
100
AcDbEntity
  8
0
100
AcDbLine
 10
281.0
 20
96.5215
 30
0.0
 11
281.0
 21
97.6438
 31
0.0
  0
LINE
  5
47F
330
1E
100
AcDbEntity
  8
0
100
AcDbLine
 10
281.0
 20
97.6438
 30
0.0
 11
281.0
 21
98.77970000000001
 31
0.0
  0
LINE
  5
480
330
1E
100
AcDbEntity
  8
0
100
AcDbLine
 10
281.0
 20
97.6438
 30
0.0
 11
281.0
 21
96.5215
 31
0.0
  0
LINE
  5
481
330
1E
100
AcDbEntity
  8
0
100
AcDbLine
 10
281.0
 20
97.07270000000001
 30
0.0
 11
281.0
 21
98.47270000000001
 31
0.0
  0
LINE
  5
482
330
1E
100
AcDbEntity
  8
0
100
AcDbLine
 10
281.0
 20
97.65730000000001
 30
0.0
 11
281.0
 21
96.5079
 31
0.0
  0
LINE
  5
483
330
1E
100
AcDbEntity
  8
0
100
AcDbLine
 10
281.0
 20
97.65730000000001
 30
0.0
 11
281.0
 21
98.77970000000001
 31
0.0
  0
LINE
  5
484
330
1E
100
AcDbEntity
  8
0
100
AcDbLine
 10
281.0
 20
96.5079
 30
0.0
 11
281.0
 21
97.65730000000001
 31
0.0
  0
LINE
  5
485
330
1E
100
AcDbEntity
  8
0
100
AcDbLine
 10
271.0
 20
96.52799999999999
 30
0.0
 11
271.0
 21
95.04400000000009
 31
0.0
  0
LINE
  5
486
330
1E
100
AcDbEntity
  8
0
100
AcDbLine
 10
271.476
 20
96.59539999999999
 30
0.0
 11
271.476
 21
96.0781
 31
0.0
  0
LINE
  5
487
330
1E
100
AcDbEntity
  8
0
100
AcDbLine
 10
271.476
 20
96.0781
 30
0.0
 11
271.476
 21
96.59539999999999
 31
0.0
  0
LINE
  5
488
330
1E
100
AcDbEntity
  8
0
100
AcDbLine
 10
271.0
 20
95.04400000000009
 30
0.0
 11
271.0
 21
96.52799999999999
 31
0.0
  0
LINE
  5
489
330
1E
100
AcDbEntity
  8
0
100
AcDbLine
 10
280.0479999999999
 20
93.0
 30
0.0
 11
271.952
 21
93.0
 31
0.0
  0
LINE
  5
48A
330
1E
100
AcDbEntity
  8
0
100
AcDbLine
 10
271.476
 20
96.0781
 30
0.0
 11
271.173
 21
95.4818
 31
0.0
  0
LINE
  5
48B
330
1E
100
AcDbEntity
  8
0
100
AcDbLine
 10
271.173
 20
95.4818
 30
0.0
 11
271.096
 21
94.63039999999999
 31
0.0
  0
LINE
  5
48C
330
1E
100
AcDbEntity
  8
0
100
AcDbLine
 10
271.0
 20
95.04400000000009
 30
0.0
 11
271.0
 21
93.924
 31
0.0
  0
LINE
  5
48D
330
1E
100
AcDbEntity
  8
0
100
AcDbLine
 10
271.0
 20
94.9091000000001
 30
0.0
 11
271.0
 21
94.33629999999999
 31
0.0
  0
LINE
  5
48E
330
1E
100
AcDbEntity
  8
0
100
AcDbLine
 10
271.0
 20
94.33629999999999
 30
0.0
 11
271.0
 21
94.9091000000001
 31
0.0
  0
LINE
  5
48F
330
1E
100
AcDbEntity
  8
0
100
AcDbLine
 10
271.0
 20
94.33629999999999
 30
0.0
 11
271.0
 21
94.11369999999999
 31
0.0
  0
LINE
  5
490
330
1E
100
AcDbEntity
  8
0
100
AcDbLine
 10
271.143
 20
93.6363
 30
0.0
 11
271.0
 21
94.11369999999999
 31
0.0
  0
LINE
  5
491
330
1E
100
AcDbEntity
  8
0
100
AcDbLine
 10
271.0
 20
94.11369999999999
 30
0.0
 11
271.0
 21
93.924
 31
0.0
  0
LINE
  5
492
330
1E
100
AcDbEntity
  8
0
100
AcDbLine
 10
271.0
 20
94.11369999999999
 30
0.0
 11
271.0
 21
94.33629999999999
 31
0.0
  0
LINE
  5
493
330
1E
100
AcDbEntity
  8
0
100
AcDbLine
 10
271.0
 20
93.924
 30
0.0
 11
271.0
 21
94.11369999999999
 31
0.0
  0
LINE
  5
494
330
1E
100
AcDbEntity
  8
0
100
AcDbLine
 10
271.0
 20
93.924
 30
0.0
 11
271.0
 21
93.252
 31
0.0
  0
LINE
  5
495
330
1E
100
AcDbEntity
  8
0
100
AcDbLine
 10
271.0
 20
93.924
 30
0.0
 11
271.0
 21
95.04400000000009
 31
0.0
  0
LINE
  5
496
330
1E
100
AcDbEntity
  8
0
100
AcDbLine
 10
271.199
 20
93.78360000000009
 30
0.0
 11
271.096
 21
94.63039999999999
 31
0.0
  0
LINE
  5
497
330
1E
100
AcDbEntity
  8
0
100
AcDbLine
 10
271.476
 20
93.2678000000001
 30
0.0
 11
271.476
 21
93.1591
 31
0.0
  0
LINE
  5
498
330
1E
100
AcDbEntity
  8
0
100
AcDbLine
 10
271.476
 20
93.2678000000001
 30
0.0
 11
271.199
 21
93.78360000000009
 31
0.0
  0
LINE
  5
499
330
1E
100
AcDbEntity
  8
0
100
AcDbLine
 10
271.0
 20
93.252
 30
0.0
 11
271.0
 21
93.0
 31
0.0
  0
LINE
  5
49A
330
1E
100
AcDbEntity
  8
0
100
AcDbLine
 10
271.0
 20
93.252
 30
0.0
 11
271.0
 21
93.924
 31
0.0
  0
LINE
  5
49B
330
1E
100
AcDbEntity
  8
0
100
AcDbLine
 10
271.476
 20
93.1591
 30
0.0
 11
271.476
 21
93.2678000000001
 31
0.0
  0
LINE
  5
49C
330
1E
100
AcDbEntity
  8
0
100
AcDbLine
 10
271.476
 20
93.1591
 30
0.0
 11
271.143
 21
93.6363
 31
0.0
  0
LINE
  5
49D
330
1E
100
AcDbEntity
  8
0
100
AcDbLine
 10
271.952
 20
93.0
 30
0.0
 11
271.476
 21
93.1591
 31
0.0
  0
LINE
  5
49E
330
1E
100
AcDbEntity
  8
0
100
AcDbLine
 10
271.0
 20
93.0
 30
0.0
 11
271.0
 21
93.252
 31
0.0
  0
LINE
  5
49F
330
1E
100
AcDbEntity
  8
0
100
AcDbLine
 10
271.114
 20
98.39629999999999
 30
0.0
 11
271.048
 21
100.0
 31
0.0
  0
LINE
  5
4A0
330
1E
100
AcDbEntity
  8
0
100
AcDbLine
 10
271.476
 20
96.9106000000001
 30
0.0
 11
271.476
 21
96.59539999999999
 31
0.0
  0
LINE
  5
4A1
330
1E
100
AcDbEntity
  8
0
100
AcDbLine
 10
271.476
 20
96.9106000000001
 30
0.0
 11
271.114
 21
98.39629999999999
 31
0.0
  0
LINE
  5
4A2
330
1E
100
AcDbEntity
  8
0
100
AcDbLine
 10
271.476
 20
96.59539999999999
 30
0.0
 11
271.476
 21
96.9106000000001
 31
0.0
  0
LINE
  5
4A3
330
1E
100
AcDbEntity
  8
0
100
AcDbLine
 10
271.0
 20
107.0
 30
0.0
 11
265.0
 21
107.0
 31
0.0
  0
LINE
  5
4A4
330
1E
100
AcDbEntity
  8
0
100
AcDbLine
 10
280.5239999999999
 20
106.8409
 30
0.0
 11
280.0479999999999
 21
107.0
 31
0.0
  0
LINE
  5
4A5
330
1E
100
AcDbEntity
  8
0
100
AcDbLine
 10
280.5239999999999
 20
103.9218999999999
 30
0.0
 11
280.5239999999999
 21
103.4045
 31
0.0
  0
LINE
  5
4A6
330
1E
100
AcDbEntity
  8
0
100
AcDbLine
 10
281.0
 20
102.9273
 30
0.0
 11
281.0
 21
104.1681999999999
 31
0.0
  0
LINE
  5
4A7
330
1E
100
AcDbEntity
  8
0
100
AcDbLine
 10
281.0
 20
104.1681999999999
 30
0.0
 11
281.0
 21
102.9273
 31
0.0
  0
LINE
  5
4A8
330
1E
100
AcDbEntity
  8
0
100
AcDbLine
 10
281.0
 20
103.5395999999999
 30
0.0
 11
281.0
 21
104.4184999999999
 31
0.0
  0
LINE
  5
4A9
330
1E
100
AcDbEntity
  8
0
100
AcDbLine
 10
281.0
 20
104.4184999999999
 30
0.0
 11
281.0
 21
103.5395999999999
 31
0.0
  0
LINE
  5
4AA
330
1E
100
AcDbEntity
  8
0
100
AcDbLine
 10
281.0
 20
104.4049999999999
 30
0.0
 11
281.0
 21
103.4855
 31
0.0
  0
LINE
  5
4AB
330
1E
100
AcDbEntity
  8
0
100
AcDbLine
 10
281.0
 20
103.4855
 30
0.0
 11
281.0
 21
104.4049999999999
 31
0.0
  0
LINE
  5
4AC
330
1E
100
AcDbEntity
  8
0
100
AcDbLine
 10
280.5239999999999
 20
103.0893999999999
 30
0.0
 11
280.5239999999999
 21
103.4045
 31
0.0
  0
LINE
  5
4AD
330
1E
100
AcDbEntity
  8
0
100
AcDbLine
 10
280.5239999999999
 20
103.4045
 30
0.0
 11
280.5239999999999
 21
103.0893999999999
 31
0.0
  0
LINE
  5
4AE
330
1E
100
AcDbEntity
  8
0
100
AcDbLine
 10
280.8859999999999
 20
101.6037
 30
0.0
 11
280.5239999999999
 21
103.0893999999999
 31
0.0
  0
LINE
  5
4AF
330
1E
100
AcDbEntity
  8
0
100
AcDbLine
 10
281.0
 20
102.9273
 30
0.0
 11
281.0
 21
101.5273
 31
0.0
  0
LINE
  5
4B0
330
1E
100
AcDbEntity
  8
0
100
AcDbLine
 10
281.0
 20
102.3360999999999
 30
0.0
 11
281.0
 21
101.1867
 31
0.0
  0
LINE
  5
4B1
330
1E
100
AcDbEntity
  8
0
100
AcDbLine
 10
281.0
 20
102.3360999999999
 30
0.0
 11
281.0
 21
103.5395999999999
 31
0.0
  0
LINE
  5
4B2
330
1E
100
AcDbEntity
  8
0
100
AcDbLine
 10
281.0
 20
103.5395999999999
 30
0.0
 11
281.0
 21
102.3360999999999
 31
0.0
  0
LINE
  5
4B3
330
1E
100
AcDbEntity
  8
0
100
AcDbLine
 10
281.0
 20
103.4855
 30
0.0
 11
281.0
 21
102.3495999999999
 31
0.0
  0
LINE
  5
4B4
330
1E
100
AcDbEntity
  8
0
100
AcDbLine
 10
281.0
 20
102.3495999999999
 30
0.0
 11
281.0
 21
101.2002
 31
0.0
  0
LINE
  5
4B5
330
1E
100
AcDbEntity
  8
0
100
AcDbLine
 10
281.0
 20
102.3495999999999
 30
0.0
 11
281.0
 21
103.4855
 31
0.0
  0
LINE
  5
4B6
330
1E
100
AcDbEntity
  8
0
100
AcDbLine
 10
281.0
 20
101.1867
 30
0.0
 11
281.0
 21
102.3360999999999
 31
0.0
  0
LINE
  5
4B7
330
1E
100
AcDbEntity
  8
0
100
AcDbLine
 10
281.0
 20
101.5273
 30
0.0
 11
281.0
 21
102.9273
 31
0.0
  0
LINE
  5
4B8
330
1E
100
AcDbEntity
  8
0
100
AcDbLine
 10
281.0
 20
101.2002
 30
0.0
 11
281.0
 21
102.3495999999999
 31
0.0
  0
LINE
  5
4B9
330
1E
100
AcDbEntity
  8
0
100
AcDbLine
 10
280.8569999999999
 20
106.3636
 30
0.0
 11
280.5239999999999
 21
106.8409
 31
0.0
  0
LINE
  5
4BA
330
1E
100
AcDbEntity
  8
0
100
AcDbLine
 10
280.5239999999999
 20
106.8409
 30
0.0
 11
280.5239999999999
 21
106.7322
 31
0.0
  0
LINE
  5
4BB
330
1E
100
AcDbEntity
  8
0
100
AcDbLine
 10
280.8009999999999
 20
106.2163999999999
 30
0.0
 11
280.5239999999999
 21
106.7322
 31
0.0
  0
LINE
  5
4BC
330
1E
100
AcDbEntity
  8
0
100
AcDbLine
 10
280.5239999999999
 20
106.7322
 30
0.0
 11
280.5239999999999
 21
106.8409
 31
0.0
  0
LINE
  5
4BD
330
1E
100
AcDbEntity
  8
0
100
AcDbLine
 10
281.0
 20
104.9323999999999
 30
0.0
 11
281.0
 21
104.4049999999999
 31
0.0
  0
LINE
  5
4BE
330
1E
100
AcDbEntity
  8
0
100
AcDbLine
 10
281.0
 20
104.9323999999999
 30
0.0
 11
281.0
 21
104.4184999999999
 31
0.0
  0
LINE
  5
4BF
330
1E
100
AcDbEntity
  8
0
100
AcDbLine
 10
281.0
 20
104.9323999999999
 30
0.0
 11
281.0
 21
105.1352
 31
0.0
  0
LINE
  5
4C0
330
1E
100
AcDbEntity
  8
0
100
AcDbLine
 10
280.8269999999999
 20
104.5182
 30
0.0
 11
280.5239999999999
 21
103.9218999999999
 31
0.0
  0
LINE
  5
4C1
330
1E
100
AcDbEntity
  8
0
100
AcDbLine
 10
280.9039999999999
 20
105.3695999999999
 30
0.0
 11
280.8009999999999
 21
106.2163999999999
 31
0.0
  0
LINE
  5
4C2
330
1E
100
AcDbEntity
  8
0
100
AcDbLine
 10
280.9039999999999
 20
105.3695999999999
 30
0.0
 11
280.8269999999999
 21
104.5182
 31
0.0
  0
LINE
  5
4C3
330
1E
100
AcDbEntity
  8
0
100
AcDbLine
 10
281.0
 20
105.1352
 30
0.0
 11
281.0
 21
104.9323999999999
 31
0.0
  0
LINE
  5
4C4
330
1E
100
AcDbEntity
  8
0
100
AcDbLine
 10
281.0
 20
105.8864
 30
0.0
 11
281.0
 21
105.6636
 31
0.0
  0
LINE
  5
4C5
330
1E
100
AcDbEntity
  8
0
100
AcDbLine
 10
281.0
 20
105.8864
 30
0.0
 11
280.8569999999999
 21
106.3636
 31
0.0
  0
LINE
  5
4C6
330
1E
100
AcDbEntity
  8
0
100
AcDbLine
 10
281.0
 20
105.6636
 30
0.0
 11
281.0
 21
105.8864
 31
0.0
  0
LINE
  5
4C7
330
1E
100
AcDbEntity
  8
0
100
AcDbLine
 10
281.0
 20
105.6636
 30
0.0
 11
281.0
 21
105.0909
 31
0.0
  0
LINE
  5
4C8
330
1E
100
AcDbEntity
  8
0
100
AcDbLine
 10
281.0
 20
104.1681999999999
 30
0.0
 11
281.0
 21
105.0909
 31
0.0
  0
LINE
  5
4C9
330
1E
100
AcDbEntity
  8
0
100
AcDbLine
 10
281.0
 20
104.4184999999999
 30
0.0
 11
281.0
 21
104.9323999999999
 31
0.0
  0
LINE
  5
4CA
330
1E
100
AcDbEntity
  8
0
100
AcDbLine
 10
281.0
 20
105.0909
 30
0.0
 11
281.0
 21
105.6636
 31
0.0
  0
LINE
  5
4CB
330
1E
100
AcDbEntity
  8
0
100
AcDbLine
 10
281.0
 20
105.0909
 30
0.0
 11
281.0
 21
104.1681999999999
 31
0.0
  0
LINE
  5
4CC
330
1E
100
AcDbEntity
  8
0
100
AcDbLine
 10
281.0
 20
104.4049999999999
 30
0.0
 11
281.0
 21
104.9323999999999
 31
0.0
  0
LINE
  5
4CD
330
1E
100
AcDbEntity
  8
0
100
AcDbLine
 10
271.476
 20
103.9218999999999
 30
0.0
 11
271.476
 21
103.4045
 31
0.0
  0
LINE
  5
4CE
330
1E
100
AcDbEntity
  8
0
100
AcDbLine
 10
271.0
 20
104.1681999999999
 30
0.0
 11
271.0
 21
102.9273
 31
0.0
  0
LINE
  5
4CF
330
1E
100
AcDbEntity
  8
0
100
AcDbLine
 10
271.0
 20
104.956
 30
0.0
 11
271.0
 21
103.472
 31
0.0
  0
LINE
  5
4D0
330
1E
100
AcDbEntity
  8
0
100
AcDbLine
 10
271.0
 20
102.9273
 30
0.0
 11
271.0
 21
104.1681999999999
 31
0.0
  0
LINE
  5
4D1
330
1E
100
AcDbEntity
  8
0
100
AcDbLine
 10
271.476
 20
103.4045
 30
0.0
 11
271.476
 21
103.9218999999999
 31
0.0
  0
LINE
  5
4D2
330
1E
100
AcDbEntity
  8
0
100
AcDbLine
 10
271.0
 20
103.472
 30
0.0
 11
271.0
 21
104.956
 31
0.0
  0
LINE
  5
4D3
330
1E
100
AcDbEntity
  8
0
100
AcDbLine
 10
271.0
 20
102.9273
 30
0.0
 11
271.0
 21
103.472
 31
0.0
  0
LINE
  5
4D4
330
1E
100
AcDbEntity
  8
0
100
AcDbLine
 10
271.476
 20
103.4045
 30
0.0
 11
271.476
 21
103.0893999999999
 31
0.0
  0
LINE
  5
4D5
330
1E
100
AcDbEntity
  8
0
100
AcDbLine
 10
271.0
 20
103.472
 30
0.0
 11
271.0
 21
102.9273
 31
0.0
  0
LINE
  5
4D6
330
1E
100
AcDbEntity
  8
0
100
AcDbLine
 10
271.476
 20
103.0893999999999
 30
0.0
 11
271.476
 21
103.4045
 31
0.0
  0
LINE
  5
4D7
330
1E
100
AcDbEntity
  8
0
100
AcDbLine
 10
271.476
 20
103.0893999999999
 30
0.0
 11
271.114
 21
101.6037
 31
0.0
  0
LINE
  5
4D8
330
1E
100
AcDbEntity
  8
0
100
AcDbLine
 10
280.0479999999999
 20
107.0
 30
0.0
 11
271.952
 21
107.0
 31
0.0
  0
LINE
  5
4D9
330
1E
100
AcDbEntity
  8
0
100
AcDbLine
 10
271.476
 20
106.8409
 30
0.0
 11
271.476
 21
106.7322
 31
0.0
  0
LINE
  5
4DA
330
1E
100
AcDbEntity
  8
0
100
AcDbLine
 10
271.476
 20
106.8409
 30
0.0
 11
271.143
 21
106.3636
 31
0.0
  0
LINE
  5
4DB
330
1E
100
AcDbEntity
  8
0
100
AcDbLine
 10
271.143
 20
106.3636
 30
0.0
 11
271.0
 21
105.8864
 31
0.0
  0
LINE
  5
4DC
330
1E
100
AcDbEntity
  8
0
100
AcDbLine
 10
271.0
 20
106.7479999999999
 30
0.0
 11
271.0
 21
107.0
 31
0.0
  0
LINE
  5
4DD
330
1E
100
AcDbEntity
  8
0
100
AcDbLine
 10
271.0
 20
106.7479999999999
 30
0.0
 11
271.0
 21
106.076
 31
0.0
  0
LINE
  5
4DE
330
1E
100
AcDbEntity
  8
0
100
AcDbLine
 10
271.0
 20
107.0
 30
0.0
 11
271.0
 21
106.7479999999999
 31
0.0
  0
LINE
  5
4DF
330
1E
100
AcDbEntity
  8
0
100
AcDbLine
 10
271.199
 20
106.2163999999999
 30
0.0
 11
271.096
 21
105.3695999999999
 31
0.0
  0
LINE
  5
4E0
330
1E
100
AcDbEntity
  8
0
100
AcDbLine
 10
271.0
 20
106.076
 30
0.0
 11
271.0
 21
104.956
 31
0.0
  0
LINE
  5
4E1
330
1E
100
AcDbEntity
  8
0
100
AcDbLine
 10
271.0
 20
106.076
 30
0.0
 11
271.0
 21
106.7479999999999
 31
0.0
  0
LINE
  5
4E2
330
1E
100
AcDbEntity
  8
0
100
AcDbLine
 10
271.0
 20
106.076
 30
0.0
 11
271.0
 21
105.8864
 31
0.0
  0
LINE
  5
4E3
330
1E
100
AcDbEntity
  8
0
100
AcDbLine
 10
271.952
 20
107.0
 30
0.0
 11
271.476
 21
106.8409
 31
0.0
  0
LINE
  5
4E4
330
1E
100
AcDbEntity
  8
0
100
AcDbLine
 10
271.476
 20
106.7322
 30
0.0
 11
271.199
 21
106.2163999999999
 31
0.0
  0
LINE
  5
4E5
330
1E
100
AcDbEntity
  8
0
100
AcDbLine
 10
271.476
 20
106.7322
 30
0.0
 11
271.476
 21
106.8409
 31
0.0
  0
LINE
  5
4E6
330
1E
100
AcDbEntity
  8
0
100
AcDbLine
 10
271.0
 20
105.6636
 30
0.0
 11
271.0
 21
105.0909
 31
0.0
  0
LINE
  5
4E7
330
1E
100
AcDbEntity
  8
0
100
AcDbLine
 10
271.0
 20
105.6636
 30
0.0
 11
271.0
 21
105.8864
 31
0.0
  0
LINE
  5
4E8
330
1E
100
AcDbEntity
  8
0
100
AcDbLine
 10
271.0
 20
105.8864
 30
0.0
 11
271.0
 21
106.076
 31
0.0
  0
LINE
  5
4E9
330
1E
100
AcDbEntity
  8
0
100
AcDbLine
 10
271.0
 20
105.8864
 30
0.0
 11
271.0
 21
105.6636
 31
0.0
  0
LINE
  5
4EA
330
1E
100
AcDbEntity
  8
0
100
AcDbLine
 10
271.476
 20
103.9218999999999
 30
0.0
 11
271.173
 21
104.5182
 31
0.0
  0
LINE
  5
4EB
330
1E
100
AcDbEntity
  8
0
100
AcDbLine
 10
271.173
 20
104.5182
 30
0.0
 11
271.096
 21
105.3695999999999
 31
0.0
  0
LINE
  5
4EC
330
1E
100
AcDbEntity
  8
0
100
AcDbLine
 10
271.0
 20
105.0909
 30
0.0
 11
271.0
 21
105.6636
 31
0.0
  0
LINE
  5
4ED
330
1E
100
AcDbEntity
  8
0
100
AcDbLine
 10
271.0
 20
104.956
 30
0.0
 11
271.0
 21
106.076
 31
0.0
  0
ENDSEC
  0
SECTION
  2
OBJECTS
  0
DICTIONARY
  5
C
330
0
100
AcDbDictionary
281
     1
  3
ACAD_GROUP
350
D
  3
ACAD_LAYOUT
350
19
  3
ACAD_MLINESTYLE
350
16
  3
ACAD_PLOTSETTINGS
350
18
  3
ACAD_PLOTSTYLENAME
350
E
  3
AcDbVariableDictionary
350
4EF
  0
DICTIONARY
  5
D
102
{ACAD_REACTORS
330
C
102
}
330
C
100
AcDbDictionary
281
     1
  0
DICTIONARY
  5
19
102
{ACAD_REACTORS
330
C
102
}
330
C
100
AcDbDictionary
281
     1
  3
Layout1
350
1D
  3
Model
350
21
  0
DICTIONARY
  5
16
102
{ACAD_REACTORS
330
C
102
}
330
C
100
AcDbDictionary
281
     1
  3
Standard
350
17
  0
DICTIONARY
  5
18
102
{ACAD_REACTORS
330
C
102
}
330
C
100
AcDbDictionary
281
     1
  0
ACDBDICTIONARYWDFLT
  5
E
102
{ACAD_REACTORS
330
C
102
}
330
C
100
AcDbDictionary
281
     1
  3
Normal
350
F
100
AcDbDictionaryWithDefault
340
F
  0
DICTIONARY
  5
4EF
102
{ACAD_REACTORS
330
C
102
}
330
C
100
AcDbDictionary
281
     1
  3
DIMASSOC
350
4F0
  0
LAYOUT
  5
1D
102
{ACAD_REACTORS
330
19
102
}
330
19
100
AcDbPlotSettings
  1

  2
C:\Programme\AutoCAD LT 2002 Deu\plotters\DWF ePlot (optimized for plotting).pc3
  4

  6

 40
0.0
 41
0.0
 42
0.0
 43
0.0
 44
0.0
 45
0.0
 46
0.0
 47
0.0
 48
0.0
 49
0.0
140
0.0
141
0.0
142
1.0
143
1.0
 70
   688
 72
     0
 73
     0
 74
     5
  7

 75
    16
147
1.0
148
0.0
149
0.0
100
AcDbLayout
  1
Layout1
 70
     1
 71
     1
 10
0.0
 20
0.0
 11
12.0
 21
9.0
 12
0.0
 22
0.0
 32
0.0
 14
1.000000000000000E+20
 24
1.000000000000000E+20
 34
1.000000000000000E+20
 15
-1.000000000000000E+20
 25
-1.000000000000000E+20
 35
-1.000000000000000E+20
146
0.0
 13
0.0
 23
0.0
 33
0.0
 16
1.0
 26
0.0
 36
0.0
 17
0.0
 27
1.0
 37
0.0
 76
     0
330
1A
  0
LAYOUT
  5
21
102
{ACAD_REACTORS
330
19
102
}
330
19
100
AcDbPlotSettings
  1

  2
C:\Programme\AutoCAD LT 2002 Deu\plotters\DWF ePlot (optimized for plotting).pc3
  4

  6

 40
0.0
 41
0.0
 42
0.0
 43
0.0
 44
0.0
 45
0.0
 46
0.0
 47
0.0
 48
0.0
 49
0.0
140
0.0
141
0.0
142
1.0
143
1.0
 70
  1712
 72
     0
 73
     0
 74
     0
  7

 75
     0
147
1.0
148
0.0
149
0.0
100
AcDbLayout
  1
Model
 70
     1
 71
     0
 10
0.0
 20
0.0
 11
12.0
 21
9.0
 12
0.0
 22
0.0
 32
0.0
 14
0.0
 24
0.0
 34
0.0
 15
0.0
 25
0.0
 35
0.0
146
0.0
 13
0.0
 23
0.0
 33
0.0
 16
1.0
 26
0.0
 36
0.0
 17
0.0
 27
1.0
 37
0.0
 76
     0
330
1E
  0
MLINESTYLE
  5
17
102
{ACAD_REACTORS
330
16
102
}
330
16
100
AcDbMlineStyle
  2
STANDARD
 70
     0
  3

 62
   256
 51
90.0
 52
90.0
 71
     2
 49
0.5
 62
   256
  6
BYLAYER
 49
-0.5
 62
   256
  6
BYLAYER
  0
ACDBPLACEHOLDER
  5
F
102
{ACAD_REACTORS
330
E
102
}
330
E
  0
DICTIONARYVAR
  5
4F0
102
{ACAD_REACTORS
330
4EF
102
}
330
4EF
100
DictionaryVariables
280
     0
  1
1
  0
ENDSEC
  0
EOF
