  0
SECTION
  2
HEADER
  9
$ACADVER
  1
AC1015
  9
$ACADMAINTVER
 70
    13
  9
$DWGCODEPAGE
  3
ANSI_1252
  9
$INSBASE
 10
0.0
 20
0.0
 30
0.0
  9
$EXTMIN
 10
0.0
 20
-0.0000000000000113
 30
0.0
  9
$EXTMAX
 10
200.0
 20
642.0
 30
0.0
  9
$LIMMIN
 10
0.0
 20
0.0
  9
$LIMMAX
 10
12.0
 20
9.0
  9
$ORTHOMODE
 70
     0
  9
$REGENMODE
 70
     1
  9
$FILLMODE
 70
     1
  9
$QTEXTMODE
 70
     0
  9
$MIRRTEXT
 70
     1
  9
$LTSCALE
 40
1.0
  9
$ATTMODE
 70
     1
  9
$TEXTSIZE
 40
0.2
  9
$TRACEWID
 40
0.05
  9
$TEXTSTYLE
  7
Standard
  9
$CLAYER
  8
0
  9
$CELTYPE
  6
Continuous
  9
$CECOLOR
 62
   256
  9
$CELTSCALE
 40
1.0
  9
$DISPSILH
 70
     0
  9
$DIMSCALE
 40
1.0
  9
$DIMASZ
 40
0.18
  9
$DIMEXO
 40
0.0625
  9
$DIMDLI
 40
0.38
  9
$DIMRND
 40
0.0
  9
$DIMDLE
 40
0.0
  9
$DIMEXE
 40
0.18
  9
$DIMTP
 40
0.0
  9
$DIMTM
 40
0.0
  9
$DIMTXT
 40
0.18
  9
$DIMCEN
 40
0.09
  9
$DIMTSZ
 40
0.0
  9
$DIMTOL
 70
     0
  9
$DIMLIM
 70
     0
  9
$DIMTIH
 70
     1
  9
$DIMTOH
 70
     1
  9
$DIMSE1
 70
     0
  9
$DIMSE2
 70
     0
  9
$DIMTAD
 70
     0
  9
$DIMZIN
 70
     0
  9
$DIMBLK
  1

  9
$DIMASO
 70
     1
  9
$DIMSHO
 70
     1
  9
$DIMPOST
  1

  9
$DIMAPOST
  1

  9
$DIMALT
 70
     0
  9
$DIMALTD
 70
     2
  9
$DIMALTF
 40
25.4
  9
$DIMLFAC
 40
1.0
  9
$DIMTOFL
 70
     0
  9
$DIMTVP
 40
0.0
  9
$DIMTIX
 70
     0
  9
$DIMSOXD
 70
     0
  9
$DIMSAH
 70
     0
  9
$DIMBLK1
  1

  9
$DIMBLK2
  1

  9
$DIMSTYLE
  2
Standard
  9
$DIMCLRD
 70
     0
  9
$DIMCLRE
 70
     0
  9
$DIMCLRT
 70
     0
  9
$DIMTFAC
 40
1.0
  9
$DIMGAP
 40
0.09
  9
$DIMJUST
 70
     0
  9
$DIMSD1
 70
     0
  9
$DIMSD2
 70
     0
  9
$DIMTOLJ
 70
     1
  9
$DIMTZIN
 70
     0
  9
$DIMALTZ
 70
     0
  9
$DIMALTTZ
 70
     0
  9
$DIMUPT
 70
     0
  9
$DIMDEC
 70
     4
  9
$DIMTDEC
 70
     4
  9
$DIMALTU
 70
     2
  9
$DIMALTTD
 70
     2
  9
$DIMTXSTY
  7
Standard
  9
$DIMAUNIT
 70
     0
  9
$DIMADEC
 70
     0
  9
$DIMALTRND
 40
0.0
  9
$DIMAZIN
 70
     0
  9
$DIMDSEP
 70
    46
  9
$DIMATFIT
 70
     3
  9
$DIMFRAC
 70
     0
  9
$DIMLDRBLK
  1

  9
$DIMLUNIT
 70
     2
  9
$DIMLWD
 70
    -2
  9
$DIMLWE
 70
    -2
  9
$DIMTMOVE
 70
     0
  9
$LUNITS
 70
     2
  9
$LUPREC
 70
     4
  9
$SKETCHINC
 40
0.1
  9
$FILLETRAD
 40
0.0
  9
$AUNITS
 70
     0
  9
$AUPREC
 70
     0
  9
$MENU
  1
.
  9
$ELEVATION
 40
0.0
  9
$PELEVATION
 40
0.0
  9
$THICKNESS
 40
0.0
  9
$LIMCHECK
 70
     0
  9
$CHAMFERA
 40
0.0
  9
$CHAMFERB
 40
0.0
  9
$CHAMFERC
 40
0.0
  9
$CHAMFERD
 40
0.0
  9
$SKPOLY
 70
     0
  9
$TDCREATE
 40
2455655.554329236
  9
$TDUCREATE
 40
2455655.470995902
  9
$TDUPDATE
 40
2455655.555131829
  9
$TDUUPDATE
 40
2455655.471798495
  9
$TDINDWG
 40
0.0008027778
  9
$TDUSRTIMER
 40
0.0008027778
  9
$USRTIMER
 70
     1
  9
$ANGBASE
 50
0.0
  9
$ANGDIR
 70
     0
  9
$PDMODE
 70
     0
  9
$PDSIZE
 40
0.0
  9
$PLINEWID
 40
0.0
  9
$SPLFRAME
 70
     0
  9
$SPLINETYPE
 70
     6
  9
$SPLINESEGS
 70
     8
  9
$HANDSEED
  5
2D1
  9
$SURFTAB1
 70
     6
  9
$SURFTAB2
 70
     6
  9
$SURFTYPE
 70
     6
  9
$SURFU
 70
     6
  9
$SURFV
 70
     6
  9
$UCSBASE
  2

  9
$UCSNAME
  2

  9
$UCSORG
 10
0.0
 20
0.0
 30
0.0
  9
$UCSXDIR
 10
1.0
 20
0.0
 30
0.0
  9
$UCSYDIR
 10
0.0
 20
1.0
 30
0.0
  9
$UCSORTHOREF
  2

  9
$UCSORTHOVIEW
 70
     1
  9
$UCSORGTOP
 10
0.0
 20
0.0
 30
0.0
  9
$UCSORGBOTTOM
 10
0.0
 20
0.0
 30
0.0
  9
$UCSORGLEFT
 10
0.0
 20
0.0
 30
0.0
  9
$UCSORGRIGHT
 10
0.0
 20
0.0
 30
0.0
  9
$UCSORGFRONT
 10
0.0
 20
0.0
 30
0.0
  9
$UCSORGBACK
 10
0.0
 20
0.0
 30
0.0
  9
$PUCSBASE
  2

  9
$PUCSNAME
  2

  9
$PUCSORG
 10
0.0
 20
0.0
 30
0.0
  9
$PUCSXDIR
 10
1.0
 20
0.0
 30
0.0
  9
$PUCSYDIR
 10
0.0
 20
1.0
 30
0.0
  9
$PUCSORTHOREF
  2

  9
$PUCSORTHOVIEW
 70
     0
  9
$PUCSORGTOP
 10
0.0
 20
0.0
 30
0.0
  9
$PUCSORGBOTTOM
 10
0.0
 20
0.0
 30
0.0
  9
$PUCSORGLEFT
 10
0.0
 20
0.0
 30
0.0
  9
$PUCSORGRIGHT
 10
0.0
 20
0.0
 30
0.0
  9
$PUCSORGFRONT
 10
0.0
 20
0.0
 30
0.0
  9
$PUCSORGBACK
 10
0.0
 20
0.0
 30
0.0
  9
$USERI1
 70
     0
  9
$USERI2
 70
     0
  9
$USERI3
 70
     0
  9
$USERI4
 70
     0
  9
$USERI5
 70
     0
  9
$USERR1
 40
0.0
  9
$USERR2
 40
0.0
  9
$USERR3
 40
0.0
  9
$USERR4
 40
0.0
  9
$USERR5
 40
0.0
  9
$WORLDVIEW
 70
     1
  9
$SHADEDGE
 70
     3
  9
$SHADEDIF
 70
    70
  9
$TILEMODE
 70
     1
  9
$MAXACTVP
 70
    64
  9
$PINSBASE
 10
0.0
 20
0.0
 30
0.0
  9
$PLIMCHECK
 70
     0
  9
$PEXTMIN
 10
1.000000000000000E+20
 20
1.000000000000000E+20
 30
1.000000000000000E+20
  9
$PEXTMAX
 10
-1.000000000000000E+20
 20
-1.000000000000000E+20
 30
-1.000000000000000E+20
  9
$PLIMMIN
 10
0.0
 20
0.0
  9
$PLIMMAX
 10
12.0
 20
9.0
  9
$UNITMODE
 70
     0
  9
$VISRETAIN
 70
     1
  9
$PLINEGEN
 70
     0
  9
$PSLTSCALE
 70
     1
  9
$TREEDEPTH
 70
  3020
  9
$CMLSTYLE
  2
Standard
  9
$CMLJUST
 70
     0
  9
$CMLSCALE
 40
1.0
  9
$PROXYGRAPHICS
 70
     1
  9
$MEASUREMENT
 70
     0
  9
$CELWEIGHT
370
    -1
  9
$ENDCAPS
280
     0
  9
$JOINSTYLE
280
     0
  9
$LWDISPLAY
290
     0
  9
$INSUNITS
 70
     0
  9
$HYPERLINKBASE
  1

  9
$STYLESHEET
  1

  9
$XEDIT
290
     1
  9
$CEPSNTYPE
380
     0
  9
$PSTYLEMODE
290
     1
  9
$FINGERPRINTGUID
  2
{7CE71488-709B-48E1-AA3A-39A493CE9AE5}
  9
$VERSIONGUID
  2
{827933AB-C2B4-4410-BCAE-95A86872874B}
  9
$EXTNAMES
290
     1
  9
$PSVPSCALE
 40
0.0
  9
$OLESTARTUP
290
     0
  0
ENDSEC
  0
SECTION
  2
CLASSES
  0
CLASS
  1
ACDBDICTIONARYWDFLT
  2
AcDbDictionaryWithDefault
  3
AutoCAD 2000
 90
        0
280
     0
281
     0
  0
CLASS
  1
ACDBPLACEHOLDER
  2
AcDbPlaceHolder
  3
AutoCAD 2000
 90
        0
280
     0
281
     0
  0
CLASS
  1
LAYOUT
  2
AcDbLayout
  3
AutoCAD 2000
 90
        0
280
     0
281
     0
  0
CLASS
  1
DICTIONARYVAR
  2
AcDbDictionaryVar
  3
AutoCAD 2000
 90
        0
280
     0
281
     0
  0
ENDSEC
  0
SECTION
  2
TABLES
  0
TABLE
  2
VPORT
  5
8
330
0
100
AcDbSymbolTable
 70
     3
  0
VPORT
  5
2D0
330
8
100
AcDbSymbolTableRecord
100
AcDbViewportTableRecord
  2
*Active
 70
     0
 10
0.0
 20
0.0
 11
1.0
 21
1.0
 12
100.0
 22
321.0
 13
0.0
 23
0.0
 14
1.0
 24
1.0
 15
0.0
 25
0.0
 16
0.0
 26
0.0
 36
1.0
 17
0.0
 27
0.0
 37
0.0
 40
646.3427282976324
 41
2.073363431151241
 42
50.0
 43
0.0
 44
0.0
 50
0.0
 51
0.0
 71
     0
 72
   100
 73
     1
 74
     3
 75
     0
 76
     0
 77
     0
 78
     0
281
     0
 65
     1
110
0.0
120
0.0
130
0.0
111
1.0
121
0.0
131
0.0
112
0.0
122
1.0
132
0.0
 79
     1
146
0.0
  0
ENDTAB
  0
TABLE
  2
LTYPE
  5
5
330
0
100
AcDbSymbolTable
 70
     1
  0
LTYPE
  5
13
330
5
100
AcDbSymbolTableRecord
100
AcDbLinetypeTableRecord
  2
ByBlock
 70
     0
  3

 72
    65
 73
     0
 40
0.0
  0
LTYPE
  5
14
330
5
100
AcDbSymbolTableRecord
100
AcDbLinetypeTableRecord
  2
ByLayer
 70
     0
  3

 72
    65
 73
     0
 40
0.0
  0
LTYPE
  5
15
330
5
100
AcDbSymbolTableRecord
100
AcDbLinetypeTableRecord
  2
Continuous
 70
     0
  3
Solid line
 72
    65
 73
     0
 40
0.0
  0
ENDTAB
  0
TABLE
  2
LAYER
  5
2
330
0
100
AcDbSymbolTable
 70
     1
  0
LAYER
  5
10
330
2
100
AcDbSymbolTableRecord
100
AcDbLayerTableRecord
  2
0
 70
     0
 62
     7
  6
Continuous
370
    -3
390
F
  0
ENDTAB
  0
TABLE
  2
STYLE
  5
3
330
0
100
AcDbSymbolTable
 70
     1
  0
STYLE
  5
11
330
3
100
AcDbSymbolTableRecord
100
AcDbTextStyleTableRecord
  2
Standard
 70
     0
 40
0.0
 41
1.0
 50
0.0
 71
     0
 42
0.2
  3
txt
  4

  0
ENDTAB
  0
TABLE
  2
VIEW
  5
6
330
0
100
AcDbSymbolTable
 70
     0
  0
ENDTAB
  0
TABLE
  2
UCS
  5
7
330
0
100
AcDbSymbolTable
 70
     0
  0
ENDTAB
  0
TABLE
  2
APPID
  5
9
330
0
100
AcDbSymbolTable
 70
     1
  0
APPID
  5
12
330
9
100
AcDbSymbolTableRecord
100
AcDbRegAppTableRecord
  2
ACAD
 70
     0
  0
ENDTAB
  0
TABLE
  2
DIMSTYLE
  5
A
330
0
100
AcDbSymbolTable
 70
     1
100
AcDbDimStyleTable
 71
     0
  0
DIMSTYLE
105
2C9
330
A
100
AcDbSymbolTableRecord
100
AcDbDimStyleTableRecord
  2
Standard
 70
     0
340
11
  0
ENDTAB
  0
TABLE
  2
BLOCK_RECORD
  5
1
330
0
100
AcDbSymbolTable
 70
     0
  0
BLOCK_RECORD
  5
1E
330
1
100
AcDbSymbolTableRecord
100
AcDbBlockTableRecord
  2
*Model_Space
340
21
  0
BLOCK_RECORD
  5
1A
330
1
100
AcDbSymbolTableRecord
100
AcDbBlockTableRecord
  2
*Paper_Space
340
1D
  0
ENDTAB
  0
ENDSEC
  0
SECTION
  2
BLOCKS
  0
BLOCK
  5
1F
330
1E
100
AcDbEntity
  8
0
100
AcDbBlockBegin
  2
*Model_Space
 70
     0
 10
0.0
 20
0.0
 30
0.0
  3
*Model_Space
  1

  0
ENDBLK
  5
20
330
1E
100
AcDbEntity
  8
0
100
AcDbBlockEnd
  0
BLOCK
  5
1B
330
1A
100
AcDbEntity
 67
     1
  8
0
100
AcDbBlockBegin
  2
*Paper_Space
 70
     0
 10
0.0
 20
0.0
 30
0.0
  3
*Paper_Space
  1

  0
ENDBLK
  5
1C
330
1A
100
AcDbEntity
 67
     1
  8
0
100
AcDbBlockEnd
  0
ENDSEC
  0
SECTION
  2
ENTITIES
  0
LINE
  5
22
330
1E
100
AcDbEntity
  8
0
100
AcDbLine
 10
0.0000000000000028
 20
0.0
 30
0.0
 11
0.0000000000000056
 21
50.0
 31
0.0
  0
LINE
  5
23
330
1E
100
AcDbEntity
  8
0
100
AcDbLine
 10
0.0
 20
50.0
 30
0.0
 11
50.0
 21
250.0
 31
0.0
  0
LINE
  5
24
330
1E
100
AcDbEntity
  8
0
100
AcDbLine
 10
0.0
 20
50.0
 30
0.0
 11
200.0
 21
50.0
 31
0.0
  0
LINE
  5
25
330
1E
100
AcDbEntity
  8
0
100
AcDbLine
 10
0.0
 20
0.0000000000000009
 30
0.0
 11
200.0
 21
-0.0000000000000113
 31
0.0
  0
LINE
  5
26
330
1E
100
AcDbEntity
  8
0
100
AcDbLine
 10
0.0000000000000056
 20
50.0
 30
0.0
 11
50.0
 21
250.0
 31
0.0
  0
LINE
  5
27
330
1E
100
AcDbEntity
  8
0
100
AcDbLine
 10
0.0000000000000056
 20
50.0
 30
0.0
 11
200.0
 21
50.0
 31
0.0
  0
LINE
  5
28
330
1E
100
AcDbEntity
  8
0
100
AcDbLine
 10
0.0000000000000028
 20
0.0000000000000009
 30
0.0
 11
200.0
 21
-0.0000000000000113
 31
0.0
  0
LINE
  5
29
330
1E
100
AcDbEntity
  8
0
100
AcDbLine
 10
0.0000000000000028
 20
0.0000000000000009
 30
0.0
 11
0.0000000000000056
 21
50.0
 31
0.0
  0
LINE
  5
2A
330
1E
100
AcDbEntity
  8
0
100
AcDbLine
 10
50.0
 20
550.0
 30
0.0
 11
150.0
 21
550.0
 31
0.0
  0
LINE
  5
2B
330
1E
100
AcDbEntity
  8
0
100
AcDbLine
 10
50.0
 20
250.0
 30
0.0
 11
150.0
 21
250.0
 31
0.0
  0
LINE
  5
2C
330
1E
100
AcDbEntity
  8
0
100
AcDbLine
 10
50.0
 20
250.0
 30
0.0
 11
50.0
 21
550.0
 31
0.0
  0
LINE
  5
2D
330
1E
100
AcDbEntity
  8
0
100
AcDbLine
 10
50.0
 20
250.0
 30
0.0
 11
50.0
 21
450.0
 31
0.0
  0
LINE
  5
2E
330
1E
100
AcDbEntity
  8
0
100
AcDbLine
 10
69.83769999999999
 20
594.0
 30
0.0
 11
70.88979999999999
 21
594.0
 31
0.0
  0
LINE
  5
2F
330
1E
100
AcDbEntity
  8
0
100
AcDbLine
 10
68.96080000000001
 20
595.5379999999999
 30
0.0
 11
68.96080000000001
 21
594.4619999999999
 31
0.0
  0
LINE
  5
30
330
1E
100
AcDbEntity
  8
0
100
AcDbLine
 10
68.96080000000001
 20
595.5379999999999
 30
0.0
 11
70.1007
 21
595.5379999999999
 31
0.0
  0
LINE
  5
31
330
1E
100
AcDbEntity
  8
0
100
AcDbLine
 10
68.96080000000001
 20
595.5379999999999
 30
0.0
 11
69.83769999999999
 21
596.0
 31
0.0
  0
LINE
  5
32
330
1E
100
AcDbEntity
  8
0
100
AcDbLine
 10
68.96080000000001
 20
594.4619999999999
 30
0.0
 11
70.1007
 21
594.4619999999999
 31
0.0
  0
LINE
  5
33
330
1E
100
AcDbEntity
  8
0
100
AcDbLine
 10
68.96080000000001
 20
594.4619999999999
 30
0.0
 11
68.96080000000001
 21
595.5379999999999
 31
0.0
  0
LINE
  5
34
330
1E
100
AcDbEntity
  8
0
100
AcDbLine
 10
68.96080000000001
 20
594.4619999999999
 30
0.0
 11
69.83769999999999
 21
594.0
 31
0.0
  0
LINE
  5
35
330
1E
100
AcDbEntity
  8
0
100
AcDbLine
 10
69.89419999999999
 20
577.0
 30
0.0
 11
69.89419999999999
 21
571.0
 31
0.0
  0
LINE
  5
36
330
1E
100
AcDbEntity
  8
0
100
AcDbLine
 10
69.89419999999999
 20
577.0
 30
0.0
 11
70.29870000000011
 21
577.0
 31
0.0
  0
LINE
  5
37
330
1E
100
AcDbEntity
  8
0
100
AcDbLine
 10
69.89419999999999
 20
571.0
 30
0.0
 11
70.29870000000011
 21
571.0
 31
0.0
  0
LINE
  5
38
330
1E
100
AcDbEntity
  8
0
100
AcDbLine
 10
69.89419999999999
 20
571.0
 30
0.0
 11
69.89419999999999
 21
577.0
 31
0.0
  0
LINE
  5
39
330
1E
100
AcDbEntity
  8
0
100
AcDbLine
 10
70.1007
 20
595.5379999999999
 30
0.0
 11
73.2572
 21
595.5379999999999
 31
0.0
  0
LINE
  5
3A
330
1E
100
AcDbEntity
  8
0
100
AcDbLine
 10
70.1007
 20
594.4619999999999
 30
0.0
 11
73.2572
 21
594.4619999999999
 31
0.0
  0
LINE
  5
3B
330
1E
100
AcDbEntity
  8
0
100
AcDbLine
 10
69.83769999999999
 20
596.0
 30
0.0
 11
70.88979999999999
 21
596.0
 31
0.0
  0
LINE
  5
3C
330
1E
100
AcDbEntity
  8
0
100
AcDbLine
 10
68.96080000000001
 20
596.462
 30
0.0
 11
70.1007
 21
596.462
 31
0.0
  0
LINE
  5
3D
330
1E
100
AcDbEntity
  8
0
100
AcDbLine
 10
68.96080000000001
 20
596.462
 30
0.0
 11
68.96080000000001
 21
597.538
 31
0.0
  0
LINE
  5
3E
330
1E
100
AcDbEntity
  8
0
100
AcDbLine
 10
68.96080000000001
 20
596.462
 30
0.0
 11
69.83769999999999
 21
596.0
 31
0.0
  0
LINE
  5
3F
330
1E
100
AcDbEntity
  8
0
100
AcDbLine
 10
70.29870000000011
 20
577.0
 30
0.0
 11
70.96339999999999
 21
577.0
 31
0.0
  0
LINE
  5
40
330
1E
100
AcDbEntity
  8
0
100
AcDbLine
 10
70.29870000000011
 20
571.0
 30
0.0
 11
71.4187
 21
571.0
 31
0.0
  0
LINE
  5
41
330
1E
100
AcDbEntity
  8
0
100
AcDbLine
 10
70.88979999999999
 20
594.0
 30
0.0
 11
73.87100000000001
 21
594.0
 31
0.0
  0
LINE
  5
42
330
1E
100
AcDbEntity
  8
0
100
AcDbLine
 10
73.38370000000001
 20
554.769
 30
0.0
 11
74.16979999999999
 21
554.0
 31
0.0
  0
LINE
  5
43
330
1E
100
AcDbEntity
  8
0
100
AcDbLine
 10
73.04680000000001
 20
556.308
 30
0.0
 11
73.38370000000001
 21
554.769
 31
0.0
  0
LINE
  5
44
330
1E
100
AcDbEntity
  8
0
100
AcDbLine
 10
73.04680000000001
 20
556.308
 30
0.0
 11
73.04680000000001
 21
571.0
 31
0.0
  0
LINE
  5
45
330
1E
100
AcDbEntity
  8
0
100
AcDbLine
 10
72.5134
 20
566.0
 30
0.0
 11
72.67879999999999
 21
566.0
 31
0.0
  0
LINE
  5
46
330
1E
100
AcDbEntity
  8
0
100
AcDbLine
 10
72.5134
 20
566.0
 30
0.0
 11
72.5134
 21
571.0
 31
0.0
  0
LINE
  5
47
330
1E
100
AcDbEntity
  8
0
100
AcDbLine
 10
70.96339999999999
 20
577.0
 30
0.0
 11
70.96339999999999
 21
571.0
 31
0.0
  0
LINE
  5
48
330
1E
100
AcDbEntity
  8
0
100
AcDbLine
 10
70.96339999999999
 20
577.0
 30
0.0
 11
72.0297
 21
577.0
 31
0.0
  0
LINE
  5
49
330
1E
100
AcDbEntity
  8
0
100
AcDbLine
 10
70.96339999999999
 20
571.0
 30
0.0
 11
72.0297
 21
571.0
 31
0.0
  0
LINE
  5
4A
330
1E
100
AcDbEntity
  8
0
100
AcDbLine
 10
70.96339999999999
 20
571.0
 30
0.0
 11
70.96339999999999
 21
577.0
 31
0.0
  0
LINE
  5
4B
330
1E
100
AcDbEntity
  8
0
100
AcDbLine
 10
72.0297
 20
577.0
 30
0.0
 11
74.98260000000001
 21
577.0
 31
0.0
  0
LINE
  5
4C
330
1E
100
AcDbEntity
  8
0
100
AcDbLine
 10
72.0297
 20
571.0
 30
0.0
 11
72.2856
 21
571.0
 31
0.0
  0
LINE
  5
4D
330
1E
100
AcDbEntity
  8
0
100
AcDbLine
 10
72.0297
 20
571.0
 30
0.0
 11
74.98260000000001
 21
571.0
 31
0.0
  0
LINE
  5
4E
330
1E
100
AcDbEntity
  8
0
100
AcDbLine
 10
71.4187
 20
571.0
 30
0.0
 11
72.5134
 21
571.0
 31
0.0
  0
LINE
  5
4F
330
1E
100
AcDbEntity
  8
0
100
AcDbLine
 10
71.4187
 20
571.0
 30
0.0
 11
72.2856
 21
571.0
 31
0.0
  0
LINE
  5
50
330
1E
100
AcDbEntity
  8
0
100
AcDbLine
 10
72.5134
 20
588.0
 30
0.0
 11
72.5134
 21
583.0
 31
0.0
  0
LINE
  5
51
330
1E
100
AcDbEntity
  8
0
100
AcDbLine
 10
72.5134
 20
588.0
 30
0.0
 11
72.67879999999999
 21
588.0
 31
0.0
  0
LINE
  5
52
330
1E
100
AcDbEntity
  8
0
100
AcDbLine
 10
72.5134
 20
583.0
 30
0.0
 11
72.67879999999999
 21
583.0
 31
0.0
  0
LINE
  5
53
330
1E
100
AcDbEntity
  8
0
100
AcDbLine
 10
72.5134
 20
583.0
 30
0.0
 11
72.5134
 21
588.0
 31
0.0
  0
LINE
  5
54
330
1E
100
AcDbEntity
  8
0
100
AcDbLine
 10
73.04680000000001
 20
571.0
 30
0.0
 11
73.04680000000001
 21
556.308
 31
0.0
  0
LINE
  5
55
330
1E
100
AcDbEntity
  8
0
100
AcDbLine
 10
72.67879999999999
 20
588.0
 30
0.0
 11
73.04680000000001
 21
588.0
 31
0.0
  0
LINE
  5
56
330
1E
100
AcDbEntity
  8
0
100
AcDbLine
 10
73.04680000000001
 20
577.0
 30
0.0
 11
73.04680000000001
 21
594.0
 31
0.0
  0
LINE
  5
57
330
1E
100
AcDbEntity
  8
0
100
AcDbLine
 10
73.04680000000001
 20
594.0
 30
0.0
 11
74.0013
 21
594.0
 31
0.0
  0
LINE
  5
58
330
1E
100
AcDbEntity
  8
0
100
AcDbLine
 10
73.04680000000001
 20
594.0
 30
0.0
 11
73.04680000000001
 21
577.0
 31
0.0
  0
LINE
  5
59
330
1E
100
AcDbEntity
  8
0
100
AcDbLine
 10
72.67879999999999
 20
583.0
 30
0.0
 11
73.04680000000001
 21
583.0
 31
0.0
  0
LINE
  5
5A
330
1E
100
AcDbEntity
  8
0
100
AcDbLine
 10
72.67879999999999
 20
571.0
 30
0.0
 11
73.04680000000001
 21
571.0
 31
0.0
  0
LINE
  5
5B
330
1E
100
AcDbEntity
  8
0
100
AcDbLine
 10
72.5134
 20
571.0
 30
0.0
 11
72.5134
 21
566.0
 31
0.0
  0
LINE
  5
5C
330
1E
100
AcDbEntity
  8
0
100
AcDbLine
 10
72.5134
 20
571.0
 30
0.0
 11
72.67879999999999
 21
571.0
 31
0.0
  0
LINE
  5
5D
330
1E
100
AcDbEntity
  8
0
100
AcDbLine
 10
72.67879999999999
 20
566.0
 30
0.0
 11
73.04680000000001
 21
566.0
 31
0.0
  0
LINE
  5
5E
330
1E
100
AcDbEntity
  8
0
100
AcDbLine
 10
74.16979999999999
 20
554.0
 30
0.0
 11
75.12439999999999
 21
554.0
 31
0.0
  0
LINE
  5
5F
330
1E
100
AcDbEntity
  8
0
100
AcDbLine
 10
75.12439999999999
 20
554.0
 30
0.0
 11
77.7074
 21
554.0
 31
0.0
  0
LINE
  5
60
330
1E
100
AcDbEntity
  8
0
100
AcDbLine
 10
75.12439999999999
 20
554.0
 30
0.0
 11
77.0398
 21
554.0
 31
0.0
  0
LINE
  5
61
330
1E
100
AcDbEntity
  8
0
100
AcDbLine
 10
77.7074
 20
554.0
 30
0.0
 11
81.7504
 21
554.0
 31
0.0
  0
LINE
  5
62
330
1E
100
AcDbEntity
  8
0
100
AcDbLine
 10
77.0398
 20
550.0
 30
0.0
 11
77.0398
 21
554.0
 31
0.0
  0
LINE
  5
63
330
1E
100
AcDbEntity
  8
0
100
AcDbLine
 10
77.0398
 20
554.0
 30
0.0
 11
77.0398
 21
550.0
 31
0.0
  0
LINE
  5
64
330
1E
100
AcDbEntity
  8
0
100
AcDbLine
 10
77.0398
 20
554.0
 30
0.0
 11
77.85300000000001
 21
554.0
 31
0.0
  0
LINE
  5
65
330
1E
100
AcDbEntity
  8
0
100
AcDbLine
 10
77.85300000000001
 20
554.0
 30
0.0
 11
80.149
 21
554.0
 31
0.0
  0
LINE
  5
66
330
1E
100
AcDbEntity
  8
0
100
AcDbLine
 10
74.0013
 20
594.0
 30
0.0
 11
76.6967
 21
594.0
 31
0.0
  0
LINE
  5
67
330
1E
100
AcDbEntity
  8
0
100
AcDbLine
 10
75.0
 20
586.0
 30
0.0
 11
75.0
 21
588.0
 31
0.0
  0
LINE
  5
68
330
1E
100
AcDbEntity
  8
0
100
AcDbLine
 10
75.0
 20
586.0
 30
0.0
 11
75.9
 21
586.0
 31
0.0
  0
LINE
  5
69
330
1E
100
AcDbEntity
  8
0
100
AcDbLine
 10
75.9
 20
586.0
 30
0.0
 11
78.3
 21
586.0
 31
0.0
  0
LINE
  5
6A
330
1E
100
AcDbEntity
  8
0
100
AcDbLine
 10
75.0
 20
588.0
 30
0.0
 11
75.9
 21
588.0
 31
0.0
  0
LINE
  5
6B
330
1E
100
AcDbEntity
  8
0
100
AcDbLine
 10
75.0
 20
588.0
 30
0.0
 11
75.0
 21
586.0
 31
0.0
  0
LINE
  5
6C
330
1E
100
AcDbEntity
  8
0
100
AcDbLine
 10
75.9
 20
588.0
 30
0.0
 11
78.3
 21
588.0
 31
0.0
  0
LINE
  5
6D
330
1E
100
AcDbEntity
  8
0
100
AcDbLine
 10
78.0
 20
582.1469999999999
 30
0.0
 11
78.792
 21
582.1469999999999
 31
0.0
  0
LINE
  5
6E
330
1E
100
AcDbEntity
  8
0
100
AcDbLine
 10
78.0
 20
582.1469999999999
 30
0.0
 11
78.0
 21
577.1469999999999
 31
0.0
  0
LINE
  5
6F
330
1E
100
AcDbEntity
  8
0
100
AcDbLine
 10
78.3
 20
586.0
 30
0.0
 11
82.3
 21
586.0
 31
0.0
  0
LINE
  5
70
330
1E
100
AcDbEntity
  8
0
100
AcDbLine
 10
78.3
 20
588.0
 30
0.0
 11
82.3
 21
588.0
 31
0.0
  0
LINE
  5
71
330
1E
100
AcDbEntity
  8
0
100
AcDbLine
 10
78.0
 20
577.1469999999999
 30
0.0
 11
78.792
 21
577.1469999999999
 31
0.0
  0
LINE
  5
72
330
1E
100
AcDbEntity
  8
0
100
AcDbLine
 10
78.0
 20
577.1469999999999
 30
0.0
 11
78.0
 21
582.1469999999999
 31
0.0
  0
LINE
  5
73
330
1E
100
AcDbEntity
  8
0
100
AcDbLine
 10
76.6967
 20
594.0
 30
0.0
 11
80.90810000000001
 21
594.0
 31
0.0
  0
LINE
  5
74
330
1E
100
AcDbEntity
  8
0
100
AcDbLine
 10
74.98260000000001
 20
577.0
 30
0.0
 11
79.49390000000009
 21
577.0
 31
0.0
  0
LINE
  5
75
330
1E
100
AcDbEntity
  8
0
100
AcDbLine
 10
74.98260000000001
 20
571.0
 30
0.0
 11
79.49390000000009
 21
571.0
 31
0.0
  0
LINE
  5
76
330
1E
100
AcDbEntity
  8
0
100
AcDbLine
 10
73.87100000000001
 20
594.0
 30
0.0
 11
78.6058
 21
594.0
 31
0.0
  0
LINE
  5
77
330
1E
100
AcDbEntity
  8
0
100
AcDbLine
 10
73.2572
 20
594.4619999999999
 30
0.0
 11
78.0797
 21
594.4619999999999
 31
0.0
  0
LINE
  5
78
330
1E
100
AcDbEntity
  8
0
100
AcDbLine
 10
78.6058
 20
594.0
 30
0.0
 11
84.0
 21
594.0
 31
0.0
  0
LINE
  5
79
330
1E
100
AcDbEntity
  8
0
100
AcDbLine
 10
73.2572
 20
595.5379999999999
 30
0.0
 11
78.0797
 21
595.5379999999999
 31
0.0
  0
LINE
  5
7A
330
1E
100
AcDbEntity
  8
0
100
AcDbLine
 10
78.0797
 20
595.5379999999999
 30
0.0
 11
84.0
 21
595.5379999999999
 31
0.0
  0
LINE
  5
7B
330
1E
100
AcDbEntity
  8
0
100
AcDbLine
 10
78.0797
 20
594.4619999999999
 30
0.0
 11
84.0
 21
594.4619999999999
 31
0.0
  0
LINE
  5
7C
330
1E
100
AcDbEntity
  8
0
100
AcDbLine
 10
70.88979999999999
 20
596.0
 30
0.0
 11
73.87100000000001
 21
596.0
 31
0.0
  0
LINE
  5
7D
330
1E
100
AcDbEntity
  8
0
100
AcDbLine
 10
73.87100000000001
 20
596.0
 30
0.0
 11
78.6058
 21
596.0
 31
0.0
  0
LINE
  5
7E
330
1E
100
AcDbEntity
  8
0
100
AcDbLine
 10
70.1007
 20
596.462
 30
0.0
 11
73.2572
 21
596.462
 31
0.0
  0
LINE
  5
7F
330
1E
100
AcDbEntity
  8
0
100
AcDbLine
 10
70.1007
 20
596.462
 30
0.0
 11
70.88979999999999
 21
596.0
 31
0.0
  0
LINE
  5
80
330
1E
100
AcDbEntity
  8
0
100
AcDbLine
 10
73.2572
 20
596.462
 30
0.0
 11
78.0797
 21
596.462
 31
0.0
  0
LINE
  5
81
330
1E
100
AcDbEntity
  8
0
100
AcDbLine
 10
73.2572
 20
596.462
 30
0.0
 11
73.87100000000001
 21
596.0
 31
0.0
  0
LINE
  5
82
330
1E
100
AcDbEntity
  8
0
100
AcDbLine
 10
78.792
 20
582.1469999999999
 30
0.0
 11
80.904
 21
582.1469999999999
 31
0.0
  0
LINE
  5
83
330
1E
100
AcDbEntity
  8
0
100
AcDbLine
 10
78.792
 20
577.1469999999999
 30
0.0
 11
80.904
 21
577.1469999999999
 31
0.0
  0
LINE
  5
84
330
1E
100
AcDbEntity
  8
0
100
AcDbLine
 10
79.49390000000009
 20
577.0
 30
0.0
 11
84.0
 21
577.0
 31
0.0
  0
LINE
  5
85
330
1E
100
AcDbEntity
  8
0
100
AcDbLine
 10
79.49390000000009
 20
571.0
 30
0.0
 11
84.0
 21
571.0
 31
0.0
  0
LINE
  5
86
330
1E
100
AcDbEntity
  8
0
100
AcDbLine
 10
78.6058
 20
596.0
 30
0.0
 11
84.0
 21
596.0
 31
0.0
  0
LINE
  5
87
330
1E
100
AcDbEntity
  8
0
100
AcDbLine
 10
68.96080000000001
 20
597.538
 30
0.0
 11
68.96080000000001
 21
596.462
 31
0.0
  0
LINE
  5
88
330
1E
100
AcDbEntity
  8
0
100
AcDbLine
 10
68.96080000000001
 20
597.538
 30
0.0
 11
70.1007
 21
597.538
 31
0.0
  0
LINE
  5
89
330
1E
100
AcDbEntity
  8
0
100
AcDbLine
 10
68.96080000000001
 20
597.538
 30
0.0
 11
69.83769999999999
 21
598.0
 31
0.0
  0
LINE
  5
8A
330
1E
100
AcDbEntity
  8
0
100
AcDbLine
 10
68.96080000000001
 20
599.5379999999999
 30
0.0
 11
68.96080000000001
 21
598.4619999999999
 31
0.0
  0
LINE
  5
8B
330
1E
100
AcDbEntity
  8
0
100
AcDbLine
 10
68.96080000000001
 20
599.5379999999999
 30
0.0
 11
70.1007
 21
599.5379999999999
 31
0.0
  0
LINE
  5
8C
330
1E
100
AcDbEntity
  8
0
100
AcDbLine
 10
68.96080000000001
 20
599.5379999999999
 30
0.0
 11
69.83769999999999
 21
600.0
 31
0.0
  0
LINE
  5
8D
330
1E
100
AcDbEntity
  8
0
100
AcDbLine
 10
68.96080000000001
 20
598.4619999999999
 30
0.0
 11
70.1007
 21
598.4619999999999
 31
0.0
  0
LINE
  5
8E
330
1E
100
AcDbEntity
  8
0
100
AcDbLine
 10
68.96080000000001
 20
598.4619999999999
 30
0.0
 11
68.96080000000001
 21
599.5379999999999
 31
0.0
  0
LINE
  5
8F
330
1E
100
AcDbEntity
  8
0
100
AcDbLine
 10
68.96080000000001
 20
598.4619999999999
 30
0.0
 11
69.83769999999999
 21
598.0
 31
0.0
  0
LINE
  5
90
330
1E
100
AcDbEntity
  8
0
100
AcDbLine
 10
69.83769999999999
 20
600.0
 30
0.0
 11
70.88979999999999
 21
600.0
 31
0.0
  0
LINE
  5
91
330
1E
100
AcDbEntity
  8
0
100
AcDbLine
 10
70.1007
 20
599.5379999999999
 30
0.0
 11
73.2572
 21
599.5379999999999
 31
0.0
  0
LINE
  5
92
330
1E
100
AcDbEntity
  8
0
100
AcDbLine
 10
70.88979999999999
 20
600.0
 30
0.0
 11
73.87100000000001
 21
600.0
 31
0.0
  0
LINE
  5
93
330
1E
100
AcDbEntity
  8
0
100
AcDbLine
 10
70.1007
 20
598.4619999999999
 30
0.0
 11
73.2572
 21
598.4619999999999
 31
0.0
  0
LINE
  5
94
330
1E
100
AcDbEntity
  8
0
100
AcDbLine
 10
69.83769999999999
 20
598.0
 30
0.0
 11
70.88979999999999
 21
598.0
 31
0.0
  0
LINE
  5
95
330
1E
100
AcDbEntity
  8
0
100
AcDbLine
 10
73.2572
 20
599.5379999999999
 30
0.0
 11
75.0
 21
599.5379999999999
 31
0.0
  0
LINE
  5
96
330
1E
100
AcDbEntity
  8
0
100
AcDbLine
 10
73.2572
 20
598.4619999999999
 30
0.0
 11
75.0
 21
598.4619999999999
 31
0.0
  0
LINE
  5
97
330
1E
100
AcDbEntity
  8
0
100
AcDbLine
 10
70.88979999999999
 20
598.0
 30
0.0
 11
73.87100000000001
 21
598.0
 31
0.0
  0
LINE
  5
98
330
1E
100
AcDbEntity
  8
0
100
AcDbLine
 10
70.1007
 20
597.538
 30
0.0
 11
73.2572
 21
597.538
 31
0.0
  0
LINE
  5
99
330
1E
100
AcDbEntity
  8
0
100
AcDbLine
 10
70.1007
 20
597.538
 30
0.0
 11
70.88979999999999
 21
598.0
 31
0.0
  0
LINE
  5
9A
330
1E
100
AcDbEntity
  8
0
100
AcDbLine
 10
74.0
 20
597.0
 30
0.0
 11
74.936
 21
597.0
 31
0.0
  0
LINE
  5
9B
330
1E
100
AcDbEntity
  8
0
100
AcDbLine
 10
74.0
 20
597.0
 30
0.0
 11
74.0
 21
598.0
 31
0.0
  0
LINE
  5
9C
330
1E
100
AcDbEntity
  8
0
100
AcDbLine
 10
74.936
 20
597.0
 30
0.0
 11
77.432
 21
597.0
 31
0.0
  0
LINE
  5
9D
330
1E
100
AcDbEntity
  8
0
100
AcDbLine
 10
74.0
 20
598.0
 30
0.0
 11
74.936
 21
598.0
 31
0.0
  0
LINE
  5
9E
330
1E
100
AcDbEntity
  8
0
100
AcDbLine
 10
74.0
 20
598.0
 30
0.0
 11
74.0
 21
597.0
 31
0.0
  0
LINE
  5
9F
330
1E
100
AcDbEntity
  8
0
100
AcDbLine
 10
74.936
 20
598.0
 30
0.0
 11
77.432
 21
598.0
 31
0.0
  0
LINE
  5
A0
330
1E
100
AcDbEntity
  8
0
100
AcDbLine
 10
77.432
 20
597.0
 30
0.0
 11
81.592
 21
597.0
 31
0.0
  0
LINE
  5
A1
330
1E
100
AcDbEntity
  8
0
100
AcDbLine
 10
77.432
 20
598.0
 30
0.0
 11
81.592
 21
598.0
 31
0.0
  0
LINE
  5
A2
330
1E
100
AcDbEntity
  8
0
100
AcDbLine
 10
75.0
 20
598.0
 30
0.0
 11
75.0
 21
600.0
 31
0.0
  0
LINE
  5
A3
330
1E
100
AcDbEntity
  8
0
100
AcDbLine
 10
75.0
 20
600.0
 30
0.0
 11
75.9
 21
600.0
 31
0.0
  0
LINE
  5
A4
330
1E
100
AcDbEntity
  8
0
100
AcDbLine
 10
75.0
 20
600.0
 30
0.0
 11
75.0
 21
598.0
 31
0.0
  0
LINE
  5
A5
330
1E
100
AcDbEntity
  8
0
100
AcDbLine
 10
75.9
 20
600.0
 30
0.0
 11
78.3
 21
600.0
 31
0.0
  0
LINE
  5
A6
330
1E
100
AcDbEntity
  8
0
100
AcDbLine
 10
78.3
 20
600.0
 30
0.0
 11
82.3
 21
600.0
 31
0.0
  0
LINE
  5
A7
330
1E
100
AcDbEntity
  8
0
100
AcDbLine
 10
73.87100000000001
 20
600.0
 30
0.0
 11
75.0
 21
600.0
 31
0.0
  0
LINE
  5
A8
330
1E
100
AcDbEntity
  8
0
100
AcDbLine
 10
73.87100000000001
 20
598.0
 30
0.0
 11
74.0
 21
598.0
 31
0.0
  0
LINE
  5
A9
330
1E
100
AcDbEntity
  8
0
100
AcDbLine
 10
73.2572
 20
597.538
 30
0.0
 11
74.0
 21
597.538
 31
0.0
  0
LINE
  5
AA
330
1E
100
AcDbEntity
  8
0
100
AcDbLine
 10
73.2572
 20
597.538
 30
0.0
 11
73.87100000000001
 21
598.0
 31
0.0
  0
LINE
  5
AB
330
1E
100
AcDbEntity
  8
0
100
AcDbLine
 10
78.0797
 20
596.462
 30
0.0
 11
84.0
 21
596.462
 31
0.0
  0
LINE
  5
AC
330
1E
100
AcDbEntity
  8
0
100
AcDbLine
 10
78.0797
 20
596.462
 30
0.0
 11
78.6058
 21
596.0
 31
0.0
  0
LINE
  5
AD
330
1E
100
AcDbEntity
  8
0
100
AcDbLine
 10
80.149
 20
554.0
 30
0.0
 11
83.73650000000001
 21
554.0
 31
0.0
  0
LINE
  5
AE
330
1E
100
AcDbEntity
  8
0
100
AcDbLine
 10
79.97469999999999
 20
600.0
 30
0.0
 11
79.97469999999999
 21
604.76
 31
0.0
  0
LINE
  5
AF
330
1E
100
AcDbEntity
  8
0
100
AcDbLine
 10
79.97469999999999
 20
604.76
 30
0.0
 11
79.97469999999999
 21
600.0
 31
0.0
  0
LINE
  5
B0
330
1E
100
AcDbEntity
  8
0
100
AcDbLine
 10
79.97469999999999
 20
604.76
 30
0.0
 11
80.7101000000001
 21
604.76
 31
0.0
  0
LINE
  5
B1
330
1E
100
AcDbEntity
  8
0
100
AcDbLine
 10
79.97469999999999
 20
604.76
 30
0.0
 11
80.5404
 21
605.0
 31
0.0
  0
LINE
  5
B2
330
1E
100
AcDbEntity
  8
0
100
AcDbLine
 10
84.0
 20
550.0
 30
0.0
 11
84.0
 21
577.1469999999999
 31
0.0
  0
LINE
  5
B3
330
1E
100
AcDbEntity
  8
0
100
AcDbLine
 10
81.7504
 20
554.0
 30
0.0
 11
84.0
 21
554.0
 31
0.0
  0
LINE
  5
B4
330
1E
100
AcDbEntity
  8
0
100
AcDbLine
 10
80.904
 20
582.1469999999999
 30
0.0
 11
84.42399999999999
 21
582.1469999999999
 31
0.0
  0
LINE
  5
B5
330
1E
100
AcDbEntity
  8
0
100
AcDbLine
 10
80.904
 20
577.1469999999999
 30
0.0
 11
84.42399999999999
 21
577.1469999999999
 31
0.0
  0
LINE
  5
B6
330
1E
100
AcDbEntity
  8
0
100
AcDbLine
 10
80.904
 20
577.1469999999999
 30
0.0
 11
84.0
 21
577.1469999999999
 31
0.0
  0
LINE
  5
B7
330
1E
100
AcDbEntity
  8
0
100
AcDbLine
 10
84.0
 20
577.1469999999999
 30
0.0
 11
84.0
 21
550.0
 31
0.0
  0
LINE
  5
B8
330
1E
100
AcDbEntity
  8
0
100
AcDbLine
 10
84.0
 20
582.1469999999999
 30
0.0
 11
84.0
 21
586.0
 31
0.0
  0
LINE
  5
B9
330
1E
100
AcDbEntity
  8
0
100
AcDbLine
 10
81.592
 20
597.0
 30
0.0
 11
87.10399999999999
 21
597.0
 31
0.0
  0
LINE
  5
BA
330
1E
100
AcDbEntity
  8
0
100
AcDbLine
 10
81.592
 20
597.0
 30
0.0
 11
84.0
 21
597.0
 31
0.0
  0
LINE
  5
BB
330
1E
100
AcDbEntity
  8
0
100
AcDbLine
 10
81.592
 20
598.0
 30
0.0
 11
87.10399999999999
 21
598.0
 31
0.0
  0
LINE
  5
BC
330
1E
100
AcDbEntity
  8
0
100
AcDbLine
 10
82.3
 20
586.0
 30
0.0
 11
87.59999999999999
 21
586.0
 31
0.0
  0
LINE
  5
BD
330
1E
100
AcDbEntity
  8
0
100
AcDbLine
 10
82.3
 20
586.0
 30
0.0
 11
84.0
 21
586.0
 31
0.0
  0
LINE
  5
BE
330
1E
100
AcDbEntity
  8
0
100
AcDbLine
 10
84.0
 20
586.0
 30
0.0
 11
84.0
 21
582.1469999999999
 31
0.0
  0
LINE
  5
BF
330
1E
100
AcDbEntity
  8
0
100
AcDbLine
 10
84.0
 20
588.0
 30
0.0
 11
84.0
 21
597.0
 31
0.0
  0
LINE
  5
C0
330
1E
100
AcDbEntity
  8
0
100
AcDbLine
 10
84.0
 20
597.0
 30
0.0
 11
84.57600000000001
 21
597.0
 31
0.0
  0
LINE
  5
C1
330
1E
100
AcDbEntity
  8
0
100
AcDbLine
 10
84.0
 20
597.0
 30
0.0
 11
84.0
 21
588.0
 31
0.0
  0
LINE
  5
C2
330
1E
100
AcDbEntity
  8
0
100
AcDbLine
 10
82.3
 20
588.0
 30
0.0
 11
87.59999999999999
 21
588.0
 31
0.0
  0
LINE
  5
C3
330
1E
100
AcDbEntity
  8
0
100
AcDbLine
 10
84.42399999999999
 20
582.1469999999999
 30
0.0
 11
89.08799999999999
 21
582.1469999999999
 31
0.0
  0
LINE
  5
C4
330
1E
100
AcDbEntity
  8
0
100
AcDbLine
 10
84.57600000000001
 20
597.0
 30
0.0
 11
86.11200000000001
 21
597.0
 31
0.0
  0
LINE
  5
C5
330
1E
100
AcDbEntity
  8
0
100
AcDbLine
 10
84.42399999999999
 20
577.1469999999999
 30
0.0
 11
89.08799999999999
 21
577.1469999999999
 31
0.0
  0
LINE
  5
C6
330
1E
100
AcDbEntity
  8
0
100
AcDbLine
 10
82.3
 20
600.0
 30
0.0
 11
87.59999999999999
 21
600.0
 31
0.0
  0
LINE
  5
C7
330
1E
100
AcDbEntity
  8
0
100
AcDbLine
 10
80.90810000000001
 20
594.0
 30
0.0
 11
84.0
 21
594.0
 31
0.0
  0
LINE
  5
C8
330
1E
100
AcDbEntity
  8
0
100
AcDbLine
 10
83.73650000000001
 20
554.0
 30
0.0
 11
84.0
 21
554.0
 31
0.0
  0
LINE
  5
C9
330
1E
100
AcDbEntity
  8
0
100
AcDbLine
 10
80.7101000000001
 20
604.76
 30
0.0
 11
82.7466
 21
604.76
 31
0.0
  0
LINE
  5
CA
330
1E
100
AcDbEntity
  8
0
100
AcDbLine
 10
80.5404
 20
605.0
 30
0.0
 11
81.21920000000001
 21
605.0
 31
0.0
  0
LINE
  5
CB
330
1E
100
AcDbEntity
  8
0
100
AcDbLine
 10
81.21920000000001
 20
605.0
 30
0.0
 11
83.1426
 21
605.0
 31
0.0
  0
LINE
  5
CC
330
1E
100
AcDbEntity
  8
0
100
AcDbLine
 10
83.1426
 20
605.0
 30
0.0
 11
86.1973
 21
605.0
 31
0.0
  0
LINE
  5
CD
330
1E
100
AcDbEntity
  8
0
100
AcDbLine
 10
82.7466
 20
604.76
 30
0.0
 11
85.85790000000001
 21
604.76
 31
0.0
  0
LINE
  5
CE
330
1E
100
AcDbEntity
  8
0
100
AcDbLine
 10
89.08799999999999
 20
577.1469999999999
 30
0.0
 11
92.047
 21
577.1469999999999
 31
0.0
  0
LINE
  5
CF
330
1E
100
AcDbEntity
  8
0
100
AcDbLine
 10
89.08799999999999
 20
582.1469999999999
 30
0.0
 11
92.047
 21
582.1469999999999
 31
0.0
  0
LINE
  5
D0
330
1E
100
AcDbEntity
  8
0
100
AcDbLine
 10
87.10399999999999
 20
597.0
 30
0.0
 11
93.34400000000009
 21
597.0
 31
0.0
  0
LINE
  5
D1
330
1E
100
AcDbEntity
  8
0
100
AcDbLine
 10
87.10399999999999
 20
598.0
 30
0.0
 11
93.34400000000009
 21
598.0
 31
0.0
  0
LINE
  5
D2
330
1E
100
AcDbEntity
  8
0
100
AcDbLine
 10
86.11200000000001
 20
597.0
 30
0.0
 11
88.67200000000002
 21
597.0
 31
0.0
  0
LINE
  5
D3
330
1E
100
AcDbEntity
  8
0
100
AcDbLine
 10
87.59999999999999
 20
586.0
 30
0.0
 11
93.59999999999999
 21
586.0
 31
0.0
  0
LINE
  5
D4
330
1E
100
AcDbEntity
  8
0
100
AcDbLine
 10
88.67200000000002
 20
597.0
 30
0.0
 11
92.06400000000009
 21
597.0
 31
0.0
  0
LINE
  5
D5
330
1E
100
AcDbEntity
  8
0
100
AcDbLine
 10
92.06400000000009
 20
597.0
 30
0.0
 11
95.904
 21
597.0
 31
0.0
  0
LINE
  5
D6
330
1E
100
AcDbEntity
  8
0
100
AcDbLine
 10
87.59999999999999
 20
588.0
 30
0.0
 11
93.59999999999999
 21
588.0
 31
0.0
  0
LINE
  5
D7
330
1E
100
AcDbEntity
  8
0
100
AcDbLine
 10
92.047
 20
582.1469999999999
 30
0.0
 11
92.839
 21
582.1469999999999
 31
0.0
  0
LINE
  5
D8
330
1E
100
AcDbEntity
  8
0
100
AcDbLine
 10
92.839
 20
582.1469999999999
 30
0.0
 11
94.15899999999998
 21
582.1469999999999
 31
0.0
  0
LINE
  5
D9
330
1E
100
AcDbEntity
  8
0
100
AcDbLine
 10
92.047
 20
577.1469999999999
 30
0.0
 11
92.839
 21
577.1469999999999
 31
0.0
  0
LINE
  5
DA
330
1E
100
AcDbEntity
  8
0
100
AcDbLine
 10
93.59999999999999
 20
586.0
 30
0.0
 11
100.0
 21
586.0
 31
0.0
  0
LINE
  5
DB
330
1E
100
AcDbEntity
  8
0
100
AcDbLine
 10
93.34400000000009
 20
597.0
 30
0.0
 11
100.0
 21
597.0
 31
0.0
  0
LINE
  5
DC
330
1E
100
AcDbEntity
  8
0
100
AcDbLine
 10
93.34400000000009
 20
598.0
 30
0.0
 11
100.0
 21
598.0
 31
0.0
  0
LINE
  5
DD
330
1E
100
AcDbEntity
  8
0
100
AcDbLine
 10
93.59999999999999
 20
588.0
 30
0.0
 11
100.0
 21
588.0
 31
0.0
  0
LINE
  5
DE
330
1E
100
AcDbEntity
  8
0
100
AcDbLine
 10
92.839
 20
577.1469999999999
 30
0.0
 11
94.15899999999998
 21
577.1469999999999
 31
0.0
  0
LINE
  5
DF
330
1E
100
AcDbEntity
  8
0
100
AcDbLine
 10
87.59999999999999
 20
600.0
 30
0.0
 11
93.59999999999999
 21
600.0
 31
0.0
  0
LINE
  5
E0
330
1E
100
AcDbEntity
  8
0
100
AcDbLine
 10
93.59999999999999
 20
600.0
 30
0.0
 11
100.0
 21
600.0
 31
0.0
  0
LINE
  5
E1
330
1E
100
AcDbEntity
  8
0
100
AcDbLine
 10
90.0
 20
605.0
 30
0.0
 11
90.0
 21
608.0
 31
0.0
  0
LINE
  5
E2
330
1E
100
AcDbEntity
  8
0
100
AcDbLine
 10
90.2702
 20
605.0
 30
0.0
 11
94.9088
 21
605.0
 31
0.0
  0
LINE
  5
E3
330
1E
100
AcDbEntity
  8
0
100
AcDbLine
 10
86.1973
 20
605.0
 30
0.0
 11
90.2702
 21
605.0
 31
0.0
  0
LINE
  5
E4
330
1E
100
AcDbEntity
  8
0
100
AcDbLine
 10
89.9874000000001
 20
604.76
 30
0.0
 11
94.7391
 21
604.76
 31
0.0
  0
LINE
  5
E5
330
1E
100
AcDbEntity
  8
0
100
AcDbLine
 10
85.85790000000001
 20
604.76
 30
0.0
 11
89.9874000000001
 21
604.76
 31
0.0
  0
LINE
  5
E6
330
1E
100
AcDbEntity
  8
0
100
AcDbLine
 10
89.0
 20
608.0
 30
0.0
 11
89.0
 21
611.0
 31
0.0
  0
LINE
  5
E7
330
1E
100
AcDbEntity
  8
0
100
AcDbLine
 10
89.0
 20
608.0
 30
0.0
 11
89.396
 21
608.0
 31
0.0
  0
LINE
  5
E8
330
1E
100
AcDbEntity
  8
0
100
AcDbLine
 10
89.396
 20
608.0
 30
0.0
 11
90.45200000000001
 21
608.0
 31
0.0
  0
LINE
  5
E9
330
1E
100
AcDbEntity
  8
0
100
AcDbLine
 10
89.396
 20
608.0
 30
0.0
 11
90.0
 21
608.0
 31
0.0
  0
LINE
  5
EA
330
1E
100
AcDbEntity
  8
0
100
AcDbLine
 10
89.0
 20
611.0
 30
0.0
 11
89.396
 21
611.0
 31
0.0
  0
LINE
  5
EB
330
1E
100
AcDbEntity
  8
0
100
AcDbLine
 10
89.0
 20
611.0
 30
0.0
 11
89.0
 21
608.0
 31
0.0
  0
LINE
  5
EC
330
1E
100
AcDbEntity
  8
0
100
AcDbLine
 10
90.0
 20
608.0
 30
0.0
 11
90.35999999999999
 21
608.0
 31
0.0
  0
LINE
  5
ED
330
1E
100
AcDbEntity
  8
0
100
AcDbLine
 10
90.0
 20
608.0
 30
0.0
 11
90.0
 21
605.0
 31
0.0
  0
LINE
  5
EE
330
1E
100
AcDbEntity
  8
0
100
AcDbLine
 10
90.35999999999999
 20
608.0
 30
0.0
 11
91.31999999999999
 21
608.0
 31
0.0
  0
LINE
  5
EF
330
1E
100
AcDbEntity
  8
0
100
AcDbLine
 10
91.31999999999999
 20
608.0
 30
0.0
 11
92.91999999999999
 21
608.0
 31
0.0
  0
LINE
  5
F0
330
1E
100
AcDbEntity
  8
0
100
AcDbLine
 10
90.45200000000001
 20
608.0
 30
0.0
 11
92.21200000000001
 21
608.0
 31
0.0
  0
LINE
  5
F1
330
1E
100
AcDbEntity
  8
0
100
AcDbLine
 10
92.21200000000001
 20
608.0
 30
0.0
 11
93.9924
 21
608.0
 31
0.0
  0
LINE
  5
F2
330
1E
100
AcDbEntity
  8
0
100
AcDbLine
 10
89.396
 20
611.0
 30
0.0
 11
90.45200000000001
 21
611.0
 31
0.0
  0
LINE
  5
F3
330
1E
100
AcDbEntity
  8
0
100
AcDbLine
 10
91.0
 20
615.2859999999999
 30
0.0
 11
91.20449999999999
 21
615.643
 31
0.0
  0
LINE
  5
F4
330
1E
100
AcDbEntity
  8
0
100
AcDbLine
 10
91.0
 20
615.2859999999999
 30
0.0
 11
91.0
 21
611.714
 31
0.0
  0
LINE
  5
F5
330
1E
100
AcDbEntity
  8
0
100
AcDbLine
 10
92.00749999999999
 20
611.1499999999999
 30
0.0
 11
93.09620000000009
 21
611.072
 31
0.0
  0
LINE
  5
F7
330
1E
100
AcDbEntity
  8
0
100
AcDbLine
 10
91.8182
 20
611.1069999999999
 30
0.0
 11
92.4318
 21
611.0
 31
0.0
  0
LINE
  5
F9
330
1E
100
AcDbEntity
  8
0
100
AcDbLine
 10
91.3443
 20
611.357
 30
0.0
 11
92.00749999999999
 21
611.1499999999999
 31
0.0
  0
LINE
  5
FA
330
1E
100
AcDbEntity
  8
0
100
AcDbLine
 10
91.0631
 20
615.2859999999999
 30
0.0
 11
91.3443
 21
615.643
 31
0.0
  0
LINE
  5
FB
330
1E
100
AcDbEntity
  8
0
100
AcDbLine
 10
91.0631
 20
611.714
 30
0.0
 11
91.3443
 21
611.357
 31
0.0
  0
LINE
  5
FC
330
1E
100
AcDbEntity
  8
0
100
AcDbLine
 10
91.3443
 20
615.643
 30
0.0
 11
92.00749999999999
 21
615.8509999999999
 31
0.0
  0
LINE
  5
FD
330
1E
100
AcDbEntity
  8
0
100
AcDbLine
 10
91.20449999999999
 20
615.643
 30
0.0
 11
91.8182
 21
615.893
 31
0.0
  0
LINE
  5
100
330
1E
100
AcDbEntity
  8
0
100
AcDbLine
 10
92.00749999999999
 20
615.8509999999999
 30
0.0
 11
93.09620000000009
 21
615.9279999999999
 31
0.0
  0
LINE
  5
104
330
1E
100
AcDbEntity
  8
0
100
AcDbLine
 10
91.8182
 20
615.893
 30
0.0
 11
92.4318
 21
616.0
 31
0.0
  0
LINE
  5
106
330
1E
100
AcDbEntity
  8
0
100
AcDbLine
 10
91.20449999999999
 20
611.357
 30
0.0
 11
91.8182
 21
611.1069999999999
 31
0.0
  0
LINE
  5
107
330
1E
100
AcDbEntity
  8
0
100
AcDbLine
 10
91.0
 20
611.714
 30
0.0
 11
91.0
 21
615.2859999999999
 31
0.0
  0
LINE
  5
108
330
1E
100
AcDbEntity
  8
0
100
AcDbLine
 10
91.0
 20
611.714
 30
0.0
 11
91.20449999999999
 21
611.357
 31
0.0
  0
LINE
  5
109
330
1E
100
AcDbEntity
  8
0
100
AcDbLine
 10
90.45200000000001
 20
611.0
 30
0.0
 11
92.21200000000001
 21
611.0
 31
0.0
  0
LINE
  5
10B
330
1E
100
AcDbEntity
  8
0
100
AcDbLine
 10
92.7182000000001
 20
616.0
 30
0.0
 11
93.4545000000001
 21
616.0
 31
0.0
  0
LINE
  5
10C
330
1E
100
AcDbEntity
  8
0
100
AcDbLine
 10
93.4545000000001
 20
616.0
 30
0.0
 11
93.9924
 21
616.0
 31
0.0
  0
LINE
  5
10D
330
1E
100
AcDbEntity
  8
0
100
AcDbLine
 10
93.09620000000009
 20
615.9279999999999
 30
0.0
 11
93.9924
 21
615.8805170366309
 31
0.0
  0
LINE
  5
110
330
1E
100
AcDbEntity
  8
0
100
AcDbLine
 10
93.09620000000009
 20
611.072
 30
0.0
 11
93.9924
 21
611.1194829633689
 31
0.0
  0
LINE
  5
113
330
1E
100
AcDbEntity
  8
0
100
AcDbLine
 10
92.4318
 20
616.0
 30
0.0
 11
92.7182000000001
 21
616.0
 31
0.0
  0
LINE
  5
114
330
1E
100
AcDbEntity
  8
0
100
AcDbLine
 10
92.91999999999999
 20
608.0
 30
0.0
 11
93.9924
 21
608.0
 31
0.0
  0
LINE
  5
115
330
1E
100
AcDbEntity
  8
0
100
AcDbLine
 10
92.21200000000001
 20
611.0
 30
0.0
 11
93.9924
 21
611.0
 31
0.0
  0
LINE
  5
116
330
1E
100
AcDbEntity
  8
0
100
AcDbLine
 10
93.9924
 20
605.0
 30
0.0
 11
93.9924
 21
618.327
 31
0.0
  0
LINE
  5
117
330
1E
100
AcDbEntity
  8
0
100
AcDbLine
 10
94.15899999999998
 20
582.1469999999999
 30
0.0
 11
95.90799999999999
 21
582.1469999999999
 31
0.0
  0
LINE
  5
118
330
1E
100
AcDbEntity
  8
0
100
AcDbLine
 10
94.15899999999998
 20
577.1469999999999
 30
0.0
 11
95.90799999999999
 21
577.1469999999999
 31
0.0
  0
LINE
  5
119
330
1E
100
AcDbEntity
  8
0
100
AcDbLine
 10
95.904
 20
597.0
 30
0.0
 11
100.0
 21
597.0
 31
0.0
  0
LINE
  5
11A
330
1E
100
AcDbEntity
  8
0
100
AcDbLine
 10
95.90799999999999
 20
582.1469999999999
 30
0.0
 11
97.888
 21
582.1469999999999
 31
0.0
  0
LINE
  5
11B
330
1E
100
AcDbEntity
  8
0
100
AcDbLine
 10
95.90799999999999
 20
577.1469999999999
 30
0.0
 11
97.888
 21
577.1469999999999
 31
0.0
  0
LINE
  5
11C
330
1E
100
AcDbEntity
  8
0
100
AcDbLine
 10
94.7391
 20
604.76
 30
0.0
 11
100.0
 21
604.76
 31
0.0
  0
LINE
  5
11D
330
1E
100
AcDbEntity
  8
0
100
AcDbLine
 10
94.16209999999999
 20
619.0
 30
0.0
 11
94.36579999999999
 21
619.0
 31
0.0
  0
LINE
  5
11E
330
1E
100
AcDbEntity
  8
0
100
AcDbLine
 10
94.36579999999999
 20
619.0
 30
0.0
 11
94.94280000000001
 21
619.0
 31
0.0
  0
LINE
  5
11F
330
1E
100
AcDbEntity
  8
0
100
AcDbLine
 10
94.94280000000001
 20
619.0
 30
0.0
 11
95.85919999999999
 21
619.0
 31
0.0
  0
LINE
  5
120
330
1E
100
AcDbEntity
  8
0
100
AcDbLine
 10
95.85919999999999
 20
619.0
 30
0.0
 11
97.08110000000001
 21
619.0
 31
0.0
  0
LINE
  5
121
330
1E
100
AcDbEntity
  8
0
100
AcDbLine
 10
94.9088
 20
605.0
 30
0.0
 11
100.0
 21
605.0
 31
0.0
  0
LINE
  5
122
330
1E
100
AcDbEntity
  8
0
100
AcDbLine
 10
93.9924
 20
618.327
 30
0.0
 11
93.9924
 21
605.0
 31
0.0
  0
LINE
  5
123
330
1E
100
AcDbEntity
  8
0
100
AcDbLine
 10
93.9924
 20
618.327
 30
0.0
 11
94.16209999999999
 21
619.0
 31
0.0
  0
LINE
  5
124
330
1E
100
AcDbEntity
  8
0
100
AcDbLine
 10
94.16209999999999
 20
632.0
 30
0.0
 11
94.36579999999999
 21
632.0
 31
0.0
  0
LINE
  5
125
330
1E
100
AcDbEntity
  8
0
100
AcDbLine
 10
94.36579999999999
 20
632.0
 30
0.0
 11
94.94280000000001
 21
632.0
 31
0.0
  0
LINE
  5
126
330
1E
100
AcDbEntity
  8
0
100
AcDbLine
 10
94.94280000000001
 20
632.0
 30
0.0
 11
95.85919999999999
 21
632.0
 31
0.0
  0
LINE
  5
127
330
1E
100
AcDbEntity
  8
0
100
AcDbLine
 10
95.85919999999999
 20
632.0
 30
0.0
 11
95.99490000000001
 21
632.0
 31
0.0
  0
LINE
  5
128
330
1E
100
AcDbEntity
  8
0
100
AcDbLine
 10
95.85919999999999
 20
632.0
 30
0.0
 11
97.08110000000001
 21
632.0
 31
0.0
  0
LINE
  5
129
330
1E
100
AcDbEntity
  8
0
100
AcDbLine
 10
95.99490000000001
 20
632.0
 30
0.0
 11
96.14200000000002
 21
632.0
 31
0.0
  0
LINE
  5
12A
330
1E
100
AcDbEntity
  8
0
100
AcDbLine
 10
95.99490000000001
 20
632.0
 30
0.0
 11
95.99490000000001
 21
619.0
 31
0.0
  0
LINE
  5
12B
330
1E
100
AcDbEntity
  8
0
100
AcDbLine
 10
95.99490000000001
 20
619.0
 30
0.0
 11
95.99490000000001
 21
632.0
 31
0.0
  0
LINE
  5
12C
330
1E
100
AcDbEntity
  8
0
100
AcDbLine
 10
97.888
 20
582.1469999999999
 30
0.0
 11
100.0
 21
582.1469999999999
 31
0.0
  0
LINE
  5
12D
330
1E
100
AcDbEntity
  8
0
100
AcDbLine
 10
97.888
 20
577.1469999999999
 30
0.0
 11
100.0
 21
577.1469999999999
 31
0.0
  0
LINE
  5
12E
330
1E
100
AcDbEntity
  8
0
100
AcDbLine
 10
97.98360000000009
 20
577.0
 30
0.0
 11
97.98360000000009
 21
573.0
 31
0.0
  0
LINE
  5
12F
330
1E
100
AcDbEntity
  8
0
100
AcDbLine
 10
97.98360000000009
 20
577.0
 30
0.0
 11
98.04819999999999
 21
577.0
 31
0.0
  0
LINE
  5
130
330
1E
100
AcDbEntity
  8
0
100
AcDbLine
 10
97.98360000000009
 20
573.0
 30
0.0
 11
98.0461000000001
 21
573.0
 31
0.0
  0
LINE
  5
131
330
1E
100
AcDbEntity
  8
0
100
AcDbLine
 10
97.98360000000009
 20
573.0
 30
0.0
 11
98.04819999999999
 21
573.0
 31
0.0
  0
LINE
  5
132
330
1E
100
AcDbEntity
  8
0
100
AcDbLine
 10
97.98360000000009
 20
573.0
 30
0.0
 11
97.98360000000009
 21
577.0
 31
0.0
  0
LINE
  5
133
330
1E
100
AcDbEntity
  8
0
100
AcDbLine
 10
97.08110000000001
 20
619.0
 30
0.0
 11
98.4726
 21
619.0
 31
0.0
  0
LINE
  5
134
330
1E
100
AcDbEntity
  8
0
100
AcDbLine
 10
97.08110000000001
 20
632.0
 30
0.0
 11
98.4726
 21
632.0
 31
0.0
  0
LINE
  5
135
330
1E
100
AcDbEntity
  8
0
100
AcDbLine
 10
96.14200000000002
 20
632.0
 30
0.0
 11
96.5493
 21
632.0
 31
0.0
  0
LINE
  5
136
330
1E
100
AcDbEntity
  8
0
100
AcDbLine
 10
96.5493
 20
632.0
 30
0.0
 11
97.17159999999999
 21
632.0
 31
0.0
  0
LINE
  5
137
330
1E
100
AcDbEntity
  8
0
100
AcDbLine
 10
98.0461000000001
 20
573.0
 30
0.0
 11
98.25169999999999
 21
573.0
 31
0.0
  0
LINE
  5
138
330
1E
100
AcDbEntity
  8
0
100
AcDbLine
 10
98.25169999999999
 20
573.0
 30
0.0
 11
98.58859999999999
 21
573.0
 31
0.0
  0
LINE
  5
139
330
1E
100
AcDbEntity
  8
0
100
AcDbLine
 10
98.04819999999999
 20
573.0
 30
0.0
 11
98.25650000000001
 21
573.0
 31
0.0
  0
LINE
  5
13A
330
1E
100
AcDbEntity
  8
0
100
AcDbLine
 10
98.04819999999999
 20
577.0
 30
0.0
 11
98.25650000000001
 21
577.0
 31
0.0
  0
LINE
  5
13B
330
1E
100
AcDbEntity
  8
0
100
AcDbLine
 10
98.25650000000001
 20
577.0
 30
0.0
 11
98.5762
 21
577.0
 31
0.0
  0
LINE
  5
13C
330
1E
100
AcDbEntity
  8
0
100
AcDbLine
 10
98.25650000000001
 20
573.0
 30
0.0
 11
98.5762
 21
573.0
 31
0.0
  0
LINE
  5
13D
330
1E
100
AcDbEntity
  8
0
100
AcDbLine
 10
98.58859999999999
 20
573.0
 30
0.0
 11
99.0155
 21
573.0
 31
0.0
  0
LINE
  5
13E
330
1E
100
AcDbEntity
  8
0
100
AcDbLine
 10
98.5762
 20
573.0
 30
0.0
 11
99.0079
 21
573.0
 31
0.0
  0
LINE
  5
13F
330
1E
100
AcDbEntity
  8
0
100
AcDbLine
 10
99.50639999999999
 20
573.0
 30
0.0
 11
100.0357999999999
 21
573.0
 31
0.0
  0
LINE
  5
140
330
1E
100
AcDbEntity
  8
0
100
AcDbLine
 10
99.0155
 20
573.0
 30
0.0
 11
99.50639999999999
 21
573.0
 31
0.0
  0
LINE
  5
141
330
1E
100
AcDbEntity
  8
0
100
AcDbLine
 10
99.0079
 20
573.0
 30
0.0
 11
99.51529999999999
 21
573.0
 31
0.0
  0
LINE
  5
142
330
1E
100
AcDbEntity
  8
0
100
AcDbLine
 10
98.66900000000001
 20
577.0
 30
0.0
 11
98.66900000000001
 21
577.1469999999999
 31
0.0
  0
LINE
  5
143
330
1E
100
AcDbEntity
  8
0
100
AcDbLine
 10
98.5762
 20
577.0
 30
0.0
 11
99.0079
 21
577.0
 31
0.0
  0
LINE
  5
144
330
1E
100
AcDbEntity
  8
0
100
AcDbLine
 10
98.66900000000001
 20
582.1469999999999
 30
0.0
 11
98.66900000000001
 21
586.0
 31
0.0
  0
LINE
  5
145
330
1E
100
AcDbEntity
  8
0
100
AcDbLine
 10
98.66900000000001
 20
577.1469999999999
 30
0.0
 11
98.66900000000001
 21
577.0
 31
0.0
  0
LINE
  5
146
330
1E
100
AcDbEntity
  8
0
100
AcDbLine
 10
98.66900000000001
 20
586.0
 30
0.0
 11
98.66900000000001
 21
582.1469999999999
 31
0.0
  0
LINE
  5
147
330
1E
100
AcDbEntity
  8
0
100
AcDbLine
 10
99.0079
 20
577.0
 30
0.0
 11
99.51529999999999
 21
577.0
 31
0.0
  0
LINE
  5
148
330
1E
100
AcDbEntity
  8
0
100
AcDbLine
 10
100.0
 20
586.0
 30
0.0
 11
106.4
 21
586.0
 31
0.0
  0
LINE
  5
149
330
1E
100
AcDbEntity
  8
0
100
AcDbLine
 10
100.0
 20
598.0
 30
0.0
 11
106.656
 21
598.0
 31
0.0
  0
LINE
  5
14A
330
1E
100
AcDbEntity
  8
0
100
AcDbLine
 10
100.0
 20
597.0
 30
0.0
 11
104.096
 21
597.0
 31
0.0
  0
LINE
  5
14B
330
1E
100
AcDbEntity
  8
0
100
AcDbLine
 10
100.0
 20
597.0
 30
0.0
 11
106.656
 21
597.0
 31
0.0
  0
LINE
  5
14C
330
1E
100
AcDbEntity
  8
0
100
AcDbLine
 10
100.0
 20
588.0
 30
0.0
 11
106.4
 21
588.0
 31
0.0
  0
LINE
  5
14D
330
1E
100
AcDbEntity
  8
0
100
AcDbLine
 10
100.0
 20
582.1469999999999
 30
0.0
 11
102.112
 21
582.1469999999999
 31
0.0
  0
LINE
  5
14E
330
1E
100
AcDbEntity
  8
0
100
AcDbLine
 10
100.0
 20
577.1469999999999
 30
0.0
 11
102.112
 21
577.1469999999999
 31
0.0
  0
LINE
  5
14F
330
1E
100
AcDbEntity
  8
0
100
AcDbLine
 10
99.51529999999999
 20
577.0
 30
0.0
 11
100.0447
 21
577.0
 31
0.0
  0
LINE
  5
150
330
1E
100
AcDbEntity
  8
0
100
AcDbLine
 10
99.51529999999999
 20
573.0
 30
0.0
 11
100.0447
 21
573.0
 31
0.0
  0
LINE
  5
151
330
1E
100
AcDbEntity
  8
0
100
AcDbLine
 10
100.0
 20
600.0
 30
0.0
 11
106.4
 21
600.0
 31
0.0
  0
LINE
  5
152
330
1E
100
AcDbEntity
  8
0
100
AcDbLine
 10
100.0
 20
605.0
 30
0.0
 11
105.0912
 21
605.0
 31
0.0
  0
LINE
  5
153
330
1E
100
AcDbEntity
  8
0
100
AcDbLine
 10
100.0
 20
604.76
 30
0.0
 11
105.2609
 21
604.76
 31
0.0
  0
LINE
  5
154
330
1E
100
AcDbEntity
  8
0
100
AcDbLine
 10
100.0
 20
619.0
 30
0.0
 11
101.5274
 21
619.0
 31
0.0
  0
LINE
  5
155
330
1E
100
AcDbEntity
  8
0
100
AcDbLine
 10
98.4726
 20
619.0
 30
0.0
 11
100.0
 21
619.0
 31
0.0
  0
LINE
  5
156
330
1E
100
AcDbEntity
  8
0
100
AcDbLine
 10
98.4726
 20
632.0
 30
0.0
 11
100.0
 21
632.0
 31
0.0
  0
LINE
  5
157
330
1E
100
AcDbEntity
  8
0
100
AcDbLine
 10
101.0648999999999
 20
573.0
 30
0.0
 11
101.4919
 21
573.0
 31
0.0
  0
LINE
  5
158
330
1E
100
AcDbEntity
  8
0
100
AcDbLine
 10
100.5740999999999
 20
573.0
 30
0.0
 11
101.0648999999999
 21
573.0
 31
0.0
  0
LINE
  5
159
330
1E
100
AcDbEntity
  8
0
100
AcDbLine
 10
101.4919
 20
573.0
 30
0.0
 11
101.8288
 21
573.0
 31
0.0
  0
LINE
  5
15A
330
1E
100
AcDbEntity
  8
0
100
AcDbLine
 10
101.5049
 20
573.0
 30
0.0
 11
101.8238999999999
 21
573.0
 31
0.0
  0
LINE
  5
15B
330
1E
100
AcDbEntity
  8
0
100
AcDbLine
 10
101.0731999999999
 20
573.0
 30
0.0
 11
101.5049
 21
573.0
 31
0.0
  0
LINE
  5
15C
330
1E
100
AcDbEntity
  8
0
100
AcDbLine
 10
100.5651
 20
573.0
 30
0.0
 11
101.0731999999999
 21
573.0
 31
0.0
  0
LINE
  5
15D
330
1E
100
AcDbEntity
  8
0
100
AcDbLine
 10
100.0357999999999
 20
573.0
 30
0.0
 11
100.5651
 21
573.0
 31
0.0
  0
LINE
  5
15E
330
1E
100
AcDbEntity
  8
0
100
AcDbLine
 10
101.4121
 20
577.0
 30
0.0
 11
101.4121
 21
577.1469999999999
 31
0.0
  0
LINE
  5
15F
330
1E
100
AcDbEntity
  8
0
100
AcDbLine
 10
101.4919
 20
577.0
 30
0.0
 11
101.8288
 21
577.0
 31
0.0
  0
LINE
  5
160
330
1E
100
AcDbEntity
  8
0
100
AcDbLine
 10
101.0648999999999
 20
577.0
 30
0.0
 11
101.4919
 21
577.0
 31
0.0
  0
LINE
  5
161
330
1E
100
AcDbEntity
  8
0
100
AcDbLine
 10
101.4121
 20
582.1469999999999
 30
0.0
 11
101.4121
 21
586.0
 31
0.0
  0
LINE
  5
162
330
1E
100
AcDbEntity
  8
0
100
AcDbLine
 10
101.4121
 20
586.0
 30
0.0
 11
101.4121
 21
582.1469999999999
 31
0.0
  0
LINE
  5
163
330
1E
100
AcDbEntity
  8
0
100
AcDbLine
 10
101.4121
 20
577.1469999999999
 30
0.0
 11
101.4121
 21
577.0
 31
0.0
  0
LINE
  5
164
330
1E
100
AcDbEntity
  8
0
100
AcDbLine
 10
100.5740999999999
 20
577.0
 30
0.0
 11
101.0648999999999
 21
577.0
 31
0.0
  0
LINE
  5
165
330
1E
100
AcDbEntity
  8
0
100
AcDbLine
 10
100.0447
 20
577.0
 30
0.0
 11
100.5740999999999
 21
577.0
 31
0.0
  0
LINE
  5
166
330
1E
100
AcDbEntity
  8
0
100
AcDbLine
 10
100.0447
 20
573.0
 30
0.0
 11
100.5740999999999
 21
573.0
 31
0.0
  0
LINE
  5
167
330
1E
100
AcDbEntity
  8
0
100
AcDbLine
 10
101.8288
 20
573.0
 30
0.0
 11
102.0342999999999
 21
573.0
 31
0.0
  0
LINE
  5
168
330
1E
100
AcDbEntity
  8
0
100
AcDbLine
 10
101.8288
 20
577.0
 30
0.0
 11
102.0342999999999
 21
577.0
 31
0.0
  0
LINE
  5
169
330
1E
100
AcDbEntity
  8
0
100
AcDbLine
 10
101.8238999999999
 20
573.0
 30
0.0
 11
102.0329
 21
573.0
 31
0.0
  0
LINE
  5
16A
330
1E
100
AcDbEntity
  8
0
100
AcDbLine
 10
101.5274
 20
619.0
 30
0.0
 11
102.9188999999999
 21
619.0
 31
0.0
  0
LINE
  5
16B
330
1E
100
AcDbEntity
  8
0
100
AcDbLine
 10
101.5274
 20
632.0
 30
0.0
 11
102.9188999999999
 21
632.0
 31
0.0
  0
LINE
  5
16C
330
1E
100
AcDbEntity
  8
0
100
AcDbLine
 10
102.0976
 20
573.0
 30
0.0
 11
102.0976
 21
577.0
 31
0.0
  0
LINE
  5
16D
330
1E
100
AcDbEntity
  8
0
100
AcDbLine
 10
102.0329
 20
573.0
 30
0.0
 11
102.0976
 21
573.0
 31
0.0
  0
LINE
  5
16E
330
1E
100
AcDbEntity
  8
0
100
AcDbLine
 10
102.0342999999999
 20
577.0
 30
0.0
 11
102.0976
 21
577.0
 31
0.0
  0
LINE
  5
16F
330
1E
100
AcDbEntity
  8
0
100
AcDbLine
 10
102.112
 20
582.1469999999999
 30
0.0
 11
104.092
 21
582.1469999999999
 31
0.0
  0
LINE
  5
170
330
1E
100
AcDbEntity
  8
0
100
AcDbLine
 10
102.112
 20
577.1469999999999
 30
0.0
 11
104.092
 21
577.1469999999999
 31
0.0
  0
LINE
  5
171
330
1E
100
AcDbEntity
  8
0
100
AcDbLine
 10
102.0976
 20
577.0
 30
0.0
 11
102.0976
 21
573.0
 31
0.0
  0
LINE
  5
172
330
1E
100
AcDbEntity
  8
0
100
AcDbLine
 10
102.0342999999999
 20
573.0
 30
0.0
 11
102.0976
 21
573.0
 31
0.0
  0
LINE
  5
173
330
1E
100
AcDbEntity
  8
0
100
AcDbLine
 10
102.0024999999999
 20
632.0
 30
0.0
 11
102.8283999999999
 21
632.0
 31
0.0
  0
LINE
  5
174
330
1E
100
AcDbEntity
  8
0
100
AcDbLine
 10
101.0521999999999
 20
632.0
 30
0.0
 11
102.0024999999999
 21
632.0
 31
0.0
  0
LINE
  5
175
330
1E
100
AcDbEntity
  8
0
100
AcDbLine
 10
100.0
 20
632.0
 30
0.0
 11
101.0521999999999
 21
632.0
 31
0.0
  0
LINE
  5
176
330
1E
100
AcDbEntity
  8
0
100
AcDbLine
 10
100.0
 20
632.0
 30
0.0
 11
101.5274
 21
632.0
 31
0.0
  0
LINE
  5
177
330
1E
100
AcDbEntity
  8
0
100
AcDbLine
 10
98.94780000000011
 20
632.0
 30
0.0
 11
100.0
 21
632.0
 31
0.0
  0
LINE
  5
178
330
1E
100
AcDbEntity
  8
0
100
AcDbLine
 10
97.99750000000001
 20
632.0
 30
0.0
 11
98.94780000000011
 21
632.0
 31
0.0
  0
LINE
  5
179
330
1E
100
AcDbEntity
  8
0
100
AcDbLine
 10
97.17159999999999
 20
632.0
 30
0.0
 11
97.99750000000001
 21
632.0
 31
0.0
  0
LINE
  5
17A
330
1E
100
AcDbEntity
  8
0
100
AcDbLine
 10
102.9188999999999
 20
619.0
 30
0.0
 11
104.1408
 21
619.0
 31
0.0
  0
LINE
  5
17B
330
1E
100
AcDbEntity
  8
0
100
AcDbLine
 10
102.9188999999999
 20
632.0
 30
0.0
 11
104.1408
 21
632.0
 31
0.0
  0
LINE
  5
17C
330
1E
100
AcDbEntity
  8
0
100
AcDbLine
 10
102.8283999999999
 20
632.0
 30
0.0
 11
103.4507
 21
632.0
 31
0.0
  0
LINE
  5
17D
330
1E
100
AcDbEntity
  8
0
100
AcDbLine
 10
103.4507
 20
632.0
 30
0.0
 11
103.8579999999999
 21
632.0
 31
0.0
  0
LINE
  5
17E
330
1E
100
AcDbEntity
  8
0
100
AcDbLine
 10
103.8579999999999
 20
632.0
 30
0.0
 11
104.0051
 21
632.0
 31
0.0
  0
LINE
  5
17F
330
1E
100
AcDbEntity
  8
0
100
AcDbLine
 10
94.1621000000001
 20
642.0
 30
0.0
 11
94.36580000000009
 21
642.0
 31
0.0
  0
LINE
  5
180
330
1E
100
AcDbEntity
  8
0
100
AcDbLine
 10
93.99240000000009
 20
641.42
 30
0.0
 11
94.1621000000001
 21
642.0
 31
0.0
  0
LINE
  5
181
330
1E
100
AcDbEntity
  8
0
100
AcDbLine
 10
94.36580000000009
 20
642.0
 30
0.0
 11
94.94280000000001
 21
642.0
 31
0.0
  0
LINE
  5
182
330
1E
100
AcDbEntity
  8
0
100
AcDbLine
 10
94.94280000000001
 20
642.0
 30
0.0
 11
95.85919999999999
 21
642.0
 31
0.0
  0
LINE
  5
183
330
1E
100
AcDbEntity
  8
0
100
AcDbLine
 10
102.9188999999999
 20
642.0
 30
0.0
 11
104.1408
 21
642.0
 31
0.0
  0
LINE
  5
184
330
1E
100
AcDbEntity
  8
0
100
AcDbLine
 10
101.5274
 20
642.0
 30
0.0
 11
102.9188999999999
 21
642.0
 31
0.0
  0
LINE
  5
185
330
1E
100
AcDbEntity
  8
0
100
AcDbLine
 10
100.0
 20
642.0
 30
0.0
 11
101.5274
 21
642.0
 31
0.0
  0
LINE
  5
186
330
1E
100
AcDbEntity
  8
0
100
AcDbLine
 10
98.4726
 20
642.0
 30
0.0
 11
100.0
 21
642.0
 31
0.0
  0
LINE
  5
187
330
1E
100
AcDbEntity
  8
0
100
AcDbLine
 10
97.08110000000001
 20
642.0
 30
0.0
 11
98.4726
 21
642.0
 31
0.0
  0
LINE
  5
188
330
1E
100
AcDbEntity
  8
0
100
AcDbLine
 10
95.85919999999999
 20
642.0
 30
0.0
 11
97.08110000000001
 21
642.0
 31
0.0
  0
LINE
  5
189
330
1E
100
AcDbEntity
  8
0
100
AcDbLine
 10
93.9924
 20
632.58
 30
0.0
 11
93.99240000000009
 21
641.42
 31
0.0
  0
LINE
  5
18A
330
1E
100
AcDbEntity
  8
0
100
AcDbLine
 10
93.9924
 20
632.58
 30
0.0
 11
94.16209999999999
 21
632.0
 31
0.0
  0
LINE
  5
18B
330
1E
100
AcDbEntity
  8
0
100
AcDbLine
 10
104.0051
 20
632.0
 30
0.0
 11
104.0051
 21
619.0
 31
0.0
  0
LINE
  5
18C
330
1E
100
AcDbEntity
  8
0
100
AcDbLine
 10
104.0051
 20
632.0
 30
0.0
 11
104.1408
 21
632.0
 31
0.0
  0
LINE
  5
18D
330
1E
100
AcDbEntity
  8
0
100
AcDbLine
 10
104.096
 20
597.0
 30
0.0
 11
107.936
 21
597.0
 31
0.0
  0
LINE
  5
18E
330
1E
100
AcDbEntity
  8
0
100
AcDbLine
 10
104.092
 20
582.1469999999999
 30
0.0
 11
105.841
 21
582.1469999999999
 31
0.0
  0
LINE
  5
18F
330
1E
100
AcDbEntity
  8
0
100
AcDbLine
 10
104.092
 20
577.1469999999999
 30
0.0
 11
105.841
 21
577.1469999999999
 31
0.0
  0
LINE
  5
190
330
1E
100
AcDbEntity
  8
0
100
AcDbLine
 10
104.1408
 20
619.0
 30
0.0
 11
105.0572
 21
619.0
 31
0.0
  0
LINE
  5
191
330
1E
100
AcDbEntity
  8
0
100
AcDbLine
 10
104.1408
 20
632.0
 30
0.0
 11
105.0572
 21
632.0
 31
0.0
  0
LINE
  5
192
330
1E
100
AcDbEntity
  8
0
100
AcDbLine
 10
105.0912
 20
605.0
 30
0.0
 11
109.7298
 21
605.0
 31
0.0
  0
LINE
  5
193
330
1E
100
AcDbEntity
  8
0
100
AcDbLine
 10
105.2609
 20
604.76
 30
0.0
 11
110.0126
 21
604.76
 31
0.0
  0
LINE
  5
194
330
1E
100
AcDbEntity
  8
0
100
AcDbLine
 10
105.0572
 20
619.0
 30
0.0
 11
105.6342
 21
619.0
 31
0.0
  0
LINE
  5
195
330
1E
100
AcDbEntity
  8
0
100
AcDbLine
 10
105.6342
 20
619.0
 30
0.0
 11
105.8378999999999
 21
619.0
 31
0.0
  0
LINE
  5
196
330
1E
100
AcDbEntity
  8
0
100
AcDbLine
 10
105.6342
 20
632.0
 30
0.0
 11
105.8378999999999
 21
632.0
 31
0.0
  0
LINE
  5
197
330
1E
100
AcDbEntity
  8
0
100
AcDbLine
 10
105.0572
 20
632.0
 30
0.0
 11
105.6342
 21
632.0
 31
0.0
  0
LINE
  5
198
330
1E
100
AcDbEntity
  8
0
100
AcDbLine
 10
104.1408
 20
642.0
 30
0.0
 11
105.0572
 21
642.0
 31
0.0
  0
LINE
  5
199
330
1E
100
AcDbEntity
  8
0
100
AcDbLine
 10
105.0572
 20
642.0
 30
0.0
 11
105.6342
 21
642.0
 31
0.0
  0
LINE
  5
19A
330
1E
100
AcDbEntity
  8
0
100
AcDbLine
 10
105.841
 20
582.1469999999999
 30
0.0
 11
107.1609999999999
 21
582.1469999999999
 31
0.0
  0
LINE
  5
19B
330
1E
100
AcDbEntity
  8
0
100
AcDbLine
 10
105.841
 20
577.1469999999999
 30
0.0
 11
107.1609999999999
 21
577.1469999999999
 31
0.0
  0
LINE
  5
19C
330
1E
100
AcDbEntity
  8
0
100
AcDbLine
 10
106.0076
 20
608.0
 30
0.0
 11
107.7879999999999
 21
608.0
 31
0.0
  0
LINE
  5
19D
330
1E
100
AcDbEntity
  8
0
100
AcDbLine
 10
106.0076
 20
608.0
 30
0.0
 11
107.0799999999999
 21
608.0
 31
0.0
  0
LINE
  5
19F
330
1E
100
AcDbEntity
  8
0
100
AcDbLine
 10
106.0076
 20
616.0
 30
0.0
 11
106.5455
 21
616.0
 31
0.0
  0
LINE
  5
1A0
330
1E
100
AcDbEntity
  8
0
100
AcDbLine
 10
106.0076
 20
615.8805170366309
 30
0.0
 11
106.9038
 21
615.9279999999999
 31
0.0
  0
LINE
  5
1A1
330
1E
100
AcDbEntity
  8
0
100
AcDbLine
 10
106.0076
 20
611.1194829633689
 30
0.0
 11
106.9038
 21
611.072
 31
0.0
  0
LINE
  5
1A2
330
1E
100
AcDbEntity
  8
0
100
AcDbLine
 10
106.0076
 20
611.0
 30
0.0
 11
107.7879999999999
 21
611.0
 31
0.0
  0
LINE
  5
1A3
330
1E
100
AcDbEntity
  8
0
100
AcDbLine
 10
106.0076
 20
605.0
 30
0.0
 11
106.0076
 21
618.327
 31
0.0
  0
LINE
  5
1A4
330
1E
100
AcDbEntity
  8
0
100
AcDbLine
 10
106.0076
 20
618.327
 30
0.0
 11
106.0076
 21
605.0
 31
0.0
  0
LINE
  5
1A5
330
1E
100
AcDbEntity
  8
0
100
AcDbLine
 10
105.8378999999999
 20
619.0
 30
0.0
 11
106.0076
 21
618.327
 31
0.0
  0
LINE
  5
1A6
330
1E
100
AcDbEntity
  8
0
100
AcDbLine
 10
105.8378999999999
 20
632.0
 30
0.0
 11
106.0076
 21
632.58
 31
0.0
  0
LINE
  5
1A7
330
1E
100
AcDbEntity
  8
0
100
AcDbLine
 10
106.4
 20
586.0
 30
0.0
 11
112.4
 21
586.0
 31
0.0
  0
LINE
  5
1A8
330
1E
100
AcDbEntity
  8
0
100
AcDbLine
 10
106.656
 20
597.0
 30
0.0
 11
112.8959999999999
 21
597.0
 31
0.0
  0
LINE
  5
1A9
330
1E
100
AcDbEntity
  8
0
100
AcDbLine
 10
106.656
 20
598.0
 30
0.0
 11
112.8959999999999
 21
598.0
 31
0.0
  0
LINE
  5
1AA
330
1E
100
AcDbEntity
  8
0
100
AcDbLine
 10
106.4
 20
588.0
 30
0.0
 11
112.4
 21
588.0
 31
0.0
  0
LINE
  5
1AB
330
1E
100
AcDbEntity
  8
0
100
AcDbLine
 10
107.1609999999999
 20
582.1469999999999
 30
0.0
 11
107.9529999999999
 21
582.1469999999999
 31
0.0
  0
LINE
  5
1AC
330
1E
100
AcDbEntity
  8
0
100
AcDbLine
 10
107.936
 20
597.0
 30
0.0
 11
111.3279999999999
 21
597.0
 31
0.0
  0
LINE
  5
1AD
330
1E
100
AcDbEntity
  8
0
100
AcDbLine
 10
107.9529999999999
 20
582.1469999999999
 30
0.0
 11
110.912
 21
582.1469999999999
 31
0.0
  0
LINE
  5
1AE
330
1E
100
AcDbEntity
  8
0
100
AcDbLine
 10
107.9529999999999
 20
577.1469999999999
 30
0.0
 11
110.912
 21
577.1469999999999
 31
0.0
  0
LINE
  5
1AF
330
1E
100
AcDbEntity
  8
0
100
AcDbLine
 10
107.1609999999999
 20
577.1469999999999
 30
0.0
 11
107.9529999999999
 21
577.1469999999999
 31
0.0
  0
LINE
  5
1B0
330
1E
100
AcDbEntity
  8
0
100
AcDbLine
 10
106.4
 20
600.0
 30
0.0
 11
112.4
 21
600.0
 31
0.0
  0
LINE
  5
1B1
330
1E
100
AcDbEntity
  8
0
100
AcDbLine
 10
110.0
 20
605.0
 30
0.0
 11
110.0
 21
608.0
 31
0.0
  0
LINE
  5
1B2
330
1E
100
AcDbEntity
  8
0
100
AcDbLine
 10
109.7298
 20
605.0
 30
0.0
 11
113.8027
 21
605.0
 31
0.0
  0
LINE
  5
1B3
330
1E
100
AcDbEntity
  8
0
100
AcDbLine
 10
110.912
 20
582.1469999999999
 30
0.0
 11
115.576
 21
582.1469999999999
 31
0.0
  0
LINE
  5
1B4
330
1E
100
AcDbEntity
  8
0
100
AcDbLine
 10
112.4
 20
586.0
 30
0.0
 11
117.7
 21
586.0
 31
0.0
  0
LINE
  5
1B5
330
1E
100
AcDbEntity
  8
0
100
AcDbLine
 10
112.8959999999999
 20
597.0
 30
0.0
 11
118.4079999999999
 21
597.0
 31
0.0
  0
LINE
  5
1B6
330
1E
100
AcDbEntity
  8
0
100
AcDbLine
 10
112.8959999999999
 20
598.0
 30
0.0
 11
118.4079999999999
 21
598.0
 31
0.0
  0
LINE
  5
1B7
330
1E
100
AcDbEntity
  8
0
100
AcDbLine
 10
113.8879999999999
 20
597.0
 30
0.0
 11
115.4239999999999
 21
597.0
 31
0.0
  0
LINE
  5
1B8
330
1E
100
AcDbEntity
  8
0
100
AcDbLine
 10
111.3279999999999
 20
597.0
 30
0.0
 11
113.8879999999999
 21
597.0
 31
0.0
  0
LINE
  5
1B9
330
1E
100
AcDbEntity
  8
0
100
AcDbLine
 10
112.4
 20
588.0
 30
0.0
 11
117.7
 21
588.0
 31
0.0
  0
LINE
  5
1BA
330
1E
100
AcDbEntity
  8
0
100
AcDbLine
 10
110.912
 20
577.1469999999999
 30
0.0
 11
115.576
 21
577.1469999999999
 31
0.0
  0
LINE
  5
1BB
330
1E
100
AcDbEntity
  8
0
100
AcDbLine
 10
112.4
 20
600.0
 30
0.0
 11
117.7
 21
600.0
 31
0.0
  0
LINE
  5
1BC
330
1E
100
AcDbEntity
  8
0
100
AcDbLine
 10
110.0126
 20
604.76
 30
0.0
 11
114.1421
 21
604.76
 31
0.0
  0
LINE
  5
1BD
330
1E
100
AcDbEntity
  8
0
100
AcDbLine
 10
113.8027
 20
605.0
 30
0.0
 11
116.857
 21
605.0
 31
0.0
  0
LINE
  5
1BE
330
1E
100
AcDbEntity
  8
0
100
AcDbLine
 10
116.0
 20
550.0
 30
0.0
 11
116.0
 21
577.1469999999999
 31
0.0
  0
LINE
  5
1BF
330
1E
100
AcDbEntity
  8
0
100
AcDbLine
 10
116.0
 20
554.0
 30
0.0
 11
118.25
 21
554.0
 31
0.0
  0
LINE
  5
1C0
330
1E
100
AcDbEntity
  8
0
100
AcDbLine
 10
116.0
 20
554.0
 30
0.0
 11
117.834
 21
554.0
 31
0.0
  0
LINE
  5
1C1
330
1E
100
AcDbEntity
  8
0
100
AcDbLine
 10
116.0
 20
577.1469999999999
 30
0.0
 11
119.096
 21
577.1469999999999
 31
0.0
  0
LINE
  5
1C2
330
1E
100
AcDbEntity
  8
0
100
AcDbLine
 10
116.0
 20
577.1469999999999
 30
0.0
 11
116.0
 21
550.0
 31
0.0
  0
LINE
  5
1C3
330
1E
100
AcDbEntity
  8
0
100
AcDbLine
 10
116.0
 20
582.1469999999999
 30
0.0
 11
116.0
 21
586.0
 31
0.0
  0
LINE
  5
1C4
330
1E
100
AcDbEntity
  8
0
100
AcDbLine
 10
116.0
 20
588.0
 30
0.0
 11
116.0
 21
597.0
 31
0.0
  0
LINE
  5
1C5
330
1E
100
AcDbEntity
  8
0
100
AcDbLine
 10
116.0
 20
586.0
 30
0.0
 11
117.7
 21
586.0
 31
0.0
  0
LINE
  5
1C6
330
1E
100
AcDbEntity
  8
0
100
AcDbLine
 10
116.0
 20
586.0
 30
0.0
 11
116.0
 21
582.1469999999999
 31
0.0
  0
LINE
  5
1C7
330
1E
100
AcDbEntity
  8
0
100
AcDbLine
 10
115.576
 20
582.1469999999999
 30
0.0
 11
119.096
 21
582.1469999999999
 31
0.0
  0
LINE
  5
1C8
330
1E
100
AcDbEntity
  8
0
100
AcDbLine
 10
115.576
 20
577.1469999999999
 30
0.0
 11
119.096
 21
577.1469999999999
 31
0.0
  0
LINE
  5
1C9
330
1E
100
AcDbEntity
  8
0
100
AcDbLine
 10
116.0
 20
577.0
 30
0.0
 11
116.198
 21
577.0
 31
0.0
  0
LINE
  5
1CA
330
1E
100
AcDbEntity
  8
0
100
AcDbLine
 10
116.0
 20
571.0
 30
0.0
 11
116.198
 21
571.0
 31
0.0
  0
LINE
  5
1CB
330
1E
100
AcDbEntity
  8
0
100
AcDbLine
 10
116.0
 20
594.0
 30
0.0
 11
121.394
 21
594.0
 31
0.0
  0
LINE
  5
1CC
330
1E
100
AcDbEntity
  8
0
100
AcDbLine
 10
116.0
 20
594.0
 30
0.0
 11
119.092
 21
594.0
 31
0.0
  0
LINE
  5
1CD
330
1E
100
AcDbEntity
  8
0
100
AcDbLine
 10
116.0
 20
595.5379999999999
 30
0.0
 11
121.92
 21
595.5379999999999
 31
0.0
  0
LINE
  5
1CE
330
1E
100
AcDbEntity
  8
0
100
AcDbLine
 10
116.0
 20
594.4619999999999
 30
0.0
 11
121.92
 21
594.4619999999999
 31
0.0
  0
LINE
  5
1CF
330
1E
100
AcDbEntity
  8
0
100
AcDbLine
 10
116.198
 20
577.0
 30
0.0
 11
119.092
 21
577.0
 31
0.0
  0
LINE
  5
1D0
330
1E
100
AcDbEntity
  8
0
100
AcDbLine
 10
116.198
 20
571.0
 30
0.0
 11
119.092
 21
571.0
 31
0.0
  0
LINE
  5
1D1
330
1E
100
AcDbEntity
  8
0
100
AcDbLine
 10
116.0
 20
596.0
 30
0.0
 11
121.394
 21
596.0
 31
0.0
  0
LINE
  5
1D2
330
1E
100
AcDbEntity
  8
0
100
AcDbLine
 10
116.0
 20
597.0
 30
0.0
 11
116.0
 21
588.0
 31
0.0
  0
LINE
  5
1D3
330
1E
100
AcDbEntity
  8
0
100
AcDbLine
 10
116.0
 20
597.0
 30
0.0
 11
118.4079999999999
 21
597.0
 31
0.0
  0
LINE
  5
1D4
330
1E
100
AcDbEntity
  8
0
100
AcDbLine
 10
115.4239999999999
 20
597.0
 30
0.0
 11
116.0
 21
597.0
 31
0.0
  0
LINE
  5
1D5
330
1E
100
AcDbEntity
  8
0
100
AcDbLine
 10
116.0
 20
596.462
 30
0.0
 11
121.92
 21
596.462
 31
0.0
  0
LINE
  5
1D6
330
1E
100
AcDbEntity
  8
0
100
AcDbLine
 10
114.1421
 20
604.76
 30
0.0
 11
117.2529999999999
 21
604.76
 31
0.0
  0
LINE
  5
1D7
330
1E
100
AcDbEntity
  8
0
100
AcDbLine
 10
116.857
 20
605.0
 30
0.0
 11
118.781
 21
605.0
 31
0.0
  0
LINE
  5
1D8
330
1E
100
AcDbEntity
  8
0
100
AcDbLine
 10
117.834
 20
554.0
 30
0.0
 11
119.8429999999999
 21
554.0
 31
0.0
  0
LINE
  5
1D9
330
1E
100
AcDbEntity
  8
0
100
AcDbLine
 10
118.25
 20
554.0
 30
0.0
 11
122.2929999999999
 21
554.0
 31
0.0
  0
LINE
  5
1DA
330
1E
100
AcDbEntity
  8
0
100
AcDbLine
 10
118.4749999999999
 20
566.0
 30
0.0
 11
118.641
 21
566.0
 31
0.0
  0
LINE
  5
1DB
330
1E
100
AcDbEntity
  8
0
100
AcDbLine
 10
118.4749999999999
 20
566.0
 30
0.0
 11
118.4749999999999
 21
571.0
 31
0.0
  0
LINE
  5
1DC
330
1E
100
AcDbEntity
  8
0
100
AcDbLine
 10
118.641
 20
566.0
 30
0.0
 11
119.099
 21
566.0
 31
0.0
  0
LINE
  5
1DD
330
1E
100
AcDbEntity
  8
0
100
AcDbLine
 10
117.7
 20
588.0
 30
0.0
 11
121.7
 21
588.0
 31
0.0
  0
LINE
  5
1DE
330
1E
100
AcDbEntity
  8
0
100
AcDbLine
 10
118.4079999999999
 20
598.0
 30
0.0
 11
122.568
 21
598.0
 31
0.0
  0
LINE
  5
1DF
330
1E
100
AcDbEntity
  8
0
100
AcDbLine
 10
118.4079999999999
 20
597.0
 30
0.0
 11
122.568
 21
597.0
 31
0.0
  0
LINE
  5
1E0
330
1E
100
AcDbEntity
  8
0
100
AcDbLine
 10
117.7
 20
586.0
 30
0.0
 11
121.7
 21
586.0
 31
0.0
  0
LINE
  5
1E1
330
1E
100
AcDbEntity
  8
0
100
AcDbLine
 10
117.7
 20
600.0
 30
0.0
 11
121.7
 21
600.0
 31
0.0
  0
LINE
  5
1E2
330
1E
100
AcDbEntity
  8
0
100
AcDbLine
 10
118.4749999999999
 20
586.0
 30
0.0
 11
118.4749999999999
 21
583.0
 31
0.0
  0
LINE
  5
1E3
330
1E
100
AcDbEntity
  8
0
100
AcDbLine
 10
118.4749999999999
 20
583.0
 30
0.0
 11
118.641
 21
583.0
 31
0.0
  0
LINE
  5
1E4
330
1E
100
AcDbEntity
  8
0
100
AcDbLine
 10
118.4749999999999
 20
583.0
 30
0.0
 11
118.4749999999999
 21
586.0
 31
0.0
  0
LINE
  5
1E5
330
1E
100
AcDbEntity
  8
0
100
AcDbLine
 10
119.092
 20
571.0
 30
0.0
 11
121.985
 21
571.0
 31
0.0
  0
LINE
  5
1E6
330
1E
100
AcDbEntity
  8
0
100
AcDbLine
 10
119.099
 20
571.0
 30
0.0
 11
119.7989999999999
 21
571.0
 31
0.0
  0
LINE
  5
1E7
330
1E
100
AcDbEntity
  8
0
100
AcDbLine
 10
119.096
 20
582.1469999999999
 30
0.0
 11
121.208
 21
582.1469999999999
 31
0.0
  0
LINE
  5
1E8
330
1E
100
AcDbEntity
  8
0
100
AcDbLine
 10
119.096
 20
577.1469999999999
 30
0.0
 11
121.208
 21
577.1469999999999
 31
0.0
  0
LINE
  5
1E9
330
1E
100
AcDbEntity
  8
0
100
AcDbLine
 10
119.092
 20
577.0
 30
0.0
 11
121.985
 21
577.0
 31
0.0
  0
LINE
  5
1EA
330
1E
100
AcDbEntity
  8
0
100
AcDbLine
 10
119.092
 20
594.0
 30
0.0
 11
123.303
 21
594.0
 31
0.0
  0
LINE
  5
1EB
330
1E
100
AcDbEntity
  8
0
100
AcDbLine
 10
118.641
 20
583.0
 30
0.0
 11
119.099
 21
583.0
 31
0.0
  0
LINE
  5
1EC
330
1E
100
AcDbEntity
  8
0
100
AcDbLine
 10
119.099
 20
583.0
 30
0.0
 11
119.7989999999999
 21
583.0
 31
0.0
  0
LINE
  5
1ED
330
1E
100
AcDbEntity
  8
0
100
AcDbLine
 10
118.641
 20
571.0
 30
0.0
 11
119.099
 21
571.0
 31
0.0
  0
LINE
  5
1EE
330
1E
100
AcDbEntity
  8
0
100
AcDbLine
 10
118.4749999999999
 20
571.0
 30
0.0
 11
118.4749999999999
 21
566.0
 31
0.0
  0
LINE
  5
1EF
330
1E
100
AcDbEntity
  8
0
100
AcDbLine
 10
118.4749999999999
 20
571.0
 30
0.0
 11
118.641
 21
571.0
 31
0.0
  0
LINE
  5
1F0
330
1E
100
AcDbEntity
  8
0
100
AcDbLine
 10
119.099
 20
566.0
 30
0.0
 11
119.7989999999999
 21
566.0
 31
0.0
  0
LINE
  5
1F1
330
1E
100
AcDbEntity
  8
0
100
AcDbLine
 10
117.2529999999999
 20
604.76
 30
0.0
 11
119.29
 21
604.76
 31
0.0
  0
LINE
  5
1F2
330
1E
100
AcDbEntity
  8
0
100
AcDbLine
 10
118.781
 20
605.0
 30
0.0
 11
119.4599999999999
 21
605.0
 31
0.0
  0
LINE
  5
1F3
330
1E
100
AcDbEntity
  8
0
100
AcDbLine
 10
119.8429999999999
 20
554.0
 30
0.0
 11
121.089
 21
554.0
 31
0.0
  0
LINE
  5
1F4
330
1E
100
AcDbEntity
  8
0
100
AcDbLine
 10
119.7989999999999
 20
583.0
 30
0.0
 11
120.7279999999999
 21
583.0
 31
0.0
  0
LINE
  5
1F5
330
1E
100
AcDbEntity
  8
0
100
AcDbLine
 10
119.7989999999999
 20
583.0
 30
0.0
 11
119.977
 21
583.0
 31
0.0
  0
LINE
  5
1F6
330
1E
100
AcDbEntity
  8
0
100
AcDbLine
 10
119.977
 20
582.1469999999999
 30
0.0
 11
119.977
 21
583.0
 31
0.0
  0
LINE
  5
1F7
330
1E
100
AcDbEntity
  8
0
100
AcDbLine
 10
119.977
 20
577.0
 30
0.0
 11
119.977
 21
577.1469999999999
 31
0.0
  0
LINE
  5
1F8
330
1E
100
AcDbEntity
  8
0
100
AcDbLine
 10
119.977
 20
577.1469999999999
 30
0.0
 11
119.977
 21
577.0
 31
0.0
  0
LINE
  5
1F9
330
1E
100
AcDbEntity
  8
0
100
AcDbLine
 10
119.977
 20
583.0
 30
0.0
 11
119.977
 21
582.1469999999999
 31
0.0
  0
LINE
  5
1FA
330
1E
100
AcDbEntity
  8
0
100
AcDbLine
 10
119.977
 20
583.0
 30
0.0
 11
120.0879999999999
 21
583.0
 31
0.0
  0
LINE
  5
1FB
330
1E
100
AcDbEntity
  8
0
100
AcDbLine
 10
119.7989999999999
 20
571.0
 30
0.0
 11
120.7279999999999
 21
571.0
 31
0.0
  0
LINE
  5
1FC
330
1E
100
AcDbEntity
  8
0
100
AcDbLine
 10
119.7989999999999
 20
566.0
 30
0.0
 11
120.7279999999999
 21
566.0
 31
0.0
  0
LINE
  5
1FD
330
1E
100
AcDbEntity
  8
0
100
AcDbLine
 10
121.089
 20
554.0
 30
0.0
 11
121.466
 21
554.0
 31
0.0
  0
LINE
  5
1FE
330
1E
100
AcDbEntity
  8
0
100
AcDbLine
 10
120.3929999999999
 20
583.0
 30
0.0
 11
120.86
 21
583.0
 31
0.0
  0
LINE
  5
1FF
330
1E
100
AcDbEntity
  8
0
100
AcDbLine
 10
120.0879999999999
 20
583.0
 30
0.0
 11
120.3929999999999
 21
583.0
 31
0.0
  0
LINE
  5
200
330
1E
100
AcDbEntity
  8
0
100
AcDbLine
 10
120.7279999999999
 20
583.0
 30
0.0
 11
121.797
 21
583.0
 31
0.0
  0
LINE
  5
201
330
1E
100
AcDbEntity
  8
0
100
AcDbLine
 10
121.208
 20
582.1469999999999
 30
0.0
 11
122.0
 21
582.1469999999999
 31
0.0
  0
LINE
  5
202
330
1E
100
AcDbEntity
  8
0
100
AcDbLine
 10
121.208
 20
577.1469999999999
 30
0.0
 11
122.0
 21
577.1469999999999
 31
0.0
  0
LINE
  5
203
330
1E
100
AcDbEntity
  8
0
100
AcDbLine
 10
120.86
 20
583.0
 30
0.0
 11
121.479
 21
583.0
 31
0.0
  0
LINE
  5
204
330
1E
100
AcDbEntity
  8
0
100
AcDbLine
 10
120.7279999999999
 20
571.0
 30
0.0
 11
121.797
 21
571.0
 31
0.0
  0
LINE
  5
205
330
1E
100
AcDbEntity
  8
0
100
AcDbLine
 10
120.7279999999999
 20
566.0
 30
0.0
 11
121.797
 21
566.0
 31
0.0
  0
LINE
  5
206
330
1E
100
AcDbEntity
  8
0
100
AcDbLine
 10
121.466
 20
554.0
 30
0.0
 11
122.147
 21
554.0
 31
0.0
  0
LINE
  5
208
330
1E
100
AcDbEntity
  8
0
100
AcDbLine
 10
121.479
 20
583.0
 30
0.0
 11
122.192
 21
583.0
 31
0.0
  0
LINE
  5
209
330
1E
100
AcDbEntity
  8
0
100
AcDbLine
 10
121.7
 20
588.0
 30
0.0
 11
124.0999999999999
 21
588.0
 31
0.0
  0
LINE
  5
20A
330
1E
100
AcDbEntity
  8
0
100
AcDbLine
 10
121.7
 20
586.0
 30
0.0
 11
124.0999999999999
 21
586.0
 31
0.0
  0
LINE
  5
20B
330
1E
100
AcDbEntity
  8
0
100
AcDbLine
 10
121.797
 20
583.0
 30
0.0
 11
122.981
 21
583.0
 31
0.0
  0
LINE
  5
20C
330
1E
100
AcDbEntity
  8
0
100
AcDbLine
 10
121.797
 20
571.0
 30
0.0
 11
122.981
 21
571.0
 31
0.0
  0
LINE
  5
20D
330
1E
100
AcDbEntity
  8
0
100
AcDbLine
 10
121.797
 20
566.0
 30
0.0
 11
122.981
 21
566.0
 31
0.0
  0
LINE
  5
20E
330
1E
100
AcDbEntity
  8
0
100
AcDbLine
 10
121.394
 20
594.0
 30
0.0
 11
126.129
 21
594.0
 31
0.0
  0
LINE
  5
20F
330
1E
100
AcDbEntity
  8
0
100
AcDbLine
 10
121.92
 20
594.4619999999999
 30
0.0
 11
126.743
 21
594.4619999999999
 31
0.0
  0
LINE
  5
210
330
1E
100
AcDbEntity
  8
0
100
AcDbLine
 10
121.92
 20
595.5379999999999
 30
0.0
 11
126.743
 21
595.5379999999999
 31
0.0
  0
LINE
  5
211
330
1E
100
AcDbEntity
  8
0
100
AcDbLine
 10
121.394
 20
596.0
 30
0.0
 11
121.92
 21
596.462
 31
0.0
  0
LINE
  5
212
330
1E
100
AcDbEntity
  8
0
100
AcDbLine
 10
121.394
 20
596.0
 30
0.0
 11
126.129
 21
596.0
 31
0.0
  0
LINE
  5
213
330
1E
100
AcDbEntity
  8
0
100
AcDbLine
 10
122.2929999999999
 20
554.0
 30
0.0
 11
124.876
 21
554.0
 31
0.0
  0
LINE
  5
214
330
1E
100
AcDbEntity
  8
0
100
AcDbLine
 10
122.147
 20
554.0
 30
0.0
 11
122.96
 21
554.0
 31
0.0
  0
LINE
  5
215
330
1E
100
AcDbEntity
  8
0
100
AcDbLine
 10
122.96
 20
550.0
 30
0.0
 11
122.96
 21
554.0
 31
0.0
  0
LINE
  5
216
330
1E
100
AcDbEntity
  8
0
100
AcDbLine
 10
122.96
 20
554.0
 30
0.0
 11
122.96
 21
550.0
 31
0.0
  0
LINE
  5
217
330
1E
100
AcDbEntity
  8
0
100
AcDbLine
 10
122.96
 20
554.0
 30
0.0
 11
124.876
 21
554.0
 31
0.0
  0
LINE
  5
218
330
1E
100
AcDbEntity
  8
0
100
AcDbLine
 10
122.981
 20
566.0
 30
0.0
 11
124.165
 21
566.0
 31
0.0
  0
LINE
  5
219
330
1E
100
AcDbEntity
  8
0
100
AcDbLine
 10
125.8299999999999
 20
554.0
 30
0.0
 11
126.6159999999999
 21
554.769
 31
0.0
  0
LINE
  5
21A
330
1E
100
AcDbEntity
  8
0
100
AcDbLine
 10
124.876
 20
554.0
 30
0.0
 11
125.8299999999999
 21
554.0
 31
0.0
  0
LINE
  5
21B
330
1E
100
AcDbEntity
  8
0
100
AcDbLine
 10
124.165
 20
566.0
 30
0.0
 11
125.234
 21
566.0
 31
0.0
  0
LINE
  5
21C
330
1E
100
AcDbEntity
  8
0
100
AcDbLine
 10
121.985
 20
571.0
 30
0.0
 11
124.5989999999999
 21
571.0
 31
0.0
  0
LINE
  5
21D
330
1E
100
AcDbEntity
  8
0
100
AcDbLine
 10
124.5989999999999
 20
571.0
 30
0.0
 11
126.87
 21
571.0
 31
0.0
  0
LINE
  5
21E
330
1E
100
AcDbEntity
  8
0
100
AcDbLine
 10
122.981
 20
571.0
 30
0.0
 11
124.165
 21
571.0
 31
0.0
  0
LINE
  5
21F
330
1E
100
AcDbEntity
  8
0
100
AcDbLine
 10
122.0
 20
577.1469999999999
 30
0.0
 11
122.0
 21
582.1469999999999
 31
0.0
  0
LINE
  5
220
330
1E
100
AcDbEntity
  8
0
100
AcDbLine
 10
122.0
 20
582.1469999999999
 30
0.0
 11
122.0
 21
577.1469999999999
 31
0.0
  0
LINE
  5
221
330
1E
100
AcDbEntity
  8
0
100
AcDbLine
 10
121.985
 20
577.0
 30
0.0
 11
124.5989999999999
 21
577.0
 31
0.0
  0
LINE
  5
222
330
1E
100
AcDbEntity
  8
0
100
AcDbLine
 10
122.192
 20
583.0
 30
0.0
 11
122.981
 21
583.0
 31
0.0
  0
LINE
  5
223
330
1E
100
AcDbEntity
  8
0
100
AcDbLine
 10
124.5989999999999
 20
577.0
 30
0.0
 11
126.87
 21
577.0
 31
0.0
  0
LINE
  5
224
330
1E
100
AcDbEntity
  8
0
100
AcDbLine
 10
125.102
 20
583.0
 30
0.0
 11
125.5689999999999
 21
583.0
 31
0.0
  0
LINE
  5
225
330
1E
100
AcDbEntity
  8
0
100
AcDbLine
 10
123.77
 20
583.0
 30
0.0
 11
124.4829999999999
 21
583.0
 31
0.0
  0
LINE
  5
226
330
1E
100
AcDbEntity
  8
0
100
AcDbLine
 10
124.4829999999999
 20
583.0
 30
0.0
 11
125.102
 21
583.0
 31
0.0
  0
LINE
  5
227
330
1E
100
AcDbEntity
  8
0
100
AcDbLine
 10
122.981
 20
583.0
 30
0.0
 11
124.165
 21
583.0
 31
0.0
  0
LINE
  5
228
330
1E
100
AcDbEntity
  8
0
100
AcDbLine
 10
122.981
 20
583.0
 30
0.0
 11
123.77
 21
583.0
 31
0.0
  0
LINE
  5
229
330
1E
100
AcDbEntity
  8
0
100
AcDbLine
 10
124.0999999999999
 20
588.0
 30
0.0
 11
125.0
 21
588.0
 31
0.0
  0
LINE
  5
22A
330
1E
100
AcDbEntity
  8
0
100
AcDbLine
 10
124.0999999999999
 20
586.0
 30
0.0
 11
125.0
 21
586.0
 31
0.0
  0
LINE
  5
22B
330
1E
100
AcDbEntity
  8
0
100
AcDbLine
 10
125.0
 20
586.0
 30
0.0
 11
125.0
 21
588.0
 31
0.0
  0
LINE
  5
22C
330
1E
100
AcDbEntity
  8
0
100
AcDbLine
 10
122.568
 20
598.0
 30
0.0
 11
125.0639999999999
 21
598.0
 31
0.0
  0
LINE
  5
22D
330
1E
100
AcDbEntity
  8
0
100
AcDbLine
 10
122.568
 20
597.0
 30
0.0
 11
125.0639999999999
 21
597.0
 31
0.0
  0
LINE
  5
22E
330
1E
100
AcDbEntity
  8
0
100
AcDbLine
 10
125.0639999999999
 20
598.0
 30
0.0
 11
126.0
 21
598.0
 31
0.0
  0
LINE
  5
22F
330
1E
100
AcDbEntity
  8
0
100
AcDbLine
 10
125.0639999999999
 20
597.0
 30
0.0
 11
126.0
 21
597.0
 31
0.0
  0
LINE
  5
230
330
1E
100
AcDbEntity
  8
0
100
AcDbLine
 10
125.0
 20
598.0
 30
0.0
 11
125.0
 21
600.0
 31
0.0
  0
LINE
  5
231
330
1E
100
AcDbEntity
  8
0
100
AcDbLine
 10
123.303
 20
594.0
 30
0.0
 11
125.9989999999999
 21
594.0
 31
0.0
  0
LINE
  5
232
330
1E
100
AcDbEntity
  8
0
100
AcDbLine
 10
125.0
 20
588.0
 30
0.0
 11
125.234
 21
588.0
 31
0.0
  0
LINE
  5
233
330
1E
100
AcDbEntity
  8
0
100
AcDbLine
 10
125.0
 20
588.0
 30
0.0
 11
125.0
 21
586.0
 31
0.0
  0
LINE
  5
234
330
1E
100
AcDbEntity
  8
0
100
AcDbLine
 10
125.234
 20
588.0
 30
0.0
 11
126.163
 21
588.0
 31
0.0
  0
LINE
  5
235
330
1E
100
AcDbEntity
  8
0
100
AcDbLine
 10
124.165
 20
583.0
 30
0.0
 11
125.234
 21
583.0
 31
0.0
  0
LINE
  5
236
330
1E
100
AcDbEntity
  8
0
100
AcDbLine
 10
125.234
 20
583.0
 30
0.0
 11
126.163
 21
583.0
 31
0.0
  0
LINE
  5
237
330
1E
100
AcDbEntity
  8
0
100
AcDbLine
 10
124.165
 20
571.0
 30
0.0
 11
125.234
 21
571.0
 31
0.0
  0
LINE
  5
238
330
1E
100
AcDbEntity
  8
0
100
AcDbLine
 10
125.9849999999999
 20
577.0
 30
0.0
 11
125.9849999999999
 21
583.0
 31
0.0
  0
LINE
  5
239
330
1E
100
AcDbEntity
  8
0
100
AcDbLine
 10
125.8739999999999
 20
583.0
 30
0.0
 11
125.9849999999999
 21
583.0
 31
0.0
  0
LINE
  5
23A
330
1E
100
AcDbEntity
  8
0
100
AcDbLine
 10
125.5689999999999
 20
583.0
 30
0.0
 11
125.8739999999999
 21
583.0
 31
0.0
  0
LINE
  5
23B
330
1E
100
AcDbEntity
  8
0
100
AcDbLine
 10
126.0
 20
597.0
 30
0.0
 11
126.0
 21
598.0
 31
0.0
  0
LINE
  5
23C
330
1E
100
AcDbEntity
  8
0
100
AcDbLine
 10
125.9989999999999
 20
594.0
 30
0.0
 11
126.9529999999999
 21
594.0
 31
0.0
  0
LINE
  5
23D
330
1E
100
AcDbEntity
  8
0
100
AcDbLine
 10
125.9849999999999
 20
583.0
 30
0.0
 11
126.163
 21
583.0
 31
0.0
  0
LINE
  5
23E
330
1E
100
AcDbEntity
  8
0
100
AcDbLine
 10
125.9849999999999
 20
583.0
 30
0.0
 11
125.9849999999999
 21
577.0
 31
0.0
  0
LINE
  5
23F
330
1E
100
AcDbEntity
  8
0
100
AcDbLine
 10
125.234
 20
571.0
 30
0.0
 11
126.163
 21
571.0
 31
0.0
  0
LINE
  5
240
330
1E
100
AcDbEntity
  8
0
100
AcDbLine
 10
125.234
 20
566.0
 30
0.0
 11
126.163
 21
566.0
 31
0.0
  0
LINE
  5
241
330
1E
100
AcDbEntity
  8
0
100
AcDbLine
 10
121.92
 20
596.462
 30
0.0
 11
126.743
 21
596.462
 31
0.0
  0
LINE
  5
242
330
1E
100
AcDbEntity
  8
0
100
AcDbLine
 10
126.0
 20
598.0
 30
0.0
 11
126.129
 21
598.0
 31
0.0
  0
LINE
  5
243
330
1E
100
AcDbEntity
  8
0
100
AcDbLine
 10
126.0
 20
598.0
 30
0.0
 11
126.0
 21
597.0
 31
0.0
  0
LINE
  5
244
330
1E
100
AcDbEntity
  8
0
100
AcDbLine
 10
126.129
 20
594.0
 30
0.0
 11
129.11
 21
594.0
 31
0.0
  0
LINE
  5
245
330
1E
100
AcDbEntity
  8
0
100
AcDbLine
 10
126.6159999999999
 20
554.769
 30
0.0
 11
126.9529999999999
 21
556.308
 31
0.0
  0
LINE
  5
246
330
1E
100
AcDbEntity
  8
0
100
AcDbLine
 10
126.163
 20
588.0
 30
0.0
 11
126.8629999999999
 21
588.0
 31
0.0
  0
LINE
  5
247
330
1E
100
AcDbEntity
  8
0
100
AcDbLine
 10
126.163
 20
583.0
 30
0.0
 11
126.8629999999999
 21
583.0
 31
0.0
  0
LINE
  5
248
330
1E
100
AcDbEntity
  8
0
100
AcDbLine
 10
126.163
 20
571.0
 30
0.0
 11
126.8629999999999
 21
571.0
 31
0.0
  0
LINE
  5
249
330
1E
100
AcDbEntity
  8
0
100
AcDbLine
 10
126.163
 20
566.0
 30
0.0
 11
126.8629999999999
 21
566.0
 31
0.0
  0
LINE
  5
24A
330
1E
100
AcDbEntity
  8
0
100
AcDbLine
 10
126.743
 20
594.4619999999999
 30
0.0
 11
129.899
 21
594.4619999999999
 31
0.0
  0
LINE
  5
24B
330
1E
100
AcDbEntity
  8
0
100
AcDbLine
 10
126.743
 20
595.5379999999999
 30
0.0
 11
129.899
 21
595.5379999999999
 31
0.0
  0
LINE
  5
24C
330
1E
100
AcDbEntity
  8
0
100
AcDbLine
 10
126.129
 20
596.0
 30
0.0
 11
126.743
 21
596.462
 31
0.0
  0
LINE
  5
24D
330
1E
100
AcDbEntity
  8
0
100
AcDbLine
 10
126.129
 20
596.0
 30
0.0
 11
129.11
 21
596.0
 31
0.0
  0
LINE
  5
24E
330
1E
100
AcDbEntity
  8
0
100
AcDbLine
 10
126.743
 20
596.462
 30
0.0
 11
129.899
 21
596.462
 31
0.0
  0
LINE
  5
24F
330
1E
100
AcDbEntity
  8
0
100
AcDbLine
 10
126.0
 20
597.538
 30
0.0
 11
126.743
 21
597.538
 31
0.0
  0
LINE
  5
250
330
1E
100
AcDbEntity
  8
0
100
AcDbLine
 10
126.129
 20
598.0
 30
0.0
 11
126.743
 21
597.538
 31
0.0
  0
LINE
  5
251
330
1E
100
AcDbEntity
  8
0
100
AcDbLine
 10
126.129
 20
598.0
 30
0.0
 11
129.11
 21
598.0
 31
0.0
  0
LINE
  5
252
330
1E
100
AcDbEntity
  8
0
100
AcDbLine
 10
126.8629999999999
 20
588.0
 30
0.0
 11
127.3209999999999
 21
588.0
 31
0.0
  0
LINE
  5
253
330
1E
100
AcDbEntity
  8
0
100
AcDbLine
 10
126.8629999999999
 20
583.0
 30
0.0
 11
127.3209999999999
 21
583.0
 31
0.0
  0
LINE
  5
254
330
1E
100
AcDbEntity
  8
0
100
AcDbLine
 10
126.8629999999999
 20
571.0
 30
0.0
 11
127.3209999999999
 21
571.0
 31
0.0
  0
LINE
  5
255
330
1E
100
AcDbEntity
  8
0
100
AcDbLine
 10
126.9529999999999
 20
556.308
 30
0.0
 11
126.9529999999999
 21
566.0
 31
0.0
  0
LINE
  5
256
330
1E
100
AcDbEntity
  8
0
100
AcDbLine
 10
126.9529999999999
 20
566.0
 30
0.0
 11
126.9529999999999
 21
556.308
 31
0.0
  0
LINE
  5
257
330
1E
100
AcDbEntity
  8
0
100
AcDbLine
 10
127.487
 20
566.0
 30
0.0
 11
127.487
 21
571.0
 31
0.0
  0
LINE
  5
258
330
1E
100
AcDbEntity
  8
0
100
AcDbLine
 10
126.87
 20
571.0
 30
0.0
 11
128.581
 21
571.0
 31
0.0
  0
LINE
  5
259
330
1E
100
AcDbEntity
  8
0
100
AcDbLine
 10
126.9529999999999
 20
577.0
 30
0.0
 11
126.9529999999999
 21
583.0
 31
0.0
  0
LINE
  5
25A
330
1E
100
AcDbEntity
  8
0
100
AcDbLine
 10
126.9529999999999
 20
588.0
 30
0.0
 11
126.9529999999999
 21
594.0
 31
0.0
  0
LINE
  5
25B
330
1E
100
AcDbEntity
  8
0
100
AcDbLine
 10
126.9529999999999
 20
583.0
 30
0.0
 11
126.9529999999999
 21
577.0
 31
0.0
  0
LINE
  5
25C
330
1E
100
AcDbEntity
  8
0
100
AcDbLine
 10
126.87
 20
577.0
 30
0.0
 11
128.581
 21
577.0
 31
0.0
  0
LINE
  5
25D
330
1E
100
AcDbEntity
  8
0
100
AcDbLine
 10
126.9529999999999
 20
594.0
 30
0.0
 11
126.9529999999999
 21
588.0
 31
0.0
  0
LINE
  5
25E
330
1E
100
AcDbEntity
  8
0
100
AcDbLine
 10
127.3209999999999
 20
588.0
 30
0.0
 11
127.487
 21
588.0
 31
0.0
  0
LINE
  5
25F
330
1E
100
AcDbEntity
  8
0
100
AcDbLine
 10
127.487
 20
583.0
 30
0.0
 11
127.487
 21
588.0
 31
0.0
  0
LINE
  5
260
330
1E
100
AcDbEntity
  8
0
100
AcDbLine
 10
127.487
 20
588.0
 30
0.0
 11
127.487
 21
583.0
 31
0.0
  0
LINE
  5
261
330
1E
100
AcDbEntity
  8
0
100
AcDbLine
 10
127.3209999999999
 20
583.0
 30
0.0
 11
127.487
 21
583.0
 31
0.0
  0
LINE
  5
262
330
1E
100
AcDbEntity
  8
0
100
AcDbLine
 10
127.3209999999999
 20
571.0
 30
0.0
 11
127.487
 21
571.0
 31
0.0
  0
LINE
  5
263
330
1E
100
AcDbEntity
  8
0
100
AcDbLine
 10
127.97
 20
571.0
 30
0.0
 11
129.037
 21
571.0
 31
0.0
  0
LINE
  5
264
330
1E
100
AcDbEntity
  8
0
100
AcDbLine
 10
127.7139999999999
 20
571.0
 30
0.0
 11
128.581
 21
571.0
 31
0.0
  0
LINE
  5
265
330
1E
100
AcDbEntity
  8
0
100
AcDbLine
 10
127.7139999999999
 20
571.0
 30
0.0
 11
127.97
 21
571.0
 31
0.0
  0
LINE
  5
266
330
1E
100
AcDbEntity
  8
0
100
AcDbLine
 10
128.581
 20
577.0
 30
0.0
 11
129.701
 21
577.0
 31
0.0
  0
LINE
  5
267
330
1E
100
AcDbEntity
  8
0
100
AcDbLine
 10
128.581
 20
571.0
 30
0.0
 11
129.701
 21
571.0
 31
0.0
  0
LINE
  5
268
330
1E
100
AcDbEntity
  8
0
100
AcDbLine
 10
127.487
 20
571.0
 30
0.0
 11
127.487
 21
566.0
 31
0.0
  0
LINE
  5
269
330
1E
100
AcDbEntity
  8
0
100
AcDbLine
 10
127.487
 20
571.0
 30
0.0
 11
127.97
 21
571.0
 31
0.0
  0
LINE
  5
26A
330
1E
100
AcDbEntity
  8
0
100
AcDbLine
 10
127.3209999999999
 20
566.0
 30
0.0
 11
127.487
 21
566.0
 31
0.0
  0
LINE
  5
26B
330
1E
100
AcDbEntity
  8
0
100
AcDbLine
 10
126.8629999999999
 20
566.0
 30
0.0
 11
127.3209999999999
 21
566.0
 31
0.0
  0
LINE
  5
26C
330
1E
100
AcDbEntity
  8
0
100
AcDbLine
 10
129.11
 20
594.0
 30
0.0
 11
130.1619999999999
 21
594.0
 31
0.0
  0
LINE
  5
26D
330
1E
100
AcDbEntity
  8
0
100
AcDbLine
 10
129.701
 20
577.0
 30
0.0
 11
130.1059999999999
 21
577.0
 31
0.0
  0
LINE
  5
26E
330
1E
100
AcDbEntity
  8
0
100
AcDbLine
 10
129.701
 20
571.0
 30
0.0
 11
130.1059999999999
 21
571.0
 31
0.0
  0
LINE
  5
26F
330
1E
100
AcDbEntity
  8
0
100
AcDbLine
 10
129.899
 20
594.4619999999999
 30
0.0
 11
131.0389999999999
 21
594.4619999999999
 31
0.0
  0
LINE
  5
270
330
1E
100
AcDbEntity
  8
0
100
AcDbLine
 10
129.899
 20
595.5379999999999
 30
0.0
 11
131.0389999999999
 21
595.5379999999999
 31
0.0
  0
LINE
  5
271
330
1E
100
AcDbEntity
  8
0
100
AcDbLine
 10
129.11
 20
596.0
 30
0.0
 11
129.899
 21
596.462
 31
0.0
  0
LINE
  5
272
330
1E
100
AcDbEntity
  8
0
100
AcDbLine
 10
129.11
 20
596.0
 30
0.0
 11
130.1619999999999
 21
596.0
 31
0.0
  0
LINE
  5
273
330
1E
100
AcDbEntity
  8
0
100
AcDbLine
 10
129.899
 20
596.462
 30
0.0
 11
131.0389999999999
 21
596.462
 31
0.0
  0
LINE
  5
274
330
1E
100
AcDbEntity
  8
0
100
AcDbLine
 10
126.743
 20
597.538
 30
0.0
 11
129.899
 21
597.538
 31
0.0
  0
LINE
  5
275
330
1E
100
AcDbEntity
  8
0
100
AcDbLine
 10
129.11
 20
598.0
 30
0.0
 11
129.899
 21
597.538
 31
0.0
  0
LINE
  5
276
330
1E
100
AcDbEntity
  8
0
100
AcDbLine
 10
129.11
 20
598.0
 30
0.0
 11
130.1619999999999
 21
598.0
 31
0.0
  0
LINE
  5
277
330
1E
100
AcDbEntity
  8
0
100
AcDbLine
 10
130.1059999999999
 20
577.0
 30
0.0
 11
130.1059999999999
 21
571.0
 31
0.0
  0
LINE
  5
278
330
1E
100
AcDbEntity
  8
0
100
AcDbLine
 10
130.1059999999999
 20
571.0
 30
0.0
 11
130.1059999999999
 21
577.0
 31
0.0
  0
LINE
  5
279
330
1E
100
AcDbEntity
  8
0
100
AcDbLine
 10
130.1619999999999
 20
594.0
 30
0.0
 11
131.0389999999999
 21
594.4619999999999
 31
0.0
  0
LINE
  5
27A
330
1E
100
AcDbEntity
  8
0
100
AcDbLine
 10
131.0389999999999
 20
594.4619999999999
 30
0.0
 11
131.0389999999999
 21
595.5379999999999
 31
0.0
  0
LINE
  5
27B
330
1E
100
AcDbEntity
  8
0
100
AcDbLine
 10
131.0389999999999
 20
595.5379999999999
 30
0.0
 11
131.0389999999999
 21
594.4619999999999
 31
0.0
  0
LINE
  5
27C
330
1E
100
AcDbEntity
  8
0
100
AcDbLine
 10
130.1619999999999
 20
596.0
 30
0.0
 11
131.0389999999999
 21
596.462
 31
0.0
  0
LINE
  5
27D
330
1E
100
AcDbEntity
  8
0
100
AcDbLine
 10
130.1619999999999
 20
596.0
 30
0.0
 11
131.0389999999999
 21
595.5379999999999
 31
0.0
  0
LINE
  5
27E
330
1E
100
AcDbEntity
  8
0
100
AcDbLine
 10
200.0
 20
50.0
 30
0.0
 11
200.0
 21
-0.0000000000000089
 31
0.0
  0
LINE
  5
27F
330
1E
100
AcDbEntity
  8
0
100
AcDbLine
 10
200.0
 20
-0.0000000000000113
 30
0.0
 11
200.0
 21
50.0
 31
0.0
  0
LINE
  5
280
330
1E
100
AcDbEntity
  8
0
100
AcDbLine
 10
150.0
 20
250.0
 30
0.0
 11
200.0
 21
50.0
 31
0.0
  0
LINE
  5
281
330
1E
100
AcDbEntity
  8
0
100
AcDbLine
 10
150.0
 20
550.0
 30
0.0
 11
150.0
 21
250.0
 31
0.0
  0
LINE
  5
282
330
1E
100
AcDbEntity
  8
0
100
AcDbLine
 10
150.0
 20
250.0
 30
0.0
 11
150.0
 21
550.0
 31
0.0
  0
LINE
  5
283
330
1E
100
AcDbEntity
  8
0
100
AcDbLine
 10
150.0
 20
250.0
 30
0.0
 11
200.0
 21
50.0
 31
0.0
  0
LINE
  5
284
330
1E
100
AcDbEntity
  8
0
100
AcDbLine
 10
131.0389999999999
 20
596.462
 30
0.0
 11
131.0389999999999
 21
597.538
 31
0.0
  0
LINE
  5
285
330
1E
100
AcDbEntity
  8
0
100
AcDbLine
 10
131.0389999999999
 20
597.538
 30
0.0
 11
131.0389999999999
 21
596.462
 31
0.0
  0
LINE
  5
286
330
1E
100
AcDbEntity
  8
0
100
AcDbLine
 10
129.899
 20
597.538
 30
0.0
 11
131.0389999999999
 21
597.538
 31
0.0
  0
LINE
  5
287
330
1E
100
AcDbEntity
  8
0
100
AcDbLine
 10
125.0
 20
598.4619999999999
 30
0.0
 11
126.743
 21
598.4619999999999
 31
0.0
  0
LINE
  5
288
330
1E
100
AcDbEntity
  8
0
100
AcDbLine
 10
126.743
 20
598.4619999999999
 30
0.0
 11
129.899
 21
598.4619999999999
 31
0.0
  0
LINE
  5
289
330
1E
100
AcDbEntity
  8
0
100
AcDbLine
 10
125.0
 20
599.5379999999999
 30
0.0
 11
126.743
 21
599.5379999999999
 31
0.0
  0
LINE
  5
28A
330
1E
100
AcDbEntity
  8
0
100
AcDbLine
 10
129.899
 20
598.4619999999999
 30
0.0
 11
131.0389999999999
 21
598.4619999999999
 31
0.0
  0
LINE
  5
28B
330
1E
100
AcDbEntity
  8
0
100
AcDbLine
 10
126.743
 20
599.5379999999999
 30
0.0
 11
129.899
 21
599.5379999999999
 31
0.0
  0
LINE
  5
28C
330
1E
100
AcDbEntity
  8
0
100
AcDbLine
 10
124.0999999999999
 20
600.0
 30
0.0
 11
125.0
 21
600.0
 31
0.0
  0
LINE
  5
28D
330
1E
100
AcDbEntity
  8
0
100
AcDbLine
 10
121.7
 20
600.0
 30
0.0
 11
124.0999999999999
 21
600.0
 31
0.0
  0
LINE
  5
28E
330
1E
100
AcDbEntity
  8
0
100
AcDbLine
 10
125.0
 20
600.0
 30
0.0
 11
126.129
 21
600.0
 31
0.0
  0
LINE
  5
28F
330
1E
100
AcDbEntity
  8
0
100
AcDbLine
 10
125.0
 20
600.0
 30
0.0
 11
125.0
 21
598.0
 31
0.0
  0
LINE
  5
290
330
1E
100
AcDbEntity
  8
0
100
AcDbLine
 10
126.129
 20
600.0
 30
0.0
 11
129.11
 21
600.0
 31
0.0
  0
LINE
  5
291
330
1E
100
AcDbEntity
  8
0
100
AcDbLine
 10
129.11
 20
600.0
 30
0.0
 11
130.1619999999999
 21
600.0
 31
0.0
  0
LINE
  5
292
330
1E
100
AcDbEntity
  8
0
100
AcDbLine
 10
129.899
 20
599.5379999999999
 30
0.0
 11
131.0389999999999
 21
599.5379999999999
 31
0.0
  0
LINE
  5
293
330
1E
100
AcDbEntity
  8
0
100
AcDbLine
 10
131.0389999999999
 20
598.4619999999999
 30
0.0
 11
131.0389999999999
 21
599.5379999999999
 31
0.0
  0
LINE
  5
294
330
1E
100
AcDbEntity
  8
0
100
AcDbLine
 10
131.0389999999999
 20
599.5379999999999
 30
0.0
 11
131.0389999999999
 21
598.4619999999999
 31
0.0
  0
LINE
  5
295
330
1E
100
AcDbEntity
  8
0
100
AcDbLine
 10
130.1619999999999
 20
600.0
 30
0.0
 11
131.0389999999999
 21
599.5379999999999
 31
0.0
  0
LINE
  5
296
330
1E
100
AcDbEntity
  8
0
100
AcDbLine
 10
130.1619999999999
 20
598.0
 30
0.0
 11
131.0389999999999
 21
597.538
 31
0.0
  0
LINE
  5
297
330
1E
100
AcDbEntity
  8
0
100
AcDbLine
 10
130.1619999999999
 20
598.0
 30
0.0
 11
131.0389999999999
 21
598.4619999999999
 31
0.0
  0
LINE
  5
298
330
1E
100
AcDbEntity
  8
0
100
AcDbLine
 10
120.025
 20
600.0
 30
0.0
 11
120.025
 21
604.76
 31
0.0
  0
LINE
  5
299
330
1E
100
AcDbEntity
  8
0
100
AcDbLine
 10
120.025
 20
604.76
 30
0.0
 11
120.025
 21
600.0
 31
0.0
  0
LINE
  5
29A
330
1E
100
AcDbEntity
  8
0
100
AcDbLine
 10
119.29
 20
604.76
 30
0.0
 11
120.025
 21
604.76
 31
0.0
  0
LINE
  5
29B
330
1E
100
AcDbEntity
  8
0
100
AcDbLine
 10
108.6799999999999
 20
608.0
 30
0.0
 11
109.64
 21
608.0
 31
0.0
  0
LINE
  5
29C
330
1E
100
AcDbEntity
  8
0
100
AcDbLine
 10
107.0799999999999
 20
608.0
 30
0.0
 11
108.6799999999999
 21
608.0
 31
0.0
  0
LINE
  5
29D
330
1E
100
AcDbEntity
  8
0
100
AcDbLine
 10
109.548
 20
608.0
 30
0.0
 11
110.6039999999999
 21
608.0
 31
0.0
  0
LINE
  5
29F
330
1E
100
AcDbEntity
  8
0
100
AcDbLine
 10
107.5682
 20
611.0
 30
0.0
 11
108.1817999999999
 21
611.1069999999999
 31
0.0
  0
LINE
  5
2A0
330
1E
100
AcDbEntity
  8
0
100
AcDbLine
 10
107.7879999999999
 20
608.0
 30
0.0
 11
109.548
 21
608.0
 31
0.0
  0
LINE
  5
2A1
330
1E
100
AcDbEntity
  8
0
100
AcDbLine
 10
109.64
 20
608.0
 30
0.0
 11
110.0
 21
608.0
 31
0.0
  0
LINE
  5
2A2
330
1E
100
AcDbEntity
  8
0
100
AcDbLine
 10
109.548
 20
611.0
 30
0.0
 11
110.6039999999999
 21
611.0
 31
0.0
  0
LINE
  5
2A3
330
1E
100
AcDbEntity
  8
0
100
AcDbLine
 10
106.9038
 20
611.072
 30
0.0
 11
107.9925
 21
611.1499999999999
 31
0.0
  0
LINE
  5
2A6
330
1E
100
AcDbEntity
  8
0
100
AcDbLine
 10
107.9925
 20
611.1499999999999
 30
0.0
 11
108.6556999999999
 21
611.357
 31
0.0
  0
LINE
  5
2A9
330
1E
100
AcDbEntity
  8
0
100
AcDbLine
 10
107.9925
 20
615.8509999999999
 30
0.0
 11
108.6556999999999
 21
615.643
 31
0.0
  0
LINE
  5
2AA
330
1E
100
AcDbEntity
  8
0
100
AcDbLine
 10
106.5455
 20
616.0
 30
0.0
 11
107.2818
 21
616.0
 31
0.0
  0
LINE
  5
2AD
330
1E
100
AcDbEntity
  8
0
100
AcDbLine
 10
106.9038
 20
615.9279999999999
 30
0.0
 11
107.9925
 21
615.8509999999999
 31
0.0
  0
LINE
  5
2AF
330
1E
100
AcDbEntity
  8
0
100
AcDbLine
 10
107.2818
 20
616.0
 30
0.0
 11
107.5682
 21
616.0
 31
0.0
  0
LINE
  5
2B0
330
1E
100
AcDbEntity
  8
0
100
AcDbLine
 10
107.5682
 20
616.0
 30
0.0
 11
108.1817999999999
 21
615.893
 31
0.0
  0
LINE
  5
2B1
330
1E
100
AcDbEntity
  8
0
100
AcDbLine
 10
108.1817999999999
 20
615.893
 30
0.0
 11
108.7955
 21
615.643
 31
0.0
  0
LINE
  5
2B2
330
1E
100
AcDbEntity
  8
0
100
AcDbLine
 10
108.7955
 20
611.357
 30
0.0
 11
109.0
 21
611.714
 31
0.0
  0
LINE
  5
2B3
330
1E
100
AcDbEntity
  8
0
100
AcDbLine
 10
108.6556999999999
 20
615.643
 30
0.0
 11
108.9369
 21
615.2859999999999
 31
0.0
  0
LINE
  5
2B5
330
1E
100
AcDbEntity
  8
0
100
AcDbLine
 10
109.0
 20
611.714
 30
0.0
 11
109.0
 21
615.2859999999999
 31
0.0
  0
LINE
  5
2B6
330
1E
100
AcDbEntity
  8
0
100
AcDbLine
 10
109.0
 20
615.2859999999999
 30
0.0
 11
109.0
 21
611.714
 31
0.0
  0
LINE
  5
2B7
330
1E
100
AcDbEntity
  8
0
100
AcDbLine
 10
108.7955
 20
615.643
 30
0.0
 11
109.0
 21
615.2859999999999
 31
0.0
  0
LINE
  5
2B9
330
1E
100
AcDbEntity
  8
0
100
AcDbLine
 10
108.6556999999999
 20
611.357
 30
0.0
 11
108.9369
 21
611.714
 31
0.0
  0
LINE
  5
2BB
330
1E
100
AcDbEntity
  8
0
100
AcDbLine
 10
108.1817999999999
 20
611.1069999999999
 30
0.0
 11
108.7955
 21
611.357
 31
0.0
  0
LINE
  5
2BC
330
1E
100
AcDbEntity
  8
0
100
AcDbLine
 10
107.7879999999999
 20
611.0
 30
0.0
 11
109.548
 21
611.0
 31
0.0
  0
LINE
  5
2BD
330
1E
100
AcDbEntity
  8
0
100
AcDbLine
 10
110.6039999999999
 20
608.0
 30
0.0
 11
111.0
 21
608.0
 31
0.0
  0
LINE
  5
2BE
330
1E
100
AcDbEntity
  8
0
100
AcDbLine
 10
111.0
 20
611.0
 30
0.0
 11
111.0
 21
608.0
 31
0.0
  0
LINE
  5
2BF
330
1E
100
AcDbEntity
  8
0
100
AcDbLine
 10
110.6039999999999
 20
611.0
 30
0.0
 11
111.0
 21
611.0
 31
0.0
  0
LINE
  5
2C0
330
1E
100
AcDbEntity
  8
0
100
AcDbLine
 10
111.0
 20
608.0
 30
0.0
 11
111.0
 21
611.0
 31
0.0
  0
LINE
  5
2C1
330
1E
100
AcDbEntity
  8
0
100
AcDbLine
 10
110.0
 20
608.0
 30
0.0
 11
110.6039999999999
 21
608.0
 31
0.0
  0
LINE
  5
2C2
330
1E
100
AcDbEntity
  8
0
100
AcDbLine
 10
110.0
 20
608.0
 30
0.0
 11
110.0
 21
605.0
 31
0.0
  0
LINE
  5
2C3
330
1E
100
AcDbEntity
  8
0
100
AcDbLine
 10
119.4599999999999
 20
605.0
 30
0.0
 11
120.025
 21
604.76
 31
0.0
  0
LINE
  5
2C4
330
1E
100
AcDbEntity
  8
0
100
AcDbLine
 10
106.0076
 20
632.58
 30
0.0
 11
106.0076
 21
641.42
 31
0.0
  0
LINE
  5
2C5
330
1E
100
AcDbEntity
  8
0
100
AcDbLine
 10
106.0076
 20
641.42
 30
0.0
 11
106.0076
 21
632.58
 31
0.0
  0
LINE
  5
2C6
330
1E
100
AcDbEntity
  8
0
100
AcDbLine
 10
105.6342
 20
642.0
 30
0.0
 11
105.8378999999999
 21
642.0
 31
0.0
  0
LINE
  5
2C7
330
1E
100
AcDbEntity
  8
0
100
AcDbLine
 10
105.8378999999999
 20
642.0
 30
0.0
 11
106.0076
 21
641.42
 31
0.0
  0
LINE
  5
2C8
330
1E
100
AcDbEntity
  8
0
100
AcDbLine
 10
104.0051
 20
619.0
 30
0.0
 11
104.0051
 21
632.0
 31
0.0
  0
ENDSEC
  0
SECTION
  2
OBJECTS
  0
DICTIONARY
  5
C
330
0
100
AcDbDictionary
281
     1
  3
ACAD_GROUP
350
D
  3
ACAD_LAYOUT
350
19
  3
ACAD_MLINESTYLE
350
16
  3
ACAD_PLOTSETTINGS
350
18
  3
ACAD_PLOTSTYLENAME
350
E
  3
AcDbVariableDictionary
350
2CE
  0
DICTIONARY
  5
D
102
{ACAD_REACTORS
330
C
102
}
330
C
100
AcDbDictionary
281
     1
  0
DICTIONARY
  5
19
102
{ACAD_REACTORS
330
C
102
}
330
C
100
AcDbDictionary
281
     1
  3
Layout1
350
1D
  3
Model
350
21
  0
DICTIONARY
  5
16
102
{ACAD_REACTORS
330
C
102
}
330
C
100
AcDbDictionary
281
     1
  3
Standard
350
17
  0
DICTIONARY
  5
18
102
{ACAD_REACTORS
330
C
102
}
330
C
100
AcDbDictionary
281
     1
  0
ACDBDICTIONARYWDFLT
  5
E
102
{ACAD_REACTORS
330
C
102
}
330
C
100
AcDbDictionary
281
     1
  3
Normal
350
F
100
AcDbDictionaryWithDefault
340
F
  0
DICTIONARY
  5
2CE
102
{ACAD_REACTORS
330
C
102
}
330
C
100
AcDbDictionary
281
     1
  3
DIMASSOC
350
2CF
  0
LAYOUT
  5
1D
102
{ACAD_REACTORS
330
19
102
}
330
19
100
AcDbPlotSettings
  1

  2
C:\Programme\AutoCAD LT 2002 Deu\plotters\DWF ePlot (optimized for plotting).pc3
  4

  6

 40
0.0
 41
0.0
 42
0.0
 43
0.0
 44
0.0
 45
0.0
 46
0.0
 47
0.0
 48
0.0
 49
0.0
140
0.0
141
0.0
142
1.0
143
1.0
 70
   688
 72
     0
 73
     0
 74
     5
  7

 75
    16
147
1.0
148
0.0
149
0.0
100
AcDbLayout
  1
Layout1
 70
     1
 71
     1
 10
0.0
 20
0.0
 11
12.0
 21
9.0
 12
0.0
 22
0.0
 32
0.0
 14
1.000000000000000E+20
 24
1.000000000000000E+20
 34
1.000000000000000E+20
 15
-1.000000000000000E+20
 25
-1.000000000000000E+20
 35
-1.000000000000000E+20
146
0.0
 13
0.0
 23
0.0
 33
0.0
 16
1.0
 26
0.0
 36
0.0
 17
0.0
 27
1.0
 37
0.0
 76
     0
330
1A
  0
LAYOUT
  5
21
102
{ACAD_REACTORS
330
19
102
}
330
19
100
AcDbPlotSettings
  1

  2
C:\Programme\AutoCAD LT 2002 Deu\plotters\DWF ePlot (optimized for plotting).pc3
  4

  6

 40
0.0
 41
0.0
 42
0.0
 43
0.0
 44
0.0
 45
0.0
 46
0.0
 47
0.0
 48
0.0
 49
0.0
140
0.0
141
0.0
142
1.0
143
1.0
 70
  1712
 72
     0
 73
     0
 74
     0
  7

 75
     0
147
1.0
148
0.0
149
0.0
100
AcDbLayout
  1
Model
 70
     1
 71
     0
 10
0.0
 20
0.0
 11
12.0
 21
9.0
 12
0.0
 22
0.0
 32
0.0
 14
0.0
 24
0.0
 34
0.0
 15
0.0
 25
0.0
 35
0.0
146
0.0
 13
0.0
 23
0.0
 33
0.0
 16
1.0
 26
0.0
 36
0.0
 17
0.0
 27
1.0
 37
0.0
 76
     0
330
1E
  0
MLINESTYLE
  5
17
102
{ACAD_REACTORS
330
16
102
}
330
16
100
AcDbMlineStyle
  2
STANDARD
 70
     0
  3

 62
   256
 51
90.0
 52
90.0
 71
     2
 49
0.5
 62
   256
  6
BYLAYER
 49
-0.5
 62
   256
  6
BYLAYER
  0
ACDBPLACEHOLDER
  5
F
102
{ACAD_REACTORS
330
E
102
}
330
E
  0
DICTIONARYVAR
  5
2CF
102
{ACAD_REACTORS
330
2CE
102
}
330
2CE
100
DictionaryVariables
280
     0
  1
1
  0
ENDSEC
  0
EOF
