  0
SECTION
  2
HEADER
  9
$ACADVER
  1
AC1015
  9
$ACADMAINTVER
 70
    13
  9
$DWGCODEPAGE
  3
ANSI_1252
  9
$INSBASE
 10
0.0
 20
0.0
 30
0.0
  9
$EXTMIN
 10
0.0
 20
-0.0000000000000074
 30
0.0
  9
$EXTMAX
 10
46.0
 20
153.0
 30
0.0
  9
$LIMMIN
 10
0.0
 20
0.0
  9
$LIMMAX
 10
12.0
 20
9.0
  9
$ORTHOMODE
 70
     0
  9
$REGENMODE
 70
     1
  9
$FILLMODE
 70
     1
  9
$QTEXTMODE
 70
     0
  9
$MIRRTEXT
 70
     1
  9
$LTSCALE
 40
1.0
  9
$ATTMODE
 70
     1
  9
$TEXTSIZE
 40
0.2
  9
$TRACEWID
 40
0.05
  9
$TEXTSTYLE
  7
Standard
  9
$CLAYER
  8
0
  9
$CELTYPE
  6
Continuous
  9
$CECOLOR
 62
   256
  9
$CELTSCALE
 40
1.0
  9
$DISPSILH
 70
     0
  9
$DIMSCALE
 40
1.0
  9
$DIMASZ
 40
0.18
  9
$DIMEXO
 40
0.0625
  9
$DIMDLI
 40
0.38
  9
$DIMRND
 40
0.0
  9
$DIMDLE
 40
0.0
  9
$DIMEXE
 40
0.18
  9
$DIMTP
 40
0.0
  9
$DIMTM
 40
0.0
  9
$DIMTXT
 40
0.18
  9
$DIMCEN
 40
0.09
  9
$DIMTSZ
 40
0.0
  9
$DIMTOL
 70
     0
  9
$DIMLIM
 70
     0
  9
$DIMTIH
 70
     1
  9
$DIMTOH
 70
     1
  9
$DIMSE1
 70
     0
  9
$DIMSE2
 70
     0
  9
$DIMTAD
 70
     0
  9
$DIMZIN
 70
     0
  9
$DIMBLK
  1

  9
$DIMASO
 70
     1
  9
$DIMSHO
 70
     1
  9
$DIMPOST
  1

  9
$DIMAPOST
  1

  9
$DIMALT
 70
     0
  9
$DIMALTD
 70
     2
  9
$DIMALTF
 40
25.4
  9
$DIMLFAC
 40
1.0
  9
$DIMTOFL
 70
     0
  9
$DIMTVP
 40
0.0
  9
$DIMTIX
 70
     0
  9
$DIMSOXD
 70
     0
  9
$DIMSAH
 70
     0
  9
$DIMBLK1
  1

  9
$DIMBLK2
  1

  9
$DIMSTYLE
  2
Standard
  9
$DIMCLRD
 70
     0
  9
$DIMCLRE
 70
     0
  9
$DIMCLRT
 70
     0
  9
$DIMTFAC
 40
1.0
  9
$DIMGAP
 40
0.09
  9
$DIMJUST
 70
     0
  9
$DIMSD1
 70
     0
  9
$DIMSD2
 70
     0
  9
$DIMTOLJ
 70
     1
  9
$DIMTZIN
 70
     0
  9
$DIMALTZ
 70
     0
  9
$DIMALTTZ
 70
     0
  9
$DIMUPT
 70
     0
  9
$DIMDEC
 70
     4
  9
$DIMTDEC
 70
     4
  9
$DIMALTU
 70
     2
  9
$DIMALTTD
 70
     2
  9
$DIMTXSTY
  7
Standard
  9
$DIMAUNIT
 70
     0
  9
$DIMADEC
 70
     0
  9
$DIMALTRND
 40
0.0
  9
$DIMAZIN
 70
     0
  9
$DIMDSEP
 70
    46
  9
$DIMATFIT
 70
     3
  9
$DIMFRAC
 70
     0
  9
$DIMLDRBLK
  1

  9
$DIMLUNIT
 70
     2
  9
$DIMLWD
 70
    -2
  9
$DIMLWE
 70
    -2
  9
$DIMTMOVE
 70
     0
  9
$LUNITS
 70
     2
  9
$LUPREC
 70
     4
  9
$SKETCHINC
 40
0.1
  9
$FILLETRAD
 40
0.0
  9
$AUNITS
 70
     0
  9
$AUPREC
 70
     0
  9
$MENU
  1
.
  9
$ELEVATION
 40
0.0
  9
$PELEVATION
 40
0.0
  9
$THICKNESS
 40
0.0
  9
$LIMCHECK
 70
     0
  9
$CHAMFERA
 40
0.0
  9
$CHAMFERB
 40
0.0
  9
$CHAMFERC
 40
0.0
  9
$CHAMFERD
 40
0.0
  9
$SKPOLY
 70
     0
  9
$TDCREATE
 40
2455654.913031319
  9
$TDUCREATE
 40
2455654.829697986
  9
$TDUPDATE
 40
2455654.919120000
  9
$TDUUPDATE
 40
2455654.835786666
  9
$TDINDWG
 40
0.0060886806
  9
$TDUSRTIMER
 40
0.0060886806
  9
$USRTIMER
 70
     1
  9
$ANGBASE
 50
0.0
  9
$ANGDIR
 70
     0
  9
$PDMODE
 70
     0
  9
$PDSIZE
 40
0.0
  9
$PLINEWID
 40
0.0
  9
$SPLFRAME
 70
     0
  9
$SPLINETYPE
 70
     6
  9
$SPLINESEGS
 70
     8
  9
$HANDSEED
  5
547
  9
$SURFTAB1
 70
     6
  9
$SURFTAB2
 70
     6
  9
$SURFTYPE
 70
     6
  9
$SURFU
 70
     6
  9
$SURFV
 70
     6
  9
$UCSBASE
  2

  9
$UCSNAME
  2

  9
$UCSORG
 10
0.0
 20
0.0
 30
0.0
  9
$UCSXDIR
 10
1.0
 20
0.0
 30
0.0
  9
$UCSYDIR
 10
0.0
 20
1.0
 30
0.0
  9
$UCSORTHOREF
  2

  9
$UCSORTHOVIEW
 70
     1
  9
$UCSORGTOP
 10
0.0
 20
0.0
 30
0.0
  9
$UCSORGBOTTOM
 10
0.0
 20
0.0
 30
0.0
  9
$UCSORGLEFT
 10
0.0
 20
0.0
 30
0.0
  9
$UCSORGRIGHT
 10
0.0
 20
0.0
 30
0.0
  9
$UCSORGFRONT
 10
0.0
 20
0.0
 30
0.0
  9
$UCSORGBACK
 10
0.0
 20
0.0
 30
0.0
  9
$PUCSBASE
  2

  9
$PUCSNAME
  2

  9
$PUCSORG
 10
0.0
 20
0.0
 30
0.0
  9
$PUCSXDIR
 10
1.0
 20
0.0
 30
0.0
  9
$PUCSYDIR
 10
0.0
 20
1.0
 30
0.0
  9
$PUCSORTHOREF
  2

  9
$PUCSORTHOVIEW
 70
     0
  9
$PUCSORGTOP
 10
0.0
 20
0.0
 30
0.0
  9
$PUCSORGBOTTOM
 10
0.0
 20
0.0
 30
0.0
  9
$PUCSORGLEFT
 10
0.0
 20
0.0
 30
0.0
  9
$PUCSORGRIGHT
 10
0.0
 20
0.0
 30
0.0
  9
$PUCSORGFRONT
 10
0.0
 20
0.0
 30
0.0
  9
$PUCSORGBACK
 10
0.0
 20
0.0
 30
0.0
  9
$USERI1
 70
     0
  9
$USERI2
 70
     0
  9
$USERI3
 70
     0
  9
$USERI4
 70
     0
  9
$USERI5
 70
     0
  9
$USERR1
 40
0.0
  9
$USERR2
 40
0.0
  9
$USERR3
 40
0.0
  9
$USERR4
 40
0.0
  9
$USERR5
 40
0.0
  9
$WORLDVIEW
 70
     1
  9
$SHADEDGE
 70
     3
  9
$SHADEDIF
 70
    70
  9
$TILEMODE
 70
     1
  9
$MAXACTVP
 70
    64
  9
$PINSBASE
 10
0.0
 20
0.0
 30
0.0
  9
$PLIMCHECK
 70
     0
  9
$PEXTMIN
 10
1.000000000000000E+20
 20
1.000000000000000E+20
 30
1.000000000000000E+20
  9
$PEXTMAX
 10
-1.000000000000000E+20
 20
-1.000000000000000E+20
 30
-1.000000000000000E+20
  9
$PLIMMIN
 10
0.0
 20
0.0
  9
$PLIMMAX
 10
12.0
 20
9.0
  9
$UNITMODE
 70
     0
  9
$VISRETAIN
 70
     1
  9
$PLINEGEN
 70
     0
  9
$PSLTSCALE
 70
     1
  9
$TREEDEPTH
 70
  3020
  9
$CMLSTYLE
  2
Standard
  9
$CMLJUST
 70
     0
  9
$CMLSCALE
 40
1.0
  9
$PROXYGRAPHICS
 70
     1
  9
$MEASUREMENT
 70
     0
  9
$CELWEIGHT
370
    -1
  9
$ENDCAPS
280
     0
  9
$JOINSTYLE
280
     0
  9
$LWDISPLAY
290
     0
  9
$INSUNITS
 70
     0
  9
$HYPERLINKBASE
  1

  9
$STYLESHEET
  1

  9
$XEDIT
290
     1
  9
$CEPSNTYPE
380
     0
  9
$PSTYLEMODE
290
     1
  9
$FINGERPRINTGUID
  2
{740A5E2A-6D42-43EC-82D8-9ECB6A866AA1}
  9
$VERSIONGUID
  2
{F0FFF74C-4B1B-4148-9C7F-B464963038AE}
  9
$EXTNAMES
290
     1
  9
$PSVPSCALE
 40
0.0
  9
$OLESTARTUP
290
     0
  0
ENDSEC
  0
SECTION
  2
CLASSES
  0
CLASS
  1
ACDBDICTIONARYWDFLT
  2
AcDbDictionaryWithDefault
  3
AutoCAD 2000
 90
        0
280
     0
281
     0
  0
CLASS
  1
ACDBPLACEHOLDER
  2
AcDbPlaceHolder
  3
AutoCAD 2000
 90
        0
280
     0
281
     0
  0
CLASS
  1
LAYOUT
  2
AcDbLayout
  3
AutoCAD 2000
 90
        0
280
     0
281
     0
  0
CLASS
  1
DICTIONARYVAR
  2
AcDbDictionaryVar
  3
AutoCAD 2000
 90
        0
280
     0
281
     0
  0
ENDSEC
  0
SECTION
  2
TABLES
  0
TABLE
  2
VPORT
  5
8
330
0
100
AcDbSymbolTable
 70
     3
  0
VPORT
  5
546
330
8
100
AcDbSymbolTableRecord
100
AcDbViewportTableRecord
  2
*Active
 70
     0
 10
0.0
 20
0.0
 11
1.0
 21
1.0
 12
23.0
 22
76.49999999999998
 13
0.0
 23
0.0
 14
1.0
 24
1.0
 15
0.0
 25
0.0
 16
0.0
 26
0.0
 36
1.0
 17
0.0
 27
0.0
 37
0.0
 40
154.0349492671927
 41
2.073363431151241
 42
50.0
 43
0.0
 44
0.0
 50
0.0
 51
0.0
 71
     0
 72
   100
 73
     1
 74
     3
 75
     0
 76
     0
 77
     0
 78
     0
281
     0
 65
     1
110
0.0
120
0.0
130
0.0
111
1.0
121
0.0
131
0.0
112
0.0
122
1.0
132
0.0
 79
     1
146
0.0
  0
ENDTAB
  0
TABLE
  2
LTYPE
  5
5
330
0
100
AcDbSymbolTable
 70
     1
  0
LTYPE
  5
13
330
5
100
AcDbSymbolTableRecord
100
AcDbLinetypeTableRecord
  2
ByBlock
 70
     0
  3

 72
    65
 73
     0
 40
0.0
  0
LTYPE
  5
14
330
5
100
AcDbSymbolTableRecord
100
AcDbLinetypeTableRecord
  2
ByLayer
 70
     0
  3

 72
    65
 73
     0
 40
0.0
  0
LTYPE
  5
15
330
5
100
AcDbSymbolTableRecord
100
AcDbLinetypeTableRecord
  2
Continuous
 70
     0
  3
Solid line
 72
    65
 73
     0
 40
0.0
  0
ENDTAB
  0
TABLE
  2
LAYER
  5
2
330
0
100
AcDbSymbolTable
 70
     1
  0
LAYER
  5
10
330
2
100
AcDbSymbolTableRecord
100
AcDbLayerTableRecord
  2
0
 70
     0
 62
     7
  6
Continuous
370
    -3
390
F
  0
ENDTAB
  0
TABLE
  2
STYLE
  5
3
330
0
100
AcDbSymbolTable
 70
     1
  0
STYLE
  5
11
330
3
100
AcDbSymbolTableRecord
100
AcDbTextStyleTableRecord
  2
Standard
 70
     0
 40
0.0
 41
1.0
 50
0.0
 71
     0
 42
0.2
  3
txt
  4

  0
ENDTAB
  0
TABLE
  2
VIEW
  5
6
330
0
100
AcDbSymbolTable
 70
     0
  0
ENDTAB
  0
TABLE
  2
UCS
  5
7
330
0
100
AcDbSymbolTable
 70
     0
  0
ENDTAB
  0
TABLE
  2
APPID
  5
9
330
0
100
AcDbSymbolTable
 70
     1
  0
APPID
  5
12
330
9
100
AcDbSymbolTableRecord
100
AcDbRegAppTableRecord
  2
ACAD
 70
     0
  0
ENDTAB
  0
TABLE
  2
DIMSTYLE
  5
A
330
0
100
AcDbSymbolTable
 70
     1
100
AcDbDimStyleTable
 71
     0
  0
DIMSTYLE
105
410
330
A
100
AcDbSymbolTableRecord
100
AcDbDimStyleTableRecord
  2
Standard
 70
     0
340
11
  0
ENDTAB
  0
TABLE
  2
BLOCK_RECORD
  5
1
330
0
100
AcDbSymbolTable
 70
     0
  0
BLOCK_RECORD
  5
1E
330
1
100
AcDbSymbolTableRecord
100
AcDbBlockTableRecord
  2
*Model_Space
340
21
  0
BLOCK_RECORD
  5
1A
330
1
100
AcDbSymbolTableRecord
100
AcDbBlockTableRecord
  2
*Paper_Space
340
1D
  0
ENDTAB
  0
ENDSEC
  0
SECTION
  2
BLOCKS
  0
BLOCK
  5
1F
330
1E
100
AcDbEntity
  8
0
100
AcDbBlockBegin
  2
*Model_Space
 70
     0
 10
0.0
 20
0.0
 30
0.0
  3
*Model_Space
  1

  0
ENDBLK
  5
20
330
1E
100
AcDbEntity
  8
0
100
AcDbBlockEnd
  0
BLOCK
  5
1B
330
1A
100
AcDbEntity
 67
     1
  8
0
100
AcDbBlockBegin
  2
*Paper_Space
 70
     0
 10
0.0
 20
0.0
 30
0.0
  3
*Paper_Space
  1

  0
ENDBLK
  5
1C
330
1A
100
AcDbEntity
 67
     1
  8
0
100
AcDbBlockEnd
  0
ENDSEC
  0
SECTION
  2
ENTITIES
  0
LINE
  5
22
330
1E
100
AcDbEntity
  8
0
100
AcDbLine
 10
0.8117649999999999
 20
-0.0000000000000064
 30
0.0
 11
3.111759999999999
 21
-0.0000000000000067
 31
0.0
  0
LINE
  5
23
330
1E
100
AcDbEntity
  8
0
100
AcDbLine
 10
3.111759999999999
 20
-0.0000000000000067
 30
0.0
 11
6.76471
 21
-0.000000000000007
 31
0.0
  0
LINE
  5
24
330
1E
100
AcDbEntity
  8
0
100
AcDbLine
 10
0.8117649999999999
 20
-0.0000000000000064
 30
0.0
 11
3.111759999999999
 21
-0.0000000000000067
 31
0.0
  0
LINE
  5
25
330
1E
100
AcDbEntity
  8
0
100
AcDbLine
 10
0.8117649999999999
 20
4.71153999999999
 30
0.0
 11
3.111759999999999
 21
4.71154
 31
0.0
  0
LINE
  5
26
330
1E
100
AcDbEntity
  8
0
100
AcDbLine
 10
0.338235
 20
4.90384999999999
 30
0.0
 11
1.01471
 21
4.99999999999999
 31
0.0
  0
LINE
  5
27
330
1E
100
AcDbEntity
  8
0
100
AcDbLine
 10
0.338235
 20
4.90384999999999
 30
0.0
 11
1.01471
 21
4.99999999999999
 31
0.0
  0
LINE
  5
28
330
1E
100
AcDbEntity
  8
0
100
AcDbLine
 10
0.0
 20
4.71153999999999
 30
0.0
 11
0.0
 21
-0.0000000000000058
 31
0.0
  0
LINE
  5
29
330
1E
100
AcDbEntity
  8
0
100
AcDbLine
 10
0.0
 20
4.71153999999999
 30
0.0
 11
0.8117649999999999
 21
4.71153999999999
 31
0.0
  0
LINE
  5
2A
330
1E
100
AcDbEntity
  8
0
100
AcDbLine
 10
0.0
 20
4.71153999999999
 30
0.0
 11
0.338235
 21
4.90384999999999
 31
0.0
  0
LINE
  5
2B
330
1E
100
AcDbEntity
  8
0
100
AcDbLine
 10
0.8117649999999999
 20
-0.0000000000000056
 30
0.0
 11
3.111759999999999
 21
-0.0000000000000053
 31
0.0
  0
LINE
  5
2C
330
1E
100
AcDbEntity
  8
0
100
AcDbLine
 10
1.01471
 20
4.99999999999999
 30
0.0
 11
1.82647
 21
4.99999999999999
 31
0.0
  0
LINE
  5
2D
330
1E
100
AcDbEntity
  8
0
100
AcDbLine
 10
0.8117649999999999
 20
4.71153999999999
 30
0.0
 11
3.111759999999999
 21
4.71154
 31
0.0
  0
LINE
  5
2E
330
1E
100
AcDbEntity
  8
0
100
AcDbLine
 10
3.111759999999999
 20
4.71154
 30
0.0
 11
6.76471
 21
4.71154
 31
0.0
  0
LINE
  5
2F
330
1E
100
AcDbEntity
  8
0
100
AcDbLine
 10
3.111759999999999
 20
-0.0000000000000053
 30
0.0
 11
6.76471
 21
-0.000000000000005
 31
0.0
  0
LINE
  5
30
330
1E
100
AcDbEntity
  8
0
100
AcDbLine
 10
0.8117649999999999
 20
-0.0000000000000056
 30
0.0
 11
3.111759999999999
 21
-0.0000000000000053
 31
0.0
  0
LINE
  5
31
330
1E
100
AcDbEntity
  8
0
100
AcDbLine
 10
0.0
 20
-0.000000000000006
 30
0.0
 11
0.8117649999999999
 21
-0.0000000000000056
 31
0.0
  0
LINE
  5
32
330
1E
100
AcDbEntity
  8
0
100
AcDbLine
 10
0.0
 20
-0.000000000000006
 30
0.0
 11
0.8117649999999999
 21
-0.0000000000000064
 31
0.0
  0
LINE
  5
33
330
1E
100
AcDbEntity
  8
0
100
AcDbLine
 10
0.0
 20
-0.000000000000006
 30
0.0
 11
0.0
 21
4.71153999999999
 31
0.0
  0
LINE
  5
34
330
1E
100
AcDbEntity
  8
0
100
AcDbLine
 10
4.004259999999999
 20
4.99999999999999
 30
0.0
 11
4.227949999999999
 21
85.46969999999999
 31
0.0
  0
LINE
  5
35
330
1E
100
AcDbEntity
  8
0
100
AcDbLine
 10
3.99118
 20
4.99999999999999
 30
0.0
 11
7.44118
 21
4.99999999999999
 31
0.0
  0
LINE
  5
36
330
1E
100
AcDbEntity
  8
0
100
AcDbLine
 10
1.82647
 20
4.99999999999999
 30
0.0
 11
3.99118
 21
4.99999999999999
 31
0.0
  0
LINE
  5
3B
330
1E
100
AcDbEntity
  8
0
100
AcDbLine
 10
4.004259999999999
 20
4.99999999999999
 30
0.0
 11
4.227949999999999
 21
85.46969999999999
 31
0.0
  0
LINE
  5
43
330
1E
100
AcDbEntity
  8
0
100
AcDbLine
 10
4.271919999999999
 20
89.04899999999999
 30
0.0
 11
4.30658
 21
92.11539999999999
 31
0.0
  0
LINE
  5
44
330
1E
100
AcDbEntity
  8
0
100
AcDbLine
 10
4.227949999999999
 20
85.46969999999999
 30
0.0
 11
4.271919999999999
 21
89.04899999999999
 31
0.0
  0
LINE
  5
51
330
1E
100
AcDbEntity
  8
0
100
AcDbLine
 10
6.76471
 20
-0.000000000000007
 30
0.0
 11
11.5676
 21
-0.0000000000000072
 31
0.0
  0
LINE
  5
52
330
1E
100
AcDbEntity
  8
0
100
AcDbLine
 10
6.76471
 20
4.71154
 30
0.0
 11
11.5676
 21
4.71154
 31
0.0
  0
LINE
  5
53
330
1E
100
AcDbEntity
  8
0
100
AcDbLine
 10
7.44118
 20
4.99999999999999
 30
0.0
 11
12.0412
 21
4.99999999999999
 31
0.0
  0
LINE
  5
54
330
1E
100
AcDbEntity
  8
0
100
AcDbLine
 10
6.76471
 20
-0.000000000000005
 30
0.0
 11
11.5676
 21
-0.0000000000000048
 31
0.0
  0
LINE
  5
59
330
1E
100
AcDbEntity
  8
0
100
AcDbLine
 10
11.5676
 20
-0.0000000000000072
 30
0.0
 11
17.1147
 21
-0.0000000000000074
 31
0.0
  0
LINE
  5
5A
330
1E
100
AcDbEntity
  8
0
100
AcDbLine
 10
17.1147
 20
-0.0000000000000074
 30
0.0
 11
23.0
 21
-0.0000000000000074
 31
0.0
  0
LINE
  5
5B
330
1E
100
AcDbEntity
  8
0
100
AcDbLine
 10
12.0412
 20
4.99999999999999
 30
0.0
 11
17.31759999999999
 21
5.0
 31
0.0
  0
LINE
  5
5C
330
1E
100
AcDbEntity
  8
0
100
AcDbLine
 10
11.5676
 20
4.71154
 30
0.0
 11
17.1147
 21
4.71154
 31
0.0
  0
LINE
  5
5D
330
1E
100
AcDbEntity
  8
0
100
AcDbLine
 10
17.1147
 20
4.71154
 30
0.0
 11
23.0
 21
4.71154
 31
0.0
  0
LINE
  5
5E
330
1E
100
AcDbEntity
  8
0
100
AcDbLine
 10
11.5676
 20
-0.0000000000000048
 30
0.0
 11
17.1147
 21
-0.0000000000000046
 31
0.0
  0
LINE
  5
63
330
1E
100
AcDbEntity
  8
0
100
AcDbLine
 10
17.31759999999999
 20
5.0
 30
0.0
 11
23.0
 21
5.0
 31
0.0
  0
LINE
  5
64
330
1E
100
AcDbEntity
  8
0
100
AcDbLine
 10
17.1147
 20
-0.0000000000000046
 30
0.0
 11
23.0
 21
-0.0000000000000046
 31
0.0
  0
LINE
  5
6D
330
1E
100
AcDbEntity
  8
0
100
AcDbLine
 10
22.7911
 20
89.2856
 30
0.0
 11
23.0712
 21
89.2896
 31
0.0
  0
LINE
  5
70
330
1E
100
AcDbEntity
  8
0
100
AcDbLine
 10
17.4154
 20
90.16200000000001
 30
0.0
 11
18.42539999999999
 21
89.86310000000001
 31
0.0
  0
LINE
  5
71
330
1E
100
AcDbEntity
  8
0
100
AcDbLine
 10
18.42539999999999
 20
89.86310000000001
 30
0.0
 11
19.4777
 21
89.62470000000001
 31
0.0
  0
LINE
  5
72
330
1E
100
AcDbEntity
  8
0
100
AcDbLine
 10
19.4777
 20
89.62470000000001
 30
0.0
 11
20.5633
 21
89.44819999999999
 31
0.0
  0
LINE
  5
73
330
1E
100
AcDbEntity
  8
0
100
AcDbLine
 10
20.5633
 20
89.44819999999999
 30
0.0
 11
21.6711
 21
89.3349
 31
0.0
  0
LINE
  5
74
330
1E
100
AcDbEntity
  8
0
100
AcDbLine
 10
21.6711
 20
89.3349
 30
0.0
 11
22.7911
 21
89.2856
 31
0.0
  0
LINE
  5
77
330
1E
100
AcDbEntity
  8
0
100
AcDbLine
 10
22.1756
 20
90.2551
 30
0.0
 11
23.0712
 21
90.23520000000001
 31
0.0
  0
LINE
  5
78
330
1E
100
AcDbEntity
  8
0
100
AcDbLine
 10
22.107
 20
90.21799999999998
 30
0.0
 11
23.0712
 21
90.19249999999999
 31
0.0
  0
LINE
  5
7B
330
1E
100
AcDbEntity
  8
0
100
AcDbLine
 10
20.1073
 20
90.4977
 30
0.0
 11
21.13029999999999
 21
90.34460000000001
 31
0.0
  0
LINE
  5
7C
330
1E
100
AcDbEntity
  8
0
100
AcDbLine
 10
20.07499999999999
 20
90.4638
 30
0.0
 11
21.0799
 21
90.30939999999999
 31
0.0
  0
LINE
  5
7D
330
1E
100
AcDbEntity
  8
0
100
AcDbLine
 10
21.13029999999999
 20
90.34460000000001
 30
0.0
 11
22.1756
 21
90.2551
 31
0.0
  0
LINE
  5
7E
330
1E
100
AcDbEntity
  8
0
100
AcDbLine
 10
21.0799
 20
90.30939999999999
 30
0.0
 11
22.107
 21
90.21799999999998
 31
0.0
  0
LINE
  5
7F
330
1E
100
AcDbEntity
  8
0
100
AcDbLine
 10
16.4559
 20
90.5173
 30
0.0
 11
17.4154
 21
90.16200000000001
 31
0.0
  0
LINE
  5
93
330
1E
100
AcDbEntity
  8
0
100
AcDbLine
 10
19.1155
 20
90.7155
 30
0.0
 11
20.1073
 21
90.4977
 31
0.0
  0
LINE
  5
94
330
1E
100
AcDbEntity
  8
0
100
AcDbLine
 10
19.0993
 20
90.67829999999998
 30
0.0
 11
20.07499999999999
 21
90.4638
 31
0.0
  0
LINE
  5
95
330
1E
100
AcDbEntity
  8
0
100
AcDbLine
 10
18.1651
 20
90.95220000000001
 30
0.0
 11
19.0993
 21
90.67829999999998
 31
0.0
  0
LINE
  5
96
330
1E
100
AcDbEntity
  8
0
100
AcDbLine
 10
15.5569
 20
90.92629999999999
 30
0.0
 11
16.4559
 21
90.5173
 31
0.0
  0
LINE
  5
99
330
1E
100
AcDbEntity
  8
0
100
AcDbLine
 10
22.68819999999999
 20
91.09439999999999
 30
0.0
 11
23.0712
 21
91.09759999999999
 31
0.0
  0
LINE
  5
9B
330
1E
100
AcDbEntity
  8
0
100
AcDbLine
 10
18.1651
 20
90.9933
 30
0.0
 11
19.1155
 21
90.7155
 31
0.0
  0
LINE
  5
9C
330
1E
100
AcDbEntity
  8
0
100
AcDbLine
 10
15.4631
 20
90.97509999999999
 30
0.0
 11
15.5569
 21
90.92629999999999
 31
0.0
  0
LINE
  5
9F
330
1E
100
AcDbEntity
  8
0
100
AcDbLine
 10
4.30658
 20
92.11539999999999
 30
0.0
 11
4.330259999999999
 21
94.1253
 31
0.0
  0
LINE
  5
A0
330
1E
100
AcDbEntity
  8
0
100
AcDbLine
 10
12.58259999999999
 20
93.09560000000001
 30
0.0
 11
13.17479999999999
 21
92.506
 31
0.0
  0
LINE
  5
A1
330
1E
100
AcDbEntity
  8
0
100
AcDbLine
 10
13.17479999999999
 20
92.506
 30
0.0
 11
13.8569
 21
91.9524
 31
0.0
  0
LINE
  5
A2
330
1E
100
AcDbEntity
  8
0
100
AcDbLine
 10
14.2857
 20
93.25969999999999
 30
0.0
 11
14.8931
 21
92.71129999999999
 31
0.0
  0
LINE
  5
A3
330
1E
100
AcDbEntity
  8
0
100
AcDbLine
 10
13.8569
 20
91.9524
 30
0.0
 11
14.6217
 21
91.4409
 31
0.0
  0
LINE
  5
A4
330
1E
100
AcDbEntity
  8
0
100
AcDbLine
 10
4.35731
 20
96.044
 30
0.0
 11
4.78088
 21
121.694
 31
0.0
  0
LINE
  5
A5
330
1E
100
AcDbEntity
  8
0
100
AcDbLine
 10
4.330259999999999
 20
94.1253
 30
0.0
 11
4.35731
 21
96.044
 31
0.0
  0
LINE
  5
A6
330
1E
100
AcDbEntity
  8
0
100
AcDbLine
 10
7.49401
 20
99.6643
 30
0.0
 11
7.887999999999999
 21
99.07
 31
0.0
  0
LINE
  5
A7
330
1E
100
AcDbEntity
  8
0
100
AcDbLine
 10
8.10106
 20
98.7794
 30
0.0
 11
8.32596
 21
98.49070000000001
 31
0.0
  0
LINE
  5
A8
330
1E
100
AcDbEntity
  8
0
100
AcDbLine
 10
7.887999999999999
 20
99.07
 30
0.0
 11
8.10106
 21
98.7794
 31
0.0
  0
LINE
  5
A9
330
1E
100
AcDbEntity
  8
0
100
AcDbLine
 10
6.835389999999999
 20
100.9379999999999
 30
0.0
 11
7.09833
 21
100.3519999999999
 31
0.0
  0
LINE
  5
AA
330
1E
100
AcDbEntity
  8
0
100
AcDbLine
 10
7.09833
 20
100.3519999999999
 30
0.0
 11
7.49401
 21
99.6643
 31
0.0
  0
LINE
  5
AB
330
1E
100
AcDbEntity
  8
0
100
AcDbLine
 10
6.352619999999999
 20
102.0329999999999
 30
0.0
 11
6.835389999999999
 21
100.9379999999999
 31
0.0
  0
LINE
  5
AC
330
1E
100
AcDbEntity
  8
0
100
AcDbLine
 10
8.32596
 20
98.49070000000001
 30
0.0
 11
8.441789999999999
 21
98.34899999999999
 31
0.0
  0
LINE
  5
AD
330
1E
100
AcDbEntity
  8
0
100
AcDbLine
 10
8.441789999999999
 20
98.34899999999999
 30
0.0
 11
8.949069999999998
 21
97.80689999999999
 31
0.0
  0
LINE
  5
AE
330
1E
100
AcDbEntity
  8
0
100
AcDbLine
 10
8.949069999999998
 20
97.80689999999999
 30
0.0
 11
9.684639999999999
 21
97.04160000000001
 31
0.0
  0
LINE
  5
AF
330
1E
100
AcDbEntity
  8
0
100
AcDbLine
 10
9.684639999999999
 20
97.04160000000001
 30
0.0
 11
11.2274517295414
 21
95.60176725558518
 31
0.0
  0
LINE
  5
B0
330
1E
100
AcDbEntity
  8
0
100
AcDbLine
 10
11.07119999999999
 20
96.9087
 30
0.0
 11
11.07799999999999
 21
96.7364
 31
0.0
  0
LINE
  5
B1
330
1E
100
AcDbEntity
  8
0
100
AcDbLine
 10
11.07119999999999
 20
96.9087
 30
0.0
 11
11.07119999999999
 21
99.18281064011591
 31
0.0
  0
LINE
  5
B2
330
1E
100
AcDbEntity
  8
0
100
AcDbLine
 10
11.07119999999999
 20
99.18281064011591
 30
0.0
 11
11.07119999999999
 21
96.5651
 31
0.0
  0
LINE
  5
B3
330
1E
100
AcDbEntity
  8
0
100
AcDbLine
 10
11.07119999999999
 20
99.18281064011591
 30
0.0
 11
11.07119999999999
 21
96.9087
 31
0.0
  0
LINE
  5
B4
330
1E
100
AcDbEntity
  8
0
100
AcDbLine
 10
11.07119999999999
 20
96.5651
 30
0.0
 11
11.1529
 21
95.8722
 31
0.0
  0
LINE
  5
B5
330
1E
100
AcDbEntity
  8
0
100
AcDbLine
 10
11.07119999999999
 20
96.5651
 30
0.0
 11
11.07119999999999
 21
99.18281064011591
 31
0.0
  0
LINE
  5
B6
330
1E
100
AcDbEntity
  8
0
100
AcDbLine
 10
11.3416
 20
95.18770000000001
 30
0.0
 11
11.3951
 21
95.0319
 31
0.0
  0
LINE
  5
B7
330
1E
100
AcDbEntity
  8
0
100
AcDbLine
 10
11.3951
 20
95.0319
 30
0.0
 11
11.6887
 21
94.36480000000001
 31
0.0
  0
LINE
  5
B9
330
1E
100
AcDbEntity
  8
0
100
AcDbLine
 10
13.7772
 20
93.84480000000001
 30
0.0
 11
14.2857
 21
93.25969999999999
 31
0.0
  0
LINE
  5
BA
330
1E
100
AcDbEntity
  8
0
100
AcDbLine
 10
13.081
 20
95.0964
 30
0.0
 11
13.3736
 21
94.45899999999999
 31
0.0
  0
LINE
  5
BB
330
1E
100
AcDbEntity
  8
0
100
AcDbLine
 10
12.91805972834709
 20
95.68158527077091
 30
0.0
 11
13.081
 21
95.0964
 31
0.0
  0
LINE
  5
BC
330
1E
100
AcDbEntity
  8
0
100
AcDbLine
 10
12.9060889952153
 20
95.74859999999999
 30
0.0
 11
14.323
 21
95.74859999999999
 31
0.0
  0
LINE
  5
BD
330
1E
100
AcDbEntity
  8
0
100
AcDbLine
 10
12.85099999999999
 20
96.057
 30
0.0
 11
12.963
 21
95.43000000000001
 31
0.0
  0
LINE
  5
BE
330
1E
100
AcDbEntity
  8
0
100
AcDbLine
 10
12.963
 20
95.43000000000001
 30
0.0
 11
13.1779
 21
94.81289999999999
 31
0.0
  0
LINE
  5
BF
330
1E
100
AcDbEntity
  8
0
100
AcDbLine
 10
13.3736
 20
94.45899999999999
 30
0.0
 11
13.7772
 21
93.84480000000001
 31
0.0
  0
LINE
  5
C0
330
1E
100
AcDbEntity
  8
0
100
AcDbLine
 10
14.323
 20
95.74859999999999
 30
0.0
 11
14.323
 21
97.15899999999999
 31
0.0
  0
LINE
  5
C1
330
1E
100
AcDbEntity
  8
0
100
AcDbLine
 10
14.323
 20
95.74859999999999
 30
0.0
 11
14.4915
 21
95.19859999999999
 31
0.0
  0
LINE
  5
C2
330
1E
100
AcDbEntity
  8
0
100
AcDbLine
 10
13.1779
 20
94.81289999999999
 30
0.0
 11
13.49569999999999
 21
94.21319999999999
 31
0.0
  0
LINE
  5
C3
330
1E
100
AcDbEntity
  8
0
100
AcDbLine
 10
13.49569999999999
 20
94.21319999999999
 30
0.0
 11
13.9104
 21
93.6349
 31
0.0
  0
LINE
  5
C4
330
1E
100
AcDbEntity
  8
0
100
AcDbLine
 10
11.6887
 20
94.36480000000001
 30
0.0
 11
12.0862
 21
93.71680000000001
 31
0.0
  0
LINE
  5
C5
330
1E
100
AcDbEntity
  8
0
100
AcDbLine
 10
12.0862
 20
93.71680000000001
 30
0.0
 11
12.58259999999999
 21
93.09560000000001
 31
0.0
  0
LINE
  5
CE
330
1E
100
AcDbEntity
  8
0
100
AcDbLine
 10
12.9205215586075
 20
97.15899999999999
 30
0.0
 11
14.323
 21
97.15899999999999
 31
0.0
  0
LINE
  5
CF
330
1E
100
AcDbEntity
  8
0
100
AcDbLine
 10
12.85099999999999
 20
96.77030000000002
 30
0.0
 11
12.963
 21
97.39650000000001
 31
0.0
  0
LINE
  5
D0
330
1E
100
AcDbEntity
  8
0
100
AcDbLine
 10
12.95831005741149
 20
97.3702781959918
 30
0.0
 11
12.9760745201506
 21
97.43398961990141
 31
0.0
  0
LINE
  5
D1
330
1E
100
AcDbEntity
  8
0
100
AcDbLine
 10
12.963
 20
97.39650000000001
 30
0.0
 11
13.1779
 21
98.0127
 31
0.0
  0
LINE
  5
D2
330
1E
100
AcDbEntity
  8
0
100
AcDbLine
 10
13.1779
 20
98.0127
 30
0.0
 11
13.49569999999999
 21
98.61409999999999
 31
0.0
  0
LINE
  5
D3
330
1E
100
AcDbEntity
  8
0
100
AcDbLine
 10
13.49569999999999
 20
98.61409999999999
 30
0.0
 11
13.9104
 21
99.19159999999999
 31
0.0
  0
LINE
  5
D4
330
1E
100
AcDbEntity
  8
0
100
AcDbLine
 10
13.9104
 20
99.19159999999999
 30
0.0
 11
14.4199
 21
99.7399
 31
0.0
  0
LINE
  5
D5
330
1E
100
AcDbEntity
  8
0
100
AcDbLine
 10
14.4199
 20
99.7399
 30
0.0
 11
15.0192
 21
100.255
 31
0.0
  0
LINE
  5
D6
330
1E
100
AcDbEntity
  8
0
100
AcDbLine
 10
14.323
 20
97.15899999999999
 30
0.0
 11
14.323
 21
95.74859999999999
 31
0.0
  0
LINE
  5
D7
330
1E
100
AcDbEntity
  8
0
100
AcDbLine
 10
14.323
 20
97.15899999999999
 30
0.0
 11
14.4915
 21
97.70890000000001
 31
0.0
  0
LINE
  5
D8
330
1E
100
AcDbEntity
  8
0
100
AcDbLine
 10
12.847
 20
96.41280000000001
 30
0.0
 11
12.85099999999999
 21
96.057
 31
0.0
  0
LINE
  5
D9
330
1E
100
AcDbEntity
  8
0
100
AcDbLine
 10
12.847
 20
96.41280000000001
 30
0.0
 11
12.85099999999999
 21
96.77030000000002
 31
0.0
  0
LINE
  5
DB
330
1E
100
AcDbEntity
  8
0
100
AcDbLine
 10
11.1529
 20
95.8722
 30
0.0
 11
11.3416
 21
95.18770000000001
 31
0.0
  0
LINE
  5
DC
330
1E
100
AcDbEntity
  8
0
100
AcDbLine
 10
13.9104
 20
93.6349
 30
0.0
 11
14.4199
 21
93.08669999999999
 31
0.0
  0
LINE
  5
DD
330
1E
100
AcDbEntity
  8
0
100
AcDbLine
 10
17.2389
 20
91.34059999999999
 30
0.0
 11
18.1651
 21
90.9933
 31
0.0
  0
LINE
  5
DE
330
1E
100
AcDbEntity
  8
0
100
AcDbLine
 10
20.7036
 20
91.28669999999999
 30
0.0
 11
21.6873
 21
91.1561
 31
0.0
  0
LINE
  5
DF
330
1E
100
AcDbEntity
  8
0
100
AcDbLine
 10
21.6873
 20
91.1561
 30
0.0
 11
22.68819999999999
 21
91.09439999999999
 31
0.0
  0
LINE
  5
E1
330
1E
100
AcDbEntity
  8
0
100
AcDbLine
 10
17.28119999999999
 20
91.2818
 30
0.0
 11
18.1651
 21
90.95220000000001
 31
0.0
  0
LINE
  5
E2
330
1E
100
AcDbEntity
  8
0
100
AcDbLine
 10
16.3782
 20
91.74570000000001
 30
0.0
 11
17.2389
 21
91.34059999999999
 31
0.0
  0
LINE
  5
E3
330
1E
100
AcDbEntity
  8
0
100
AcDbLine
 10
14.4915
 20
97.70890000000001
 30
0.0
 11
14.7528
 21
98.24550000000002
 31
0.0
  0
LINE
  5
E4
330
1E
100
AcDbEntity
  8
0
100
AcDbLine
 10
14.4700617056963
 20
97.63893609473241
 30
0.0
 11
14.6035
 21
97.29170000000001
 31
0.0
  0
LINE
  5
E5
330
1E
100
AcDbEntity
  8
0
100
AcDbLine
 10
14.7528
 20
98.24550000000002
 30
0.0
 11
15.1049
 21
98.76240000000001
 31
0.0
  0
LINE
  5
E6
330
1E
100
AcDbEntity
  8
0
100
AcDbLine
 10
14.6035
 20
97.29170000000001
 30
0.0
 11
14.93549999999999
 21
96.7246
 31
0.0
  0
LINE
  5
E7
330
1E
100
AcDbEntity
  8
0
100
AcDbLine
 10
15.0192
 20
100.255
 30
0.0
 11
15.69919999999999
 21
100.73
 31
0.0
  0
LINE
  5
E8
330
1E
100
AcDbEntity
  8
0
100
AcDbLine
 10
14.93549999999999
 20
96.7246
 30
0.0
 11
15.3693
 21
96.18400000000001
 31
0.0
  0
LINE
  5
E9
330
1E
100
AcDbEntity
  8
0
100
AcDbLine
 10
14.7528
 20
94.66219999999999
 30
0.0
 11
15.1049
 21
94.14509999999999
 31
0.0
  0
LINE
  5
EA
330
1E
100
AcDbEntity
  8
0
100
AcDbLine
 10
14.4915
 20
95.19859999999999
 30
0.0
 11
14.7528
 21
94.66219999999999
 31
0.0
  0
LINE
  5
EB
330
1E
100
AcDbEntity
  8
0
100
AcDbLine
 10
14.8931
 20
92.71129999999999
 30
0.0
 11
15.5933
 21
92.20399999999999
 31
0.0
  0
LINE
  5
EC
330
1E
100
AcDbEntity
  8
0
100
AcDbLine
 10
15.5449
 20
93.65349999999999
 30
0.0
 11
16.0655
 21
93.19209999999999
 31
0.0
  0
LINE
  5
ED
330
1E
100
AcDbEntity
  8
0
100
AcDbLine
 10
15.1049
 20
94.14509999999999
 30
0.0
 11
15.5449
 21
93.65349999999999
 31
0.0
  0
LINE
  5
EE
330
1E
100
AcDbEntity
  8
0
100
AcDbLine
 10
16.0655
 20
93.19209999999999
 30
0.0
 11
16.6617
 21
92.76670000000001
 31
0.0
  0
LINE
  5
EF
330
1E
100
AcDbEntity
  8
0
100
AcDbLine
 10
15.1049
 20
98.76240000000001
 30
0.0
 11
15.5449
 21
99.25310000000001
 31
0.0
  0
LINE
  5
F0
330
1E
100
AcDbEntity
  8
0
100
AcDbLine
 10
15.5449
 20
99.25310000000001
 30
0.0
 11
16.0655
 21
99.7145
 31
0.0
  0
LINE
  5
F1
330
1E
100
AcDbEntity
  8
0
100
AcDbLine
 10
16.0655
 20
99.7145
 30
0.0
 11
16.6617
 21
100.141
 31
0.0
  0
LINE
  5
F2
330
1E
100
AcDbEntity
  8
0
100
AcDbLine
 10
15.69919999999999
 20
100.73
 30
0.0
 11
16.4559
 21
101.162
 31
0.0
  0
LINE
  5
F3
330
1E
100
AcDbEntity
  8
0
100
AcDbLine
 10
15.3693
 20
96.18400000000001
 30
0.0
 11
15.9
 21
95.67629999999999
 31
0.0
  0
LINE
  5
F4
330
1E
100
AcDbEntity
  8
0
100
AcDbLine
 10
15.9
 20
95.67629999999999
 30
0.0
 11
16.5205
 21
95.2076
 31
0.0
  0
LINE
  5
F5
330
1E
100
AcDbEntity
  8
0
100
AcDbLine
 10
16.4559
 20
101.162
 30
0.0
 11
17.28119999999999
 21
101.5439999999999
 31
0.0
  0
LINE
  5
F6
330
1E
100
AcDbEntity
  8
0
100
AcDbLine
 10
15.5933
 20
92.20399999999999
 30
0.0
 11
16.3782
 21
91.74570000000001
 31
0.0
  0
LINE
  5
F7
330
1E
100
AcDbEntity
  8
0
100
AcDbLine
 10
15.0192
 20
92.5713
 30
0.0
 11
15.69919999999999
 21
92.0954
 31
0.0
  0
LINE
  5
F8
330
1E
100
AcDbEntity
  8
0
100
AcDbLine
 10
15.69919999999999
 20
92.0954
 30
0.0
 11
16.4559
 21
91.66439999999999
 31
0.0
  0
LINE
  5
F9
330
1E
100
AcDbEntity
  8
0
100
AcDbLine
 10
17.3287
 20
92.3806
 30
0.0
 11
18.0581
 21
92.0391
 31
0.0
  0
LINE
  5
FA
330
1E
100
AcDbEntity
  8
0
100
AcDbLine
 10
16.6617
 20
92.76670000000001
 30
0.0
 11
17.3287
 21
92.3806
 31
0.0
  0
LINE
  5
FB
330
1E
100
AcDbEntity
  8
0
100
AcDbLine
 10
18.0581
 20
92.0391
 30
0.0
 11
18.84209999999999
 21
91.74570000000001
 31
0.0
  0
LINE
  5
FC
330
1E
100
AcDbEntity
  8
0
100
AcDbLine
 10
18.84209999999999
 20
91.74570000000001
 30
0.0
 11
19.7511
 21
91.4836
 31
0.0
  0
LINE
  5
FD
330
1E
100
AcDbEntity
  8
0
100
AcDbLine
 10
19.7511
 20
91.4836
 30
0.0
 11
20.7036
 21
91.28669999999999
 31
0.0
  0
LINE
  5
FE
330
1E
100
AcDbEntity
  8
0
100
AcDbLine
 10
17.2237
 20
94.7841
 30
0.0
 11
18.00159999999999
 21
94.4109
 31
0.0
  0
LINE
  5
FF
330
1E
100
AcDbEntity
  8
0
100
AcDbLine
 10
16.5205
 20
95.2076
 30
0.0
 11
17.2237
 21
94.7841
 31
0.0
  0
LINE
  5
100
330
1E
100
AcDbEntity
  8
0
100
AcDbLine
 10
18.00159999999999
 20
94.4109
 30
0.0
 11
18.84209999999999
 21
94.09310000000001
 31
0.0
  0
LINE
  5
101
330
1E
100
AcDbEntity
  8
0
100
AcDbLine
 10
18.84209999999999
 20
94.09310000000001
 30
0.0
 11
19.736
 21
93.83509999999999
 31
0.0
  0
LINE
  5
102
330
1E
100
AcDbEntity
  8
0
100
AcDbLine
 10
19.736
 20
93.83509999999999
 30
0.0
 11
20.67229999999999
 21
93.63930000000001
 31
0.0
  0
LINE
  5
103
330
1E
100
AcDbEntity
  8
0
100
AcDbLine
 10
20.67229999999999
 20
93.63930000000001
 30
0.0
 11
21.63889999999999
 21
93.50799999999999
 31
0.0
  0
LINE
  5
104
330
1E
100
AcDbEntity
  8
0
100
AcDbLine
 10
21.63889999999999
 20
93.50799999999999
 30
0.0
 11
22.62259999999999
 21
93.44379999999999
 31
0.0
  0
LINE
  5
105
330
1E
100
AcDbEntity
  8
0
100
AcDbLine
 10
22.62259999999999
 20
93.44379999999999
 30
0.0
 11
23.0712
 21
93.44549999999999
 31
0.0
  0
LINE
  5
106
330
1E
100
AcDbEntity
  8
0
100
AcDbLine
 10
17.3287
 20
100.526
 30
0.0
 11
18.0581
 21
100.868
 31
0.0
  0
LINE
  5
107
330
1E
100
AcDbEntity
  8
0
100
AcDbLine
 10
16.6617
 20
100.141
 30
0.0
 11
17.3287
 21
100.526
 31
0.0
  0
LINE
  5
108
330
1E
100
AcDbEntity
  8
0
100
AcDbLine
 10
18.0581
 20
100.868
 30
0.0
 11
18.84209999999999
 21
101.161
 31
0.0
  0
LINE
  5
109
330
1E
100
AcDbEntity
  8
0
100
AcDbLine
 10
18.1651
 20
101.8739999999999
 30
0.0
 11
19.0993
 21
102.1479999999999
 31
0.0
  0
LINE
  5
10A
330
1E
100
AcDbEntity
  8
0
100
AcDbLine
 10
17.28119999999999
 20
101.5439999999999
 30
0.0
 11
18.1651
 21
101.8739999999999
 31
0.0
  0
LINE
  5
10B
330
1E
100
AcDbEntity
  8
0
100
AcDbLine
 10
18.84209999999999
 20
101.161
 30
0.0
 11
19.7511
 21
101.424
 31
0.0
  0
LINE
  5
10C
330
1E
100
AcDbEntity
  8
0
100
AcDbLine
 10
19.7511
 20
101.424
 30
0.0
 11
20.7036
 21
101.621
 31
0.0
  0
LINE
  5
10D
330
1E
100
AcDbEntity
  8
0
100
AcDbLine
 10
19.0993
 20
102.1479999999999
 30
0.0
 11
20.07499999999999
 21
102.363
 31
0.0
  0
LINE
  5
10E
330
1E
100
AcDbEntity
  8
0
100
AcDbLine
 10
20.7036
 20
101.621
 30
0.0
 11
21.6873
 21
101.751
 31
0.0
  0
LINE
  5
10F
330
1E
100
AcDbEntity
  8
0
100
AcDbLine
 10
21.6873
 20
101.751
 30
0.0
 11
22.68819999999999
 21
101.8129999999999
 31
0.0
  0
LINE
  5
111
330
1E
100
AcDbEntity
  8
0
100
AcDbLine
 10
22.68819999999999
 20
101.8129999999999
 30
0.0
 11
23.0712
 21
101.81
 31
0.0
  0
LINE
  5
113
330
1E
100
AcDbEntity
  8
0
100
AcDbLine
 10
20.07499999999999
 20
102.363
 30
0.0
 11
21.0799
 21
102.517
 31
0.0
  0
LINE
  5
114
330
1E
100
AcDbEntity
  8
0
100
AcDbLine
 10
16.4559
 20
91.66439999999999
 30
0.0
 11
17.28119999999999
 21
91.2818
 31
0.0
  0
LINE
  5
115
330
1E
100
AcDbEntity
  8
0
100
AcDbLine
 10
14.6217
 20
91.4409
 30
0.0
 11
15.4631
 21
90.97509999999999
 31
0.0
  0
LINE
  5
116
330
1E
100
AcDbEntity
  8
0
100
AcDbLine
 10
14.4199
 20
93.08669999999999
 30
0.0
 11
15.0192
 21
92.5713
 31
0.0
  0
LINE
  5
117
330
1E
100
AcDbEntity
  8
0
100
AcDbLine
 10
21.0799
 20
102.517
 30
0.0
 11
22.107
 21
102.6089999999999
 31
0.0
  0
LINE
  5
118
330
1E
100
AcDbEntity
  8
0
100
AcDbLine
 10
22.107
 20
102.6089999999999
 30
0.0
 11
23.0712
 21
102.634
 31
0.0
  0
LINE
  5
11D
330
1E
100
AcDbEntity
  8
0
100
AcDbLine
 10
6.066849999999999
 20
102.951
 30
0.0
 11
6.352619999999999
 21
102.0329999999999
 31
0.0
  0
LINE
  5
11E
330
1E
100
AcDbEntity
  8
0
100
AcDbLine
 10
5.796299999999999
 20
104.516
 30
0.0
 11
5.84449
 21
104.0399999999999
 31
0.0
  0
LINE
  5
11F
330
1E
100
AcDbEntity
  8
0
100
AcDbLine
 10
5.84449
 20
104.0399999999999
 30
0.0
 11
5.9282
 21
103.5709999999999
 31
0.0
  0
LINE
  5
120
330
1E
100
AcDbEntity
  8
0
100
AcDbLine
 10
5.9282
 20
103.5709999999999
 30
0.0
 11
5.962019999999999
 21
103.4079999999999
 31
0.0
  0
LINE
  5
121
330
1E
100
AcDbEntity
  8
0
100
AcDbLine
 10
5.962019999999999
 20
103.4079999999999
 30
0.0
 11
6.066849999999999
 21
102.951
 31
0.0
  0
LINE
  5
128
330
1E
100
AcDbEntity
  8
0
100
AcDbLine
 10
4.857819999999999
 20
122.4079999999999
 30
0.0
 11
4.98549
 21
122.67
 31
0.0
  0
LINE
  5
129
330
1E
100
AcDbEntity
  8
0
100
AcDbLine
 10
4.9466
 20
122.592
 30
0.0
 11
4.98549
 21
122.67
 31
0.0
  0
LINE
  5
12A
330
1E
100
AcDbEntity
  8
0
100
AcDbLine
 10
5.340589999999999
 20
122.936
 30
0.0
 11
5.633969999999999
 21
122.991
 31
0.0
  0
LINE
  5
12B
330
1E
100
AcDbEntity
  8
0
100
AcDbLine
 10
5.1791
 20
122.857
 30
0.0
 11
5.340589999999999
 21
122.936
 31
0.0
  0
LINE
  5
12C
330
1E
100
AcDbEntity
  8
0
100
AcDbLine
 10
4.98549
 20
122.67
 30
0.0
 11
5.1791
 21
122.857
 31
0.0
  0
LINE
  5
12D
330
1E
100
AcDbEntity
  8
0
100
AcDbLine
 10
4.81048
 20
122.197
 30
0.0
 11
4.857819999999999
 21
122.4079999999999
 31
0.0
  0
LINE
  5
12E
330
1E
100
AcDbEntity
  8
0
100
AcDbLine
 10
4.78088
 20
121.694
 30
0.0
 11
4.81048
 21
122.197
 31
0.0
  0
LINE
  5
12F
330
1E
100
AcDbEntity
  8
0
100
AcDbLine
 10
5.583239999999999
 20
111.5049999999999
 30
0.0
 11
5.63905
 21
111.166
 31
0.0
  0
LINE
  5
132
330
1E
100
AcDbEntity
  8
0
100
AcDbLine
 10
5.67853742110169
 20
110.82862390325
 30
0.0
 11
5.700759999999999
 21
110.0849999999999
 31
0.0
  0
LINE
  5
133
330
1E
100
AcDbEntity
  8
0
100
AcDbLine
 10
5.700759999999999
 20
110.0849999999999
 30
0.0
 11
5.715139999999999
 21
109.4889999999999
 31
0.0
  0
LINE
  5
135
330
1E
100
AcDbEntity
  8
0
100
AcDbLine
 10
5.715139999999999
 20
109.4889999999999
 30
0.0
 11
5.730349999999999
 21
108.662
 31
0.0
  0
LINE
  5
136
330
1E
100
AcDbEntity
  8
0
100
AcDbLine
 10
5.730349999999999
 20
108.662
 30
0.0
 11
5.74472
 21
107.691
 31
0.0
  0
LINE
  5
138
330
1E
100
AcDbEntity
  8
0
100
AcDbLine
 10
5.63905
 20
111.166
 30
0.0
 11
5.67853742110169
 21
110.82862390325
 31
0.0
  0
LINE
  5
139
330
1E
100
AcDbEntity
  8
0
100
AcDbLine
 10
5.633969999999999
 20
122.991
 30
0.0
 11
5.7312
 21
122.996
 31
0.0
  0
LINE
  5
13A
330
1E
100
AcDbEntity
  8
0
100
AcDbLine
 10
5.7312
 20
122.996
 30
0.0
 11
5.91467
 21
122.997
 31
0.0
  0
LINE
  5
13B
330
1E
100
AcDbEntity
  8
0
100
AcDbLine
 10
5.766709999999999
 20
105.536
 30
0.0
 11
5.77263
 21
105.217
 31
0.0
  0
LINE
  5
13C
330
1E
100
AcDbEntity
  8
0
100
AcDbLine
 10
5.77263
 20
105.217
 30
0.0
 11
5.796299999999999
 21
104.516
 31
0.0
  0
LINE
  5
13D
330
1E
100
AcDbEntity
  8
0
100
AcDbLine
 10
5.74472
 20
107.691
 30
0.0
 11
5.756559999999999
 21
106.682
 31
0.0
  0
LINE
  5
13E
330
1E
100
AcDbEntity
  8
0
100
AcDbLine
 10
5.756559999999999
 20
106.682
 30
0.0
 11
5.766709999999999
 21
105.536
 31
0.0
  0
LINE
  5
13F
330
1E
100
AcDbEntity
  8
0
100
AcDbLine
 10
6.27399
 20
122.996
 30
0.0
 11
6.782119999999999
 21
122.995
 31
0.0
  0
LINE
  5
140
330
1E
100
AcDbEntity
  8
0
100
AcDbLine
 10
5.91467
 20
122.997
 30
0.0
 11
6.27399
 21
122.996
 31
0.0
  0
LINE
  5
141
330
1E
100
AcDbEntity
  8
0
100
AcDbLine
 10
6.13343
 20
123.0
 30
0.0
 11
6.71301
 21
123.0
 31
0.0
  0
LINE
  5
142
330
1E
100
AcDbEntity
  8
0
100
AcDbLine
 10
5.742239999999999
 20
123.0
 30
0.0
 11
6.13343
 21
123.0
 31
0.0
  0
LINE
  5
143
330
1E
100
AcDbEntity
  8
0
100
AcDbLine
 10
5.603259999999999
 20
123.0
 30
0.0
 11
5.742239999999999
 21
123.0
 31
0.0
  0
LINE
  5
144
330
1E
100
AcDbEntity
  8
0
100
AcDbLine
 10
5.603259999999999
 20
123.0
 30
0.0
 11
5.868859999999999
 21
123.0
 31
0.0
  0
LINE
  5
145
330
1E
100
AcDbEntity
  8
0
100
AcDbLine
 10
5.51473
 20
123.0
 30
0.0
 11
5.603259999999999
 21
123.0
 31
0.0
  0
LINE
  5
146
330
1E
100
AcDbEntity
  8
0
100
AcDbLine
 10
5.068969999999999
 20
123.249
 30
0.0
 11
5.25736
 21
123.067
 31
0.0
  0
LINE
  5
147
330
1E
100
AcDbEntity
  8
0
100
AcDbLine
 10
5.25736
 20
123.067
 30
0.0
 11
5.51473
 21
123.0
 31
0.0
  0
LINE
  5
148
330
1E
100
AcDbEntity
  8
0
100
AcDbLine
 10
5.868859999999999
 20
123.0
 30
0.0
 11
6.307409999999999
 21
123.0
 31
0.0
  0
LINE
  5
149
330
1E
100
AcDbEntity
  8
0
100
AcDbLine
 10
6.782119999999999
 20
122.995
 30
0.0
 11
7.875319999999999
 21
122.994
 31
0.0
  0
LINE
  5
14B
330
1E
100
AcDbEntity
  8
0
100
AcDbLine
 10
6.91376
 20
123.0
 30
0.0
 11
7.684819999999999
 21
123.0
 31
0.0
  0
LINE
  5
14C
330
1E
100
AcDbEntity
  8
0
100
AcDbLine
 10
6.71301
 20
123.0
 30
0.0
 11
7.471719999999999
 21
123.0
 31
0.0
  0
LINE
  5
14D
330
1E
100
AcDbEntity
  8
0
100
AcDbLine
 10
9.33544
 20
122.9929999999999
 30
0.0
 11
10.8827
 21
122.994
 31
0.0
  0
LINE
  5
14E
330
1E
100
AcDbEntity
  8
0
100
AcDbLine
 10
7.875319999999999
 20
122.994
 30
0.0
 11
9.33544
 21
122.9929999999999
 31
0.0
  0
LINE
  5
14F
330
1E
100
AcDbEntity
  8
0
100
AcDbLine
 10
8.60927
 20
123.0
 30
0.0
 11
9.894019999999999
 21
123.0
 31
0.0
  0
LINE
  5
150
330
1E
100
AcDbEntity
  8
0
100
AcDbLine
 10
7.684819999999999
 20
123.0
 30
0.0
 11
8.60927
 21
123.0
 31
0.0
  0
LINE
  5
151
330
1E
100
AcDbEntity
  8
0
100
AcDbLine
 10
8.403369999999998
 20
123.0
 30
0.0
 11
9.49665
 21
123.0
 31
0.0
  0
LINE
  5
152
330
1E
100
AcDbEntity
  8
0
100
AcDbLine
 10
10.8827
 20
122.994
 30
0.0
 11
12.6717
 21
122.995
 31
0.0
  0
LINE
  5
153
330
1E
100
AcDbEntity
  8
0
100
AcDbLine
 10
9.894019999999999
 20
123.0
 30
0.0
 11
11.3641
 21
123.0
 31
0.0
  0
LINE
  5
154
330
1E
100
AcDbEntity
  8
0
100
AcDbLine
 10
12.6717
 20
122.995
 30
0.0
 11
14.6704
 21
122.996
 31
0.0
  0
LINE
  5
15B
330
1E
100
AcDbEntity
  8
0
100
AcDbLine
 10
14.6704
 20
122.996
 30
0.0
 11
16.8238
 21
122.9979999999999
 31
0.0
  0
LINE
  5
15C
330
1E
100
AcDbEntity
  8
0
100
AcDbLine
 10
14.77669999999999
 20
123.0
 30
0.0
 11
16.67089999999999
 21
123.0
 31
0.0
  0
LINE
  5
15D
330
1E
100
AcDbEntity
  8
0
100
AcDbLine
 10
11.3641
 20
123.0
 30
0.0
 11
12.9989
 21
123.0
 31
0.0
  0
LINE
  5
15E
330
1E
100
AcDbEntity
  8
0
100
AcDbLine
 10
12.9989
 20
123.0
 30
0.0
 11
14.77669999999999
 21
123.0
 31
0.0
  0
LINE
  5
161
330
1E
100
AcDbEntity
  8
0
100
AcDbLine
 10
16.8238
 20
122.9979999999999
 30
0.0
 11
19.1015
 21
122.9989999999999
 31
0.0
  0
LINE
  5
162
330
1E
100
AcDbEntity
  8
0
100
AcDbLine
 10
16.67089999999999
 20
123.0
 30
0.0
 11
18.6547
 21
123.0
 31
0.0
  0
LINE
  5
163
330
1E
100
AcDbEntity
  8
0
100
AcDbLine
 10
18.6547
 20
123.0
 30
0.0
 11
20.70019999999999
 21
123.0
 31
0.0
  0
LINE
  5
164
330
1E
100
AcDbEntity
  8
0
100
AcDbLine
 10
15.3892
 20
123.0
 30
0.0
 11
17.1733
 21
123.0
 31
0.0
  0
LINE
  5
165
330
1E
100
AcDbEntity
  8
0
100
AcDbLine
 10
17.1733
 20
123.0
 30
0.0
 11
19.0294
 21
123.0
 31
0.0
  0
LINE
  5
166
330
1E
100
AcDbEntity
  8
0
100
AcDbLine
 10
19.1015
 20
122.9989999999999
 30
0.0
 11
21.45779999999999
 21
123.0
 31
0.0
  0
LINE
  5
172
330
1E
100
AcDbEntity
  8
0
100
AcDbLine
 10
21.45779999999999
 20
123.0
 30
0.0
 11
22.9998
 21
123.0
 31
0.0
  0
LINE
  5
195
330
1E
100
AcDbEntity
  8
0
100
AcDbLine
 10
20.70019999999999
 20
123.0
 30
0.0
 11
21.45779999999999
 21
123.0
 31
0.0
  0
LINE
  5
196
330
1E
100
AcDbEntity
  8
0
100
AcDbLine
 10
20.9349
 20
123.0
 30
0.0
 11
21.45779999999999
 21
123.0
 31
0.0
  0
LINE
  5
197
330
1E
100
AcDbEntity
  8
0
100
AcDbLine
 10
19.0294
 20
123.0
 30
0.0
 11
20.9349
 21
123.0
 31
0.0
  0
LINE
  5
198
330
1E
100
AcDbEntity
  8
0
100
AcDbLine
 10
12.1187
 20
123.0
 30
0.0
 11
13.6968
 21
123.0
 31
0.0
  0
LINE
  5
199
330
1E
100
AcDbEntity
  8
0
100
AcDbLine
 10
9.49665
 20
123.0
 30
0.0
 11
10.73919999999999
 21
123.0
 31
0.0
  0
LINE
  5
19A
330
1E
100
AcDbEntity
  8
0
100
AcDbLine
 10
10.73919999999999
 20
123.0
 30
0.0
 11
12.1187
 21
123.0
 31
0.0
  0
LINE
  5
19B
330
1E
100
AcDbEntity
  8
0
100
AcDbLine
 10
7.471719999999999
 20
123.0
 30
0.0
 11
8.403369999999998
 21
123.0
 31
0.0
  0
LINE
  5
1A1
330
1E
100
AcDbEntity
  8
0
100
AcDbLine
 10
13.6968
 20
123.0
 30
0.0
 11
15.3892
 21
123.0
 31
0.0
  0
LINE
  5
1A2
330
1E
100
AcDbEntity
  8
0
100
AcDbLine
 10
6.307409999999999
 20
123.0
 30
0.0
 11
6.91376
 21
123.0
 31
0.0
  0
LINE
  5
1A8
330
1E
100
AcDbEntity
  8
0
100
AcDbLine
 10
5.0
 20
123.4979999999999
 30
0.0
 11
5.0
 21
151.8559999999999
 31
0.0
  0
LINE
  5
1A9
330
1E
100
AcDbEntity
  8
0
100
AcDbLine
 10
5.0
 20
123.4979999999999
 30
0.0
 11
5.068969999999999
 21
123.249
 31
0.0
  0
LINE
  5
1DB
330
1E
100
AcDbEntity
  8
0
100
AcDbLine
 10
20.4264
 20
132.0449999999999
 30
0.0
 11
20.4264
 21
132.317
 31
0.0
  0
LINE
  5
1DC
330
1E
100
AcDbEntity
  8
0
100
AcDbLine
 10
20.4264
 20
132.0449999999999
 30
0.0
 11
20.4264
 21
131.9429999999999
 31
0.0
  0
LINE
  5
1DD
330
1E
100
AcDbEntity
  8
0
100
AcDbLine
 10
20.4264
 20
131.9429999999999
 30
0.0
 11
20.4264
 21
132.0449999999999
 31
0.0
  0
LINE
  5
1E6
330
1E
100
AcDbEntity
  8
0
100
AcDbLine
 10
20.4264
 20
131.84
 30
0.0
 11
20.4264
 21
152.9952122333507
 31
0.0
  0
LINE
  5
1F4
330
1E
100
AcDbEntity
  8
0
100
AcDbLine
 10
20.4264
 20
133.2859999999999
 30
0.0
 11
20.4264
 21
133.9479999999999
 31
0.0
  0
LINE
  5
1F5
330
1E
100
AcDbEntity
  8
0
100
AcDbLine
 10
20.4264
 20
133.2859999999999
 30
0.0
 11
20.4264
 21
132.7359999999999
 31
0.0
  0
LINE
  5
1F6
330
1E
100
AcDbEntity
  8
0
100
AcDbLine
 10
20.4264
 20
132.7359999999999
 30
0.0
 11
20.4264
 21
133.2859999999999
 31
0.0
  0
LINE
  5
1F7
330
1E
100
AcDbEntity
  8
0
100
AcDbLine
 10
20.4264
 20
132.7359999999999
 30
0.0
 11
20.4264
 21
132.317
 31
0.0
  0
LINE
  5
1FB
330
1E
100
AcDbEntity
  8
0
100
AcDbLine
 10
20.4264
 20
132.317
 30
0.0
 11
20.4264
 21
132.7359999999999
 31
0.0
  0
LINE
  5
1FC
330
1E
100
AcDbEntity
  8
0
100
AcDbLine
 10
20.4264
 20
132.317
 30
0.0
 11
20.4264
 21
132.0449999999999
 31
0.0
  0
LINE
  5
1FD
330
1E
100
AcDbEntity
  8
0
100
AcDbLine
 10
20.4264
 20
135.898
 30
0.0
 11
20.4264
 21
137.856
 31
0.0
  0
LINE
  5
1FE
330
1E
100
AcDbEntity
  8
0
100
AcDbLine
 10
20.4264
 20
135.898
 30
0.0
 11
20.4264
 21
133.9479999999999
 31
0.0
  0
LINE
  5
1FF
330
1E
100
AcDbEntity
  8
0
100
AcDbLine
 10
20.4264
 20
133.9479999999999
 30
0.0
 11
20.4264
 21
135.898
 31
0.0
  0
LINE
  5
200
330
1E
100
AcDbEntity
  8
0
100
AcDbLine
 10
20.4264
 20
133.9479999999999
 30
0.0
 11
20.4264
 21
133.2859999999999
 31
0.0
  0
LINE
  5
201
330
1E
100
AcDbEntity
  8
0
100
AcDbLine
 10
20.4264
 20
147.6699999999999
 30
0.0
 11
20.4264
 21
145.712
 31
0.0
  0
LINE
  5
202
330
1E
100
AcDbEntity
  8
0
100
AcDbLine
 10
20.4264
 20
147.6699999999999
 30
0.0
 11
20.4264
 21
149.6199999999999
 31
0.0
  0
LINE
  5
203
330
1E
100
AcDbEntity
  8
0
100
AcDbLine
 10
20.4264
 20
149.6199999999999
 30
0.0
 11
20.4264
 21
147.6699999999999
 31
0.0
  0
LINE
  5
204
330
1E
100
AcDbEntity
  8
0
100
AcDbLine
 10
20.4264
 20
149.6199999999999
 30
0.0
 11
20.4264
 21
150.3829999999999
 31
0.0
  0
LINE
  5
205
330
1E
100
AcDbEntity
  8
0
100
AcDbLine
 10
20.4264
 20
143.75
 30
0.0
 11
20.4264
 21
145.712
 31
0.0
  0
LINE
  5
206
330
1E
100
AcDbEntity
  8
0
100
AcDbLine
 10
20.4264
 20
143.75
 30
0.0
 11
20.4264
 21
141.7839999999999
 31
0.0
  0
LINE
  5
207
330
1E
100
AcDbEntity
  8
0
100
AcDbLine
 10
20.4264
 20
141.7839999999999
 30
0.0
 11
20.4264
 21
143.75
 31
0.0
  0
LINE
  5
208
330
1E
100
AcDbEntity
  8
0
100
AcDbLine
 10
20.4264
 20
141.7839999999999
 30
0.0
 11
20.4264
 21
139.8179999999999
 31
0.0
  0
LINE
  5
209
330
1E
100
AcDbEntity
  8
0
100
AcDbLine
 10
20.4264
 20
145.712
 30
0.0
 11
20.4264
 21
147.6699999999999
 31
0.0
  0
LINE
  5
20A
330
1E
100
AcDbEntity
  8
0
100
AcDbLine
 10
20.4264
 20
145.712
 30
0.0
 11
20.4264
 21
143.75
 31
0.0
  0
LINE
  5
20B
330
1E
100
AcDbEntity
  8
0
100
AcDbLine
 10
20.4264
 20
139.8179999999999
 30
0.0
 11
20.4264
 21
141.7839999999999
 31
0.0
  0
LINE
  5
20C
330
1E
100
AcDbEntity
  8
0
100
AcDbLine
 10
20.4264
 20
139.8179999999999
 30
0.0
 11
20.4264
 21
137.856
 31
0.0
  0
LINE
  5
214
330
1E
100
AcDbEntity
  8
0
100
AcDbLine
 10
20.4264
 20
137.856
 30
0.0
 11
20.4264
 21
139.8179999999999
 31
0.0
  0
LINE
  5
215
330
1E
100
AcDbEntity
  8
0
100
AcDbLine
 10
20.4264
 20
137.856
 30
0.0
 11
20.4264
 21
135.898
 31
0.0
  0
LINE
  5
216
330
1E
100
AcDbEntity
  8
0
100
AcDbLine
 10
20.4264
 20
151.614
 30
0.0
 11
20.4264
 21
151.5109999999999
 31
0.0
  0
LINE
  5
217
330
1E
100
AcDbEntity
  8
0
100
AcDbLine
 10
20.4264
 20
151.5109999999999
 30
0.0
 11
20.4264
 21
151.614
 31
0.0
  0
LINE
  5
218
330
1E
100
AcDbEntity
  8
0
100
AcDbLine
 10
20.4264
 20
151.5109999999999
 30
0.0
 11
20.4264
 21
151.394
 31
0.0
  0
LINE
  5
219
330
1E
100
AcDbEntity
  8
0
100
AcDbLine
 10
20.4264
 20
151.239
 30
0.0
 11
20.4264
 21
151.394
 31
0.0
  0
LINE
  5
21A
330
1E
100
AcDbEntity
  8
0
100
AcDbLine
 10
20.4264
 20
151.239
 30
0.0
 11
20.4264
 21
150.8879999999999
 31
0.0
  0
LINE
  5
21B
330
1E
100
AcDbEntity
  8
0
100
AcDbLine
 10
20.4264
 20
151.394
 30
0.0
 11
20.4264
 21
151.5109999999999
 31
0.0
  0
LINE
  5
21C
330
1E
100
AcDbEntity
  8
0
100
AcDbLine
 10
20.4264
 20
151.394
 30
0.0
 11
20.4264
 21
151.239
 31
0.0
  0
LINE
  5
21F
330
1E
100
AcDbEntity
  8
0
100
AcDbLine
 10
20.4264
 20
150.8879999999999
 30
0.0
 11
20.4264
 21
150.3829999999999
 31
0.0
  0
LINE
  5
220
330
1E
100
AcDbEntity
  8
0
100
AcDbLine
 10
20.4264
 20
150.8879999999999
 30
0.0
 11
20.4264
 21
151.239
 31
0.0
  0
LINE
  5
221
330
1E
100
AcDbEntity
  8
0
100
AcDbLine
 10
20.4264
 20
150.3829999999999
 30
0.0
 11
20.4264
 21
149.6199999999999
 31
0.0
  0
LINE
  5
222
330
1E
100
AcDbEntity
  8
0
100
AcDbLine
 10
20.4264
 20
150.3829999999999
 30
0.0
 11
20.4264
 21
150.8879999999999
 31
0.0
  0
LINE
  5
231
330
1E
100
AcDbEntity
  8
0
100
AcDbLine
 10
20.4264
 20
152.9952122333507
 30
0.0
 11
20.4264
 21
131.84
 31
0.0
  0
LINE
  5
232
330
1E
100
AcDbEntity
  8
0
100
AcDbLine
 10
5.0
 20
151.8559999999999
 30
0.0
 11
5.0
 21
123.4979999999999
 31
0.0
  0
LINE
  5
233
330
1E
100
AcDbEntity
  8
0
100
AcDbLine
 10
5.0
 20
151.8559999999999
 30
0.0
 11
5.024709999999999
 21
152.256
 31
0.0
  0
LINE
  5
242
330
1E
100
AcDbEntity
  8
0
100
AcDbLine
 10
5.07309
 20
152.427
 30
0.0
 11
5.20795
 21
152.637
 31
0.0
  0
LINE
  5
243
330
1E
100
AcDbEntity
  8
0
100
AcDbLine
 10
5.024709999999999
 20
152.256
 30
0.0
 11
5.07309
 21
152.427
 31
0.0
  0
LINE
  5
244
330
1E
100
AcDbEntity
  8
0
100
AcDbLine
 10
5.20795
 20
152.637
 30
0.0
 11
5.414869999999999
 21
152.78
 31
0.0
  0
LINE
  5
245
330
1E
100
AcDbEntity
  8
0
100
AcDbLine
 10
5.414869999999999
 20
152.78
 30
0.0
 11
5.588849999999999
 21
152.835
 31
0.0
  0
LINE
  5
246
330
1E
100
AcDbEntity
  8
0
100
AcDbLine
 10
5.588849999999999
 20
152.835
 30
0.0
 11
5.65988
 21
152.835
 31
0.0
  0
LINE
  5
247
330
1E
100
AcDbEntity
  8
0
100
AcDbLine
 10
5.65988
 20
152.835
 30
0.0
 11
6.029449999999999
 21
152.868
 31
0.0
  0
LINE
  5
248
330
1E
100
AcDbEntity
  8
0
100
AcDbLine
 10
6.029449999999999
 20
152.868
 30
0.0
 11
6.12828
 21
152.868
 31
0.0
  0
LINE
  5
249
330
1E
100
AcDbEntity
  8
0
100
AcDbLine
 10
6.12828
 20
152.868
 30
0.0
 11
8.824419999999999
 21
152.906
 31
0.0
  0
LINE
  5
24F
330
1E
100
AcDbEntity
  8
0
100
AcDbLine
 10
8.824419999999999
 20
152.906
 30
0.0
 11
13.4879
 21
152.9579999999999
 31
0.0
  0
LINE
  5
250
330
1E
100
AcDbEntity
  8
0
100
AcDbLine
 10
21.0523
 20
152.9979999999999
 30
0.0
 11
21.18199999999999
 21
152.9979999999999
 31
0.0
  0
LINE
  5
251
330
1E
100
AcDbEntity
  8
0
100
AcDbLine
 10
20.973
 20
152.9979999999999
 30
0.0
 11
21.0523
 21
152.9979999999999
 31
0.0
  0
LINE
  5
252
330
1E
100
AcDbEntity
  8
0
100
AcDbLine
 10
21.0265
 20
152.9979999999999
 30
0.0
 11
21.2623
 21
152.9979999999999
 31
0.0
  0
LINE
  5
253
330
1E
100
AcDbEntity
  8
0
100
AcDbLine
 10
13.4879
 20
152.9579999999999
 30
0.0
 11
20.9462
 21
152.9979999999999
 31
0.0
  0
LINE
  5
254
330
1E
100
AcDbEntity
  8
0
100
AcDbLine
 10
20.9462
 20
152.9979999999999
 30
0.0
 11
21.0265
 21
152.9979999999999
 31
0.0
  0
LINE
  5
255
330
1E
100
AcDbEntity
  8
0
100
AcDbLine
 10
20.9462
 20
152.9979999999999
 30
0.0
 11
21.8357
 21
152.9979999999999
 31
0.0
  0
LINE
  5
256
330
1E
100
AcDbEntity
  8
0
100
AcDbLine
 10
20.9462
 20
152.9979999999999
 30
0.0
 11
23.0
 21
153.0
 31
0.0
  0
LINE
  5
257
330
1E
100
AcDbEntity
  8
0
100
AcDbLine
 10
21.2623
 20
152.9979999999999
 30
0.0
 11
21.57939999999999
 21
152.9979999999999
 31
0.0
  0
LINE
  5
258
330
1E
100
AcDbEntity
  8
0
100
AcDbLine
 10
21.57939999999999
 20
152.9979999999999
 30
0.0
 11
21.8357
 21
152.9979999999999
 31
0.0
  0
LINE
  5
259
330
1E
100
AcDbEntity
  8
0
100
AcDbLine
 10
21.57939999999999
 20
152.9979999999999
 30
0.0
 11
23.0
 21
152.9979999999999
 31
0.0
  0
LINE
  5
25A
330
1E
100
AcDbEntity
  8
0
100
AcDbLine
 10
21.18199999999999
 20
152.9979999999999
 30
0.0
 11
21.3591
 21
152.9979999999999
 31
0.0
  0
LINE
  5
25B
330
1E
100
AcDbEntity
  8
0
100
AcDbLine
 10
21.18199999999999
 20
152.9979999999999
 30
0.0
 11
23.0
 21
152.9979999999999
 31
0.0
  0
LINE
  5
25C
330
1E
100
AcDbEntity
  8
0
100
AcDbLine
 10
21.3591
 20
152.9979999999999
 30
0.0
 11
21.57939999999999
 21
152.9979999999999
 31
0.0
  0
LINE
  5
25D
330
1E
100
AcDbEntity
  8
0
100
AcDbLine
 10
21.3591
 20
152.9979999999999
 30
0.0
 11
23.0
 21
152.9979999999999
 31
0.0
  0
LINE
  5
25E
330
1E
100
AcDbEntity
  8
0
100
AcDbLine
 10
21.8357
 20
152.9979999999999
 30
0.0
 11
22.1229
 21
152.9979999999999
 31
0.0
  0
LINE
  5
25F
330
1E
100
AcDbEntity
  8
0
100
AcDbLine
 10
21.8357
 20
152.9979999999999
 30
0.0
 11
23.0
 21
152.9979999999999
 31
0.0
  0
LINE
  5
260
330
1E
100
AcDbEntity
  8
0
100
AcDbLine
 10
22.1229
 20
152.9979999999999
 30
0.0
 11
22.43279999999999
 21
152.9979999999999
 31
0.0
  0
LINE
  5
261
330
1E
100
AcDbEntity
  8
0
100
AcDbLine
 10
22.1229
 20
152.9979999999999
 30
0.0
 11
23.0
 21
152.9979999999999
 31
0.0
  0
LINE
  5
262
330
1E
100
AcDbEntity
  8
0
100
AcDbLine
 10
22.43279999999999
 20
152.9979999999999
 30
0.0
 11
23.0
 21
152.9979999999999
 31
0.0
  0
LINE
  5
414
330
1E
100
AcDbEntity
  8
0
100
AcDbLine
 10
23.89299999999999
 20
102.6089999999999
 30
0.0
 11
22.92879999999999
 21
102.634
 31
0.0
  0
LINE
  5
415
330
1E
100
AcDbEntity
  8
0
100
AcDbLine
 10
23.3118
 20
101.8129999999999
 30
0.0
 11
22.92879999999999
 21
101.81
 31
0.0
  0
LINE
  5
416
330
1E
100
AcDbEntity
  8
0
100
AcDbLine
 10
23.3774
 20
93.44379999999999
 30
0.0
 11
22.92879999999999
 21
93.44549999999999
 31
0.0
  0
LINE
  5
417
330
1E
100
AcDbEntity
  8
0
100
AcDbLine
 10
23.3118
 20
91.09439999999999
 30
0.0
 11
22.92879999999999
 21
91.09759999999999
 31
0.0
  0
LINE
  5
418
330
1E
100
AcDbEntity
  8
0
100
AcDbLine
 10
23.89299999999999
 20
90.21799999999998
 30
0.0
 11
22.92879999999999
 21
90.19249999999999
 31
0.0
  0
LINE
  5
419
330
1E
100
AcDbEntity
  8
0
100
AcDbLine
 10
23.8244
 20
90.2551
 30
0.0
 11
22.92879999999999
 21
90.23520000000001
 31
0.0
  0
LINE
  5
41A
330
1E
100
AcDbEntity
  8
0
100
AcDbLine
 10
23.20889999999999
 20
89.2856
 30
0.0
 11
22.92879999999999
 21
89.2896
 31
0.0
  0
LINE
  5
41B
330
1E
100
AcDbEntity
  8
0
100
AcDbLine
 10
41.99574
 20
4.99999999999999
 30
0.0
 11
41.77204999999999
 21
85.46969999999999
 31
0.0
  0
LINE
  5
41C
330
1E
100
AcDbEntity
  8
0
100
AcDbLine
 10
41.99574
 20
4.99999999999999
 30
0.0
 11
41.77204999999999
 21
85.46969999999999
 31
0.0
  0
LINE
  5
41D
330
1E
100
AcDbEntity
  8
0
100
AcDbLine
 10
38.55881999999999
 20
4.99999999999999
 30
0.0
 11
33.9588
 21
4.99999999999999
 31
0.0
  0
LINE
  5
41E
330
1E
100
AcDbEntity
  8
0
100
AcDbLine
 10
39.23529
 20
4.71154
 30
0.0
 11
34.4324
 21
4.71154
 31
0.0
  0
LINE
  5
41F
330
1E
100
AcDbEntity
  8
0
100
AcDbLine
 10
39.23529
 20
-0.000000000000005
 30
0.0
 11
34.4324
 21
-0.0000000000000048
 31
0.0
  0
LINE
  5
420
330
1E
100
AcDbEntity
  8
0
100
AcDbLine
 10
39.23529
 20
-0.000000000000007
 30
0.0
 11
34.4324
 21
-0.0000000000000072
 31
0.0
  0
LINE
  5
421
330
1E
100
AcDbEntity
  8
0
100
AcDbLine
 10
44.98529
 20
4.99999999999999
 30
0.0
 11
44.17353
 21
4.99999999999999
 31
0.0
  0
LINE
  5
422
330
1E
100
AcDbEntity
  8
0
100
AcDbLine
 10
45.18823499999999
 20
4.71153999999999
 30
0.0
 11
42.88824
 21
4.71154
 31
0.0
  0
LINE
  5
423
330
1E
100
AcDbEntity
  8
0
100
AcDbLine
 10
45.18823499999999
 20
4.71153999999999
 30
0.0
 11
42.88824
 21
4.71154
 31
0.0
  0
LINE
  5
424
330
1E
100
AcDbEntity
  8
0
100
AcDbLine
 10
45.18823499999999
 20
-0.0000000000000056
 30
0.0
 11
42.88824
 21
-0.0000000000000053
 31
0.0
  0
LINE
  5
425
330
1E
100
AcDbEntity
  8
0
100
AcDbLine
 10
45.18823499999999
 20
-0.0000000000000056
 30
0.0
 11
42.88824
 21
-0.0000000000000053
 31
0.0
  0
LINE
  5
426
330
1E
100
AcDbEntity
  8
0
100
AcDbLine
 10
45.18823499999999
 20
-0.0000000000000064
 30
0.0
 11
42.88824
 21
-0.0000000000000067
 31
0.0
  0
LINE
  5
427
330
1E
100
AcDbEntity
  8
0
100
AcDbLine
 10
45.18823499999999
 20
-0.0000000000000064
 30
0.0
 11
42.88824
 21
-0.0000000000000067
 31
0.0
  0
LINE
  5
428
330
1E
100
AcDbEntity
  8
0
100
AcDbLine
 10
46.0
 20
4.71153999999999
 30
0.0
 11
45.661765
 21
4.90384999999999
 31
0.0
  0
LINE
  5
429
330
1E
100
AcDbEntity
  8
0
100
AcDbLine
 10
46.0
 20
4.71153999999999
 30
0.0
 11
45.18823499999999
 21
4.71153999999999
 31
0.0
  0
LINE
  5
42A
330
1E
100
AcDbEntity
  8
0
100
AcDbLine
 10
46.0
 20
-0.000000000000006
 30
0.0
 11
45.18823499999999
 21
-0.0000000000000064
 31
0.0
  0
LINE
  5
42B
330
1E
100
AcDbEntity
  8
0
100
AcDbLine
 10
46.0
 20
-0.000000000000006
 30
0.0
 11
45.18823499999999
 21
-0.0000000000000056
 31
0.0
  0
LINE
  5
42C
330
1E
100
AcDbEntity
  8
0
100
AcDbLine
 10
46.0
 20
-0.000000000000006
 30
0.0
 11
46.0
 21
4.71153999999999
 31
0.0
  0
LINE
  5
42D
330
1E
100
AcDbEntity
  8
0
100
AcDbLine
 10
46.0
 20
4.71153999999999
 30
0.0
 11
46.0
 21
-0.0000000000000058
 31
0.0
  0
LINE
  5
42E
330
1E
100
AcDbEntity
  8
0
100
AcDbLine
 10
45.661765
 20
4.90384999999999
 30
0.0
 11
44.98529
 21
4.99999999999999
 31
0.0
  0
LINE
  5
42F
330
1E
100
AcDbEntity
  8
0
100
AcDbLine
 10
45.661765
 20
4.90384999999999
 30
0.0
 11
44.98529
 21
4.99999999999999
 31
0.0
  0
LINE
  5
430
330
1E
100
AcDbEntity
  8
0
100
AcDbLine
 10
42.88824
 20
-0.0000000000000053
 30
0.0
 11
39.23529
 21
-0.000000000000005
 31
0.0
  0
LINE
  5
431
330
1E
100
AcDbEntity
  8
0
100
AcDbLine
 10
42.88824
 20
4.71154
 30
0.0
 11
39.23529
 21
4.71154
 31
0.0
  0
LINE
  5
432
330
1E
100
AcDbEntity
  8
0
100
AcDbLine
 10
42.88824
 20
-0.0000000000000067
 30
0.0
 11
39.23529
 21
-0.000000000000007
 31
0.0
  0
LINE
  5
433
330
1E
100
AcDbEntity
  8
0
100
AcDbLine
 10
42.00882
 20
4.99999999999999
 30
0.0
 11
38.55881999999999
 21
4.99999999999999
 31
0.0
  0
LINE
  5
434
330
1E
100
AcDbEntity
  8
0
100
AcDbLine
 10
44.17353
 20
4.99999999999999
 30
0.0
 11
42.00882
 21
4.99999999999999
 31
0.0
  0
LINE
  5
435
330
1E
100
AcDbEntity
  8
0
100
AcDbLine
 10
34.4324
 20
4.71154
 30
0.0
 11
28.8853
 21
4.71154
 31
0.0
  0
LINE
  5
436
330
1E
100
AcDbEntity
  8
0
100
AcDbLine
 10
33.9588
 20
4.99999999999999
 30
0.0
 11
28.6824
 21
5.0
 31
0.0
  0
LINE
  5
437
330
1E
100
AcDbEntity
  8
0
100
AcDbLine
 10
34.4324
 20
-0.0000000000000048
 30
0.0
 11
28.8853
 21
-0.0000000000000046
 31
0.0
  0
LINE
  5
438
330
1E
100
AcDbEntity
  8
0
100
AcDbLine
 10
34.4324
 20
-0.0000000000000072
 30
0.0
 11
28.8853
 21
-0.0000000000000074
 31
0.0
  0
LINE
  5
439
330
1E
100
AcDbEntity
  8
0
100
AcDbLine
 10
28.8853
 20
4.71154
 30
0.0
 11
23.0
 21
4.71154
 31
0.0
  0
LINE
  5
43A
330
1E
100
AcDbEntity
  8
0
100
AcDbLine
 10
28.8853
 20
-0.0000000000000046
 30
0.0
 11
23.0
 21
-0.0000000000000046
 31
0.0
  0
LINE
  5
43B
330
1E
100
AcDbEntity
  8
0
100
AcDbLine
 10
28.8853
 20
-0.0000000000000074
 30
0.0
 11
23.0
 21
-0.0000000000000074
 31
0.0
  0
LINE
  5
43C
330
1E
100
AcDbEntity
  8
0
100
AcDbLine
 10
28.6824
 20
5.0
 30
0.0
 11
23.0
 21
5.0
 31
0.0
  0
LINE
  5
43D
330
1E
100
AcDbEntity
  8
0
100
AcDbLine
 10
39.87171999999999
 20
152.868
 30
0.0
 11
37.17557999999999
 21
152.906
 31
0.0
  0
LINE
  5
43E
330
1E
100
AcDbEntity
  8
0
100
AcDbLine
 10
37.59663
 20
123.0
 30
0.0
 11
36.50335
 21
123.0
 31
0.0
  0
LINE
  5
43F
330
1E
100
AcDbEntity
  8
0
100
AcDbLine
 10
37.39072999999999
 20
123.0
 30
0.0
 11
36.10598
 21
123.0
 31
0.0
  0
LINE
  5
440
330
1E
100
AcDbEntity
  8
0
100
AcDbLine
 10
38.12467999999999
 20
122.994
 30
0.0
 11
36.66456
 21
122.9929999999999
 31
0.0
  0
LINE
  5
441
330
1E
100
AcDbEntity
  8
0
100
AcDbLine
 10
37.55821
 20
98.34899999999999
 30
0.0
 11
37.05093
 21
97.80689999999999
 31
0.0
  0
LINE
  5
442
330
1E
100
AcDbEntity
  8
0
100
AcDbLine
 10
41.0
 20
151.8559999999999
 30
0.0
 11
41.0
 21
123.4979999999999
 31
0.0
  0
LINE
  5
443
330
1E
100
AcDbEntity
  8
0
100
AcDbLine
 10
41.0
 20
123.4979999999999
 30
0.0
 11
41.0
 21
151.8559999999999
 31
0.0
  0
LINE
  5
444
330
1E
100
AcDbEntity
  8
0
100
AcDbLine
 10
41.64268999999999
 20
96.044
 30
0.0
 11
41.21912
 21
121.694
 31
0.0
  0
LINE
  5
445
330
1E
100
AcDbEntity
  8
0
100
AcDbLine
 10
39.16461
 20
100.9379999999999
 30
0.0
 11
38.90166999999999
 21
100.3519999999999
 31
0.0
  0
LINE
  5
446
330
1E
100
AcDbEntity
  8
0
100
AcDbLine
 10
41.77204999999999
 20
85.46969999999999
 30
0.0
 11
41.72807999999999
 21
89.04899999999999
 31
0.0
  0
LINE
  5
447
330
1E
100
AcDbEntity
  8
0
100
AcDbLine
 10
41.66973999999999
 20
94.1253
 30
0.0
 11
41.64268999999999
 21
96.044
 31
0.0
  0
LINE
  5
448
330
1E
100
AcDbEntity
  8
0
100
AcDbLine
 10
41.72807999999999
 20
89.04899999999999
 30
0.0
 11
41.69342
 21
92.11539999999999
 31
0.0
  0
LINE
  5
449
330
1E
100
AcDbEntity
  8
0
100
AcDbLine
 10
41.69342
 20
92.11539999999999
 30
0.0
 11
41.66973999999999
 21
94.1253
 31
0.0
  0
LINE
  5
44A
330
1E
100
AcDbEntity
  8
0
100
AcDbLine
 10
38.50598999999999
 20
99.6643
 30
0.0
 11
38.112
 21
99.07
 31
0.0
  0
LINE
  5
44B
330
1E
100
AcDbEntity
  8
0
100
AcDbLine
 10
38.90166999999999
 20
100.3519999999999
 30
0.0
 11
38.50598999999999
 21
99.6643
 31
0.0
  0
LINE
  5
44C
330
1E
100
AcDbEntity
  8
0
100
AcDbLine
 10
37.89893999999999
 20
98.7794
 30
0.0
 11
37.67403999999999
 21
98.49070000000001
 31
0.0
  0
LINE
  5
44D
330
1E
100
AcDbEntity
  8
0
100
AcDbLine
 10
38.112
 20
99.07
 30
0.0
 11
37.89893999999999
 21
98.7794
 31
0.0
  0
LINE
  5
44E
330
1E
100
AcDbEntity
  8
0
100
AcDbLine
 10
37.67403999999999
 20
98.49070000000001
 30
0.0
 11
37.55821
 21
98.34899999999999
 31
0.0
  0
LINE
  5
44F
330
1E
100
AcDbEntity
  8
0
100
AcDbLine
 10
41.0
 20
123.4979999999999
 30
0.0
 11
40.93103
 21
123.249
 31
0.0
  0
LINE
  5
450
330
1E
100
AcDbEntity
  8
0
100
AcDbLine
 10
41.01450999999999
 20
122.67
 30
0.0
 11
40.82089999999999
 21
122.857
 31
0.0
  0
LINE
  5
451
330
1E
100
AcDbEntity
  8
0
100
AcDbLine
 10
41.21912
 20
121.694
 30
0.0
 11
41.18952
 21
122.197
 31
0.0
  0
LINE
  5
452
330
1E
100
AcDbEntity
  8
0
100
AcDbLine
 10
41.18952
 20
122.197
 30
0.0
 11
41.14218
 21
122.4079999999999
 31
0.0
  0
LINE
  5
453
330
1E
100
AcDbEntity
  8
0
100
AcDbLine
 10
41.05339999999999
 20
122.592
 30
0.0
 11
41.01450999999999
 21
122.67
 31
0.0
  0
LINE
  5
454
330
1E
100
AcDbEntity
  8
0
100
AcDbLine
 10
41.14218
 20
122.4079999999999
 30
0.0
 11
41.01450999999999
 21
122.67
 31
0.0
  0
LINE
  5
455
330
1E
100
AcDbEntity
  8
0
100
AcDbLine
 10
39.64738
 20
102.0329999999999
 30
0.0
 11
39.16461
 21
100.9379999999999
 31
0.0
  0
LINE
  5
456
330
1E
100
AcDbEntity
  8
0
100
AcDbLine
 10
40.24344
 20
106.682
 30
0.0
 11
40.23328999999999
 21
105.536
 31
0.0
  0
LINE
  5
457
330
1E
100
AcDbEntity
  8
0
100
AcDbLine
 10
40.07179999999999
 20
103.5709999999999
 30
0.0
 11
40.03797999999999
 21
103.4079999999999
 31
0.0
  0
LINE
  5
458
330
1E
100
AcDbEntity
  8
0
100
AcDbLine
 10
40.22737
 20
105.217
 30
0.0
 11
40.20369999999999
 21
104.516
 31
0.0
  0
LINE
  5
459
330
1E
100
AcDbEntity
  8
0
100
AcDbLine
 10
40.23328999999999
 20
105.536
 30
0.0
 11
40.22737
 21
105.217
 31
0.0
  0
LINE
  5
45A
330
1E
100
AcDbEntity
  8
0
100
AcDbLine
 10
40.15551
 20
104.0399999999999
 30
0.0
 11
40.07179999999999
 21
103.5709999999999
 31
0.0
  0
LINE
  5
45B
330
1E
100
AcDbEntity
  8
0
100
AcDbLine
 10
40.20369999999999
 20
104.516
 30
0.0
 11
40.15551
 21
104.0399999999999
 31
0.0
  0
LINE
  5
45C
330
1E
100
AcDbEntity
  8
0
100
AcDbLine
 10
40.03797999999999
 20
103.4079999999999
 30
0.0
 11
39.93314999999999
 21
102.951
 31
0.0
  0
LINE
  5
45D
330
1E
100
AcDbEntity
  8
0
100
AcDbLine
 10
39.93314999999999
 20
102.951
 30
0.0
 11
39.64738
 21
102.0329999999999
 31
0.0
  0
LINE
  5
45E
330
1E
100
AcDbEntity
  8
0
100
AcDbLine
 10
40.28486
 20
109.4889999999999
 30
0.0
 11
40.26964999999999
 21
108.662
 31
0.0
  0
LINE
  5
45F
330
1E
100
AcDbEntity
  8
0
100
AcDbLine
 10
40.25528
 20
107.691
 30
0.0
 11
40.24344
 21
106.682
 31
0.0
  0
LINE
  5
460
330
1E
100
AcDbEntity
  8
0
100
AcDbLine
 10
40.26964999999999
 20
108.662
 30
0.0
 11
40.25528
 21
107.691
 31
0.0
  0
LINE
  5
461
330
1E
100
AcDbEntity
  8
0
100
AcDbLine
 10
40.29924
 20
110.0849999999999
 30
0.0
 11
40.28486
 21
109.4889999999999
 31
0.0
  0
LINE
  5
462
330
1E
100
AcDbEntity
  8
0
100
AcDbLine
 10
40.3214625788983
 20
110.82862390325
 30
0.0
 11
40.29924
 21
110.0849999999999
 31
0.0
  0
LINE
  5
463
330
1E
100
AcDbEntity
  8
0
100
AcDbLine
 10
40.36095
 20
111.166
 30
0.0
 11
40.3214625788983
 21
110.82862390325
 31
0.0
  0
LINE
  5
464
330
1E
100
AcDbEntity
  8
0
100
AcDbLine
 10
40.41675999999999
 20
111.5049999999999
 30
0.0
 11
40.36095
 21
111.166
 31
0.0
  0
LINE
  5
465
330
1E
100
AcDbEntity
  8
0
100
AcDbLine
 10
39.69259
 20
123.0
 30
0.0
 11
39.08623999999999
 21
123.0
 31
0.0
  0
LINE
  5
466
330
1E
100
AcDbEntity
  8
0
100
AcDbLine
 10
39.28699
 20
123.0
 30
0.0
 11
38.52828
 21
123.0
 31
0.0
  0
LINE
  5
467
330
1E
100
AcDbEntity
  8
0
100
AcDbLine
 10
39.21788
 20
122.995
 30
0.0
 11
38.12467999999999
 21
122.994
 31
0.0
  0
LINE
  5
468
330
1E
100
AcDbEntity
  8
0
100
AcDbLine
 10
40.13114
 20
123.0
 30
0.0
 11
39.69259
 21
123.0
 31
0.0
  0
LINE
  5
469
330
1E
100
AcDbEntity
  8
0
100
AcDbLine
 10
40.25775999999999
 20
123.0
 30
0.0
 11
39.86656999999999
 21
123.0
 31
0.0
  0
LINE
  5
46A
330
1E
100
AcDbEntity
  8
0
100
AcDbLine
 10
40.08532999999999
 20
122.997
 30
0.0
 11
39.72601
 21
122.996
 31
0.0
  0
LINE
  5
46B
330
1E
100
AcDbEntity
  8
0
100
AcDbLine
 10
40.74264
 20
123.067
 30
0.0
 11
40.48526999999999
 21
123.0
 31
0.0
  0
LINE
  5
46C
330
1E
100
AcDbEntity
  8
0
100
AcDbLine
 10
40.65941
 20
122.936
 30
0.0
 11
40.36603
 21
122.991
 31
0.0
  0
LINE
  5
46D
330
1E
100
AcDbEntity
  8
0
100
AcDbLine
 10
40.93103
 20
123.249
 30
0.0
 11
40.74264
 21
123.067
 31
0.0
  0
LINE
  5
46E
330
1E
100
AcDbEntity
  8
0
100
AcDbLine
 10
40.82089999999999
 20
122.857
 30
0.0
 11
40.65941
 21
122.936
 31
0.0
  0
LINE
  5
46F
330
1E
100
AcDbEntity
  8
0
100
AcDbLine
 10
40.48526999999999
 20
123.0
 30
0.0
 11
40.39674
 21
123.0
 31
0.0
  0
LINE
  5
470
330
1E
100
AcDbEntity
  8
0
100
AcDbLine
 10
40.39674
 20
123.0
 30
0.0
 11
40.13114
 21
123.0
 31
0.0
  0
LINE
  5
471
330
1E
100
AcDbEntity
  8
0
100
AcDbLine
 10
40.39674
 20
123.0
 30
0.0
 11
40.25775999999999
 21
123.0
 31
0.0
  0
LINE
  5
472
330
1E
100
AcDbEntity
  8
0
100
AcDbLine
 10
40.2688
 20
122.996
 30
0.0
 11
40.08532999999999
 21
122.997
 31
0.0
  0
LINE
  5
473
330
1E
100
AcDbEntity
  8
0
100
AcDbLine
 10
40.36603
 20
122.991
 30
0.0
 11
40.2688
 21
122.996
 31
0.0
  0
LINE
  5
474
330
1E
100
AcDbEntity
  8
0
100
AcDbLine
 10
39.86656999999999
 20
123.0
 30
0.0
 11
39.28699
 21
123.0
 31
0.0
  0
LINE
  5
475
330
1E
100
AcDbEntity
  8
0
100
AcDbLine
 10
39.72601
 20
122.996
 30
0.0
 11
39.21788
 21
122.995
 31
0.0
  0
LINE
  5
476
330
1E
100
AcDbEntity
  8
0
100
AcDbLine
 10
38.52828
 20
123.0
 30
0.0
 11
37.59663
 21
123.0
 31
0.0
  0
LINE
  5
477
330
1E
100
AcDbEntity
  8
0
100
AcDbLine
 10
38.31517999999999
 20
123.0
 30
0.0
 11
37.39072999999999
 21
123.0
 31
0.0
  0
LINE
  5
478
330
1E
100
AcDbEntity
  8
0
100
AcDbLine
 10
39.08623999999999
 20
123.0
 30
0.0
 11
38.31517999999999
 21
123.0
 31
0.0
  0
LINE
  5
479
330
1E
100
AcDbEntity
  8
0
100
AcDbLine
 10
40.97529
 20
152.256
 30
0.0
 11
40.92691
 21
152.427
 31
0.0
  0
LINE
  5
47A
330
1E
100
AcDbEntity
  8
0
100
AcDbLine
 10
41.0
 20
151.8559999999999
 30
0.0
 11
40.97529
 21
152.256
 31
0.0
  0
LINE
  5
47B
330
1E
100
AcDbEntity
  8
0
100
AcDbLine
 10
40.34011999999999
 20
152.835
 30
0.0
 11
39.97055
 21
152.868
 31
0.0
  0
LINE
  5
47C
330
1E
100
AcDbEntity
  8
0
100
AcDbLine
 10
40.58513
 20
152.78
 30
0.0
 11
40.41115
 21
152.835
 31
0.0
  0
LINE
  5
47D
330
1E
100
AcDbEntity
  8
0
100
AcDbLine
 10
40.79205
 20
152.637
 30
0.0
 11
40.58513
 21
152.78
 31
0.0
  0
LINE
  5
47E
330
1E
100
AcDbEntity
  8
0
100
AcDbLine
 10
40.92691
 20
152.427
 30
0.0
 11
40.79205
 21
152.637
 31
0.0
  0
LINE
  5
47F
330
1E
100
AcDbEntity
  8
0
100
AcDbLine
 10
40.41115
 20
152.835
 30
0.0
 11
40.34011999999999
 21
152.835
 31
0.0
  0
LINE
  5
480
330
1E
100
AcDbEntity
  8
0
100
AcDbLine
 10
39.97055
 20
152.868
 30
0.0
 11
39.87171999999999
 21
152.868
 31
0.0
  0
LINE
  5
481
330
1E
100
AcDbEntity
  8
0
100
AcDbLine
 10
30.6108
 20
123.0
 30
0.0
 11
28.8267
 21
123.0
 31
0.0
  0
LINE
  5
482
330
1E
100
AcDbEntity
  8
0
100
AcDbLine
 10
31.2233
 20
123.0
 30
0.0
 11
29.3291
 21
123.0
 31
0.0
  0
LINE
  5
483
330
1E
100
AcDbEntity
  8
0
100
AcDbLine
 10
31.3296
 20
122.996
 30
0.0
 11
29.1762
 21
122.9979999999999
 31
0.0
  0
LINE
  5
484
330
1E
100
AcDbEntity
  8
0
100
AcDbLine
 10
30.3008
 20
92.0954
 30
0.0
 11
29.5441
 21
91.66439999999999
 31
0.0
  0
LINE
  5
485
330
1E
100
AcDbEntity
  8
0
100
AcDbLine
 10
30.4067
 20
92.20399999999999
 30
0.0
 11
29.6218
 21
91.74570000000001
 31
0.0
  0
LINE
  5
486
330
1E
100
AcDbEntity
  8
0
100
AcDbLine
 10
30.63069999999999
 20
96.18400000000001
 30
0.0
 11
30.1
 21
95.67629999999999
 31
0.0
  0
LINE
  5
487
330
1E
100
AcDbEntity
  8
0
100
AcDbLine
 10
30.3008
 20
100.73
 30
0.0
 11
29.5441
 21
101.162
 31
0.0
  0
LINE
  5
488
330
1E
100
AcDbEntity
  8
0
100
AcDbLine
 10
30.4551
 20
99.25310000000001
 30
0.0
 11
29.9345
 21
99.7145
 31
0.0
  0
LINE
  5
489
330
1E
100
AcDbEntity
  8
0
100
AcDbLine
 10
30.4551
 20
93.65349999999999
 30
0.0
 11
29.9345
 21
93.19209999999999
 31
0.0
  0
LINE
  5
48A
330
1E
100
AcDbEntity
  8
0
100
AcDbLine
 10
30.4431
 20
90.92629999999999
 30
0.0
 11
29.5441
 21
90.5173
 31
0.0
  0
LINE
  5
48B
330
1E
100
AcDbEntity
  8
0
100
AcDbLine
 10
30.9808
 20
100.255
 30
0.0
 11
30.3008
 21
100.73
 31
0.0
  0
LINE
  5
48C
330
1E
100
AcDbEntity
  8
0
100
AcDbLine
 10
33.9138
 20
93.71680000000001
 30
0.0
 11
33.4174
 21
93.09560000000001
 31
0.0
  0
LINE
  5
48D
330
1E
100
AcDbEntity
  8
0
100
AcDbLine
 10
36.31536
 20
97.04160000000001
 30
0.0
 11
34.7725482704586
 21
95.60176725558518
 31
0.0
  0
LINE
  5
48E
330
1E
100
AcDbEntity
  8
0
100
AcDbLine
 10
37.05093
 20
97.80689999999999
 30
0.0
 11
36.31536
 21
97.04160000000001
 31
0.0
  0
LINE
  5
48F
330
1E
100
AcDbEntity
  8
0
100
AcDbLine
 10
34.6049
 20
95.0319
 30
0.0
 11
34.3113
 21
94.36480000000001
 31
0.0
  0
LINE
  5
490
330
1E
100
AcDbEntity
  8
0
100
AcDbLine
 10
34.3113
 20
94.36480000000001
 30
0.0
 11
33.9138
 21
93.71680000000001
 31
0.0
  0
LINE
  5
491
330
1E
100
AcDbEntity
  8
0
100
AcDbLine
 10
34.84709999999999
 20
95.8722
 30
0.0
 11
34.6584
 21
95.18770000000001
 31
0.0
  0
LINE
  5
492
330
1E
100
AcDbEntity
  8
0
100
AcDbLine
 10
34.9288
 20
96.5651
 30
0.0
 11
34.9288
 21
99.18281064011591
 31
0.0
  0
LINE
  5
493
330
1E
100
AcDbEntity
  8
0
100
AcDbLine
 10
34.9288
 20
99.18281064011591
 30
0.0
 11
34.9288
 21
96.9087
 31
0.0
  0
LINE
  5
494
330
1E
100
AcDbEntity
  8
0
100
AcDbLine
 10
34.9288
 20
99.18281064011591
 30
0.0
 11
34.9288
 21
96.5651
 31
0.0
  0
LINE
  5
495
330
1E
100
AcDbEntity
  8
0
100
AcDbLine
 10
34.9288
 20
96.9087
 30
0.0
 11
34.9288
 21
99.18281064011591
 31
0.0
  0
LINE
  5
496
330
1E
100
AcDbEntity
  8
0
100
AcDbLine
 10
34.9288
 20
96.5651
 30
0.0
 11
34.84709999999999
 21
95.8722
 31
0.0
  0
LINE
  5
497
330
1E
100
AcDbEntity
  8
0
100
AcDbLine
 10
34.9288
 20
96.9087
 30
0.0
 11
34.92199999999999
 21
96.7364
 31
0.0
  0
LINE
  5
498
330
1E
100
AcDbEntity
  8
0
100
AcDbLine
 10
34.6584
 20
95.18770000000001
 30
0.0
 11
34.6049
 21
95.0319
 31
0.0
  0
LINE
  5
499
330
1E
100
AcDbEntity
  8
0
100
AcDbLine
 10
32.0896
 20
93.6349
 30
0.0
 11
31.5801
 21
93.08669999999999
 31
0.0
  0
LINE
  5
49A
330
1E
100
AcDbEntity
  8
0
100
AcDbLine
 10
32.0896
 20
99.19159999999999
 30
0.0
 11
31.5801
 21
99.7399
 31
0.0
  0
LINE
  5
49B
330
1E
100
AcDbEntity
  8
0
100
AcDbLine
 10
33.0794784413925
 20
97.15899999999999
 30
0.0
 11
31.67699999999999
 21
97.15899999999999
 31
0.0
  0
LINE
  5
49C
330
1E
100
AcDbEntity
  8
0
100
AcDbLine
 10
33.0939110047847
 20
95.74859999999999
 30
0.0
 11
31.67699999999999
 21
95.74859999999999
 31
0.0
  0
LINE
  5
49D
330
1E
100
AcDbEntity
  8
0
100
AcDbLine
 10
32.2228
 20
93.84480000000001
 30
0.0
 11
31.7143
 21
93.25969999999999
 31
0.0
  0
LINE
  5
49E
330
1E
100
AcDbEntity
  8
0
100
AcDbLine
 10
32.1431
 20
91.9524
 30
0.0
 11
31.3783
 21
91.4409
 31
0.0
  0
LINE
  5
49F
330
1E
100
AcDbEntity
  8
0
100
AcDbLine
 10
32.8221
 20
94.81289999999999
 30
0.0
 11
32.5043
 21
94.21319999999999
 31
0.0
  0
LINE
  5
4A0
330
1E
100
AcDbEntity
  8
0
100
AcDbLine
 10
32.6264
 20
94.45899999999999
 30
0.0
 11
32.2228
 21
93.84480000000001
 31
0.0
  0
LINE
  5
4A1
330
1E
100
AcDbEntity
  8
0
100
AcDbLine
 10
33.4174
 20
93.09560000000001
 30
0.0
 11
32.8252
 21
92.506
 31
0.0
  0
LINE
  5
4A2
330
1E
100
AcDbEntity
  8
0
100
AcDbLine
 10
32.5043
 20
94.21319999999999
 30
0.0
 11
32.0896
 21
93.6349
 31
0.0
  0
LINE
  5
4A3
330
1E
100
AcDbEntity
  8
0
100
AcDbLine
 10
32.8252
 20
92.506
 30
0.0
 11
32.1431
 21
91.9524
 31
0.0
  0
LINE
  5
4A4
330
1E
100
AcDbEntity
  8
0
100
AcDbLine
 10
33.037
 20
97.39650000000001
 30
0.0
 11
32.8221
 21
98.0127
 31
0.0
  0
LINE
  5
4A5
330
1E
100
AcDbEntity
  8
0
100
AcDbLine
 10
33.037
 20
95.43000000000001
 30
0.0
 11
32.8221
 21
94.81289999999999
 31
0.0
  0
LINE
  5
4A6
330
1E
100
AcDbEntity
  8
0
100
AcDbLine
 10
32.919
 20
95.0964
 30
0.0
 11
32.6264
 21
94.45899999999999
 31
0.0
  0
LINE
  5
4A7
330
1E
100
AcDbEntity
  8
0
100
AcDbLine
 10
33.0416899425885
 20
97.3702781959918
 30
0.0
 11
33.0239254798494
 21
97.43398961990141
 31
0.0
  0
LINE
  5
4A8
330
1E
100
AcDbEntity
  8
0
100
AcDbLine
 10
33.153
 20
96.41280000000001
 30
0.0
 11
33.149
 21
96.77030000000002
 31
0.0
  0
LINE
  5
4A9
330
1E
100
AcDbEntity
  8
0
100
AcDbLine
 10
33.153
 20
96.41280000000001
 30
0.0
 11
33.149
 21
96.057
 31
0.0
  0
LINE
  5
4AA
330
1E
100
AcDbEntity
  8
0
100
AcDbLine
 10
33.149
 20
96.77030000000002
 30
0.0
 11
33.037
 21
97.39650000000001
 31
0.0
  0
LINE
  5
4AB
330
1E
100
AcDbEntity
  8
0
100
AcDbLine
 10
33.149
 20
96.057
 30
0.0
 11
33.037
 21
95.43000000000001
 31
0.0
  0
LINE
  5
4AC
330
1E
100
AcDbEntity
  8
0
100
AcDbLine
 10
33.08194027165289
 20
95.68158527077091
 30
0.0
 11
32.919
 21
95.0964
 31
0.0
  0
LINE
  5
4AD
330
1E
100
AcDbEntity
  8
0
100
AcDbLine
 10
32.5043
 20
98.61409999999999
 30
0.0
 11
32.0896
 21
99.19159999999999
 31
0.0
  0
LINE
  5
4AE
330
1E
100
AcDbEntity
  8
0
100
AcDbLine
 10
32.8221
 20
98.0127
 30
0.0
 11
32.5043
 21
98.61409999999999
 31
0.0
  0
LINE
  5
4AF
330
1E
100
AcDbEntity
  8
0
100
AcDbLine
 10
31.24719999999999
 20
94.66219999999999
 30
0.0
 11
30.8951
 21
94.14509999999999
 31
0.0
  0
LINE
  5
4B0
330
1E
100
AcDbEntity
  8
0
100
AcDbLine
 10
31.5801
 20
93.08669999999999
 30
0.0
 11
30.9808
 21
92.5713
 31
0.0
  0
LINE
  5
4B1
330
1E
100
AcDbEntity
  8
0
100
AcDbLine
 10
31.3783
 20
91.4409
 30
0.0
 11
30.5369
 21
90.97509999999999
 31
0.0
  0
LINE
  5
4B2
330
1E
100
AcDbEntity
  8
0
100
AcDbLine
 10
31.10689999999999
 20
92.71129999999999
 30
0.0
 11
30.4067
 21
92.20399999999999
 31
0.0
  0
LINE
  5
4B3
330
1E
100
AcDbEntity
  8
0
100
AcDbLine
 10
31.7143
 20
93.25969999999999
 30
0.0
 11
31.10689999999999
 21
92.71129999999999
 31
0.0
  0
LINE
  5
4B4
330
1E
100
AcDbEntity
  8
0
100
AcDbLine
 10
30.5369
 20
90.97509999999999
 30
0.0
 11
30.4431
 21
90.92629999999999
 31
0.0
  0
LINE
  5
4B5
330
1E
100
AcDbEntity
  8
0
100
AcDbLine
 10
30.9808
 20
92.5713
 30
0.0
 11
30.3008
 21
92.0954
 31
0.0
  0
LINE
  5
4B6
330
1E
100
AcDbEntity
  8
0
100
AcDbLine
 10
30.8951
 20
94.14509999999999
 30
0.0
 11
30.4551
 21
93.65349999999999
 31
0.0
  0
LINE
  5
4B7
330
1E
100
AcDbEntity
  8
0
100
AcDbLine
 10
31.3965
 20
97.29170000000001
 30
0.0
 11
31.0645
 21
96.7246
 31
0.0
  0
LINE
  5
4B8
330
1E
100
AcDbEntity
  8
0
100
AcDbLine
 10
31.24719999999999
 20
98.24550000000002
 30
0.0
 11
30.8951
 21
98.76240000000001
 31
0.0
  0
LINE
  5
4B9
330
1E
100
AcDbEntity
  8
0
100
AcDbLine
 10
31.5801
 20
99.7399
 30
0.0
 11
30.9808
 21
100.255
 31
0.0
  0
LINE
  5
4BA
330
1E
100
AcDbEntity
  8
0
100
AcDbLine
 10
31.5299382943037
 20
97.63893609473241
 30
0.0
 11
31.3965
 21
97.29170000000001
 31
0.0
  0
LINE
  5
4BB
330
1E
100
AcDbEntity
  8
0
100
AcDbLine
 10
31.67699999999999
 20
97.15899999999999
 30
0.0
 11
31.5085
 21
97.70890000000001
 31
0.0
  0
LINE
  5
4BC
330
1E
100
AcDbEntity
  8
0
100
AcDbLine
 10
31.67699999999999
 20
95.74859999999999
 30
0.0
 11
31.5085
 21
95.19859999999999
 31
0.0
  0
LINE
  5
4BD
330
1E
100
AcDbEntity
  8
0
100
AcDbLine
 10
31.67699999999999
 20
97.15899999999999
 30
0.0
 11
31.67699999999999
 21
95.74859999999999
 31
0.0
  0
LINE
  5
4BE
330
1E
100
AcDbEntity
  8
0
100
AcDbLine
 10
31.67699999999999
 20
95.74859999999999
 30
0.0
 11
31.67699999999999
 21
97.15899999999999
 31
0.0
  0
LINE
  5
4BF
330
1E
100
AcDbEntity
  8
0
100
AcDbLine
 10
31.5085
 20
95.19859999999999
 30
0.0
 11
31.24719999999999
 21
94.66219999999999
 31
0.0
  0
LINE
  5
4C0
330
1E
100
AcDbEntity
  8
0
100
AcDbLine
 10
31.5085
 20
97.70890000000001
 30
0.0
 11
31.24719999999999
 21
98.24550000000002
 31
0.0
  0
LINE
  5
4C1
330
1E
100
AcDbEntity
  8
0
100
AcDbLine
 10
31.0645
 20
96.7246
 30
0.0
 11
30.63069999999999
 21
96.18400000000001
 31
0.0
  0
LINE
  5
4C2
330
1E
100
AcDbEntity
  8
0
100
AcDbLine
 10
30.8951
 20
98.76240000000001
 30
0.0
 11
30.4551
 21
99.25310000000001
 31
0.0
  0
LINE
  5
4C3
330
1E
100
AcDbEntity
  8
0
100
AcDbLine
 10
33.88129999999999
 20
123.0
 30
0.0
 11
32.3032
 21
123.0
 31
0.0
  0
LINE
  5
4C4
330
1E
100
AcDbEntity
  8
0
100
AcDbLine
 10
34.63589999999999
 20
123.0
 30
0.0
 11
33.0011
 21
123.0
 31
0.0
  0
LINE
  5
4C5
330
1E
100
AcDbEntity
  8
0
100
AcDbLine
 10
35.1173
 20
122.994
 30
0.0
 11
33.32829999999999
 21
122.995
 31
0.0
  0
LINE
  5
4C6
330
1E
100
AcDbEntity
  8
0
100
AcDbLine
 10
36.50335
 20
123.0
 30
0.0
 11
35.2608
 21
123.0
 31
0.0
  0
LINE
  5
4C7
330
1E
100
AcDbEntity
  8
0
100
AcDbLine
 10
36.10598
 20
123.0
 30
0.0
 11
34.63589999999999
 21
123.0
 31
0.0
  0
LINE
  5
4C8
330
1E
100
AcDbEntity
  8
0
100
AcDbLine
 10
36.66456
 20
122.9929999999999
 30
0.0
 11
35.1173
 21
122.994
 31
0.0
  0
LINE
  5
4C9
330
1E
100
AcDbEntity
  8
0
100
AcDbLine
 10
35.2608
 20
123.0
 30
0.0
 11
33.88129999999999
 21
123.0
 31
0.0
  0
LINE
  5
4CA
330
1E
100
AcDbEntity
  8
0
100
AcDbLine
 10
32.3032
 20
123.0
 30
0.0
 11
30.6108
 21
123.0
 31
0.0
  0
LINE
  5
4CB
330
1E
100
AcDbEntity
  8
0
100
AcDbLine
 10
33.0011
 20
123.0
 30
0.0
 11
31.2233
 21
123.0
 31
0.0
  0
LINE
  5
4CC
330
1E
100
AcDbEntity
  8
0
100
AcDbLine
 10
33.32829999999999
 20
122.995
 30
0.0
 11
31.3296
 21
122.996
 31
0.0
  0
LINE
  5
4CD
330
1E
100
AcDbEntity
  8
0
100
AcDbLine
 10
29.3383
 20
100.141
 30
0.0
 11
28.67129999999999
 21
100.526
 31
0.0
  0
LINE
  5
4CE
330
1E
100
AcDbEntity
  8
0
100
AcDbLine
 10
27.1579
 20
94.09310000000001
 30
0.0
 11
26.264
 21
93.83509999999999
 31
0.0
  0
LINE
  5
4CF
330
1E
100
AcDbEntity
  8
0
100
AcDbLine
 10
27.1579
 20
91.74570000000001
 30
0.0
 11
26.2489
 21
91.4836
 31
0.0
  0
LINE
  5
4D0
330
1E
100
AcDbEntity
  8
0
100
AcDbLine
 10
26.9007
 20
90.67829999999998
 30
0.0
 11
25.925
 21
90.4638
 31
0.0
  0
LINE
  5
4D1
330
1E
100
AcDbEntity
  8
0
100
AcDbLine
 10
26.8845
 20
90.7155
 30
0.0
 11
25.8927
 21
90.4977
 31
0.0
  0
LINE
  5
4D2
330
1E
100
AcDbEntity
  8
0
100
AcDbLine
 10
27.5746
 20
89.86310000000001
 30
0.0
 11
26.5223
 21
89.62470000000001
 31
0.0
  0
LINE
  5
4D3
330
1E
100
AcDbEntity
  8
0
100
AcDbLine
 10
28.77629999999999
 20
94.7841
 30
0.0
 11
27.9984
 21
94.4109
 31
0.0
  0
LINE
  5
4D4
330
1E
100
AcDbEntity
  8
0
100
AcDbLine
 10
28.67129999999999
 20
92.3806
 30
0.0
 11
27.9419
 21
92.0391
 31
0.0
  0
LINE
  5
4D5
330
1E
100
AcDbEntity
  8
0
100
AcDbLine
 10
28.7188
 20
91.2818
 30
0.0
 11
27.8349
 21
90.95220000000001
 31
0.0
  0
LINE
  5
4D6
330
1E
100
AcDbEntity
  8
0
100
AcDbLine
 10
28.7611
 20
91.34059999999999
 30
0.0
 11
27.8349
 21
90.9933
 31
0.0
  0
LINE
  5
4D7
330
1E
100
AcDbEntity
  8
0
100
AcDbLine
 10
28.5846
 20
90.16200000000001
 30
0.0
 11
27.5746
 21
89.86310000000001
 31
0.0
  0
LINE
  5
4D8
330
1E
100
AcDbEntity
  8
0
100
AcDbLine
 10
29.5441
 20
91.66439999999999
 30
0.0
 11
28.7188
 21
91.2818
 31
0.0
  0
LINE
  5
4D9
330
1E
100
AcDbEntity
  8
0
100
AcDbLine
 10
29.3383
 20
92.76670000000001
 30
0.0
 11
28.67129999999999
 21
92.3806
 31
0.0
  0
LINE
  5
4DA
330
1E
100
AcDbEntity
  8
0
100
AcDbLine
 10
29.6218
 20
91.74570000000001
 30
0.0
 11
28.7611
 21
91.34059999999999
 31
0.0
  0
LINE
  5
4DB
330
1E
100
AcDbEntity
  8
0
100
AcDbLine
 10
29.5441
 20
90.5173
 30
0.0
 11
28.5846
 21
90.16200000000001
 31
0.0
  0
LINE
  5
4DC
330
1E
100
AcDbEntity
  8
0
100
AcDbLine
 10
29.9345
 20
93.19209999999999
 30
0.0
 11
29.3383
 21
92.76670000000001
 31
0.0
  0
LINE
  5
4DD
330
1E
100
AcDbEntity
  8
0
100
AcDbLine
 10
29.4795
 20
95.2076
 30
0.0
 11
28.77629999999999
 21
94.7841
 31
0.0
  0
LINE
  5
4DE
330
1E
100
AcDbEntity
  8
0
100
AcDbLine
 10
30.1
 20
95.67629999999999
 30
0.0
 11
29.4795
 21
95.2076
 31
0.0
  0
LINE
  5
4DF
330
1E
100
AcDbEntity
  8
0
100
AcDbLine
 10
29.9345
 20
99.7145
 30
0.0
 11
29.3383
 21
100.141
 31
0.0
  0
LINE
  5
4E0
330
1E
100
AcDbEntity
  8
0
100
AcDbLine
 10
27.9984
 20
94.4109
 30
0.0
 11
27.1579
 21
94.09310000000001
 31
0.0
  0
LINE
  5
4E1
330
1E
100
AcDbEntity
  8
0
100
AcDbLine
 10
27.9419
 20
92.0391
 30
0.0
 11
27.1579
 21
91.74570000000001
 31
0.0
  0
LINE
  5
4E2
330
1E
100
AcDbEntity
  8
0
100
AcDbLine
 10
27.8349
 20
90.9933
 30
0.0
 11
26.8845
 21
90.7155
 31
0.0
  0
LINE
  5
4E3
330
1E
100
AcDbEntity
  8
0
100
AcDbLine
 10
27.8349
 20
90.95220000000001
 30
0.0
 11
26.9007
 21
90.67829999999998
 31
0.0
  0
LINE
  5
4E4
330
1E
100
AcDbEntity
  8
0
100
AcDbLine
 10
25.3277
 20
93.63930000000001
 30
0.0
 11
24.3611
 21
93.50799999999999
 31
0.0
  0
LINE
  5
4E5
330
1E
100
AcDbEntity
  8
0
100
AcDbLine
 10
25.2964
 20
91.28669999999999
 30
0.0
 11
24.3127
 21
91.1561
 31
0.0
  0
LINE
  5
4E6
330
1E
100
AcDbEntity
  8
0
100
AcDbLine
 10
24.9201
 20
90.30939999999999
 30
0.0
 11
23.89299999999999
 21
90.21799999999998
 31
0.0
  0
LINE
  5
4E7
330
1E
100
AcDbEntity
  8
0
100
AcDbLine
 10
24.8697
 20
90.34460000000001
 30
0.0
 11
23.8244
 21
90.2551
 31
0.0
  0
LINE
  5
4E8
330
1E
100
AcDbEntity
  8
0
100
AcDbLine
 10
25.4367
 20
89.44819999999999
 30
0.0
 11
24.3289
 21
89.3349
 31
0.0
  0
LINE
  5
4E9
330
1E
100
AcDbEntity
  8
0
100
AcDbLine
 10
26.264
 20
93.83509999999999
 30
0.0
 11
25.3277
 21
93.63930000000001
 31
0.0
  0
LINE
  5
4EA
330
1E
100
AcDbEntity
  8
0
100
AcDbLine
 10
26.2489
 20
91.4836
 30
0.0
 11
25.2964
 21
91.28669999999999
 31
0.0
  0
LINE
  5
4EB
330
1E
100
AcDbEntity
  8
0
100
AcDbLine
 10
25.925
 20
90.4638
 30
0.0
 11
24.9201
 21
90.30939999999999
 31
0.0
  0
LINE
  5
4EC
330
1E
100
AcDbEntity
  8
0
100
AcDbLine
 10
25.8927
 20
90.4977
 30
0.0
 11
24.8697
 21
90.34460000000001
 31
0.0
  0
LINE
  5
4ED
330
1E
100
AcDbEntity
  8
0
100
AcDbLine
 10
26.5223
 20
89.62470000000001
 30
0.0
 11
25.4367
 21
89.44819999999999
 31
0.0
  0
LINE
  5
4EE
330
1E
100
AcDbEntity
  8
0
100
AcDbLine
 10
24.3611
 20
93.50799999999999
 30
0.0
 11
23.3774
 21
93.44379999999999
 31
0.0
  0
LINE
  5
4EF
330
1E
100
AcDbEntity
  8
0
100
AcDbLine
 10
24.3127
 20
91.1561
 30
0.0
 11
23.3118
 21
91.09439999999999
 31
0.0
  0
LINE
  5
4F0
330
1E
100
AcDbEntity
  8
0
100
AcDbLine
 10
24.3289
 20
89.3349
 30
0.0
 11
23.20889999999999
 21
89.2856
 31
0.0
  0
LINE
  5
4F1
330
1E
100
AcDbEntity
  8
0
100
AcDbLine
 10
26.9706
 20
123.0
 30
0.0
 11
25.0651
 21
123.0
 31
0.0
  0
LINE
  5
4F2
330
1E
100
AcDbEntity
  8
0
100
AcDbLine
 10
26.89849999999999
 20
122.9989999999999
 30
0.0
 11
24.5422
 21
123.0
 31
0.0
  0
LINE
  5
4F3
330
1E
100
AcDbEntity
  8
0
100
AcDbLine
 10
27.3453
 20
123.0
 30
0.0
 11
25.2998
 21
123.0
 31
0.0
  0
LINE
  5
4F4
330
1E
100
AcDbEntity
  8
0
100
AcDbLine
 10
26.9007
 20
102.1479999999999
 30
0.0
 11
25.925
 21
102.363
 31
0.0
  0
LINE
  5
4F5
330
1E
100
AcDbEntity
  8
0
100
AcDbLine
 10
27.1579
 20
101.161
 30
0.0
 11
26.2489
 21
101.424
 31
0.0
  0
LINE
  5
4F6
330
1E
100
AcDbEntity
  8
0
100
AcDbLine
 10
28.7188
 20
101.5439999999999
 30
0.0
 11
27.8349
 21
101.8739999999999
 31
0.0
  0
LINE
  5
4F7
330
1E
100
AcDbEntity
  8
0
100
AcDbLine
 10
28.67129999999999
 20
100.526
 30
0.0
 11
27.9419
 21
100.868
 31
0.0
  0
LINE
  5
4F8
330
1E
100
AcDbEntity
  8
0
100
AcDbLine
 10
29.5441
 20
101.162
 30
0.0
 11
28.7188
 21
101.5439999999999
 31
0.0
  0
LINE
  5
4F9
330
1E
100
AcDbEntity
  8
0
100
AcDbLine
 10
27.8349
 20
101.8739999999999
 30
0.0
 11
26.9007
 21
102.1479999999999
 31
0.0
  0
LINE
  5
4FA
330
1E
100
AcDbEntity
  8
0
100
AcDbLine
 10
27.9419
 20
100.868
 30
0.0
 11
27.1579
 21
101.161
 31
0.0
  0
LINE
  5
4FB
330
1E
100
AcDbEntity
  8
0
100
AcDbLine
 10
28.8267
 20
123.0
 30
0.0
 11
26.9706
 21
123.0
 31
0.0
  0
LINE
  5
4FC
330
1E
100
AcDbEntity
  8
0
100
AcDbLine
 10
29.3291
 20
123.0
 30
0.0
 11
27.3453
 21
123.0
 31
0.0
  0
LINE
  5
4FD
330
1E
100
AcDbEntity
  8
0
100
AcDbLine
 10
29.1762
 20
122.9979999999999
 30
0.0
 11
26.89849999999999
 21
122.9989999999999
 31
0.0
  0
LINE
  5
4FE
330
1E
100
AcDbEntity
  8
0
100
AcDbLine
 10
24.9201
 20
102.517
 30
0.0
 11
23.89299999999999
 21
102.6089999999999
 31
0.0
  0
LINE
  5
4FF
330
1E
100
AcDbEntity
  8
0
100
AcDbLine
 10
25.2964
 20
101.621
 30
0.0
 11
24.3127
 21
101.751
 31
0.0
  0
LINE
  5
500
330
1E
100
AcDbEntity
  8
0
100
AcDbLine
 10
25.925
 20
102.363
 30
0.0
 11
24.9201
 21
102.517
 31
0.0
  0
LINE
  5
501
330
1E
100
AcDbEntity
  8
0
100
AcDbLine
 10
26.2489
 20
101.424
 30
0.0
 11
25.2964
 21
101.621
 31
0.0
  0
LINE
  5
502
330
1E
100
AcDbEntity
  8
0
100
AcDbLine
 10
24.3127
 20
101.751
 30
0.0
 11
23.3118
 21
101.8129999999999
 31
0.0
  0
LINE
  5
503
330
1E
100
AcDbEntity
  8
0
100
AcDbLine
 10
25.0651
 20
123.0
 30
0.0
 11
24.5422
 21
123.0
 31
0.0
  0
LINE
  5
504
330
1E
100
AcDbEntity
  8
0
100
AcDbLine
 10
25.2998
 20
123.0
 30
0.0
 11
24.5422
 21
123.0
 31
0.0
  0
LINE
  5
505
330
1E
100
AcDbEntity
  8
0
100
AcDbLine
 10
24.5422
 20
123.0
 30
0.0
 11
23.00019999999999
 21
123.0
 31
0.0
  0
LINE
  5
506
330
1E
100
AcDbEntity
  8
0
100
AcDbLine
 10
32.5121
 20
152.9579999999999
 30
0.0
 11
25.0538
 21
152.9979999999999
 31
0.0
  0
LINE
  5
507
330
1E
100
AcDbEntity
  8
0
100
AcDbLine
 10
37.17557999999999
 20
152.906
 30
0.0
 11
32.5121
 21
152.9579999999999
 31
0.0
  0
LINE
  5
508
330
1E
100
AcDbEntity
  8
0
100
AcDbLine
 10
25.5736
 20
152.9952122333507
 30
0.0
 11
25.5736
 21
131.84
 31
0.0
  0
LINE
  5
509
330
1E
100
AcDbEntity
  8
0
100
AcDbLine
 10
25.5736
 20
149.6199999999999
 30
0.0
 11
25.5736
 21
147.6699999999999
 31
0.0
  0
LINE
  5
50A
330
1E
100
AcDbEntity
  8
0
100
AcDbLine
 10
25.5736
 20
147.6699999999999
 30
0.0
 11
25.5736
 21
149.6199999999999
 31
0.0
  0
LINE
  5
50B
330
1E
100
AcDbEntity
  8
0
100
AcDbLine
 10
25.5736
 20
131.84
 30
0.0
 11
25.5736
 21
152.9952122333507
 31
0.0
  0
LINE
  5
50C
330
1E
100
AcDbEntity
  8
0
100
AcDbLine
 10
25.5736
 20
137.856
 30
0.0
 11
25.5736
 21
135.898
 31
0.0
  0
LINE
  5
50D
330
1E
100
AcDbEntity
  8
0
100
AcDbLine
 10
25.5736
 20
135.898
 30
0.0
 11
25.5736
 21
137.856
 31
0.0
  0
LINE
  5
50E
330
1E
100
AcDbEntity
  8
0
100
AcDbLine
 10
25.5736
 20
132.7359999999999
 30
0.0
 11
25.5736
 21
133.2859999999999
 31
0.0
  0
LINE
  5
50F
330
1E
100
AcDbEntity
  8
0
100
AcDbLine
 10
25.5736
 20
133.2859999999999
 30
0.0
 11
25.5736
 21
132.7359999999999
 31
0.0
  0
LINE
  5
510
330
1E
100
AcDbEntity
  8
0
100
AcDbLine
 10
25.5736
 20
132.317
 30
0.0
 11
25.5736
 21
132.0449999999999
 31
0.0
  0
LINE
  5
511
330
1E
100
AcDbEntity
  8
0
100
AcDbLine
 10
25.5736
 20
132.317
 30
0.0
 11
25.5736
 21
132.7359999999999
 31
0.0
  0
LINE
  5
512
330
1E
100
AcDbEntity
  8
0
100
AcDbLine
 10
25.5736
 20
132.7359999999999
 30
0.0
 11
25.5736
 21
132.317
 31
0.0
  0
LINE
  5
513
330
1E
100
AcDbEntity
  8
0
100
AcDbLine
 10
25.5736
 20
131.9429999999999
 30
0.0
 11
25.5736
 21
132.0449999999999
 31
0.0
  0
LINE
  5
514
330
1E
100
AcDbEntity
  8
0
100
AcDbLine
 10
25.5736
 20
132.0449999999999
 30
0.0
 11
25.5736
 21
131.9429999999999
 31
0.0
  0
LINE
  5
515
330
1E
100
AcDbEntity
  8
0
100
AcDbLine
 10
25.5736
 20
132.0449999999999
 30
0.0
 11
25.5736
 21
132.317
 31
0.0
  0
LINE
  5
516
330
1E
100
AcDbEntity
  8
0
100
AcDbLine
 10
25.5736
 20
133.9479999999999
 30
0.0
 11
25.5736
 21
133.2859999999999
 31
0.0
  0
LINE
  5
517
330
1E
100
AcDbEntity
  8
0
100
AcDbLine
 10
25.5736
 20
133.9479999999999
 30
0.0
 11
25.5736
 21
135.898
 31
0.0
  0
LINE
  5
518
330
1E
100
AcDbEntity
  8
0
100
AcDbLine
 10
25.5736
 20
135.898
 30
0.0
 11
25.5736
 21
133.9479999999999
 31
0.0
  0
LINE
  5
519
330
1E
100
AcDbEntity
  8
0
100
AcDbLine
 10
25.5736
 20
133.2859999999999
 30
0.0
 11
25.5736
 21
133.9479999999999
 31
0.0
  0
LINE
  5
51A
330
1E
100
AcDbEntity
  8
0
100
AcDbLine
 10
25.5736
 20
141.7839999999999
 30
0.0
 11
25.5736
 21
143.75
 31
0.0
  0
LINE
  5
51B
330
1E
100
AcDbEntity
  8
0
100
AcDbLine
 10
25.5736
 20
143.75
 30
0.0
 11
25.5736
 21
141.7839999999999
 31
0.0
  0
LINE
  5
51C
330
1E
100
AcDbEntity
  8
0
100
AcDbLine
 10
25.5736
 20
137.856
 30
0.0
 11
25.5736
 21
139.8179999999999
 31
0.0
  0
LINE
  5
51D
330
1E
100
AcDbEntity
  8
0
100
AcDbLine
 10
25.5736
 20
139.8179999999999
 30
0.0
 11
25.5736
 21
137.856
 31
0.0
  0
LINE
  5
51E
330
1E
100
AcDbEntity
  8
0
100
AcDbLine
 10
25.5736
 20
139.8179999999999
 30
0.0
 11
25.5736
 21
141.7839999999999
 31
0.0
  0
LINE
  5
51F
330
1E
100
AcDbEntity
  8
0
100
AcDbLine
 10
25.5736
 20
141.7839999999999
 30
0.0
 11
25.5736
 21
139.8179999999999
 31
0.0
  0
LINE
  5
520
330
1E
100
AcDbEntity
  8
0
100
AcDbLine
 10
25.5736
 20
145.712
 30
0.0
 11
25.5736
 21
143.75
 31
0.0
  0
LINE
  5
521
330
1E
100
AcDbEntity
  8
0
100
AcDbLine
 10
25.5736
 20
143.75
 30
0.0
 11
25.5736
 21
145.712
 31
0.0
  0
LINE
  5
522
330
1E
100
AcDbEntity
  8
0
100
AcDbLine
 10
25.5736
 20
145.712
 30
0.0
 11
25.5736
 21
147.6699999999999
 31
0.0
  0
LINE
  5
523
330
1E
100
AcDbEntity
  8
0
100
AcDbLine
 10
25.5736
 20
147.6699999999999
 30
0.0
 11
25.5736
 21
145.712
 31
0.0
  0
LINE
  5
524
330
1E
100
AcDbEntity
  8
0
100
AcDbLine
 10
24.818
 20
152.9979999999999
 30
0.0
 11
23.0
 21
152.9979999999999
 31
0.0
  0
LINE
  5
525
330
1E
100
AcDbEntity
  8
0
100
AcDbLine
 10
24.818
 20
152.9979999999999
 30
0.0
 11
24.6409
 21
152.9979999999999
 31
0.0
  0
LINE
  5
526
330
1E
100
AcDbEntity
  8
0
100
AcDbLine
 10
25.0538
 20
152.9979999999999
 30
0.0
 11
23.0
 21
153.0
 31
0.0
  0
LINE
  5
527
330
1E
100
AcDbEntity
  8
0
100
AcDbLine
 10
25.0538
 20
152.9979999999999
 30
0.0
 11
24.1643
 21
152.9979999999999
 31
0.0
  0
LINE
  5
528
330
1E
100
AcDbEntity
  8
0
100
AcDbLine
 10
24.9735
 20
152.9979999999999
 30
0.0
 11
24.7377
 21
152.9979999999999
 31
0.0
  0
LINE
  5
529
330
1E
100
AcDbEntity
  8
0
100
AcDbLine
 10
25.5736
 20
150.8879999999999
 30
0.0
 11
25.5736
 21
151.239
 31
0.0
  0
LINE
  5
52A
330
1E
100
AcDbEntity
  8
0
100
AcDbLine
 10
25.5736
 20
151.239
 30
0.0
 11
25.5736
 21
150.8879999999999
 31
0.0
  0
LINE
  5
52B
330
1E
100
AcDbEntity
  8
0
100
AcDbLine
 10
25.5736
 20
150.3829999999999
 30
0.0
 11
25.5736
 21
150.8879999999999
 31
0.0
  0
LINE
  5
52C
330
1E
100
AcDbEntity
  8
0
100
AcDbLine
 10
25.5736
 20
150.3829999999999
 30
0.0
 11
25.5736
 21
149.6199999999999
 31
0.0
  0
LINE
  5
52D
330
1E
100
AcDbEntity
  8
0
100
AcDbLine
 10
25.5736
 20
150.8879999999999
 30
0.0
 11
25.5736
 21
150.3829999999999
 31
0.0
  0
LINE
  5
52E
330
1E
100
AcDbEntity
  8
0
100
AcDbLine
 10
25.5736
 20
149.6199999999999
 30
0.0
 11
25.5736
 21
150.3829999999999
 31
0.0
  0
LINE
  5
52F
330
1E
100
AcDbEntity
  8
0
100
AcDbLine
 10
25.5736
 20
151.394
 30
0.0
 11
25.5736
 21
151.239
 31
0.0
  0
LINE
  5
530
330
1E
100
AcDbEntity
  8
0
100
AcDbLine
 10
25.5736
 20
151.394
 30
0.0
 11
25.5736
 21
151.5109999999999
 31
0.0
  0
LINE
  5
531
330
1E
100
AcDbEntity
  8
0
100
AcDbLine
 10
25.5736
 20
151.239
 30
0.0
 11
25.5736
 21
151.394
 31
0.0
  0
LINE
  5
532
330
1E
100
AcDbEntity
  8
0
100
AcDbLine
 10
25.5736
 20
151.5109999999999
 30
0.0
 11
25.5736
 21
151.394
 31
0.0
  0
LINE
  5
533
330
1E
100
AcDbEntity
  8
0
100
AcDbLine
 10
25.5736
 20
151.5109999999999
 30
0.0
 11
25.5736
 21
151.614
 31
0.0
  0
LINE
  5
534
330
1E
100
AcDbEntity
  8
0
100
AcDbLine
 10
25.5736
 20
151.614
 30
0.0
 11
25.5736
 21
151.5109999999999
 31
0.0
  0
LINE
  5
535
330
1E
100
AcDbEntity
  8
0
100
AcDbLine
 10
25.0538
 20
152.9979999999999
 30
0.0
 11
24.9735
 21
152.9979999999999
 31
0.0
  0
LINE
  5
536
330
1E
100
AcDbEntity
  8
0
100
AcDbLine
 10
25.02699999999999
 20
152.9979999999999
 30
0.0
 11
24.9477
 21
152.9979999999999
 31
0.0
  0
LINE
  5
537
330
1E
100
AcDbEntity
  8
0
100
AcDbLine
 10
24.9477
 20
152.9979999999999
 30
0.0
 11
24.818
 21
152.9979999999999
 31
0.0
  0
LINE
  5
538
330
1E
100
AcDbEntity
  8
0
100
AcDbLine
 10
24.1643
 20
152.9979999999999
 30
0.0
 11
23.0
 21
152.9979999999999
 31
0.0
  0
LINE
  5
539
330
1E
100
AcDbEntity
  8
0
100
AcDbLine
 10
24.1643
 20
152.9979999999999
 30
0.0
 11
23.87709999999999
 21
152.9979999999999
 31
0.0
  0
LINE
  5
53A
330
1E
100
AcDbEntity
  8
0
100
AcDbLine
 10
24.6409
 20
152.9979999999999
 30
0.0
 11
23.0
 21
152.9979999999999
 31
0.0
  0
LINE
  5
53B
330
1E
100
AcDbEntity
  8
0
100
AcDbLine
 10
24.4206
 20
152.9979999999999
 30
0.0
 11
23.0
 21
152.9979999999999
 31
0.0
  0
LINE
  5
53C
330
1E
100
AcDbEntity
  8
0
100
AcDbLine
 10
24.4206
 20
152.9979999999999
 30
0.0
 11
24.1643
 21
152.9979999999999
 31
0.0
  0
LINE
  5
53D
330
1E
100
AcDbEntity
  8
0
100
AcDbLine
 10
24.6409
 20
152.9979999999999
 30
0.0
 11
24.4206
 21
152.9979999999999
 31
0.0
  0
LINE
  5
53E
330
1E
100
AcDbEntity
  8
0
100
AcDbLine
 10
24.7377
 20
152.9979999999999
 30
0.0
 11
24.4206
 21
152.9979999999999
 31
0.0
  0
LINE
  5
53F
330
1E
100
AcDbEntity
  8
0
100
AcDbLine
 10
23.5672
 20
152.9979999999999
 30
0.0
 11
23.0
 21
152.9979999999999
 31
0.0
  0
LINE
  5
540
330
1E
100
AcDbEntity
  8
0
100
AcDbLine
 10
23.87709999999999
 20
152.9979999999999
 30
0.0
 11
23.0
 21
152.9979999999999
 31
0.0
  0
LINE
  5
541
330
1E
100
AcDbEntity
  8
0
100
AcDbLine
 10
23.87709999999999
 20
152.9979999999999
 30
0.0
 11
23.5672
 21
152.9979999999999
 31
0.0
  0
LINE
  5
542
330
1E
100
AcDbEntity
  8
0
100
AcDbLine
 10
20.4264
 20
131.84
 30
0.0
 11
25.5736
 21
131.84
 31
0.0
  0
ENDSEC
  0
SECTION
  2
OBJECTS
  0
DICTIONARY
  5
C
330
0
100
AcDbDictionary
281
     1
  3
ACAD_GROUP
350
D
  3
ACAD_LAYOUT
350
19
  3
ACAD_MLINESTYLE
350
16
  3
ACAD_PLOTSETTINGS
350
18
  3
ACAD_PLOTSTYLENAME
350
E
  3
AcDbVariableDictionary
350
544
  0
DICTIONARY
  5
D
102
{ACAD_REACTORS
330
C
102
}
330
C
100
AcDbDictionary
281
     1
  0
DICTIONARY
  5
19
102
{ACAD_REACTORS
330
C
102
}
330
C
100
AcDbDictionary
281
     1
  3
Layout1
350
1D
  3
Model
350
21
  0
DICTIONARY
  5
16
102
{ACAD_REACTORS
330
C
102
}
330
C
100
AcDbDictionary
281
     1
  3
Standard
350
17
  0
DICTIONARY
  5
18
102
{ACAD_REACTORS
330
C
102
}
330
C
100
AcDbDictionary
281
     1
  0
ACDBDICTIONARYWDFLT
  5
E
102
{ACAD_REACTORS
330
C
102
}
330
C
100
AcDbDictionary
281
     1
  3
Normal
350
F
100
AcDbDictionaryWithDefault
340
F
  0
DICTIONARY
  5
544
102
{ACAD_REACTORS
330
C
102
}
330
C
100
AcDbDictionary
281
     1
  3
DIMASSOC
350
545
  0
LAYOUT
  5
1D
102
{ACAD_REACTORS
330
19
102
}
330
19
100
AcDbPlotSettings
  1

  2
C:\Programme\AutoCAD LT 2002 Deu\plotters\DWF ePlot (optimized for plotting).pc3
  4

  6

 40
0.0
 41
0.0
 42
0.0
 43
0.0
 44
0.0
 45
0.0
 46
0.0
 47
0.0
 48
0.0
 49
0.0
140
0.0
141
0.0
142
1.0
143
1.0
 70
   688
 72
     0
 73
     0
 74
     5
  7

 75
    16
147
1.0
148
0.0
149
0.0
100
AcDbLayout
  1
Layout1
 70
     1
 71
     1
 10
0.0
 20
0.0
 11
12.0
 21
9.0
 12
0.0
 22
0.0
 32
0.0
 14
1.000000000000000E+20
 24
1.000000000000000E+20
 34
1.000000000000000E+20
 15
-1.000000000000000E+20
 25
-1.000000000000000E+20
 35
-1.000000000000000E+20
146
0.0
 13
0.0
 23
0.0
 33
0.0
 16
1.0
 26
0.0
 36
0.0
 17
0.0
 27
1.0
 37
0.0
 76
     0
330
1A
  0
LAYOUT
  5
21
102
{ACAD_REACTORS
330
19
102
}
330
19
100
AcDbPlotSettings
  1

  2
C:\Programme\AutoCAD LT 2002 Deu\plotters\DWF ePlot (optimized for plotting).pc3
  4

  6

 40
0.0
 41
0.0
 42
0.0
 43
0.0
 44
0.0
 45
0.0
 46
0.0
 47
0.0
 48
0.0
 49
0.0
140
0.0
141
0.0
142
1.0
143
1.0
 70
  1712
 72
     0
 73
     0
 74
     0
  7

 75
     0
147
1.0
148
0.0
149
0.0
100
AcDbLayout
  1
Model
 70
     1
 71
     0
 10
0.0
 20
0.0
 11
12.0
 21
9.0
 12
0.0
 22
0.0
 32
0.0
 14
0.0
 24
0.0
 34
0.0
 15
0.0
 25
0.0
 35
0.0
146
0.0
 13
0.0
 23
0.0
 33
0.0
 16
1.0
 26
0.0
 36
0.0
 17
0.0
 27
1.0
 37
0.0
 76
     0
330
1E
  0
MLINESTYLE
  5
17
102
{ACAD_REACTORS
330
16
102
}
330
16
100
AcDbMlineStyle
  2
STANDARD
 70
     0
  3

 62
   256
 51
90.0
 52
90.0
 71
     2
 49
0.5
 62
   256
  6
BYLAYER
 49
-0.5
 62
   256
  6
BYLAYER
  0
ACDBPLACEHOLDER
  5
F
102
{ACAD_REACTORS
330
E
102
}
330
E
  0
DICTIONARYVAR
  5
545
102
{ACAD_REACTORS
330
544
102
}
330
544
100
DictionaryVariables
280
     0
  1
1
  0
ENDSEC
  0
EOF
