  0
SECTION
  2
HEADER
  9
$ACADVER
  1
AC1015
  9
$ACADMAINTVER
 70
    13
  9
$DWGCODEPAGE
  3
ANSI_1252
  9
$INSBASE
 10
0.0
 20
0.0
 30
0.0
  9
$EXTMIN
 10
-0.8258500000000026
 20
-0.0000000000000092
 30
0.0
  9
$EXTMAX
 10
53.17415
 20
164.0
 30
0.0
  9
$LIMMIN
 10
0.0
 20
0.0
  9
$LIMMAX
 10
12.0
 20
9.0
  9
$ORTHOMODE
 70
     0
  9
$REGENMODE
 70
     1
  9
$FILLMODE
 70
     1
  9
$QTEXTMODE
 70
     0
  9
$MIRRTEXT
 70
     1
  9
$LTSCALE
 40
1.0
  9
$ATTMODE
 70
     1
  9
$TEXTSIZE
 40
0.2
  9
$TRACEWID
 40
0.05
  9
$TEXTSTYLE
  7
Standard
  9
$CLAYER
  8
0
  9
$CELTYPE
  6
Continuous
  9
$CECOLOR
 62
   256
  9
$CELTSCALE
 40
1.0
  9
$DISPSILH
 70
     0
  9
$DIMSCALE
 40
1.0
  9
$DIMASZ
 40
0.18
  9
$DIMEXO
 40
0.0625
  9
$DIMDLI
 40
0.38
  9
$DIMRND
 40
0.0
  9
$DIMDLE
 40
0.0
  9
$DIMEXE
 40
0.18
  9
$DIMTP
 40
0.0
  9
$DIMTM
 40
0.0
  9
$DIMTXT
 40
0.18
  9
$DIMCEN
 40
0.09
  9
$DIMTSZ
 40
0.0
  9
$DIMTOL
 70
     0
  9
$DIMLIM
 70
     0
  9
$DIMTIH
 70
     1
  9
$DIMTOH
 70
     1
  9
$DIMSE1
 70
     0
  9
$DIMSE2
 70
     0
  9
$DIMTAD
 70
     0
  9
$DIMZIN
 70
     0
  9
$DIMBLK
  1

  9
$DIMASO
 70
     1
  9
$DIMSHO
 70
     1
  9
$DIMPOST
  1

  9
$DIMAPOST
  1

  9
$DIMALT
 70
     0
  9
$DIMALTD
 70
     2
  9
$DIMALTF
 40
25.4
  9
$DIMLFAC
 40
1.0
  9
$DIMTOFL
 70
     0
  9
$DIMTVP
 40
0.0
  9
$DIMTIX
 70
     0
  9
$DIMSOXD
 70
     0
  9
$DIMSAH
 70
     0
  9
$DIMBLK1
  1

  9
$DIMBLK2
  1

  9
$DIMSTYLE
  2
Standard
  9
$DIMCLRD
 70
     0
  9
$DIMCLRE
 70
     0
  9
$DIMCLRT
 70
     0
  9
$DIMTFAC
 40
1.0
  9
$DIMGAP
 40
0.09
  9
$DIMJUST
 70
     0
  9
$DIMSD1
 70
     0
  9
$DIMSD2
 70
     0
  9
$DIMTOLJ
 70
     1
  9
$DIMTZIN
 70
     0
  9
$DIMALTZ
 70
     0
  9
$DIMALTTZ
 70
     0
  9
$DIMUPT
 70
     0
  9
$DIMDEC
 70
     4
  9
$DIMTDEC
 70
     4
  9
$DIMALTU
 70
     2
  9
$DIMALTTD
 70
     2
  9
$DIMTXSTY
  7
Standard
  9
$DIMAUNIT
 70
     0
  9
$DIMADEC
 70
     0
  9
$DIMALTRND
 40
0.0
  9
$DIMAZIN
 70
     0
  9
$DIMDSEP
 70
    46
  9
$DIMATFIT
 70
     3
  9
$DIMFRAC
 70
     0
  9
$DIMLDRBLK
  1

  9
$DIMLUNIT
 70
     2
  9
$DIMLWD
 70
    -2
  9
$DIMLWE
 70
    -2
  9
$DIMTMOVE
 70
     0
  9
$LUNITS
 70
     2
  9
$LUPREC
 70
     4
  9
$SKETCHINC
 40
0.1
  9
$FILLETRAD
 40
0.0
  9
$AUNITS
 70
     0
  9
$AUPREC
 70
     0
  9
$MENU
  1
.
  9
$ELEVATION
 40
0.0
  9
$PELEVATION
 40
0.0
  9
$THICKNESS
 40
0.0
  9
$LIMCHECK
 70
     0
  9
$CHAMFERA
 40
0.0
  9
$CHAMFERB
 40
0.0
  9
$CHAMFERC
 40
0.0
  9
$CHAMFERD
 40
0.0
  9
$SKPOLY
 70
     0
  9
$TDCREATE
 40
2455653.893405485
  9
$TDUCREATE
 40
2455653.810072153
  9
$TDUPDATE
 40
2455653.898825949
  9
$TDUUPDATE
 40
2455653.815492615
  9
$TDINDWG
 40
0.0054210069
  9
$TDUSRTIMER
 40
0.0054210069
  9
$USRTIMER
 70
     1
  9
$ANGBASE
 50
0.0
  9
$ANGDIR
 70
     0
  9
$PDMODE
 70
     0
  9
$PDSIZE
 40
0.0
  9
$PLINEWID
 40
0.0
  9
$SPLFRAME
 70
     0
  9
$SPLINETYPE
 70
     6
  9
$SPLINESEGS
 70
     8
  9
$HANDSEED
  5
490
  9
$SURFTAB1
 70
     6
  9
$SURFTAB2
 70
     6
  9
$SURFTYPE
 70
     6
  9
$SURFU
 70
     6
  9
$SURFV
 70
     6
  9
$UCSBASE
  2

  9
$UCSNAME
  2

  9
$UCSORG
 10
0.0
 20
0.0
 30
0.0
  9
$UCSXDIR
 10
1.0
 20
0.0
 30
0.0
  9
$UCSYDIR
 10
0.0
 20
1.0
 30
0.0
  9
$UCSORTHOREF
  2

  9
$UCSORTHOVIEW
 70
     1
  9
$UCSORGTOP
 10
0.0
 20
0.0
 30
0.0
  9
$UCSORGBOTTOM
 10
0.0
 20
0.0
 30
0.0
  9
$UCSORGLEFT
 10
0.0
 20
0.0
 30
0.0
  9
$UCSORGRIGHT
 10
0.0
 20
0.0
 30
0.0
  9
$UCSORGFRONT
 10
0.0
 20
0.0
 30
0.0
  9
$UCSORGBACK
 10
0.0
 20
0.0
 30
0.0
  9
$PUCSBASE
  2

  9
$PUCSNAME
  2

  9
$PUCSORG
 10
0.0
 20
0.0
 30
0.0
  9
$PUCSXDIR
 10
1.0
 20
0.0
 30
0.0
  9
$PUCSYDIR
 10
0.0
 20
1.0
 30
0.0
  9
$PUCSORTHOREF
  2

  9
$PUCSORTHOVIEW
 70
     0
  9
$PUCSORGTOP
 10
0.0
 20
0.0
 30
0.0
  9
$PUCSORGBOTTOM
 10
0.0
 20
0.0
 30
0.0
  9
$PUCSORGLEFT
 10
0.0
 20
0.0
 30
0.0
  9
$PUCSORGRIGHT
 10
0.0
 20
0.0
 30
0.0
  9
$PUCSORGFRONT
 10
0.0
 20
0.0
 30
0.0
  9
$PUCSORGBACK
 10
0.0
 20
0.0
 30
0.0
  9
$USERI1
 70
     0
  9
$USERI2
 70
     0
  9
$USERI3
 70
     0
  9
$USERI4
 70
     0
  9
$USERI5
 70
     0
  9
$USERR1
 40
0.0
  9
$USERR2
 40
0.0
  9
$USERR3
 40
0.0
  9
$USERR4
 40
0.0
  9
$USERR5
 40
0.0
  9
$WORLDVIEW
 70
     1
  9
$SHADEDGE
 70
     3
  9
$SHADEDIF
 70
    70
  9
$TILEMODE
 70
     1
  9
$MAXACTVP
 70
    64
  9
$PINSBASE
 10
0.0
 20
0.0
 30
0.0
  9
$PLIMCHECK
 70
     0
  9
$PEXTMIN
 10
1.000000000000000E+20
 20
1.000000000000000E+20
 30
1.000000000000000E+20
  9
$PEXTMAX
 10
-1.000000000000000E+20
 20
-1.000000000000000E+20
 30
-1.000000000000000E+20
  9
$PLIMMIN
 10
0.0
 20
0.0
  9
$PLIMMAX
 10
12.0
 20
9.0
  9
$UNITMODE
 70
     0
  9
$VISRETAIN
 70
     1
  9
$PLINEGEN
 70
     0
  9
$PSLTSCALE
 70
     1
  9
$TREEDEPTH
 70
  3020
  9
$CMLSTYLE
  2
Standard
  9
$CMLJUST
 70
     0
  9
$CMLSCALE
 40
1.0
  9
$PROXYGRAPHICS
 70
     1
  9
$MEASUREMENT
 70
     0
  9
$CELWEIGHT
370
    -1
  9
$ENDCAPS
280
     0
  9
$JOINSTYLE
280
     0
  9
$LWDISPLAY
290
     0
  9
$INSUNITS
 70
     0
  9
$HYPERLINKBASE
  1

  9
$STYLESHEET
  1

  9
$XEDIT
290
     1
  9
$CEPSNTYPE
380
     0
  9
$PSTYLEMODE
290
     1
  9
$FINGERPRINTGUID
  2
{214A4919-41B4-4E6B-A847-656D9A975B6F}
  9
$VERSIONGUID
  2
{F5456477-6989-4089-B743-C7960E40D87C}
  9
$EXTNAMES
290
     1
  9
$PSVPSCALE
 40
0.0
  9
$OLESTARTUP
290
     0
  0
ENDSEC
  0
SECTION
  2
CLASSES
  0
CLASS
  1
ACDBDICTIONARYWDFLT
  2
AcDbDictionaryWithDefault
  3
AutoCAD 2000
 90
        0
280
     0
281
     0
  0
CLASS
  1
ACDBPLACEHOLDER
  2
AcDbPlaceHolder
  3
AutoCAD 2000
 90
        0
280
     0
281
     0
  0
CLASS
  1
LAYOUT
  2
AcDbLayout
  3
AutoCAD 2000
 90
        0
280
     0
281
     0
  0
CLASS
  1
DICTIONARYVAR
  2
AcDbDictionaryVar
  3
AutoCAD 2000
 90
        0
280
     0
281
     0
  0
ENDSEC
  0
SECTION
  2
TABLES
  0
TABLE
  2
VPORT
  5
8
330
0
100
AcDbSymbolTable
 70
     3
  0
VPORT
  5
48F
330
8
100
AcDbSymbolTableRecord
100
AcDbViewportTableRecord
  2
*Active
 70
     0
 10
0.0
 20
0.0
 11
1.0
 21
1.0
 12
26.17414999999999
 22
81.99999999999999
 13
0.0
 23
0.0
 14
1.0
 24
1.0
 15
0.0
 25
0.0
 16
0.0
 26
0.0
 36
1.0
 17
0.0
 27
0.0
 37
0.0
 40
165.1093573844419
 41
2.073363431151241
 42
50.0
 43
0.0
 44
0.0
 50
0.0
 51
0.0
 71
     0
 72
   100
 73
     1
 74
     3
 75
     0
 76
     0
 77
     0
 78
     0
281
     0
 65
     1
110
0.0
120
0.0
130
0.0
111
1.0
121
0.0
131
0.0
112
0.0
122
1.0
132
0.0
 79
     1
146
0.0
  0
ENDTAB
  0
TABLE
  2
LTYPE
  5
5
330
0
100
AcDbSymbolTable
 70
     1
  0
LTYPE
  5
13
330
5
100
AcDbSymbolTableRecord
100
AcDbLinetypeTableRecord
  2
ByBlock
 70
     0
  3

 72
    65
 73
     0
 40
0.0
  0
LTYPE
  5
14
330
5
100
AcDbSymbolTableRecord
100
AcDbLinetypeTableRecord
  2
ByLayer
 70
     0
  3

 72
    65
 73
     0
 40
0.0
  0
LTYPE
  5
15
330
5
100
AcDbSymbolTableRecord
100
AcDbLinetypeTableRecord
  2
Continuous
 70
     0
  3
Solid line
 72
    65
 73
     0
 40
0.0
  0
ENDTAB
  0
TABLE
  2
LAYER
  5
2
330
0
100
AcDbSymbolTable
 70
     1
  0
LAYER
  5
10
330
2
100
AcDbSymbolTableRecord
100
AcDbLayerTableRecord
  2
0
 70
     0
 62
     7
  6
Continuous
370
    -3
390
F
  0
ENDTAB
  0
TABLE
  2
STYLE
  5
3
330
0
100
AcDbSymbolTable
 70
     1
  0
STYLE
  5
11
330
3
100
AcDbSymbolTableRecord
100
AcDbTextStyleTableRecord
  2
Standard
 70
     0
 40
0.0
 41
1.0
 50
0.0
 71
     0
 42
0.2
  3
txt
  4

  0
ENDTAB
  0
TABLE
  2
VIEW
  5
6
330
0
100
AcDbSymbolTable
 70
     0
  0
ENDTAB
  0
TABLE
  2
UCS
  5
7
330
0
100
AcDbSymbolTable
 70
     0
  0
ENDTAB
  0
TABLE
  2
APPID
  5
9
330
0
100
AcDbSymbolTable
 70
     1
  0
APPID
  5
12
330
9
100
AcDbSymbolTableRecord
100
AcDbRegAppTableRecord
  2
ACAD
 70
     0
  0
ENDTAB
  0
TABLE
  2
DIMSTYLE
  5
A
330
0
100
AcDbSymbolTable
 70
     1
100
AcDbDimStyleTable
 71
     0
  0
DIMSTYLE
105
34F
330
A
100
AcDbSymbolTableRecord
100
AcDbDimStyleTableRecord
  2
Standard
 70
     0
340
11
  0
ENDTAB
  0
TABLE
  2
BLOCK_RECORD
  5
1
330
0
100
AcDbSymbolTable
 70
     0
  0
BLOCK_RECORD
  5
1E
330
1
100
AcDbSymbolTableRecord
100
AcDbBlockTableRecord
  2
*Model_Space
340
21
  0
BLOCK_RECORD
  5
1A
330
1
100
AcDbSymbolTableRecord
100
AcDbBlockTableRecord
  2
*Paper_Space
340
1D
  0
ENDTAB
  0
ENDSEC
  0
SECTION
  2
BLOCKS
  0
BLOCK
  5
1F
330
1E
100
AcDbEntity
  8
0
100
AcDbBlockBegin
  2
*Model_Space
 70
     0
 10
0.0
 20
0.0
 30
0.0
  3
*Model_Space
  1

  0
ENDBLK
  5
20
330
1E
100
AcDbEntity
  8
0
100
AcDbBlockEnd
  0
BLOCK
  5
1B
330
1A
100
AcDbEntity
 67
     1
  8
0
100
AcDbBlockBegin
  2
*Paper_Space
 70
     0
 10
0.0
 20
0.0
 30
0.0
  3
*Paper_Space
  1

  0
ENDBLK
  5
1C
330
1A
100
AcDbEntity
 67
     1
  8
0
100
AcDbBlockEnd
  0
ENDSEC
  0
SECTION
  2
ENTITIES
  0
LINE
  5
65
330
1E
100
AcDbEntity
  8
0
100
AcDbLine
 10
22.82585
 20
-0.0000000000000092
 30
0.0
 11
28.71385
 21
-0.0000000000000091
 31
0.0
  0
LINE
  5
66
330
1E
100
AcDbEntity
  8
0
100
AcDbLine
 10
22.82585
 20
4.99999999999999
 30
0.0
 11
28.62185
 21
4.99999999999999
 31
0.0
  0
LINE
  5
67
330
1E
100
AcDbEntity
  8
0
100
AcDbLine
 10
22.82585
 20
4.69999999999999
 30
0.0
 11
28.71385
 21
4.69999999999999
 31
0.0
  0
LINE
  5
68
330
1E
100
AcDbEntity
  8
0
100
AcDbLine
 10
22.82585
 20
-0.0000000000000063
 30
0.0
 11
28.71385
 21
-0.0000000000000064
 31
0.0
  0
LINE
  5
6B
330
1E
100
AcDbEntity
  8
0
100
AcDbLine
 10
22.61695
 20
88.2925
 30
0.0
 11
22.89705
 21
88.29640000000001
 31
0.0
  0
LINE
  5
6C
330
1E
100
AcDbEntity
  8
0
100
AcDbLine
 10
23.17715
 20
88.2925
 30
0.0
 11
24.29714999999999
 21
88.34180000000001
 31
0.0
  0
LINE
  5
77
330
1E
100
AcDbEntity
  8
0
100
AcDbLine
 10
22.89705
 20
89.2421
 30
0.0
 11
23.79264999999999
 21
89.26199999999999
 31
0.0
  0
LINE
  5
7F
330
1E
100
AcDbEntity
  8
0
100
AcDbLine
 10
23.79264999999999
 20
89.26199999999999
 30
0.0
 11
24.83795
 21
89.3515
 31
0.0
  0
LINE
  5
80
330
1E
100
AcDbEntity
  8
0
100
AcDbLine
 10
23.86124999999999
 20
89.22490000000001
 30
0.0
 11
24.88834999999999
 21
89.3163
 31
0.0
  0
LINE
  5
81
330
1E
100
AcDbEntity
  8
0
100
AcDbLine
 10
22.89705
 20
89.1994
 30
0.0
 11
23.86124999999999
 21
89.22490000000001
 31
0.0
  0
LINE
  5
83
330
1E
100
AcDbEntity
  8
0
100
AcDbLine
 10
24.83795
 20
89.3515
 30
0.0
 11
25.86095
 21
89.50459999999999
 31
0.0
  0
LINE
  5
84
330
1E
100
AcDbEntity
  8
0
100
AcDbLine
 10
25.86095
 20
89.50459999999999
 30
0.0
 11
26.85275
 21
89.72230000000001
 31
0.0
  0
LINE
  5
85
330
1E
100
AcDbEntity
  8
0
100
AcDbLine
 10
25.89325
 20
89.4707
 30
0.0
 11
26.86895
 21
89.68519999999999
 31
0.0
  0
LINE
  5
86
330
1E
100
AcDbEntity
  8
0
100
AcDbLine
 10
24.88834999999999
 20
89.3163
 30
0.0
 11
25.89325
 21
89.4707
 31
0.0
  0
LINE
  5
87
330
1E
100
AcDbEntity
  8
0
100
AcDbLine
 10
27.54285
 20
88.87
 30
0.0
 11
28.55285
 21
89.1689
 31
0.0
  0
LINE
  5
88
330
1E
100
AcDbEntity
  8
0
100
AcDbLine
 10
26.49055
 20
88.6316
 30
0.0
 11
27.54285
 21
88.87
 31
0.0
  0
LINE
  5
89
330
1E
100
AcDbEntity
  8
0
100
AcDbLine
 10
25.40494999999999
 20
88.4551
 30
0.0
 11
26.49055
 21
88.6316
 31
0.0
  0
LINE
  5
8A
330
1E
100
AcDbEntity
  8
0
100
AcDbLine
 10
24.29714999999999
 20
88.34180000000001
 30
0.0
 11
25.40494999999999
 21
88.4551
 31
0.0
  0
LINE
  5
8B
330
1E
100
AcDbEntity
  8
0
100
AcDbLine
 10
22.89705
 20
88.29640000000001
 30
0.0
 11
23.17715
 21
88.2925
 31
0.0
  0
LINE
  5
8C
330
1E
100
AcDbEntity
  8
0
100
AcDbLine
 10
28.71385
 20
-0.0000000000000091
 30
0.0
 11
34.23384999999999
 21
-0.000000000000009
 31
0.0
  0
LINE
  5
8D
330
1E
100
AcDbEntity
  8
0
100
AcDbLine
 10
28.62185
 20
4.99999999999999
 30
0.0
 11
33.95785
 21
4.99999999999999
 31
0.0
  0
LINE
  5
8E
330
1E
100
AcDbEntity
  8
0
100
AcDbLine
 10
28.71385
 20
4.69999999999999
 30
0.0
 11
34.23384999999999
 21
4.69999999999999
 31
0.0
  0
LINE
  5
8F
330
1E
100
AcDbEntity
  8
0
100
AcDbLine
 10
28.71385
 20
-0.0000000000000064
 30
0.0
 11
34.23384999999999
 21
-0.0000000000000065
 31
0.0
  0
LINE
  5
90
330
1E
100
AcDbEntity
  8
0
100
AcDbLine
 10
28.55285
 20
89.1689
 30
0.0
 11
29.51235
 21
89.5241
 31
0.0
  0
LINE
  5
95
330
1E
100
AcDbEntity
  8
0
100
AcDbLine
 10
26.85275
 20
89.72230000000001
 30
0.0
 11
27.80314999999999
 21
90.00020000000001
 31
0.0
  0
LINE
  5
96
330
1E
100
AcDbEntity
  8
0
100
AcDbLine
 10
26.86895
 20
89.68519999999999
 30
0.0
 11
27.80314999999999
 21
89.959
 31
0.0
  0
LINE
  5
A1
330
1E
100
AcDbEntity
  8
0
100
AcDbLine
 10
22.51405
 20
90.1013
 30
0.0
 11
22.89705
 21
90.1045
 31
0.0
  0
LINE
  5
B1
330
1E
100
AcDbEntity
  8
0
100
AcDbLine
 10
22.44845
 20
92.4507
 30
0.0
 11
22.89705
 21
92.4524
 31
0.0
  0
LINE
  5
D7
330
1E
100
AcDbEntity
  8
0
100
AcDbLine
 10
22.89705
 20
92.4524
 30
0.0
 11
23.34565
 21
92.4507
 31
0.0
  0
LINE
  5
D8
330
1E
100
AcDbEntity
  8
0
100
AcDbLine
 10
27.80314999999999
 20
90.00020000000001
 30
0.0
 11
28.72935
 21
90.34739999999999
 31
0.0
  0
LINE
  5
D9
330
1E
100
AcDbEntity
  8
0
100
AcDbLine
 10
27.91015
 20
91.04589999999999
 30
0.0
 11
28.63955
 21
91.3874
 31
0.0
  0
LINE
  5
DA
330
1E
100
AcDbEntity
  8
0
100
AcDbLine
 10
27.96665
 20
93.41779999999999
 30
0.0
 11
28.74455
 21
93.79099999999999
 31
0.0
  0
LINE
  5
DB
330
1E
100
AcDbEntity
  8
0
100
AcDbLine
 10
28.63955
 20
91.3874
 30
0.0
 11
29.30655
 21
91.7736
 31
0.0
  0
LINE
  5
DC
330
1E
100
AcDbEntity
  8
0
100
AcDbLine
 10
27.12614999999999
 20
93.1
 30
0.0
 11
27.96665
 21
93.41779999999999
 31
0.0
  0
LINE
  5
DD
330
1E
100
AcDbEntity
  8
0
100
AcDbLine
 10
27.12614999999999
 20
90.7526
 30
0.0
 11
27.91015
 21
91.04589999999999
 31
0.0
  0
LINE
  5
DE
330
1E
100
AcDbEntity
  8
0
100
AcDbLine
 10
26.23225
 20
92.84200000000002
 30
0.0
 11
27.12614999999999
 21
93.1
 31
0.0
  0
LINE
  5
DF
330
1E
100
AcDbEntity
  8
0
100
AcDbLine
 10
26.21715
 20
90.49049999999999
 30
0.0
 11
27.12614999999999
 21
90.7526
 31
0.0
  0
LINE
  5
E0
330
1E
100
AcDbEntity
  8
0
100
AcDbLine
 10
25.29595
 20
92.64619999999998
 30
0.0
 11
26.23225
 21
92.84200000000002
 31
0.0
  0
LINE
  5
E1
330
1E
100
AcDbEntity
  8
0
100
AcDbLine
 10
25.26464999999999
 20
90.29349999999999
 30
0.0
 11
26.21715
 21
90.49049999999999
 31
0.0
  0
LINE
  5
E2
330
1E
100
AcDbEntity
  8
0
100
AcDbLine
 10
24.32935
 20
92.5149
 30
0.0
 11
25.29595
 21
92.64619999999998
 31
0.0
  0
LINE
  5
E3
330
1E
100
AcDbEntity
  8
0
100
AcDbLine
 10
24.28095
 20
90.16299999999999
 30
0.0
 11
25.26464999999999
 21
90.29349999999999
 31
0.0
  0
LINE
  5
E4
330
1E
100
AcDbEntity
  8
0
100
AcDbLine
 10
23.34565
 20
92.4507
 30
0.0
 11
24.32935
 21
92.5149
 31
0.0
  0
LINE
  5
E5
330
1E
100
AcDbEntity
  8
0
100
AcDbLine
 10
23.28005
 20
90.1013
 30
0.0
 11
24.28095
 21
90.16299999999999
 31
0.0
  0
LINE
  5
E6
330
1E
100
AcDbEntity
  8
0
100
AcDbLine
 10
22.89705
 20
90.1045
 30
0.0
 11
23.28005
 21
90.1013
 31
0.0
  0
LINE
  5
126
330
1E
100
AcDbEntity
  8
0
100
AcDbLine
 10
22.51405
 20
100.8199999999999
 30
0.0
 11
22.89705
 21
100.817
 31
0.0
  0
LINE
  5
12F
330
1E
100
AcDbEntity
  8
0
100
AcDbLine
 10
23.28005
 20
100.8199999999999
 30
0.0
 11
24.28095
 21
100.7579999999999
 31
0.0
  0
LINE
  5
130
330
1E
100
AcDbEntity
  8
0
100
AcDbLine
 10
22.89705
 20
100.817
 30
0.0
 11
23.28005
 21
100.8199999999999
 31
0.0
  0
LINE
  5
131
330
1E
100
AcDbEntity
  8
0
100
AcDbLine
 10
25.26464999999999
 20
100.6279999999999
 30
0.0
 11
26.21715
 21
100.431
 31
0.0
  0
LINE
  5
132
330
1E
100
AcDbEntity
  8
0
100
AcDbLine
 10
24.28095
 20
100.7579999999999
 30
0.0
 11
25.26464999999999
 21
100.6279999999999
 31
0.0
  0
LINE
  5
133
330
1E
100
AcDbEntity
  8
0
100
AcDbLine
 10
27.12614999999999
 20
100.1679999999999
 30
0.0
 11
27.91015
 21
99.8751
 31
0.0
  0
LINE
  5
134
330
1E
100
AcDbEntity
  8
0
100
AcDbLine
 10
26.21715
 20
100.431
 30
0.0
 11
27.12614999999999
 21
100.1679999999999
 31
0.0
  0
LINE
  5
135
330
1E
100
AcDbEntity
  8
0
100
AcDbLine
 10
26.86895
 20
101.1549999999999
 30
0.0
 11
27.80314999999999
 21
100.8809999999999
 31
0.0
  0
LINE
  5
136
330
1E
100
AcDbEntity
  8
0
100
AcDbLine
 10
25.89325
 20
101.37
 30
0.0
 11
26.86895
 21
101.1549999999999
 31
0.0
  0
LINE
  5
137
330
1E
100
AcDbEntity
  8
0
100
AcDbLine
 10
24.88834999999999
 20
101.5239999999999
 30
0.0
 11
25.89325
 21
101.37
 31
0.0
  0
LINE
  5
138
330
1E
100
AcDbEntity
  8
0
100
AcDbLine
 10
23.86124999999999
 20
101.6149999999999
 30
0.0
 11
24.88834999999999
 21
101.5239999999999
 31
0.0
  0
LINE
  5
1C7
330
1E
100
AcDbEntity
  8
0
100
AcDbLine
 10
22.17415
 20
111.8929999999999
 30
0.0
 11
31.81354999999999
 21
111.461
 31
0.0
  0
LINE
  5
1D2
330
1E
100
AcDbEntity
  8
0
100
AcDbLine
 10
22.82585
 20
122.477
 30
0.0
 11
25.36424999999999
 21
122.477
 31
0.0
  0
LINE
  5
1ED
330
1E
100
AcDbEntity
  8
0
100
AcDbLine
 10
22.51415
 20
128.7939999999999
 30
0.0
 11
22.72135
 21
128.772
 31
0.0
  0
LINE
  5
1EE
330
1E
100
AcDbEntity
  8
0
100
AcDbLine
 10
22.82585
 20
128.772
 30
0.0
 11
22.93035
 21
128.772
 31
0.0
  0
LINE
  5
1EF
330
1E
100
AcDbEntity
  8
0
100
AcDbLine
 10
22.72135
 20
128.772
 30
0.0
 11
22.82585
 21
128.772
 31
0.0
  0
LINE
  5
1F5
330
1E
100
AcDbEntity
  8
0
100
AcDbLine
 10
22.44955
 20
134.596
 30
0.0
 11
22.65865
 21
134.623
 31
0.0
  0
LINE
  5
1F6
330
1E
100
AcDbEntity
  8
0
100
AcDbLine
 10
22.82585
 20
134.6279999999999
 30
0.0
 11
22.99304999999999
 21
134.623
 31
0.0
  0
LINE
  5
1F7
330
1E
100
AcDbEntity
  8
0
100
AcDbLine
 10
22.82585
 20
154.5239999999999
 30
0.0
 11
25.51054999999999
 21
154.474
 31
0.0
  0
LINE
  5
1F8
330
1E
100
AcDbEntity
  8
0
100
AcDbLine
 10
22.82585
 20
164.0
 30
0.0
 11
25.6093954850143
 21
163.977428398326
 31
0.0
  0
LINE
  5
1F9
330
1E
100
AcDbEntity
  8
0
100
AcDbLine
 10
22.82585
 20
164.0
 30
0.0
 11
26.40765
 21
163.983
 31
0.0
  0
LINE
  5
1FE
330
1E
100
AcDbEntity
  8
0
100
AcDbLine
 10
22.65865
 20
134.623
 30
0.0
 11
22.82585
 21
134.6279999999999
 31
0.0
  0
LINE
  5
209
330
1E
100
AcDbEntity
  8
0
100
AcDbLine
 10
23.13755
 20
128.7939999999999
 30
0.0
 11
23.34295
 21
128.835
 31
0.0
  0
LINE
  5
20A
330
1E
100
AcDbEntity
  8
0
100
AcDbLine
 10
22.93035
 20
128.772
 30
0.0
 11
23.13755
 21
128.7939999999999
 31
0.0
  0
LINE
  5
20B
330
1E
100
AcDbEntity
  8
0
100
AcDbLine
 10
23.34295
 20
128.835
 30
0.0
 11
23.57565
 21
128.9089999999999
 31
0.0
  0
LINE
  5
20C
330
1E
100
AcDbEntity
  8
0
100
AcDbLine
 10
23.20215
 20
134.596
 30
0.0
 11
23.40934999999999
 21
134.5469999999999
 31
0.0
  0
LINE
  5
20D
330
1E
100
AcDbEntity
  8
0
100
AcDbLine
 10
22.99304999999999
 20
134.623
 30
0.0
 11
23.20215
 21
134.596
 31
0.0
  0
LINE
  5
20F
330
1E
100
AcDbEntity
  8
0
100
AcDbLine
 10
23.57565
 20
128.9089999999999
 30
0.0
 11
23.80014999999999
 21
129.01
 31
0.0
  0
LINE
  5
210
330
1E
100
AcDbEntity
  8
0
100
AcDbLine
 10
23.80014999999999
 20
129.01
 30
0.0
 11
24.01275
 21
129.1349999999999
 31
0.0
  0
LINE
  5
211
330
1E
100
AcDbEntity
  8
0
100
AcDbLine
 10
24.01275
 20
129.1349999999999
 30
0.0
 11
24.19275
 21
129.2669999999999
 31
0.0
  0
LINE
  5
212
330
1E
100
AcDbEntity
  8
0
100
AcDbLine
 10
24.38905
 20
129.441
 30
0.0
 11
24.56815
 21
129.638
 31
0.0
  0
LINE
  5
213
330
1E
100
AcDbEntity
  8
0
100
AcDbLine
 10
24.56815
 20
129.638
 30
0.0
 11
24.72805
 21
129.852
 31
0.0
  0
LINE
  5
214
330
1E
100
AcDbEntity
  8
0
100
AcDbLine
 10
24.86805
 20
130.081
 30
0.0
 11
24.94165
 21
130.222
 31
0.0
  0
LINE
  5
215
330
1E
100
AcDbEntity
  8
0
100
AcDbLine
 10
25.06615
 20
130.5159999999999
 30
0.0
 11
25.11795
 21
130.6689999999999
 31
0.0
  0
LINE
  5
216
330
1E
100
AcDbEntity
  8
0
100
AcDbLine
 10
25.00704999999999
 20
130.367
 30
0.0
 11
25.06615
 21
130.5159999999999
 31
0.0
  0
LINE
  5
217
330
1E
100
AcDbEntity
  8
0
100
AcDbLine
 10
24.94165
 20
130.222
 30
0.0
 11
25.00704999999999
 21
130.367
 31
0.0
  0
LINE
  5
218
330
1E
100
AcDbEntity
  8
0
100
AcDbLine
 10
24.72805
 20
129.852
 30
0.0
 11
24.86805
 21
130.081
 31
0.0
  0
LINE
  5
219
330
1E
100
AcDbEntity
  8
0
100
AcDbLine
 10
24.19275
 20
129.2669999999999
 30
0.0
 11
24.38905
 21
129.441
 31
0.0
  0
LINE
  5
21A
330
1E
100
AcDbEntity
  8
0
100
AcDbLine
 10
25.1246881978101
 20
130.696232094777
 30
0.0
 11
25.20065
 21
130.977
 31
0.0
  0
LINE
  5
21B
330
1E
100
AcDbEntity
  8
0
100
AcDbLine
 10
25.11795
 20
130.6689999999999
 30
0.0
 11
25.20065
 21
130.977
 31
0.0
  0
LINE
  5
21C
330
1E
100
AcDbEntity
  8
0
100
AcDbLine
 10
25.25425
 20
131.2969999999999
 30
0.0
 11
25.27884999999999
 21
131.622
 31
0.0
  0
LINE
  5
21D
330
1E
100
AcDbEntity
  8
0
100
AcDbLine
 10
25.23435
 20
132.271
 30
0.0
 11
25.27155
 21
131.9479999999999
 31
0.0
  0
LINE
  5
21E
330
1E
100
AcDbEntity
  8
0
100
AcDbLine
 10
25.27155
 20
131.9479999999999
 30
0.0
 11
25.27884999999999
 21
131.622
 31
0.0
  0
LINE
  5
21F
330
1E
100
AcDbEntity
  8
0
100
AcDbLine
 10
25.20065
 20
130.977
 30
0.0
 11
25.25425
 21
131.2969999999999
 31
0.0
  0
LINE
  5
220
330
1E
100
AcDbEntity
  8
0
100
AcDbLine
 10
23.98554999999999
 20
134.285
 30
0.0
 11
24.20094999999999
 21
134.1299999999999
 31
0.0
  0
LINE
  5
221
330
1E
100
AcDbEntity
  8
0
100
AcDbLine
 10
23.80104999999999
 20
134.3899999999999
 30
0.0
 11
23.98554999999999
 21
134.285
 31
0.0
  0
LINE
  5
222
330
1E
100
AcDbEntity
  8
0
100
AcDbLine
 10
25.16605
 20
132.59
 30
0.0
 11
25.20435
 21
132.432
 31
0.0
  0
LINE
  5
223
330
1E
100
AcDbEntity
  8
0
100
AcDbLine
 10
24.39995
 20
133.9509999999999
 30
0.0
 11
24.58085
 21
133.752
 31
0.0
  0
LINE
  5
224
330
1E
100
AcDbEntity
  8
0
100
AcDbLine
 10
24.58085
 20
133.752
 30
0.0
 11
24.72805
 21
133.555
 31
0.0
  0
LINE
  5
225
330
1E
100
AcDbEntity
  8
0
100
AcDbLine
 10
25.06885
 20
132.896
 30
0.0
 11
25.12154999999999
 21
132.7439999999999
 31
0.0
  0
LINE
  5
226
330
1E
100
AcDbEntity
  8
0
100
AcDbLine
 10
24.85895
 20
133.346
 30
0.0
 11
24.97255
 21
133.126
 31
0.0
  0
LINE
  5
227
330
1E
100
AcDbEntity
  8
0
100
AcDbLine
 10
24.97255
 20
133.126
 30
0.0
 11
25.06885
 21
132.896
 31
0.0
  0
LINE
  5
228
330
1E
100
AcDbEntity
  8
0
100
AcDbLine
 10
24.72805
 20
133.555
 30
0.0
 11
24.85895
 21
133.346
 31
0.0
  0
LINE
  5
229
330
1E
100
AcDbEntity
  8
0
100
AcDbLine
 10
25.12154999999999
 20
132.7439999999999
 30
0.0
 11
25.16605
 21
132.59
 31
0.0
  0
LINE
  5
22A
330
1E
100
AcDbEntity
  8
0
100
AcDbLine
 10
24.20094999999999
 20
134.1299999999999
 30
0.0
 11
24.39995
 21
133.9509999999999
 31
0.0
  0
LINE
  5
22B
330
1E
100
AcDbEntity
  8
0
100
AcDbLine
 10
25.20435
 20
132.432
 30
0.0
 11
25.23435
 21
132.271
 31
0.0
  0
LINE
  5
22C
330
1E
100
AcDbEntity
  8
0
100
AcDbLine
 10
23.60835
 20
134.477
 30
0.0
 11
23.80104999999999
 21
134.3899999999999
 31
0.0
  0
LINE
  5
22D
330
1E
100
AcDbEntity
  8
0
100
AcDbLine
 10
23.40934999999999
 20
134.5469999999999
 30
0.0
 11
23.60835
 21
134.477
 31
0.0
  0
LINE
  5
22F
330
1E
100
AcDbEntity
  8
0
100
AcDbLine
 10
24.28085
 20
122.477
 30
0.0
 11
26.58115
 21
122.477
 31
0.0
  0
LINE
  5
236
330
1E
100
AcDbEntity
  8
0
100
AcDbLine
 10
25.36424999999999
 20
122.477
 30
0.0
 11
27.85895
 21
122.477
 31
0.0
  0
LINE
  5
237
330
1E
100
AcDbEntity
  8
0
100
AcDbLine
 10
26.40765
 20
163.983
 30
0.0
 11
29.98485
 21
163.898
 31
0.0
  0
LINE
  5
23A
330
1E
100
AcDbEntity
  8
0
100
AcDbLine
 10
22.89705
 20
101.641
 30
0.0
 11
23.86124999999999
 21
101.6149999999999
 31
0.0
  0
LINE
  5
23C
330
1E
100
AcDbEntity
  8
0
100
AcDbLine
 10
27.91015
 20
99.8751
 30
0.0
 11
28.63955
 21
99.5329
 31
0.0
  0
LINE
  5
23D
330
1E
100
AcDbEntity
  8
0
100
AcDbLine
 10
28.63955
 20
99.5329
 30
0.0
 11
29.30655
 21
99.14830000000002
 31
0.0
  0
LINE
  5
23E
330
1E
100
AcDbEntity
  8
0
100
AcDbLine
 10
27.85895
 20
122.477
 30
0.0
 11
30.26745
 21
122.477
 31
0.0
  0
LINE
  5
23F
330
1E
100
AcDbEntity
  8
0
100
AcDbLine
 10
28.68705
 20
100.551
 30
0.0
 11
29.51235
 21
100.1689999999999
 31
0.0
  0
LINE
  5
240
330
1E
100
AcDbEntity
  8
0
100
AcDbLine
 10
27.80314999999999
 20
100.8809999999999
 30
0.0
 11
28.68705
 21
100.551
 31
0.0
  0
LINE
  5
241
330
1E
100
AcDbEntity
  8
0
100
AcDbLine
 10
28.72935
 20
90.34739999999999
 30
0.0
 11
29.59005
 21
90.7526
 31
0.0
  0
LINE
  5
242
330
1E
100
AcDbEntity
  8
0
100
AcDbLine
 10
29.30655
 20
99.14830000000002
 30
0.0
 11
29.90275
 21
98.72140000000001
 31
0.0
  0
LINE
  5
243
330
1E
100
AcDbEntity
  8
0
100
AcDbLine
 10
29.51235
 20
100.1689999999999
 30
0.0
 11
30.26905
 21
99.7372
 31
0.0
  0
LINE
  5
244
330
1E
100
AcDbEntity
  8
0
100
AcDbLine
 10
29.90275
 20
98.72140000000001
 30
0.0
 11
30.42335
 21
98.26
 31
0.0
  0
LINE
  5
245
330
1E
100
AcDbEntity
  8
0
100
AcDbLine
 10
29.98485
 20
163.898
 30
0.0
 11
33.55385
 21
163.752
 31
0.0
  0
LINE
  5
247
330
1E
100
AcDbEntity
  8
0
100
AcDbLine
 10
30.26905
 20
99.7372
 30
0.0
 11
30.94905
 21
99.26200000000001
 31
0.0
  0
LINE
  5
248
330
1E
100
AcDbEntity
  8
0
100
AcDbLine
 10
30.26745
 20
122.477
 30
0.0
 11
32.54955
 21
122.477
 31
0.0
  0
LINE
  5
249
330
1E
100
AcDbEntity
  8
0
100
AcDbLine
 10
30.06825
 20
94.6832
 30
0.0
 11
30.59895
 21
95.1909
 31
0.0
  0
LINE
  5
24A
330
1E
100
AcDbEntity
  8
0
100
AcDbLine
 10
29.90275
 20
92.19889999999999
 30
0.0
 11
30.42335
 21
92.6604
 31
0.0
  0
LINE
  5
24B
330
1E
100
AcDbEntity
  8
0
100
AcDbLine
 10
29.44774999999999
 20
94.2145
 30
0.0
 11
30.06825
 21
94.6832
 31
0.0
  0
LINE
  5
24C
330
1E
100
AcDbEntity
  8
0
100
AcDbLine
 10
29.30655
 20
91.7736
 30
0.0
 11
29.90275
 21
92.19889999999999
 31
0.0
  0
LINE
  5
24D
330
1E
100
AcDbEntity
  8
0
100
AcDbLine
 10
28.74455
 20
93.79099999999999
 30
0.0
 11
29.44774999999999
 21
94.2145
 31
0.0
  0
LINE
  5
24E
330
1E
100
AcDbEntity
  8
0
100
AcDbLine
 10
29.59005
 20
90.7526
 30
0.0
 11
30.37494999999999
 21
91.2109
 31
0.0
  0
LINE
  5
24F
330
1E
100
AcDbEntity
  8
0
100
AcDbLine
 10
30.37494999999999
 20
91.2109
 30
0.0
 11
31.07515
 21
91.7181
 31
0.0
  0
LINE
  5
250
330
1E
100
AcDbEntity
  8
0
100
AcDbLine
 10
30.26905
 20
91.10229999999999
 30
0.0
 11
30.94905
 21
91.57819999999999
 31
0.0
  0
LINE
  5
251
330
1E
100
AcDbEntity
  8
0
100
AcDbLine
 10
29.51235
 20
90.6713
 30
0.0
 11
30.26905
 21
91.10229999999999
 31
0.0
  0
LINE
  5
252
330
1E
100
AcDbEntity
  8
0
100
AcDbLine
 10
28.68705
 20
90.28870000000001
 30
0.0
 11
29.51235
 21
90.6713
 31
0.0
  0
LINE
  5
253
330
1E
100
AcDbEntity
  8
0
100
AcDbLine
 10
27.80314999999999
 20
89.959
 30
0.0
 11
28.68705
 21
90.28870000000001
 31
0.0
  0
LINE
  5
254
330
1E
100
AcDbEntity
  8
0
100
AcDbLine
 10
30.42335
 20
98.26
 30
0.0
 11
30.86335
 21
97.7693
 31
0.0
  0
LINE
  5
255
330
1E
100
AcDbEntity
  8
0
100
AcDbLine
 10
30.86335
 20
97.7693
 30
0.0
 11
31.21545
 21
97.25230000000001
 31
0.0
  0
LINE
  5
256
330
1E
100
AcDbEntity
  8
0
100
AcDbLine
 10
30.59895
 20
95.1909
 30
0.0
 11
31.03275
 21
95.7315
 31
0.0
  0
LINE
  5
257
330
1E
100
AcDbEntity
  8
0
100
AcDbLine
 10
30.42335
 20
92.6604
 30
0.0
 11
30.86335
 21
93.152
 31
0.0
  0
LINE
  5
258
330
1E
100
AcDbEntity
  8
0
100
AcDbLine
 10
30.94905
 20
99.26200000000001
 30
0.0
 11
31.54835
 21
98.74679999999999
 31
0.0
  0
LINE
  5
259
330
1E
100
AcDbEntity
  8
0
100
AcDbLine
 10
30.86335
 20
93.152
 30
0.0
 11
31.21545
 21
93.6691
 31
0.0
  0
LINE
  5
25A
330
1E
100
AcDbEntity
  8
0
100
AcDbLine
 10
30.50515
 20
89.98200000000002
 30
0.0
 11
31.34655
 21
90.44780000000001
 31
0.0
  0
LINE
  5
25B
330
1E
100
AcDbEntity
  8
0
100
AcDbLine
 10
30.41135
 20
89.9332
 30
0.0
 11
30.50515
 21
89.98200000000002
 31
0.0
  0
LINE
  5
25C
330
1E
100
AcDbEntity
  8
0
100
AcDbLine
 10
29.51235
 20
89.5241
 30
0.0
 11
30.41135
 21
89.9332
 31
0.0
  0
LINE
  5
25D
330
1E
100
AcDbEntity
  8
0
100
AcDbLine
 10
31.07515
 20
91.7181
 30
0.0
 11
31.68255
 21
92.2666
 31
0.0
  0
LINE
  5
25E
330
1E
100
AcDbEntity
  8
0
100
AcDbLine
 10
34.23384999999999
 20
-0.000000000000009
 30
0.0
 11
39.10985
 21
-0.0000000000000087
 31
0.0
  0
LINE
  5
25F
330
1E
100
AcDbEntity
  8
0
100
AcDbLine
 10
33.95785
 20
4.99999999999999
 30
0.0
 11
38.64985
 21
4.99999999999999
 31
0.0
  0
LINE
  5
260
330
1E
100
AcDbEntity
  8
0
100
AcDbLine
 10
34.23384999999999
 20
4.69999999999999
 30
0.0
 11
39.10985
 21
4.69999999999999
 31
0.0
  0
LINE
  5
261
330
1E
100
AcDbEntity
  8
0
100
AcDbLine
 10
42.78985
 20
-0.0000000000000084
 30
0.0
 11
44.99785
 21
-0.0000000000000081
 31
0.0
  0
LINE
  5
262
330
1E
100
AcDbEntity
  8
0
100
AcDbLine
 10
39.10985
 20
-0.0000000000000087
 30
0.0
 11
42.78985
 21
-0.0000000000000084
 31
0.0
  0
LINE
  5
263
330
1E
100
AcDbEntity
  8
0
100
AcDbLine
 10
44.99785
 20
-0.0000000000000081
 30
0.0
 11
45.82585
 21
-0.0000000000000077
 31
0.0
  0
LINE
  5
264
330
1E
100
AcDbEntity
  8
0
100
AcDbLine
 10
45.82585
 20
-0.0000000000000077
 30
0.0
 11
45.82585
 21
4.69999999999999
 31
0.0
  0
LINE
  5
265
330
1E
100
AcDbEntity
  8
0
100
AcDbLine
 10
44.99785
 20
-0.0000000000000074
 30
0.0
 11
45.82585
 21
-0.0000000000000077
 31
0.0
  0
LINE
  5
266
330
1E
100
AcDbEntity
  8
0
100
AcDbLine
 10
42.78985
 20
-0.000000000000007
 30
0.0
 11
44.99785
 21
-0.0000000000000074
 31
0.0
  0
LINE
  5
270
330
1E
100
AcDbEntity
  8
0
100
AcDbLine
 10
45.82585
 20
4.69999999999999
 30
0.0
 11
45.82585
 21
-0.000000000000008
 31
0.0
  0
LINE
  5
271
330
1E
100
AcDbEntity
  8
0
100
AcDbLine
 10
44.99785
 20
4.69999999999999
 30
0.0
 11
45.82585
 21
4.69999999999999
 31
0.0
  0
LINE
  5
284
330
1E
100
AcDbEntity
  8
0
100
AcDbLine
 10
43.69155
 20
76.45869999999999
 30
0.0
 11
43.75334999999999
 21
75.0308
 31
0.0
  0
LINE
  5
285
330
1E
100
AcDbEntity
  8
0
100
AcDbLine
 10
43.5931489198712
 20
81.8730510077002
 30
0.0
 11
43.69155
 21
76.45869999999999
 31
0.0
  0
LINE
  5
28A
330
1E
100
AcDbEntity
  8
0
100
AcDbLine
 10
43.52524999999999
 20
87.049
 30
0.0
 11
43.5931489198712
 21
81.8730510077002
 31
0.0
  0
LINE
  5
28B
330
1E
100
AcDbEntity
  8
0
100
AcDbLine
 10
43.48705
 20
90.1154
 30
0.0
 11
43.52524999999999
 21
87.049
 31
0.0
  0
LINE
  5
294
330
1E
100
AcDbEntity
  8
0
100
AcDbLine
 10
43.7769118202745
 20
52.27144657547879
 30
0.0
 11
51.08315000000001
 21
51.5495
 31
0.0
  0
LINE
  5
29A
330
1E
100
AcDbEntity
  8
0
100
AcDbLine
 10
52.94615
 20
54.8495
 30
0.0
 11
53.17415
 21
53.5885
 31
0.0
  0
LINE
  5
29B
330
1E
100
AcDbEntity
  8
0
100
AcDbLine
 10
52.82115000000001
 20
52.3285
 30
0.0
 11
53.17415
 21
53.5885
 31
0.0
  0
LINE
  5
29C
330
1E
100
AcDbEntity
  8
0
100
AcDbLine
 10
52.02215
 20
51.5495
 30
0.0
 11
52.82115000000001
 21
52.3285
 31
0.0
  0
LINE
  5
29D
330
1E
100
AcDbEntity
  8
0
100
AcDbLine
 10
51.08315000000001
 20
51.5495
 30
0.0
 11
52.02215
 21
51.5495
 31
0.0
  0
LINE
  5
29F
330
1E
100
AcDbEntity
  8
0
100
AcDbLine
 10
43.80415
 20
56.4615
 30
0.0
 11
52.22415
 21
55.6285
 31
0.0
  0
LINE
  5
2A0
330
1E
100
AcDbEntity
  8
0
100
AcDbLine
 10
52.22415
 20
55.6285
 30
0.0
 11
52.94615
 21
54.8495
 31
0.0
  0
LINE
  5
2A1
330
1E
100
AcDbEntity
  8
0
100
AcDbLine
 10
43.75334999999999
 20
75.0308
 30
0.0
 11
43.82585
 21
4.99999999999999
 31
0.0
  0
LINE
  5
2A2
330
1E
100
AcDbEntity
  8
0
100
AcDbLine
 10
43.75334999999999
 20
75.0308
 30
0.0
 11
43.82585
 21
5.0
 31
0.0
  0
LINE
  5
2A3
330
1E
100
AcDbEntity
  8
0
100
AcDbLine
 10
45.27385
 20
4.99999999999999
 30
0.0
 11
45.82585
 21
4.69999999999999
 31
0.0
  0
LINE
  5
2A4
330
1E
100
AcDbEntity
  8
0
100
AcDbLine
 10
38.64985
 20
4.99999999999999
 30
0.0
 11
45.27385
 21
4.99999999999999
 31
0.0
  0
LINE
  5
2A5
330
1E
100
AcDbEntity
  8
0
100
AcDbLine
 10
42.78985
 20
4.69999999999999
 30
0.0
 11
44.99785
 21
4.69999999999999
 31
0.0
  0
LINE
  5
2A6
330
1E
100
AcDbEntity
  8
0
100
AcDbLine
 10
39.10985
 20
4.69999999999999
 30
0.0
 11
42.78985
 21
4.69999999999999
 31
0.0
  0
LINE
  5
2A7
330
1E
100
AcDbEntity
  8
0
100
AcDbLine
 10
39.10985
 20
-0.0000000000000067
 30
0.0
 11
42.78985
 21
-0.000000000000007
 31
0.0
  0
LINE
  5
2A8
330
1E
100
AcDbEntity
  8
0
100
AcDbLine
 10
34.23384999999999
 20
-0.0000000000000065
 30
0.0
 11
39.10985
 21
-0.0000000000000067
 31
0.0
  0
LINE
  5
2A9
330
1E
100
AcDbEntity
  8
0
100
AcDbLine
 10
33.10713295813469
 20
91.8251527926721
 30
0.0
 11
33.67875
 21
92.1424
 31
0.0
  0
LINE
  5
2AA
330
1E
100
AcDbEntity
  8
0
100
AcDbLine
 10
32.79345
 20
91.51290000000001
 30
0.0
 11
33.38565
 21
92.1024
 31
0.0
  0
LINE
  5
2AB
330
1E
100
AcDbEntity
  8
0
100
AcDbLine
 10
32.11135
 20
90.95919999999999
 30
0.0
 11
32.79345
 21
91.51290000000001
 31
0.0
  0
LINE
  5
2AC
330
1E
100
AcDbEntity
  8
0
100
AcDbLine
 10
31.34655
 20
90.44780000000001
 30
0.0
 11
32.11135
 21
90.95919999999999
 31
0.0
  0
LINE
  5
2AD
330
1E
100
AcDbEntity
  8
0
100
AcDbLine
 10
31.68255
 20
92.2666
 30
0.0
 11
32.19104999999999
 21
92.85169999999999
 31
0.0
  0
LINE
  5
2AE
330
1E
100
AcDbEntity
  8
0
100
AcDbLine
 10
31.21545
 20
93.6691
 30
0.0
 11
31.47675
 21
94.2055
 31
0.0
  0
LINE
  5
2AF
330
1E
100
AcDbEntity
  8
0
100
AcDbLine
 10
31.47675
 20
94.2055
 30
0.0
 11
31.64525
 21
94.7554
 31
0.0
  0
LINE
  5
2B0
330
1E
100
AcDbEntity
  8
0
100
AcDbLine
 10
32.19104999999999
 20
92.85169999999999
 30
0.0
 11
32.59465
 21
93.46580000000001
 31
0.0
  0
LINE
  5
2B1
330
1E
100
AcDbEntity
  8
0
100
AcDbLine
 10
32.59465
 20
93.46580000000001
 30
0.0
 11
32.88725
 21
94.1032
 31
0.0
  0
LINE
  5
2B2
330
1E
100
AcDbEntity
  8
0
100
AcDbLine
 10
32.88725
 20
94.1032
 30
0.0
 11
33.05017028595109
 21
94.68831349392781
 31
0.0
  0
LINE
  5
2B3
330
1E
100
AcDbEntity
  8
0
100
AcDbLine
 10
33.00524999999999
 20
94.4368
 30
0.0
 11
33.11725
 21
95.06390000000001
 31
0.0
  0
LINE
  5
2B4
330
1E
100
AcDbEntity
  8
0
100
AcDbLine
 10
32.79034999999999
 20
93.8198
 30
0.0
 11
33.00524999999999
 21
94.4368
 31
0.0
  0
LINE
  5
2B5
330
1E
100
AcDbEntity
  8
0
100
AcDbLine
 10
32.47255
 20
93.2201
 30
0.0
 11
32.79034999999999
 21
93.8198
 31
0.0
  0
LINE
  5
2B6
330
1E
100
AcDbEntity
  8
0
100
AcDbLine
 10
32.05785
 20
92.64180000000001
 30
0.0
 11
32.47255
 21
93.2201
 31
0.0
  0
LINE
  5
2B7
330
1E
100
AcDbEntity
  8
0
100
AcDbLine
 10
33.67875
 20
92.1424
 30
0.0
 11
35.77664999999999
 21
93.55029999999999
 31
0.0
  0
LINE
  5
2B8
330
1E
100
AcDbEntity
  8
0
100
AcDbLine
 10
34.57314999999999
 20
94.03879999999999
 30
0.0
 11
34.62664999999999
 21
94.19459999999999
 31
0.0
  0
LINE
  5
2B9
330
1E
100
AcDbEntity
  8
0
100
AcDbLine
 10
34.27955
 20
93.3717
 30
0.0
 11
34.57314999999999
 21
94.03879999999999
 31
0.0
  0
LINE
  5
2BA
330
1E
100
AcDbEntity
  8
0
100
AcDbLine
 10
33.88205
 20
92.7237
 30
0.0
 11
34.27955
 21
93.3717
 31
0.0
  0
LINE
  5
2BB
330
1E
100
AcDbEntity
  8
0
100
AcDbLine
 10
33.38565
 20
92.1024
 30
0.0
 11
33.88205
 21
92.7237
 31
0.0
  0
LINE
  5
2BC
330
1E
100
AcDbEntity
  8
0
100
AcDbLine
 10
31.64525
 20
94.7554
 30
0.0
 11
33.0621519295168
 21
94.7554
 31
0.0
  0
LINE
  5
2BD
330
1E
100
AcDbEntity
  8
0
100
AcDbLine
 10
31.64525
 20
94.7554
 30
0.0
 11
31.64525
 21
96.1658
 31
0.0
  0
LINE
  5
2C2
330
1E
100
AcDbEntity
  8
0
100
AcDbLine
 10
33.11725
 20
95.06390000000001
 30
0.0
 11
33.12125
 21
95.41960000000001
 31
0.0
  0
LINE
  5
2C3
330
1E
100
AcDbEntity
  8
0
100
AcDbLine
 10
31.21545
 20
97.25230000000001
 30
0.0
 11
31.47675
 21
96.7158
 31
0.0
  0
LINE
  5
2C4
330
1E
100
AcDbEntity
  8
0
100
AcDbLine
 10
31.47675
 20
96.7158
 30
0.0
 11
31.64525
 21
96.1658
 31
0.0
  0
LINE
  5
2C5
330
1E
100
AcDbEntity
  8
0
100
AcDbLine
 10
31.54835
 20
98.74679999999999
 30
0.0
 11
32.05785
 21
98.1985
 31
0.0
  0
LINE
  5
2C6
330
1E
100
AcDbEntity
  8
0
100
AcDbLine
 10
31.36475
 20
96.2986
 30
0.0
 11
31.4981861254773
 21
96.6458304509643
 31
0.0
  0
LINE
  5
2C7
330
1E
100
AcDbEntity
  8
0
100
AcDbLine
 10
31.03275
 20
95.7315
 30
0.0
 11
31.36475
 21
96.2986
 31
0.0
  0
LINE
  5
2C8
330
1E
100
AcDbEntity
  8
0
100
AcDbLine
 10
33.11725
 20
95.77719999999999
 30
0.0
 11
33.12125
 21
95.41960000000001
 31
0.0
  0
LINE
  5
2CA
330
1E
100
AcDbEntity
  8
0
100
AcDbLine
 10
31.81354999999999
 20
111.461
 30
0.0
 11
40.52375
 21
111.2989999999999
 31
0.0
  0
LINE
  5
2CB
330
1E
100
AcDbEntity
  8
0
100
AcDbLine
 10
32.99210369107639
 20
96.44108934819831
 30
0.0
 11
33.00997365430589
 21
96.37698971137199
 31
0.0
  0
LINE
  5
2CC
330
1E
100
AcDbEntity
  8
0
100
AcDbLine
 10
33.00524999999999
 20
96.40340000000001
 30
0.0
 11
33.11725
 21
95.77719999999999
 31
0.0
  0
LINE
  5
2CD
330
1E
100
AcDbEntity
  8
0
100
AcDbLine
 10
32.79034999999999
 20
97.0195
 30
0.0
 11
33.00524999999999
 21
96.40340000000001
 31
0.0
  0
LINE
  5
2CE
330
1E
100
AcDbEntity
  8
0
100
AcDbLine
 10
32.54955
 20
122.477
 30
0.0
 11
34.99255
 21
122.477
 31
0.0
  0
LINE
  5
2CF
330
1E
100
AcDbEntity
  8
0
100
AcDbLine
 10
33.55385
 20
163.752
 30
0.0
 11
37.11195
 21
163.536
 31
0.0
  0
LINE
  5
2D1
330
1E
100
AcDbEntity
  8
0
100
AcDbLine
 10
32.47255
 20
97.6209
 30
0.0
 11
32.79034999999999
 21
97.0195
 31
0.0
  0
LINE
  5
2D2
330
1E
100
AcDbEntity
  8
0
100
AcDbLine
 10
32.05785
 20
98.1985
 30
0.0
 11
32.47255
 21
97.6209
 31
0.0
  0
LINE
  5
2D4
330
1E
100
AcDbEntity
  8
0
100
AcDbLine
 10
31.64525
 20
96.1658
 30
0.0
 11
31.64525
 21
94.7554
 31
0.0
  0
LINE
  5
2D5
330
1E
100
AcDbEntity
  8
0
100
AcDbLine
 10
31.64525
 20
96.1658
 30
0.0
 11
33.0477463270521
 21
96.1658
 31
0.0
  0
LINE
  5
2DA
330
1E
100
AcDbEntity
  8
0
100
AcDbLine
 10
43.43085
 20
94.044
 30
0.0
 11
43.46074999999999
 21
92.12529999999999
 31
0.0
  0
LINE
  5
2DB
330
1E
100
AcDbEntity
  8
0
100
AcDbLine
 10
43.46074999999999
 20
92.12529999999999
 30
0.0
 11
43.48705
 21
90.1154
 31
0.0
  0
LINE
  5
2DC
330
1E
100
AcDbEntity
  8
0
100
AcDbLine
 10
35.77664999999999
 20
93.55029999999999
 30
0.0
 11
37.54285
 21
95.0416
 31
0.0
  0
LINE
  5
2DD
330
1E
100
AcDbEntity
  8
0
100
AcDbLine
 10
34.89705
 20
99.24015736125509
 30
0.0
 11
34.89705
 21
95.91559999999999
 31
0.0
  0
LINE
  5
2DE
330
1E
100
AcDbEntity
  8
0
100
AcDbLine
 10
34.89025
 20
95.74330000000001
 30
0.0
 11
34.89705
 21
95.91559999999999
 31
0.0
  0
LINE
  5
2DF
330
1E
100
AcDbEntity
  8
0
100
AcDbLine
 10
34.89705
 20
95.5719
 30
0.0
 11
34.89705
 21
95.91559999999999
 31
0.0
  0
LINE
  5
2E0
330
1E
100
AcDbEntity
  8
0
100
AcDbLine
 10
38.1794346715887
 20
120.993155338128
 30
0.0
 11
39.54254999999999
 21
120.994
 31
0.0
  0
LINE
  5
2E1
330
1E
100
AcDbEntity
  8
0
100
AcDbLine
 10
38.35585
 20
95.8069
 30
0.0
 11
38.91645
 21
96.349
 31
0.0
  0
LINE
  5
2E2
330
1E
100
AcDbEntity
  8
0
100
AcDbLine
 10
37.54285
 20
95.0416
 30
0.0
 11
38.35585
 21
95.8069
 31
0.0
  0
LINE
  5
2E3
330
1E
100
AcDbEntity
  8
0
100
AcDbLine
 10
34.99255
 20
122.477
 30
0.0
 11
36.80115
 21
122.477
 31
0.0
  0
LINE
  5
2E4
330
1E
100
AcDbEntity
  8
0
100
AcDbLine
 10
38.91645
 20
96.349
 30
0.0
 11
39.04455
 21
96.49070000000001
 31
0.0
  0
LINE
  5
2E5
330
1E
100
AcDbEntity
  8
0
100
AcDbLine
 10
39.04455
 20
96.49070000000001
 30
0.0
 11
39.29305
 21
96.77939999999999
 31
0.0
  0
LINE
  5
2E6
330
1E
100
AcDbEntity
  8
0
100
AcDbLine
 10
39.54254999999999
 20
120.994
 30
0.0
 11
40.75085
 21
120.995
 31
0.0
  0
LINE
  5
2E7
330
1E
100
AcDbEntity
  8
0
100
AcDbLine
 10
39.52855
 20
97.07
 30
0.0
 11
39.96405
 21
97.66429999999999
 31
0.0
  0
LINE
  5
2E8
330
1E
100
AcDbEntity
  8
0
100
AcDbLine
 10
39.29305
 20
96.77939999999999
 30
0.0
 11
39.52855
 21
97.07
 31
0.0
  0
LINE
  5
2E9
330
1E
100
AcDbEntity
  8
0
100
AcDbLine
 10
38.25524999999999
 20
122.477
 30
0.0
 11
39.74394999999999
 21
122.477
 31
0.0
  0
LINE
  5
2EA
330
1E
100
AcDbEntity
  8
0
100
AcDbLine
 10
36.57755
 20
122.477
 30
0.0
 11
38.25524999999999
 21
122.477
 31
0.0
  0
LINE
  5
2EB
330
1E
100
AcDbEntity
  8
0
100
AcDbLine
 10
40.40135
 20
98.35219999999999
 30
0.0
 11
40.69194999999999
 21
98.9385
 31
0.0
  0
LINE
  5
2EC
330
1E
100
AcDbEntity
  8
0
100
AcDbLine
 10
39.96405
 20
97.66429999999999
 30
0.0
 11
40.40135
 21
98.35219999999999
 31
0.0
  0
LINE
  5
2ED
330
1E
100
AcDbEntity
  8
0
100
AcDbLine
 10
41.31244999999999
 20
120.996
 30
0.0
 11
41.70955
 21
120.997
 31
0.0
  0
LINE
  5
2EE
330
1E
100
AcDbEntity
  8
0
100
AcDbLine
 10
40.75085
 20
120.995
 30
0.0
 11
41.31244999999999
 21
120.996
 31
0.0
  0
LINE
  5
2EF
330
1E
100
AcDbEntity
  8
0
100
AcDbLine
 10
41.54144999999999
 20
100.951
 30
0.0
 11
41.65725
 21
101.4079999999999
 31
0.0
  0
LINE
  5
2F0
330
1E
100
AcDbEntity
  8
0
100
AcDbLine
 10
41.22555
 20
100.0329999999999
 30
0.0
 11
41.54144999999999
 21
100.951
 31
0.0
  0
LINE
  5
2F1
330
1E
100
AcDbEntity
  8
0
100
AcDbLine
 10
40.69194999999999
 20
98.9385
 30
0.0
 11
41.22555
 21
100.0329999999999
 31
0.0
  0
LINE
  5
2F2
330
1E
100
AcDbEntity
  8
0
100
AcDbLine
 10
41.0661925925926
 20
122.477
 30
0.0
 11
41.26624999999999
 21
121.0739999999999
 31
0.0
  0
LINE
  5
2F3
330
1E
100
AcDbEntity
  8
0
100
AcDbLine
 10
41.26624999999999
 20
121.0739999999999
 30
0.0
 11
41.2699128590992
 21
120.995924257228
 31
0.0
  0
LINE
  5
2F4
330
1E
100
AcDbEntity
  8
0
100
AcDbLine
 10
41.78714999999999
 20
102.0399999999999
 30
0.0
 11
41.84045
 21
102.516
 31
0.0
  0
LINE
  5
2F5
330
1E
100
AcDbEntity
  8
0
100
AcDbLine
 10
41.69465
 20
101.5709999999999
 30
0.0
 11
41.78714999999999
 21
102.0399999999999
 31
0.0
  0
LINE
  5
2F6
330
1E
100
AcDbEntity
  8
0
100
AcDbLine
 10
41.65725
 20
101.4079999999999
 30
0.0
 11
41.69465
 21
101.5709999999999
 31
0.0
  0
LINE
  5
2F7
330
1E
100
AcDbEntity
  8
0
100
AcDbLine
 10
41.84045
 20
102.516
 30
0.0
 11
41.86655
 21
103.217
 31
0.0
  0
LINE
  5
2F8
330
1E
100
AcDbEntity
  8
0
100
AcDbLine
 10
41.86655
 20
103.217
 30
0.0
 11
41.87305
 21
103.536
 31
0.0
  0
LINE
  5
2F9
330
1E
100
AcDbEntity
  8
0
100
AcDbLine
 10
41.87305
 20
103.536
 30
0.0
 11
41.88435
 21
104.682
 31
0.0
  0
LINE
  5
2FA
330
1E
100
AcDbEntity
  8
0
100
AcDbLine
 10
41.88435
 20
104.682
 30
0.0
 11
41.89745
 21
105.691
 31
0.0
  0
LINE
  5
2FB
330
1E
100
AcDbEntity
  8
0
100
AcDbLine
 10
41.89745
 20
105.691
 30
0.0
 11
41.91335
 21
106.662
 31
0.0
  0
LINE
  5
2FC
330
1E
100
AcDbEntity
  8
0
100
AcDbLine
 10
41.91335
 20
106.662
 30
0.0
 11
41.9430200555591
 21
107.995803882751
 31
0.0
  0
LINE
  5
2FE
330
1E
100
AcDbEntity
  8
0
100
AcDbLine
 10
41.70955
 20
120.997
 30
0.0
 11
41.91245
 21
120.996
 31
0.0
  0
LINE
  5
2FF
330
1E
100
AcDbEntity
  8
0
100
AcDbLine
 10
41.91245
 20
120.996
 30
0.0
 11
42.01984999999999
 21
120.991
 31
0.0
  0
LINE
  5
300
330
1E
100
AcDbEntity
  8
0
100
AcDbLine
 10
41.97065046020479
 20
108.829396418251
 30
0.0
 11
42.01414999999999
 21
109.166
 31
0.0
  0
LINE
  5
302
330
1E
100
AcDbEntity
  8
0
100
AcDbLine
 10
42.01984999999999
 20
120.991
 30
0.0
 11
42.34415
 21
120.9359999999999
 31
0.0
  0
LINE
  5
303
330
1E
100
AcDbEntity
  8
0
100
AcDbLine
 10
42.07595
 20
109.505
 30
0.0
 11
42.10675
 21
109.5699999999999
 31
0.0
  0
LINE
  5
304
330
1E
100
AcDbEntity
  8
0
100
AcDbLine
 10
42.01414999999999
 20
109.166
 30
0.0
 11
42.07595
 21
109.505
 31
0.0
  0
LINE
  5
305
330
1E
100
AcDbEntity
  8
0
100
AcDbLine
 10
41.96755
 20
108.761
 30
0.0
 11
41.97065046020479
 21
108.829396418251
 31
0.0
  0
LINE
  5
306
330
1E
100
AcDbEntity
  8
0
100
AcDbLine
 10
41.94605
 20
108.0849999999999
 30
0.0
 11
41.96755
 21
108.761
 31
0.0
  0
LINE
  5
307
330
1E
100
AcDbEntity
  8
0
100
AcDbLine
 10
41.9430200555591
 20
107.995803882751
 30
0.0
 11
41.94605
 21
108.0849999999999
 31
0.0
  0
LINE
  5
308
330
1E
100
AcDbEntity
  8
0
100
AcDbLine
 10
42.73655
 20
120.67
 30
0.0
 11
42.87765
 21
120.4079999999999
 31
0.0
  0
LINE
  5
309
330
1E
100
AcDbEntity
  8
0
100
AcDbLine
 10
42.73655
 20
120.67
 30
0.0
 11
42.77955
 21
120.592
 31
0.0
  0
LINE
  5
30A
330
1E
100
AcDbEntity
  8
0
100
AcDbLine
 10
42.52255
 20
120.857
 30
0.0
 11
42.73655
 21
120.67
 31
0.0
  0
LINE
  5
30B
330
1E
100
AcDbEntity
  8
0
100
AcDbLine
 10
42.34415
 20
120.9359999999999
 30
0.0
 11
42.52255
 21
120.857
 31
0.0
  0
LINE
  5
30C
330
1E
100
AcDbEntity
  8
0
100
AcDbLine
 10
42.36955
 20
122.477
 30
0.0
 11
42.59685
 21
122.5419999999999
 31
0.0
  0
LINE
  5
30D
330
1E
100
AcDbEntity
  8
0
100
AcDbLine
 10
42.28145
 20
122.477
 30
0.0
 11
42.36955
 21
122.477
 31
0.0
  0
LINE
  5
30E
330
1E
100
AcDbEntity
  8
0
100
AcDbLine
 10
42.11325
 20
122.477
 30
0.0
 11
42.28145
 21
122.477
 31
0.0
  0
LINE
  5
30F
330
1E
100
AcDbEntity
  8
0
100
AcDbLine
 10
41.61525
 20
122.477
 30
0.0
 11
42.11325
 21
122.477
 31
0.0
  0
LINE
  5
310
330
1E
100
AcDbEntity
  8
0
100
AcDbLine
 10
42.59685
 20
122.5419999999999
 30
0.0
 11
42.76304999999999
 21
122.7249999999999
 31
0.0
  0
LINE
  5
311
330
1E
100
AcDbEntity
  8
0
100
AcDbLine
 10
42.81584999999999
 20
158.682
 30
0.0
 11
42.82224999999999
 21
134.5679999999999
 31
0.0
  0
LINE
  5
312
330
1E
100
AcDbEntity
  8
0
100
AcDbLine
 10
42.76304999999999
 20
122.7249999999999
 30
0.0
 11
42.82585
 21
122.971
 31
0.0
  0
LINE
  5
315
330
1E
100
AcDbEntity
  8
0
100
AcDbLine
 10
42.82224999999999
 20
134.5679999999999
 30
0.0
 11
42.82585
 21
122.971
 31
0.0
  0
LINE
  5
316
330
1E
100
AcDbEntity
  8
0
100
AcDbLine
 10
42.82224999999999
 20
134.5679999999999
 30
0.0
 11
42.81584999999999
 21
158.682
 31
0.0
  0
LINE
  5
317
330
1E
100
AcDbEntity
  8
0
100
AcDbLine
 10
40.72004999999999
 20
122.477
 30
0.0
 11
41.61525
 21
122.477
 31
0.0
  0
LINE
  5
318
330
1E
100
AcDbEntity
  8
0
100
AcDbLine
 10
39.74394999999999
 20
122.477
 30
0.0
 11
40.72004999999999
 21
122.477
 31
0.0
  0
LINE
  5
31A
330
1E
100
AcDbEntity
  8
0
100
AcDbLine
 10
42.73674999999999
 20
159.466
 30
0.0
 11
42.79044999999999
 21
159.243
 31
0.0
  0
LINE
  5
31B
330
1E
100
AcDbEntity
  8
0
100
AcDbLine
 10
42.79044999999999
 20
159.243
 30
0.0
 11
42.81584999999999
 21
158.682
 31
0.0
  0
LINE
  5
329
330
1E
100
AcDbEntity
  8
0
100
AcDbLine
 10
42.87765
 20
120.4079999999999
 30
0.0
 11
42.93004999999999
 21
120.1969999999999
 31
0.0
  0
LINE
  5
32A
330
1E
100
AcDbEntity
  8
0
100
AcDbLine
 10
42.96275
 20
119.694
 30
0.0
 11
43.43085
 21
94.044
 31
0.0
  0
LINE
  5
32B
330
1E
100
AcDbEntity
  8
0
100
AcDbLine
 10
42.96275
 20
119.694
 30
0.0
 11
43.43085
 21
94.044
 31
0.0
  0
LINE
  5
32C
330
1E
100
AcDbEntity
  8
0
100
AcDbLine
 10
42.93004999999999
 20
120.1969999999999
 30
0.0
 11
42.96275
 21
119.694
 31
0.0
  0
LINE
  5
330
330
1E
100
AcDbEntity
  8
0
100
AcDbLine
 10
38.02165
 20
163.4509999999999
 30
0.0
 11
38.45615
 21
163.384
 31
0.0
  0
LINE
  5
331
330
1E
100
AcDbEntity
  8
0
100
AcDbLine
 10
39.05604999999999
 20
163.2479999999999
 30
0.0
 11
39.56495
 21
163.0729999999999
 31
0.0
  0
LINE
  5
332
330
1E
100
AcDbEntity
  8
0
100
AcDbLine
 10
39.56495
 20
163.0729999999999
 30
0.0
 11
39.96025
 21
162.87
 31
0.0
  0
LINE
  5
333
330
1E
100
AcDbEntity
  8
0
100
AcDbLine
 10
38.45615
 20
163.384
 30
0.0
 11
39.05604999999999
 21
163.2479999999999
 31
0.0
  0
LINE
  5
334
330
1E
100
AcDbEntity
  8
0
100
AcDbLine
 10
39.96025
 20
162.87
 30
0.0
 11
40.15205
 21
162.757
 31
0.0
  0
LINE
  5
335
330
1E
100
AcDbEntity
  8
0
100
AcDbLine
 10
37.11195
 20
163.536
 30
0.0
 11
38.02165
 21
163.4509999999999
 31
0.0
  0
LINE
  5
336
330
1E
100
AcDbEntity
  8
0
100
AcDbLine
 10
40.15205
 20
162.757
 30
0.0
 11
40.43915
 21
162.52
 31
0.0
  0
LINE
  5
337
330
1E
100
AcDbEntity
  8
0
100
AcDbLine
 10
40.70454999999999
 20
162.125
 30
0.0
 11
40.79184999999999
 21
161.8179999999999
 31
0.0
  0
LINE
  5
338
330
1E
100
AcDbEntity
  8
0
100
AcDbLine
 10
40.79184999999999
 20
161.8179999999999
 30
0.0
 11
40.84725
 21
161.6089999999999
 31
0.0
  0
LINE
  5
339
330
1E
100
AcDbEntity
  8
0
100
AcDbLine
 10
42.34865
 20
159.8939999999999
 30
0.0
 11
42.58594999999999
 21
159.725
 31
0.0
  0
LINE
  5
33A
330
1E
100
AcDbEntity
  8
0
100
AcDbLine
 10
42.58594999999999
 20
159.725
 30
0.0
 11
42.73674999999999
 21
159.466
 31
0.0
  0
LINE
  5
33B
330
1E
100
AcDbEntity
  8
0
100
AcDbLine
 10
41.18265
 20
159.6279999999999
 30
0.0
 11
41.29895
 21
159.397
 31
0.0
  0
LINE
  5
33C
330
1E
100
AcDbEntity
  8
0
100
AcDbLine
 10
41.18127217744979
 20
159.632870388696
 30
0.0
 11
41.22455
 21
159.592
 31
0.0
  0
LINE
  5
33D
330
1E
100
AcDbEntity
  8
0
100
AcDbLine
 10
40.98455
 20
160.561
 30
0.0
 11
41.05175
 21
160.157
 31
0.0
  0
LINE
  5
33E
330
1E
100
AcDbEntity
  8
0
100
AcDbLine
 10
40.93905
 20
160.8729999999999
 30
0.0
 11
40.98455
 21
160.561
 31
0.0
  0
LINE
  5
33F
330
1E
100
AcDbEntity
  8
0
100
AcDbLine
 10
41.55075
 20
160.007
 30
0.0
 11
42.07514999999999
 21
159.967
 31
0.0
  0
LINE
  5
340
330
1E
100
AcDbEntity
  8
0
100
AcDbLine
 10
42.07514999999999
 20
159.967
 30
0.0
 11
42.14065
 21
159.96
 31
0.0
  0
LINE
  5
341
330
1E
100
AcDbEntity
  8
0
100
AcDbLine
 10
42.14065
 20
159.96
 30
0.0
 11
42.34235
 21
159.898
 31
0.0
  0
LINE
  5
342
330
1E
100
AcDbEntity
  8
0
100
AcDbLine
 10
41.27805
 20
160.019
 30
0.0
 11
41.55075
 21
160.007
 31
0.0
  0
LINE
  5
343
330
1E
100
AcDbEntity
  8
0
100
AcDbLine
 10
41.0784422288956
 20
160.025146821118
 30
0.0
 11
41.27805
 21
160.019
 31
0.0
  0
LINE
  5
344
330
1E
100
AcDbEntity
  8
0
100
AcDbLine
 10
41.05175
 20
160.157
 30
0.0
 11
41.11814999999999
 21
159.829
 31
0.0
  0
LINE
  5
345
330
1E
100
AcDbEntity
  8
0
100
AcDbLine
 10
41.09893353974659
 20
159.92392468318
 30
0.0
 11
41.18265
 21
159.6279999999999
 31
0.0
  0
LINE
  5
346
330
1E
100
AcDbEntity
  8
0
100
AcDbLine
 10
40.84725
 20
161.6089999999999
 30
0.0
 11
40.93905
 21
160.8729999999999
 31
0.0
  0
LINE
  5
347
330
1E
100
AcDbEntity
  8
0
100
AcDbLine
 10
40.55285
 20
162.365
 30
0.0
 11
40.70454999999999
 21
162.125
 31
0.0
  0
LINE
  5
348
330
1E
100
AcDbEntity
  8
0
100
AcDbLine
 10
40.43915
 20
162.52
 30
0.0
 11
40.55285
 21
162.365
 31
0.0
  0
LINE
  5
349
330
1E
100
AcDbEntity
  8
0
100
AcDbLine
 10
34.89705
 20
95.91559999999999
 30
0.0
 11
34.89705
 21
95.5719
 31
0.0
  0
LINE
  5
34A
330
1E
100
AcDbEntity
  8
0
100
AcDbLine
 10
34.89705
 20
95.91559999999999
 30
0.0
 11
34.89705
 21
99.24015736125509
 31
0.0
  0
LINE
  5
34B
330
1E
100
AcDbEntity
  8
0
100
AcDbLine
 10
34.81535
 20
94.87909999999999
 30
0.0
 11
34.89705
 21
95.5719
 31
0.0
  0
LINE
  5
34C
330
1E
100
AcDbEntity
  8
0
100
AcDbLine
 10
34.62664999999999
 20
94.19459999999999
 30
0.0
 11
34.81535
 21
94.87909999999999
 31
0.0
  0
LINE
  5
34D
330
1E
100
AcDbEntity
  8
0
100
AcDbLine
 10
31.54835
 20
92.0936
 30
0.0
 11
32.05785
 21
92.64180000000001
 31
0.0
  0
LINE
  5
34E
330
1E
100
AcDbEntity
  8
0
100
AcDbLine
 10
30.94905
 20
91.57819999999999
 30
0.0
 11
31.54835
 21
92.0936
 31
0.0
  0
LINE
  5
353
330
1E
100
AcDbEntity
  8
0
100
AcDbLine
 10
25.51054999999999
 20
154.474
 30
0.0
 11
29.73426736425745
 21
154.5726029395884
 31
0.0
  0
LINE
  5
354
330
1E
100
AcDbEntity
  8
0
100
AcDbLine
 10
29.73426736425745
 20
154.5726029395884
 30
0.0
 11
34.27198238056985
 21
155.2627218692496
 31
0.0
  0
LINE
  5
355
330
1E
100
AcDbEntity
  8
0
100
AcDbLine
 10
34.27198238056985
 20
155.2627218692496
 30
0.0
 11
38.02052953330394
 21
156.4950771282463
 31
0.0
  0
LINE
  5
356
330
1E
100
AcDbEntity
  8
0
100
AcDbLine
 10
38.02052953330394
 20
156.4950771282463
 30
0.0
 11
40.33870988348633
 21
157.8753146031435
 31
0.0
  0
LINE
  5
357
330
1E
100
AcDbEntity
  8
0
100
AcDbLine
 10
40.33870988348633
 20
157.8753146031435
 30
0.0
 11
41.29895
 21
159.397
 31
0.0
  0
LINE
  5
358
330
1E
100
AcDbEntity
  8
0
100
AcDbLine
 10
19.48945
 20
154.474
 30
0.0
 11
15.26573263574255
 21
154.5726029395884
 31
0.0
  0
LINE
  5
359
330
1E
100
AcDbEntity
  8
0
100
AcDbLine
 10
22.82585
 20
4.69999999999999
 30
0.0
 11
16.28614999999999
 21
4.69999999999999
 31
0.0
  0
LINE
  5
35A
330
1E
100
AcDbEntity
  8
0
100
AcDbLine
 10
22.82585
 20
4.99999999999999
 30
0.0
 11
16.37815
 21
4.99999999999999
 31
0.0
  0
LINE
  5
35B
330
1E
100
AcDbEntity
  8
0
100
AcDbLine
 10
22.82585
 20
-0.0000000000000063
 30
0.0
 11
16.28614999999999
 21
-0.0000000000000091
 31
0.0
  0
LINE
  5
35C
330
1E
100
AcDbEntity
  8
0
100
AcDbLine
 10
22.82585
 20
-0.0000000000000063
 30
0.0
 11
16.28614999999999
 21
-0.0000000000000091
 31
0.0
  0
LINE
  5
35D
330
1E
100
AcDbEntity
  8
0
100
AcDbLine
 10
18.59234999999999
 20
163.983
 30
0.0
 11
15.01514999999999
 21
163.898
 31
0.0
  0
LINE
  5
35E
330
1E
100
AcDbEntity
  8
0
100
AcDbLine
 10
19.63575
 20
122.477
 30
0.0
 11
17.14104999999999
 21
122.477
 31
0.0
  0
LINE
  5
35F
330
1E
100
AcDbEntity
  8
0
100
AcDbLine
 10
20.71915
 20
122.477
 30
0.0
 11
18.41884999999999
 21
122.477
 31
0.0
  0
LINE
  5
360
330
1E
100
AcDbEntity
  8
0
100
AcDbLine
 10
22.17415
 20
111.8929999999999
 30
0.0
 11
13.18645
 21
111.461
 31
0.0
  0
LINE
  5
361
330
1E
100
AcDbEntity
  8
0
100
AcDbLine
 10
19.10675
 20
101.37
 30
0.0
 11
18.13105
 21
101.1549999999999
 31
0.0
  0
LINE
  5
362
330
1E
100
AcDbEntity
  8
0
100
AcDbLine
 10
18.78284999999999
 20
100.431
 30
0.0
 11
17.87385
 21
100.1679999999999
 31
0.0
  0
LINE
  5
363
330
1E
100
AcDbEntity
  8
0
100
AcDbLine
 10
18.78284999999999
 20
90.49049999999999
 30
0.0
 11
17.87385
 21
90.7526
 31
0.0
  0
LINE
  5
364
330
1E
100
AcDbEntity
  8
0
100
AcDbLine
 10
18.76775
 20
92.84200000000002
 30
0.0
 11
17.87385
 21
93.1
 31
0.0
  0
LINE
  5
365
330
1E
100
AcDbEntity
  8
0
100
AcDbLine
 10
18.50945
 20
88.6316
 30
0.0
 11
17.45714999999999
 21
88.87
 31
0.0
  0
LINE
  5
366
330
1E
100
AcDbEntity
  8
0
100
AcDbLine
 10
19.10675
 20
89.4707
 30
0.0
 11
18.13105
 21
89.68519999999999
 31
0.0
  0
LINE
  5
367
330
1E
100
AcDbEntity
  8
0
100
AcDbLine
 10
19.13905
 20
89.50459999999999
 30
0.0
 11
18.14725
 21
89.72230000000001
 31
0.0
  0
LINE
  5
368
330
1E
100
AcDbEntity
  8
0
100
AcDbLine
 10
20.14105
 20
133.346
 30
0.0
 11
20.02745
 21
133.126
 31
0.0
  0
LINE
  5
369
330
1E
100
AcDbEntity
  8
0
100
AcDbLine
 10
20.71905
 20
90.16299999999999
 30
0.0
 11
19.73535
 21
90.29349999999999
 31
0.0
  0
LINE
  5
36A
330
1E
100
AcDbEntity
  8
0
100
AcDbLine
 10
20.67064999999999
 20
92.5149
 30
0.0
 11
19.70404999999999
 21
92.64619999999998
 31
0.0
  0
LINE
  5
36B
330
1E
100
AcDbEntity
  8
0
100
AcDbLine
 10
20.70285
 20
88.34180000000001
 30
0.0
 11
19.59505
 21
88.4551
 31
0.0
  0
LINE
  5
36C
330
1E
100
AcDbEntity
  8
0
100
AcDbLine
 10
21.13875
 20
89.22490000000001
 30
0.0
 11
20.11165
 21
89.3163
 31
0.0
  0
LINE
  5
36D
330
1E
100
AcDbEntity
  8
0
100
AcDbLine
 10
21.20735
 20
89.26199999999999
 30
0.0
 11
20.16205
 21
89.3515
 31
0.0
  0
LINE
  5
36E
330
1E
100
AcDbEntity
  8
0
100
AcDbLine
 10
21.82284999999999
 20
88.2925
 30
0.0
 11
20.70285
 21
88.34180000000001
 31
0.0
  0
LINE
  5
36F
330
1E
100
AcDbEntity
  8
0
100
AcDbLine
 10
22.38304999999999
 20
88.2925
 30
0.0
 11
22.10294999999999
 21
88.29640000000001
 31
0.0
  0
LINE
  5
370
330
1E
100
AcDbEntity
  8
0
100
AcDbLine
 10
22.10294999999999
 20
88.29640000000001
 30
0.0
 11
21.82284999999999
 21
88.2925
 31
0.0
  0
LINE
  5
371
330
1E
100
AcDbEntity
  8
0
100
AcDbLine
 10
21.71995
 20
90.1013
 30
0.0
 11
20.71905
 21
90.16299999999999
 31
0.0
  0
LINE
  5
372
330
1E
100
AcDbEntity
  8
0
100
AcDbLine
 10
21.65434999999999
 20
92.4507
 30
0.0
 11
20.67064999999999
 21
92.5149
 31
0.0
  0
LINE
  5
373
330
1E
100
AcDbEntity
  8
0
100
AcDbLine
 10
22.10294999999999
 20
89.1994
 30
0.0
 11
21.13875
 21
89.22490000000001
 31
0.0
  0
LINE
  5
374
330
1E
100
AcDbEntity
  8
0
100
AcDbLine
 10
22.10294999999999
 20
89.2421
 30
0.0
 11
21.20735
 21
89.26199999999999
 31
0.0
  0
LINE
  5
375
330
1E
100
AcDbEntity
  8
0
100
AcDbLine
 10
22.48594999999999
 20
90.1013
 30
0.0
 11
22.10294999999999
 21
90.1045
 31
0.0
  0
LINE
  5
376
330
1E
100
AcDbEntity
  8
0
100
AcDbLine
 10
22.10294999999999
 20
90.1045
 30
0.0
 11
21.71995
 21
90.1013
 31
0.0
  0
LINE
  5
377
330
1E
100
AcDbEntity
  8
0
100
AcDbLine
 10
22.55154999999999
 20
92.4507
 30
0.0
 11
22.10294999999999
 21
92.4524
 31
0.0
  0
LINE
  5
378
330
1E
100
AcDbEntity
  8
0
100
AcDbLine
 10
22.10294999999999
 20
92.4524
 30
0.0
 11
21.65434999999999
 21
92.4507
 31
0.0
  0
LINE
  5
379
330
1E
100
AcDbEntity
  8
0
100
AcDbLine
 10
19.73535
 20
90.29349999999999
 30
0.0
 11
18.78284999999999
 21
90.49049999999999
 31
0.0
  0
LINE
  5
37A
330
1E
100
AcDbEntity
  8
0
100
AcDbLine
 10
19.70404999999999
 20
92.64619999999998
 30
0.0
 11
18.76775
 21
92.84200000000002
 31
0.0
  0
LINE
  5
37B
330
1E
100
AcDbEntity
  8
0
100
AcDbLine
 10
19.59505
 20
88.4551
 30
0.0
 11
18.50945
 21
88.6316
 31
0.0
  0
LINE
  5
37C
330
1E
100
AcDbEntity
  8
0
100
AcDbLine
 10
20.11165
 20
89.3163
 30
0.0
 11
19.10675
 21
89.4707
 31
0.0
  0
LINE
  5
37D
330
1E
100
AcDbEntity
  8
0
100
AcDbLine
 10
20.16205
 20
89.3515
 30
0.0
 11
19.13905
 21
89.50459999999999
 31
0.0
  0
LINE
  5
37E
330
1E
100
AcDbEntity
  8
0
100
AcDbLine
 10
21.13875
 20
101.6149999999999
 30
0.0
 11
20.11165
 21
101.5239999999999
 31
0.0
  0
LINE
  5
37F
330
1E
100
AcDbEntity
  8
0
100
AcDbLine
 10
20.71905
 20
100.7579999999999
 30
0.0
 11
19.73535
 21
100.6279999999999
 31
0.0
  0
LINE
  5
380
330
1E
100
AcDbEntity
  8
0
100
AcDbLine
 10
21.71995
 20
100.8199999999999
 30
0.0
 11
20.71905
 21
100.7579999999999
 31
0.0
  0
LINE
  5
381
330
1E
100
AcDbEntity
  8
0
100
AcDbLine
 10
22.48594999999999
 20
100.8199999999999
 30
0.0
 11
22.10294999999999
 21
100.817
 31
0.0
  0
LINE
  5
382
330
1E
100
AcDbEntity
  8
0
100
AcDbLine
 10
22.10294999999999
 20
100.817
 30
0.0
 11
21.71995
 21
100.8199999999999
 31
0.0
  0
LINE
  5
383
330
1E
100
AcDbEntity
  8
0
100
AcDbLine
 10
22.10294999999999
 20
101.641
 30
0.0
 11
21.13875
 21
101.6149999999999
 31
0.0
  0
LINE
  5
384
330
1E
100
AcDbEntity
  8
0
100
AcDbLine
 10
19.73535
 20
100.6279999999999
 30
0.0
 11
18.78284999999999
 21
100.431
 31
0.0
  0
LINE
  5
385
330
1E
100
AcDbEntity
  8
0
100
AcDbLine
 10
20.11165
 20
101.5239999999999
 30
0.0
 11
19.10675
 21
101.37
 31
0.0
  0
LINE
  5
386
330
1E
100
AcDbEntity
  8
0
100
AcDbLine
 10
20.61094999999999
 20
129.441
 30
0.0
 11
20.43185
 21
129.638
 31
0.0
  0
LINE
  5
387
330
1E
100
AcDbEntity
  8
0
100
AcDbLine
 10
22.82585
 20
122.477
 30
0.0
 11
19.63575
 21
122.477
 31
0.0
  0
LINE
  5
388
330
1E
100
AcDbEntity
  8
0
100
AcDbLine
 10
21.65705
 20
128.835
 30
0.0
 11
21.42435
 21
128.9089999999999
 31
0.0
  0
LINE
  5
389
330
1E
100
AcDbEntity
  8
0
100
AcDbLine
 10
22.17415
 20
128.772
 30
0.0
 11
22.06964999999999
 21
128.772
 31
0.0
  0
LINE
  5
38A
330
1E
100
AcDbEntity
  8
0
100
AcDbLine
 10
22.27864999999999
 20
128.772
 30
0.0
 11
22.17415
 21
128.772
 31
0.0
  0
LINE
  5
38B
330
1E
100
AcDbEntity
  8
0
100
AcDbLine
 10
22.48584999999999
 20
128.7939999999999
 30
0.0
 11
22.27864999999999
 21
128.772
 31
0.0
  0
LINE
  5
38C
330
1E
100
AcDbEntity
  8
0
100
AcDbLine
 10
22.06964999999999
 20
128.772
 30
0.0
 11
21.86244999999999
 21
128.7939999999999
 31
0.0
  0
LINE
  5
38D
330
1E
100
AcDbEntity
  8
0
100
AcDbLine
 10
21.86244999999999
 20
128.7939999999999
 30
0.0
 11
21.65705
 21
128.835
 31
0.0
  0
LINE
  5
38E
330
1E
100
AcDbEntity
  8
0
100
AcDbLine
 10
21.19985
 20
129.01
 30
0.0
 11
20.98724999999999
 21
129.1349999999999
 31
0.0
  0
LINE
  5
38F
330
1E
100
AcDbEntity
  8
0
100
AcDbLine
 10
21.42435
 20
128.9089999999999
 30
0.0
 11
21.19985
 21
129.01
 31
0.0
  0
LINE
  5
390
330
1E
100
AcDbEntity
  8
0
100
AcDbLine
 10
20.80725
 20
129.2669999999999
 30
0.0
 11
20.61094999999999
 21
129.441
 31
0.0
  0
LINE
  5
391
330
1E
100
AcDbEntity
  8
0
100
AcDbLine
 10
20.98724999999999
 20
129.1349999999999
 30
0.0
 11
20.80725
 21
129.2669999999999
 31
0.0
  0
LINE
  5
392
330
1E
100
AcDbEntity
  8
0
100
AcDbLine
 10
20.27195
 20
129.852
 30
0.0
 11
20.13195
 21
130.081
 31
0.0
  0
LINE
  5
393
330
1E
100
AcDbEntity
  8
0
100
AcDbLine
 10
20.43185
 20
129.638
 30
0.0
 11
20.27195
 21
129.852
 31
0.0
  0
LINE
  5
394
330
1E
100
AcDbEntity
  8
0
100
AcDbLine
 10
20.13195
 20
130.081
 30
0.0
 11
20.05835
 21
130.222
 31
0.0
  0
LINE
  5
395
330
1E
100
AcDbEntity
  8
0
100
AcDbLine
 10
19.79565
 20
132.432
 30
0.0
 11
19.76565
 21
132.271
 31
0.0
  0
LINE
  5
396
330
1E
100
AcDbEntity
  8
0
100
AcDbLine
 10
19.87845
 20
132.7439999999999
 30
0.0
 11
19.83395
 21
132.59
 31
0.0
  0
LINE
  5
397
330
1E
100
AcDbEntity
  8
0
100
AcDbLine
 10
20.02745
 20
133.126
 30
0.0
 11
19.93114999999999
 21
132.896
 31
0.0
  0
LINE
  5
398
330
1E
100
AcDbEntity
  8
0
100
AcDbLine
 10
19.93114999999999
 20
132.896
 30
0.0
 11
19.87845
 21
132.7439999999999
 31
0.0
  0
LINE
  5
399
330
1E
100
AcDbEntity
  8
0
100
AcDbLine
 10
19.83395
 20
132.59
 30
0.0
 11
19.79565
 21
132.432
 31
0.0
  0
LINE
  5
39A
330
1E
100
AcDbEntity
  8
0
100
AcDbLine
 10
19.79935
 20
130.977
 30
0.0
 11
19.74575
 21
131.2969999999999
 31
0.0
  0
LINE
  5
39B
330
1E
100
AcDbEntity
  8
0
100
AcDbLine
 10
19.72844999999999
 20
131.9479999999999
 30
0.0
 11
19.72115
 21
131.622
 31
0.0
  0
LINE
  5
39C
330
1E
100
AcDbEntity
  8
0
100
AcDbLine
 10
19.76565
 20
132.271
 30
0.0
 11
19.72844999999999
 21
131.9479999999999
 31
0.0
  0
LINE
  5
39D
330
1E
100
AcDbEntity
  8
0
100
AcDbLine
 10
19.74575
 20
131.2969999999999
 30
0.0
 11
19.72115
 21
131.622
 31
0.0
  0
LINE
  5
39E
330
1E
100
AcDbEntity
  8
0
100
AcDbLine
 10
19.88204999999999
 20
130.6689999999999
 30
0.0
 11
19.79935
 21
130.977
 31
0.0
  0
LINE
  5
39F
330
1E
100
AcDbEntity
  8
0
100
AcDbLine
 10
19.87531180218989
 20
130.696232094777
 30
0.0
 11
19.79935
 21
130.977
 31
0.0
  0
LINE
  5
3A0
330
1E
100
AcDbEntity
  8
0
100
AcDbLine
 10
20.05835
 20
130.222
 30
0.0
 11
19.99295
 21
130.367
 31
0.0
  0
LINE
  5
3A1
330
1E
100
AcDbEntity
  8
0
100
AcDbLine
 10
19.99295
 20
130.367
 30
0.0
 11
19.93384999999999
 21
130.5159999999999
 31
0.0
  0
LINE
  5
3A2
330
1E
100
AcDbEntity
  8
0
100
AcDbLine
 10
19.93384999999999
 20
130.5159999999999
 30
0.0
 11
19.88204999999999
 21
130.6689999999999
 31
0.0
  0
LINE
  5
3A3
330
1E
100
AcDbEntity
  8
0
100
AcDbLine
 10
20.60004999999999
 20
133.9509999999999
 30
0.0
 11
20.41914999999999
 21
133.752
 31
0.0
  0
LINE
  5
3A4
330
1E
100
AcDbEntity
  8
0
100
AcDbLine
 10
21.79785
 20
134.596
 30
0.0
 11
21.59065
 21
134.5469999999999
 31
0.0
  0
LINE
  5
3A5
330
1E
100
AcDbEntity
  8
0
100
AcDbLine
 10
22.17415
 20
134.6279999999999
 30
0.0
 11
22.00695
 21
134.623
 31
0.0
  0
LINE
  5
3A6
330
1E
100
AcDbEntity
  8
0
100
AcDbLine
 10
22.34134999999999
 20
134.623
 30
0.0
 11
22.17415
 21
134.6279999999999
 31
0.0
  0
LINE
  5
3A7
330
1E
100
AcDbEntity
  8
0
100
AcDbLine
 10
22.55045
 20
134.596
 30
0.0
 11
22.34134999999999
 21
134.623
 31
0.0
  0
LINE
  5
3A8
330
1E
100
AcDbEntity
  8
0
100
AcDbLine
 10
22.00695
 20
134.623
 30
0.0
 11
21.79785
 21
134.596
 31
0.0
  0
LINE
  5
3A9
330
1E
100
AcDbEntity
  8
0
100
AcDbLine
 10
21.19895
 20
134.3899999999999
 30
0.0
 11
21.01445
 21
134.285
 31
0.0
  0
LINE
  5
3AA
330
1E
100
AcDbEntity
  8
0
100
AcDbLine
 10
21.59065
 20
134.5469999999999
 30
0.0
 11
21.39164999999999
 21
134.477
 31
0.0
  0
LINE
  5
3AB
330
1E
100
AcDbEntity
  8
0
100
AcDbLine
 10
21.39164999999999
 20
134.477
 30
0.0
 11
21.19895
 21
134.3899999999999
 31
0.0
  0
LINE
  5
3AC
330
1E
100
AcDbEntity
  8
0
100
AcDbLine
 10
20.79905
 20
134.1299999999999
 30
0.0
 11
20.60004999999999
 21
133.9509999999999
 31
0.0
  0
LINE
  5
3AD
330
1E
100
AcDbEntity
  8
0
100
AcDbLine
 10
21.01445
 20
134.285
 30
0.0
 11
20.79905
 21
134.1299999999999
 31
0.0
  0
LINE
  5
3AE
330
1E
100
AcDbEntity
  8
0
100
AcDbLine
 10
20.27195
 20
133.555
 30
0.0
 11
20.14105
 21
133.346
 31
0.0
  0
LINE
  5
3AF
330
1E
100
AcDbEntity
  8
0
100
AcDbLine
 10
20.41914999999999
 20
133.752
 30
0.0
 11
20.27195
 21
133.555
 31
0.0
  0
LINE
  5
3B0
330
1E
100
AcDbEntity
  8
0
100
AcDbLine
 10
22.82585
 20
154.5239999999999
 30
0.0
 11
19.48945
 21
154.474
 31
0.0
  0
LINE
  5
3B1
330
1E
100
AcDbEntity
  8
0
100
AcDbLine
 10
22.82585
 20
164.0
 30
0.0
 11
18.59234999999999
 21
163.983
 31
0.0
  0
LINE
  5
3B2
330
1E
100
AcDbEntity
  8
0
100
AcDbLine
 10
22.82585
 20
164.0
 30
0.0
 11
19.3906045149857
 21
163.977428398326
 31
0.0
  0
LINE
  5
3B3
330
1E
100
AcDbEntity
  8
0
100
AcDbLine
 10
1.47475
 20
87.049
 30
0.0
 11
1.406851080128795
 21
81.8730510077002
 31
0.0
  0
LINE
  5
3B4
330
1E
100
AcDbEntity
  8
0
100
AcDbLine
 10
6.350149999999999
 20
4.99999999999999
 30
0.0
 11
-0.273850000000003
 21
4.99999999999999
 31
0.0
  0
LINE
  5
3B5
330
1E
100
AcDbEntity
  8
0
100
AcDbLine
 10
2.210149999999998
 20
4.69999999999999
 30
0.0
 11
0.0021500000000003
 21
4.69999999999999
 31
0.0
  0
LINE
  5
3B6
330
1E
100
AcDbEntity
  8
0
100
AcDbLine
 10
2.210149999999998
 20
-0.000000000000007
 30
0.0
 11
0.0021500000000003
 21
-0.0000000000000074
 31
0.0
  0
LINE
  5
3B7
330
1E
100
AcDbEntity
  8
0
100
AcDbLine
 10
2.210149999999998
 20
-0.0000000000000084
 30
0.0
 11
0.0021500000000003
 21
-0.0000000000000081
 31
0.0
  0
LINE
  5
3B8
330
1E
100
AcDbEntity
  8
0
100
AcDbLine
 10
10.76615
 20
-0.0000000000000065
 30
0.0
 11
5.890149999999998
 21
-0.0000000000000067
 31
0.0
  0
LINE
  5
3B9
330
1E
100
AcDbEntity
  8
0
100
AcDbLine
 10
10.76615
 20
4.69999999999999
 30
0.0
 11
5.890149999999998
 21
4.69999999999999
 31
0.0
  0
LINE
  5
3BA
330
1E
100
AcDbEntity
  8
0
100
AcDbLine
 10
11.04214999999999
 20
4.99999999999999
 30
0.0
 11
6.350149999999999
 21
4.99999999999999
 31
0.0
  0
LINE
  5
3BB
330
1E
100
AcDbEntity
  8
0
100
AcDbLine
 10
10.76615
 20
-0.000000000000009
 30
0.0
 11
5.890149999999998
 21
-0.0000000000000087
 31
0.0
  0
LINE
  5
3BC
330
1E
100
AcDbEntity
  8
0
100
AcDbLine
 10
16.28614999999999
 20
4.69999999999999
 30
0.0
 11
10.76615
 21
4.69999999999999
 31
0.0
  0
LINE
  5
3BD
330
1E
100
AcDbEntity
  8
0
100
AcDbLine
 10
16.37815
 20
4.99999999999999
 30
0.0
 11
11.04214999999999
 21
4.99999999999999
 31
0.0
  0
LINE
  5
3BE
330
1E
100
AcDbEntity
  8
0
100
AcDbLine
 10
16.28614999999999
 20
-0.0000000000000064
 30
0.0
 11
10.76615
 21
-0.0000000000000065
 31
0.0
  0
LINE
  5
3BF
330
1E
100
AcDbEntity
  8
0
100
AcDbLine
 10
16.28614999999999
 20
-0.0000000000000091
 30
0.0
 11
10.76615
 21
-0.000000000000009
 31
0.0
  0
LINE
  5
3C0
330
1E
100
AcDbEntity
  8
0
100
AcDbLine
 10
5.890149999999998
 20
-0.0000000000000067
 30
0.0
 11
2.210149999999998
 21
-0.000000000000007
 31
0.0
  0
LINE
  5
3C1
330
1E
100
AcDbEntity
  8
0
100
AcDbLine
 10
5.890149999999998
 20
4.69999999999999
 30
0.0
 11
2.210149999999998
 21
4.69999999999999
 31
0.0
  0
LINE
  5
3C2
330
1E
100
AcDbEntity
  8
0
100
AcDbLine
 10
5.890149999999998
 20
-0.0000000000000087
 30
0.0
 11
2.210149999999998
 21
-0.0000000000000084
 31
0.0
  0
LINE
  5
3C3
330
1E
100
AcDbEntity
  8
0
100
AcDbLine
 10
1.246650000000002
 20
75.0308
 30
0.0
 11
1.174149999999997
 21
5.0
 31
0.0
  0
LINE
  5
3C4
330
1E
100
AcDbEntity
  8
0
100
AcDbLine
 10
1.246650000000002
 20
75.0308
 30
0.0
 11
1.174149999999997
 21
4.99999999999999
 31
0.0
  0
LINE
  5
3C5
330
1E
100
AcDbEntity
  8
0
100
AcDbLine
 10
0.0021500000000003
 20
4.69999999999999
 30
0.0
 11
-0.8258500000000026
 21
4.69999999999999
 31
0.0
  0
LINE
  5
3C6
330
1E
100
AcDbEntity
  8
0
100
AcDbLine
 10
0.0021500000000003
 20
-0.0000000000000074
 30
0.0
 11
-0.8258500000000026
 21
-0.0000000000000077
 31
0.0
  0
LINE
  5
3C7
330
1E
100
AcDbEntity
  8
0
100
AcDbLine
 10
0.0021500000000003
 20
-0.0000000000000081
 30
0.0
 11
-0.8258500000000026
 21
-0.0000000000000077
 31
0.0
  0
LINE
  5
3C8
330
1E
100
AcDbEntity
  8
0
100
AcDbLine
 10
-0.8258500000000026
 20
4.69999999999999
 30
0.0
 11
-0.8258500000000026
 21
-0.000000000000008
 31
0.0
  0
LINE
  5
3C9
330
1E
100
AcDbEntity
  8
0
100
AcDbLine
 10
-0.8258500000000026
 20
-0.0000000000000077
 30
0.0
 11
-0.8258500000000026
 21
4.69999999999999
 31
0.0
  0
LINE
  5
3CA
330
1E
100
AcDbEntity
  8
0
100
AcDbLine
 10
-0.273850000000003
 20
4.99999999999999
 30
0.0
 11
-0.8258500000000026
 21
4.69999999999999
 31
0.0
  0
LINE
  5
3CE
330
1E
100
AcDbEntity
  8
0
100
AcDbLine
 10
1.30845
 20
76.45869999999999
 30
0.0
 11
1.246650000000002
 21
75.0308
 31
0.0
  0
LINE
  5
3CF
330
1E
100
AcDbEntity
  8
0
100
AcDbLine
 10
1.406851080128795
 20
81.8730510077002
 30
0.0
 11
1.30845
 21
76.45869999999999
 31
0.0
  0
LINE
  5
3D4
330
1E
100
AcDbEntity
  8
0
100
AcDbLine
 10
2.03725
 20
119.694
 30
0.0
 11
1.56915
 21
94.044
 31
0.0
  0
LINE
  5
3D5
330
1E
100
AcDbEntity
  8
0
100
AcDbLine
 10
2.03725
 20
119.694
 30
0.0
 11
1.56915
 21
94.044
 31
0.0
  0
LINE
  5
3D6
330
1E
100
AcDbEntity
  8
0
100
AcDbLine
 10
2.177750000000003
 20
134.5679999999999
 30
0.0
 11
2.174149999999997
 21
122.971
 31
0.0
  0
LINE
  5
3D7
330
1E
100
AcDbEntity
  8
0
100
AcDbLine
 10
12.45044999999999
 20
122.477
 30
0.0
 11
10.00744999999999
 21
122.477
 31
0.0
  0
LINE
  5
3D8
330
1E
100
AcDbEntity
  8
0
100
AcDbLine
 10
10.18464999999999
 20
94.87909999999999
 30
0.0
 11
10.10294999999999
 21
95.5719
 31
0.0
  0
LINE
  5
3D9
330
1E
100
AcDbEntity
  8
0
100
AcDbLine
 10
13.18645
 20
111.461
 30
0.0
 11
4.47625
 21
111.2989999999999
 31
0.0
  0
LINE
  5
3DA
330
1E
100
AcDbEntity
  8
0
100
AcDbLine
 10
11.32125
 20
92.1424
 30
0.0
 11
9.223350000000003
 21
93.55029999999999
 31
0.0
  0
LINE
  5
3DB
330
1E
100
AcDbEntity
  8
0
100
AcDbLine
 10
14.49485
 20
89.98200000000002
 30
0.0
 11
13.65345
 21
90.44780000000001
 31
0.0
  0
LINE
  5
3DC
330
1E
100
AcDbEntity
  8
0
100
AcDbLine
 10
14.57665
 20
92.6604
 30
0.0
 11
14.13664999999999
 21
93.152
 31
0.0
  0
LINE
  5
3DD
330
1E
100
AcDbEntity
  8
0
100
AcDbLine
 10
14.40105
 20
95.1909
 30
0.0
 11
13.96724999999999
 21
95.7315
 31
0.0
  0
LINE
  5
3DE
330
1E
100
AcDbEntity
  8
0
100
AcDbLine
 10
14.57665
 20
98.26
 30
0.0
 11
14.13664999999999
 21
97.7693
 31
0.0
  0
LINE
  5
3DF
330
1E
100
AcDbEntity
  8
0
100
AcDbLine
 10
14.73094999999999
 20
91.10229999999999
 30
0.0
 11
14.05095
 21
91.57819999999999
 31
0.0
  0
LINE
  5
3E0
330
1E
100
AcDbEntity
  8
0
100
AcDbLine
 10
14.62505
 20
91.2109
 30
0.0
 11
13.92484999999999
 21
91.7181
 31
0.0
  0
LINE
  5
3E1
330
1E
100
AcDbEntity
  8
0
100
AcDbLine
 10
14.73094999999999
 20
99.7372
 30
0.0
 11
14.05095
 21
99.26200000000001
 31
0.0
  0
LINE
  5
3E2
330
1E
100
AcDbEntity
  8
0
100
AcDbLine
 10
14.93175
 20
94.6832
 30
0.0
 11
14.40105
 21
95.1909
 31
0.0
  0
LINE
  5
3E3
330
1E
100
AcDbEntity
  8
0
100
AcDbLine
 10
17.19685
 20
89.959
 30
0.0
 11
16.31295
 21
90.28870000000001
 31
0.0
  0
LINE
  5
3E4
330
1E
100
AcDbEntity
  8
0
100
AcDbLine
 10
17.03335
 20
93.41779999999999
 30
0.0
 11
16.25544999999999
 21
93.79099999999999
 31
0.0
  0
LINE
  5
3E5
330
1E
100
AcDbEntity
  8
0
100
AcDbLine
 10
17.08985
 20
91.04589999999999
 30
0.0
 11
16.36045
 21
91.3874
 31
0.0
  0
LINE
  5
3E6
330
1E
100
AcDbEntity
  8
0
100
AcDbLine
 10
17.19685
 20
90.00020000000001
 30
0.0
 11
16.27064999999999
 21
90.34739999999999
 31
0.0
  0
LINE
  5
3E7
330
1E
100
AcDbEntity
  8
0
100
AcDbLine
 10
16.44715
 20
89.1689
 30
0.0
 11
15.48764999999999
 21
89.5241
 31
0.0
  0
LINE
  5
3E8
330
1E
100
AcDbEntity
  8
0
100
AcDbLine
 10
17.87385
 20
90.7526
 30
0.0
 11
17.08985
 21
91.04589999999999
 31
0.0
  0
LINE
  5
3E9
330
1E
100
AcDbEntity
  8
0
100
AcDbLine
 10
17.87385
 20
93.1
 30
0.0
 11
17.03335
 21
93.41779999999999
 31
0.0
  0
LINE
  5
3EA
330
1E
100
AcDbEntity
  8
0
100
AcDbLine
 10
18.13105
 20
89.68519999999999
 30
0.0
 11
17.19685
 21
89.959
 31
0.0
  0
LINE
  5
3EB
330
1E
100
AcDbEntity
  8
0
100
AcDbLine
 10
18.14725
 20
89.72230000000001
 30
0.0
 11
17.19685
 21
90.00020000000001
 31
0.0
  0
LINE
  5
3EC
330
1E
100
AcDbEntity
  8
0
100
AcDbLine
 10
17.45714999999999
 20
88.87
 30
0.0
 11
16.44715
 21
89.1689
 31
0.0
  0
LINE
  5
3ED
330
1E
100
AcDbEntity
  8
0
100
AcDbLine
 10
15.48764999999999
 20
89.5241
 30
0.0
 11
14.58865
 21
89.9332
 31
0.0
  0
LINE
  5
3EE
330
1E
100
AcDbEntity
  8
0
100
AcDbLine
 10
15.48764999999999
 20
90.6713
 30
0.0
 11
14.73094999999999
 21
91.10229999999999
 31
0.0
  0
LINE
  5
3EF
330
1E
100
AcDbEntity
  8
0
100
AcDbLine
 10
15.40994999999999
 20
90.7526
 30
0.0
 11
14.62505
 21
91.2109
 31
0.0
  0
LINE
  5
3F0
330
1E
100
AcDbEntity
  8
0
100
AcDbLine
 10
15.69345
 20
91.7736
 30
0.0
 11
15.09724999999999
 21
92.19889999999999
 31
0.0
  0
LINE
  5
3F1
330
1E
100
AcDbEntity
  8
0
100
AcDbLine
 10
15.55225
 20
94.2145
 30
0.0
 11
14.93175
 21
94.6832
 31
0.0
  0
LINE
  5
3F2
330
1E
100
AcDbEntity
  8
0
100
AcDbLine
 10
16.36045
 20
91.3874
 30
0.0
 11
15.69345
 21
91.7736
 31
0.0
  0
LINE
  5
3F3
330
1E
100
AcDbEntity
  8
0
100
AcDbLine
 10
16.31295
 20
90.28870000000001
 30
0.0
 11
15.48764999999999
 21
90.6713
 31
0.0
  0
LINE
  5
3F4
330
1E
100
AcDbEntity
  8
0
100
AcDbLine
 10
16.27064999999999
 20
90.34739999999999
 30
0.0
 11
15.40994999999999
 21
90.7526
 31
0.0
  0
LINE
  5
3F5
330
1E
100
AcDbEntity
  8
0
100
AcDbLine
 10
16.25544999999999
 20
93.79099999999999
 30
0.0
 11
15.55225
 21
94.2145
 31
0.0
  0
LINE
  5
3F6
330
1E
100
AcDbEntity
  8
0
100
AcDbLine
 10
14.58865
 20
89.9332
 30
0.0
 11
14.49485
 21
89.98200000000002
 31
0.0
  0
LINE
  5
3F7
330
1E
100
AcDbEntity
  8
0
100
AcDbLine
 10
15.09724999999999
 20
92.19889999999999
 30
0.0
 11
14.57665
 21
92.6604
 31
0.0
  0
LINE
  5
3F8
330
1E
100
AcDbEntity
  8
0
100
AcDbLine
 10
17.19685
 20
100.8809999999999
 30
0.0
 11
16.31295
 21
100.551
 31
0.0
  0
LINE
  5
3F9
330
1E
100
AcDbEntity
  8
0
100
AcDbLine
 10
17.08985
 20
99.8751
 30
0.0
 11
16.36045
 21
99.5329
 31
0.0
  0
LINE
  5
3FA
330
1E
100
AcDbEntity
  8
0
100
AcDbLine
 10
18.13105
 20
101.1549999999999
 30
0.0
 11
17.19685
 21
100.8809999999999
 31
0.0
  0
LINE
  5
3FB
330
1E
100
AcDbEntity
  8
0
100
AcDbLine
 10
17.87385
 20
100.1679999999999
 30
0.0
 11
17.08985
 21
99.8751
 31
0.0
  0
LINE
  5
3FC
330
1E
100
AcDbEntity
  8
0
100
AcDbLine
 10
15.48764999999999
 20
100.1689999999999
 30
0.0
 11
14.73094999999999
 21
99.7372
 31
0.0
  0
LINE
  5
3FD
330
1E
100
AcDbEntity
  8
0
100
AcDbLine
 10
15.69345
 20
99.14830000000002
 30
0.0
 11
15.09724999999999
 21
98.72140000000001
 31
0.0
  0
LINE
  5
3FE
330
1E
100
AcDbEntity
  8
0
100
AcDbLine
 10
16.31295
 20
100.551
 30
0.0
 11
15.48764999999999
 21
100.1689999999999
 31
0.0
  0
LINE
  5
3FF
330
1E
100
AcDbEntity
  8
0
100
AcDbLine
 10
16.36045
 20
99.5329
 30
0.0
 11
15.69345
 21
99.14830000000002
 31
0.0
  0
LINE
  5
400
330
1E
100
AcDbEntity
  8
0
100
AcDbLine
 10
15.09724999999999
 20
98.72140000000001
 30
0.0
 11
14.57665
 21
98.26
 31
0.0
  0
LINE
  5
401
330
1E
100
AcDbEntity
  8
0
100
AcDbLine
 10
10.37335
 20
94.19459999999999
 30
0.0
 11
10.18464999999999
 21
94.87909999999999
 31
0.0
  0
LINE
  5
402
330
1E
100
AcDbEntity
  8
0
100
AcDbLine
 10
13.35474999999999
 20
96.1658
 30
0.0
 11
13.35474999999999
 21
94.7554
 31
0.0
  0
LINE
  5
403
330
1E
100
AcDbEntity
  8
0
100
AcDbLine
 10
13.35474999999999
 20
94.7554
 30
0.0
 11
13.35474999999999
 21
96.1658
 31
0.0
  0
LINE
  5
404
330
1E
100
AcDbEntity
  8
0
100
AcDbLine
 10
11.99475
 20
94.4368
 30
0.0
 11
11.88275
 21
95.06390000000001
 31
0.0
  0
LINE
  5
405
330
1E
100
AcDbEntity
  8
0
100
AcDbLine
 10
13.35474999999999
 20
94.7554
 30
0.0
 11
11.93784807048319
 21
94.7554
 31
0.0
  0
LINE
  5
406
330
1E
100
AcDbEntity
  8
0
100
AcDbLine
 10
12.52745
 20
93.2201
 30
0.0
 11
12.20965
 21
93.8198
 31
0.0
  0
LINE
  5
407
330
1E
100
AcDbEntity
  8
0
100
AcDbLine
 10
12.40534999999999
 20
93.46580000000001
 30
0.0
 11
12.11274999999999
 21
94.1032
 31
0.0
  0
LINE
  5
408
330
1E
100
AcDbEntity
  8
0
100
AcDbLine
 10
12.88864999999999
 20
90.95919999999999
 30
0.0
 11
12.20655
 21
91.51290000000001
 31
0.0
  0
LINE
  5
409
330
1E
100
AcDbEntity
  8
0
100
AcDbLine
 10
13.45165
 20
92.0936
 30
0.0
 11
12.94214999999999
 21
92.64180000000001
 31
0.0
  0
LINE
  5
40A
330
1E
100
AcDbEntity
  8
0
100
AcDbLine
 10
13.31745
 20
92.2666
 30
0.0
 11
12.80895
 21
92.85169999999999
 31
0.0
  0
LINE
  5
40B
330
1E
100
AcDbEntity
  8
0
100
AcDbLine
 10
13.65345
 20
90.44780000000001
 30
0.0
 11
12.88864999999999
 21
90.95919999999999
 31
0.0
  0
LINE
  5
40C
330
1E
100
AcDbEntity
  8
0
100
AcDbLine
 10
14.05095
 20
91.57819999999999
 30
0.0
 11
13.45165
 21
92.0936
 31
0.0
  0
LINE
  5
40D
330
1E
100
AcDbEntity
  8
0
100
AcDbLine
 10
13.92484999999999
 20
91.7181
 30
0.0
 11
13.31745
 21
92.2666
 31
0.0
  0
LINE
  5
40E
330
1E
100
AcDbEntity
  8
0
100
AcDbLine
 10
14.13664999999999
 20
93.152
 30
0.0
 11
13.78454999999999
 21
93.6691
 31
0.0
  0
LINE
  5
40F
330
1E
100
AcDbEntity
  8
0
100
AcDbLine
 10
13.52325
 20
94.2055
 30
0.0
 11
13.35474999999999
 21
94.7554
 31
0.0
  0
LINE
  5
410
330
1E
100
AcDbEntity
  8
0
100
AcDbLine
 10
13.78454999999999
 20
93.6691
 30
0.0
 11
13.52325
 21
94.2055
 31
0.0
  0
LINE
  5
411
330
1E
100
AcDbEntity
  8
0
100
AcDbLine
 10
12.94214999999999
 20
92.64180000000001
 30
0.0
 11
12.52745
 21
93.2201
 31
0.0
  0
LINE
  5
412
330
1E
100
AcDbEntity
  8
0
100
AcDbLine
 10
12.80895
 20
92.85169999999999
 30
0.0
 11
12.40534999999999
 21
93.46580000000001
 31
0.0
  0
LINE
  5
413
330
1E
100
AcDbEntity
  8
0
100
AcDbLine
 10
11.61435
 20
92.1024
 30
0.0
 11
11.11795
 21
92.7237
 31
0.0
  0
LINE
  5
414
330
1E
100
AcDbEntity
  8
0
100
AcDbLine
 10
12.20655
 20
91.51290000000001
 30
0.0
 11
11.61435
 21
92.1024
 31
0.0
  0
LINE
  5
415
330
1E
100
AcDbEntity
  8
0
100
AcDbLine
 10
11.8928670418653
 20
91.8251527926721
 30
0.0
 11
11.32125
 21
92.1424
 31
0.0
  0
LINE
  5
416
330
1E
100
AcDbEntity
  8
0
100
AcDbLine
 10
12.20965
 20
93.8198
 30
0.0
 11
11.99475
 21
94.4368
 31
0.0
  0
LINE
  5
417
330
1E
100
AcDbEntity
  8
0
100
AcDbLine
 10
12.11274999999999
 20
94.1032
 30
0.0
 11
11.9498297140489
 21
94.68831349392781
 31
0.0
  0
LINE
  5
418
330
1E
100
AcDbEntity
  8
0
100
AcDbLine
 10
10.72044999999999
 20
93.3717
 30
0.0
 11
10.42685
 21
94.03879999999999
 31
0.0
  0
LINE
  5
419
330
1E
100
AcDbEntity
  8
0
100
AcDbLine
 10
11.11795
 20
92.7237
 30
0.0
 11
10.72044999999999
 21
93.3717
 31
0.0
  0
LINE
  5
41A
330
1E
100
AcDbEntity
  8
0
100
AcDbLine
 10
10.42685
 20
94.03879999999999
 30
0.0
 11
10.37335
 21
94.19459999999999
 31
0.0
  0
LINE
  5
41B
330
1E
100
AcDbEntity
  8
0
100
AcDbLine
 10
13.35474999999999
 20
96.1658
 30
0.0
 11
11.95225367294789
 21
96.1658
 31
0.0
  0
LINE
  5
41C
330
1E
100
AcDbEntity
  8
0
100
AcDbLine
 10
12.52745
 20
97.6209
 30
0.0
 11
12.20965
 21
97.0195
 31
0.0
  0
LINE
  5
41D
330
1E
100
AcDbEntity
  8
0
100
AcDbLine
 10
13.45165
 20
98.74679999999999
 30
0.0
 11
12.94214999999999
 21
98.1985
 31
0.0
  0
LINE
  5
41E
330
1E
100
AcDbEntity
  8
0
100
AcDbLine
 10
13.96724999999999
 20
95.7315
 30
0.0
 11
13.63525
 21
96.2986
 31
0.0
  0
LINE
  5
41F
330
1E
100
AcDbEntity
  8
0
100
AcDbLine
 10
14.13664999999999
 20
97.7693
 30
0.0
 11
13.78454999999999
 21
97.25230000000001
 31
0.0
  0
LINE
  5
420
330
1E
100
AcDbEntity
  8
0
100
AcDbLine
 10
13.63525
 20
96.2986
 30
0.0
 11
13.5018138745227
 21
96.6458304509643
 31
0.0
  0
LINE
  5
421
330
1E
100
AcDbEntity
  8
0
100
AcDbLine
 10
13.52325
 20
96.7158
 30
0.0
 11
13.35474999999999
 21
96.1658
 31
0.0
  0
LINE
  5
422
330
1E
100
AcDbEntity
  8
0
100
AcDbLine
 10
13.78454999999999
 20
97.25230000000001
 30
0.0
 11
13.52325
 21
96.7158
 31
0.0
  0
LINE
  5
423
330
1E
100
AcDbEntity
  8
0
100
AcDbLine
 10
14.05095
 20
99.26200000000001
 30
0.0
 11
13.45165
 21
98.74679999999999
 31
0.0
  0
LINE
  5
424
330
1E
100
AcDbEntity
  8
0
100
AcDbLine
 10
12.94214999999999
 20
98.1985
 30
0.0
 11
12.52745
 21
97.6209
 31
0.0
  0
LINE
  5
425
330
1E
100
AcDbEntity
  8
0
100
AcDbLine
 10
12.20965
 20
97.0195
 30
0.0
 11
11.99475
 21
96.40340000000001
 31
0.0
  0
LINE
  5
426
330
1E
100
AcDbEntity
  8
0
100
AcDbLine
 10
11.99475
 20
96.40340000000001
 30
0.0
 11
11.88275
 21
95.77719999999999
 31
0.0
  0
LINE
  5
427
330
1E
100
AcDbEntity
  8
0
100
AcDbLine
 10
12.0078963089236
 20
96.44108934819831
 30
0.0
 11
11.9900263456941
 21
96.37698971137199
 31
0.0
  0
LINE
  5
428
330
1E
100
AcDbEntity
  8
0
100
AcDbLine
 10
11.88275
 20
95.77719999999999
 30
0.0
 11
11.87874999999999
 21
95.41960000000001
 31
0.0
  0
LINE
  5
429
330
1E
100
AcDbEntity
  8
0
100
AcDbLine
 10
11.88275
 20
95.06390000000001
 30
0.0
 11
11.87874999999999
 21
95.41960000000001
 31
0.0
  0
LINE
  5
42A
330
1E
100
AcDbEntity
  8
0
100
AcDbLine
 10
14.73254999999999
 20
122.477
 30
0.0
 11
12.45044999999999
 21
122.477
 31
0.0
  0
LINE
  5
42B
330
1E
100
AcDbEntity
  8
0
100
AcDbLine
 10
17.14104999999999
 20
122.477
 30
0.0
 11
14.73254999999999
 21
122.477
 31
0.0
  0
LINE
  5
42C
330
1E
100
AcDbEntity
  8
0
100
AcDbLine
 10
3.086649999999998
 20
106.662
 30
0.0
 11
3.056979944440897
 21
107.995803882751
 31
0.0
  0
LINE
  5
42D
330
1E
100
AcDbEntity
  8
0
100
AcDbLine
 10
6.083550000000002
 20
96.349
 30
0.0
 11
5.955449999999999
 21
96.49070000000001
 31
0.0
  0
LINE
  5
42E
330
1E
100
AcDbEntity
  8
0
100
AcDbLine
 10
9.223350000000003
 20
93.55029999999999
 30
0.0
 11
7.457149999999998
 21
95.0416
 31
0.0
  0
LINE
  5
42F
330
1E
100
AcDbEntity
  8
0
100
AcDbLine
 10
10.10294999999999
 20
95.91559999999999
 30
0.0
 11
10.10294999999999
 21
99.24015736125509
 31
0.0
  0
LINE
  5
430
330
1E
100
AcDbEntity
  8
0
100
AcDbLine
 10
10.10294999999999
 20
99.24015736125509
 30
0.0
 11
10.10294999999999
 21
95.91559999999999
 31
0.0
  0
LINE
  5
431
330
1E
100
AcDbEntity
  8
0
100
AcDbLine
 10
10.10294999999999
 20
95.91559999999999
 30
0.0
 11
10.10294999999999
 21
95.5719
 31
0.0
  0
LINE
  5
432
330
1E
100
AcDbEntity
  8
0
100
AcDbLine
 10
10.10294999999999
 20
95.5719
 30
0.0
 11
10.10294999999999
 21
95.91559999999999
 31
0.0
  0
LINE
  5
433
330
1E
100
AcDbEntity
  8
0
100
AcDbLine
 10
10.10974999999999
 20
95.74330000000001
 30
0.0
 11
10.10294999999999
 21
95.91559999999999
 31
0.0
  0
LINE
  5
434
330
1E
100
AcDbEntity
  8
0
100
AcDbLine
 10
7.457149999999998
 20
95.0416
 30
0.0
 11
6.644150000000003
 21
95.8069
 31
0.0
  0
LINE
  5
435
330
1E
100
AcDbEntity
  8
0
100
AcDbLine
 10
6.644150000000003
 20
95.8069
 30
0.0
 11
6.083550000000002
 21
96.349
 31
0.0
  0
LINE
  5
436
330
1E
100
AcDbEntity
  8
0
100
AcDbLine
 10
4.308050000000001
 20
98.9385
 30
0.0
 11
3.774450000000001
 21
100.0329999999999
 31
0.0
  0
LINE
  5
437
330
1E
100
AcDbEntity
  8
0
100
AcDbLine
 10
5.035949999999999
 20
97.66429999999999
 30
0.0
 11
4.598649999999999
 21
98.35219999999999
 31
0.0
  0
LINE
  5
438
330
1E
100
AcDbEntity
  8
0
100
AcDbLine
 10
5.706949999999999
 20
96.77939999999999
 30
0.0
 11
5.471449999999997
 21
97.07
 31
0.0
  0
LINE
  5
439
330
1E
100
AcDbEntity
  8
0
100
AcDbLine
 10
5.955449999999999
 20
96.49070000000001
 30
0.0
 11
5.706949999999999
 21
96.77939999999999
 31
0.0
  0
LINE
  5
43A
330
1E
100
AcDbEntity
  8
0
100
AcDbLine
 10
5.471449999999997
 20
97.07
 30
0.0
 11
5.035949999999999
 21
97.66429999999999
 31
0.0
  0
LINE
  5
43B
330
1E
100
AcDbEntity
  8
0
100
AcDbLine
 10
4.598649999999999
 20
98.35219999999999
 30
0.0
 11
4.308050000000001
 21
98.9385
 31
0.0
  0
LINE
  5
43C
330
1E
100
AcDbEntity
  8
0
100
AcDbLine
 10
3.458550000000002
 20
100.951
 30
0.0
 11
3.342750000000002
 21
101.4079999999999
 31
0.0
  0
LINE
  5
43D
330
1E
100
AcDbEntity
  8
0
100
AcDbLine
 10
3.774450000000001
 20
100.0329999999999
 30
0.0
 11
3.458550000000002
 21
100.951
 31
0.0
  0
LINE
  5
43E
330
1E
100
AcDbEntity
  8
0
100
AcDbLine
 10
3.12695
 20
103.536
 30
0.0
 11
3.115650000000002
 21
104.682
 31
0.0
  0
LINE
  5
43F
330
1E
100
AcDbEntity
  8
0
100
AcDbLine
 10
3.133450000000003
 20
103.217
 30
0.0
 11
3.12695
 21
103.536
 31
0.0
  0
LINE
  5
440
330
1E
100
AcDbEntity
  8
0
100
AcDbLine
 10
3.159550000000002
 20
102.516
 30
0.0
 11
3.133450000000003
 21
103.217
 31
0.0
  0
LINE
  5
441
330
1E
100
AcDbEntity
  8
0
100
AcDbLine
 10
3.342750000000002
 20
101.4079999999999
 30
0.0
 11
3.305349999999997
 21
101.5709999999999
 31
0.0
  0
LINE
  5
442
330
1E
100
AcDbEntity
  8
0
100
AcDbLine
 10
3.305349999999997
 20
101.5709999999999
 30
0.0
 11
3.212850000000003
 21
102.0399999999999
 31
0.0
  0
LINE
  5
443
330
1E
100
AcDbEntity
  8
0
100
AcDbLine
 10
3.212850000000003
 20
102.0399999999999
 30
0.0
 11
3.159550000000002
 21
102.516
 31
0.0
  0
LINE
  5
444
330
1E
100
AcDbEntity
  8
0
100
AcDbLine
 10
3.10255
 20
105.691
 30
0.0
 11
3.086649999999998
 21
106.662
 31
0.0
  0
LINE
  5
445
330
1E
100
AcDbEntity
  8
0
100
AcDbLine
 10
3.115650000000002
 20
104.682
 30
0.0
 11
3.10255
 21
105.691
 31
0.0
  0
LINE
  5
446
330
1E
100
AcDbEntity
  8
0
100
AcDbLine
 10
6.744750000000003
 20
122.477
 30
0.0
 11
5.256050000000001
 21
122.477
 31
0.0
  0
LINE
  5
447
330
1E
100
AcDbEntity
  8
0
100
AcDbLine
 10
38.1794346715887
 20
120.993155338128
 30
0.0
 11
5.457450000000001
 21
120.994
 31
0.0
  0
LINE
  5
448
330
1E
100
AcDbEntity
  8
0
100
AcDbLine
 10
8.422449999999997
 20
122.477
 30
0.0
 11
6.744750000000003
 21
122.477
 31
0.0
  0
LINE
  5
449
330
1E
100
AcDbEntity
  8
0
100
AcDbLine
 10
10.00744999999999
 20
122.477
 30
0.0
 11
8.19885
 21
122.477
 31
0.0
  0
LINE
  5
44A
330
1E
100
AcDbEntity
  8
0
100
AcDbLine
 10
2.263449999999998
 20
120.67
 30
0.0
 11
2.122349999999997
 21
120.4079999999999
 31
0.0
  0
LINE
  5
44B
330
1E
100
AcDbEntity
  8
0
100
AcDbLine
 10
3.032449999999997
 20
108.761
 30
0.0
 11
3.029349539795205
 21
108.829396418251
 31
0.0
  0
LINE
  5
44C
330
1E
100
AcDbEntity
  8
0
100
AcDbLine
 10
3.056979944440897
 20
107.995803882751
 30
0.0
 11
3.05395
 21
108.0849999999999
 31
0.0
  0
LINE
  5
44D
330
1E
100
AcDbEntity
  8
0
100
AcDbLine
 10
3.05395
 20
108.0849999999999
 30
0.0
 11
3.032449999999997
 21
108.761
 31
0.0
  0
LINE
  5
44E
330
1E
100
AcDbEntity
  8
0
100
AcDbLine
 10
2.985849999999999
 20
109.166
 30
0.0
 11
2.924050000000001
 21
109.505
 31
0.0
  0
LINE
  5
44F
330
1E
100
AcDbEntity
  8
0
100
AcDbLine
 10
2.924050000000001
 20
109.505
 30
0.0
 11
2.893250000000001
 21
109.5699999999999
 31
0.0
  0
LINE
  5
450
330
1E
100
AcDbEntity
  8
0
100
AcDbLine
 10
3.029349539795205
 20
108.829396418251
 30
0.0
 11
2.985849999999999
 21
109.166
 31
0.0
  0
LINE
  5
451
330
1E
100
AcDbEntity
  8
0
100
AcDbLine
 10
2.069949999999998
 20
120.1969999999999
 30
0.0
 11
2.03725
 21
119.694
 31
0.0
  0
LINE
  5
452
330
1E
100
AcDbEntity
  8
0
100
AcDbLine
 10
2.122349999999997
 20
120.4079999999999
 30
0.0
 11
2.069949999999998
 21
120.1969999999999
 31
0.0
  0
LINE
  5
453
330
1E
100
AcDbEntity
  8
0
100
AcDbLine
 10
4.279949999999999
 20
122.477
 30
0.0
 11
3.384749999999996
 21
122.477
 31
0.0
  0
LINE
  5
454
330
1E
100
AcDbEntity
  8
0
100
AcDbLine
 10
3.9338074074074
 20
122.477
 30
0.0
 11
3.73375
 21
121.0739999999999
 31
0.0
  0
LINE
  5
455
330
1E
100
AcDbEntity
  8
0
100
AcDbLine
 10
4.24915
 20
120.995
 30
0.0
 11
3.687550000000001
 21
120.996
 31
0.0
  0
LINE
  5
456
330
1E
100
AcDbEntity
  8
0
100
AcDbLine
 10
5.256050000000001
 20
122.477
 30
0.0
 11
4.279949999999999
 21
122.477
 31
0.0
  0
LINE
  5
457
330
1E
100
AcDbEntity
  8
0
100
AcDbLine
 10
5.457450000000001
 20
120.994
 30
0.0
 11
4.24915
 21
120.995
 31
0.0
  0
LINE
  5
458
330
1E
100
AcDbEntity
  8
0
100
AcDbLine
 10
2.886749999999999
 20
122.477
 30
0.0
 11
2.71855
 21
122.477
 31
0.0
  0
LINE
  5
459
330
1E
100
AcDbEntity
  8
0
100
AcDbLine
 10
2.980150000000001
 20
120.991
 30
0.0
 11
2.65585
 21
120.9359999999999
 31
0.0
  0
LINE
  5
45A
330
1E
100
AcDbEntity
  8
0
100
AcDbLine
 10
3.687550000000001
 20
120.996
 30
0.0
 11
3.290449999999999
 21
120.997
 31
0.0
  0
LINE
  5
45B
330
1E
100
AcDbEntity
  8
0
100
AcDbLine
 10
3.73375
 20
121.0739999999999
 30
0.0
 11
3.730087140900799
 21
120.995924257228
 31
0.0
  0
LINE
  5
45C
330
1E
100
AcDbEntity
  8
0
100
AcDbLine
 10
3.384749999999996
 20
122.477
 30
0.0
 11
2.886749999999999
 21
122.477
 31
0.0
  0
LINE
  5
45D
330
1E
100
AcDbEntity
  8
0
100
AcDbLine
 10
3.08755
 20
120.996
 30
0.0
 11
2.980150000000001
 21
120.991
 31
0.0
  0
LINE
  5
45E
330
1E
100
AcDbEntity
  8
0
100
AcDbLine
 10
3.290449999999999
 20
120.997
 30
0.0
 11
3.08755
 21
120.996
 31
0.0
  0
LINE
  5
45F
330
1E
100
AcDbEntity
  8
0
100
AcDbLine
 10
2.403149999999996
 20
122.5419999999999
 30
0.0
 11
2.23695
 21
122.7249999999999
 31
0.0
  0
LINE
  5
460
330
1E
100
AcDbEntity
  8
0
100
AcDbLine
 10
2.477449999999997
 20
120.857
 30
0.0
 11
2.263449999999998
 21
120.67
 31
0.0
  0
LINE
  5
461
330
1E
100
AcDbEntity
  8
0
100
AcDbLine
 10
2.71855
 20
122.477
 30
0.0
 11
2.630450000000003
 21
122.477
 31
0.0
  0
LINE
  5
462
330
1E
100
AcDbEntity
  8
0
100
AcDbLine
 10
2.630450000000003
 20
122.477
 30
0.0
 11
2.403149999999996
 21
122.5419999999999
 31
0.0
  0
LINE
  5
463
330
1E
100
AcDbEntity
  8
0
100
AcDbLine
 10
2.65585
 20
120.9359999999999
 30
0.0
 11
2.477449999999997
 21
120.857
 31
0.0
  0
LINE
  5
464
330
1E
100
AcDbEntity
  8
0
100
AcDbLine
 10
2.23695
 20
122.7249999999999
 30
0.0
 11
2.174149999999997
 21
122.971
 31
0.0
  0
LINE
  5
465
330
1E
100
AcDbEntity
  8
0
100
AcDbLine
 10
2.263449999999998
 20
120.67
 30
0.0
 11
2.220449999999999
 21
120.592
 31
0.0
  0
LINE
  5
466
330
1E
100
AcDbEntity
  8
0
100
AcDbLine
 10
10.72801761943014
 20
155.2627218692496
 30
0.0
 11
6.979470466696056
 21
156.4950771282463
 31
0.0
  0
LINE
  5
467
330
1E
100
AcDbEntity
  8
0
100
AcDbLine
 10
11.44615
 20
163.752
 30
0.0
 11
7.888049999999999
 21
163.536
 31
0.0
  0
LINE
  5
468
330
1E
100
AcDbEntity
  8
0
100
AcDbLine
 10
15.26573263574255
 20
154.5726029395884
 30
0.0
 11
10.72801761943014
 21
155.2627218692496
 31
0.0
  0
LINE
  5
469
330
1E
100
AcDbEntity
  8
0
100
AcDbLine
 10
15.01514999999999
 20
163.898
 30
0.0
 11
11.44615
 21
163.752
 31
0.0
  0
LINE
  5
46A
330
1E
100
AcDbEntity
  8
0
100
AcDbLine
 10
4.661290116513669
 20
157.8753146031435
 30
0.0
 11
3.701050000000002
 21
159.397
 31
0.0
  0
LINE
  5
46B
330
1E
100
AcDbEntity
  8
0
100
AcDbLine
 10
2.20955
 20
159.243
 30
0.0
 11
2.184150000000002
 21
158.682
 31
0.0
  0
LINE
  5
46C
330
1E
100
AcDbEntity
  8
0
100
AcDbLine
 10
6.979470466696056
 20
156.4950771282463
 30
0.0
 11
4.661290116513669
 21
157.8753146031435
 31
0.0
  0
LINE
  5
46D
330
1E
100
AcDbEntity
  8
0
100
AcDbLine
 10
2.177750000000003
 20
134.5679999999999
 30
0.0
 11
2.184150000000002
 21
158.682
 31
0.0
  0
LINE
  5
46E
330
1E
100
AcDbEntity
  8
0
100
AcDbLine
 10
2.184150000000002
 20
158.682
 30
0.0
 11
2.177750000000003
 21
134.5679999999999
 31
0.0
  0
LINE
  5
46F
330
1E
100
AcDbEntity
  8
0
100
AcDbLine
 10
6.543849999999999
 20
163.384
 30
0.0
 11
5.94395
 21
163.2479999999999
 31
0.0
  0
LINE
  5
470
330
1E
100
AcDbEntity
  8
0
100
AcDbLine
 10
7.888049999999999
 20
163.536
 30
0.0
 11
6.978349999999998
 21
163.4509999999999
 31
0.0
  0
LINE
  5
471
330
1E
100
AcDbEntity
  8
0
100
AcDbLine
 10
6.978349999999998
 20
163.4509999999999
 30
0.0
 11
6.543849999999999
 21
163.384
 31
0.0
  0
LINE
  5
472
330
1E
100
AcDbEntity
  8
0
100
AcDbLine
 10
3.948250000000001
 20
160.157
 30
0.0
 11
3.88185
 21
159.829
 31
0.0
  0
LINE
  5
473
330
1E
100
AcDbEntity
  8
0
100
AcDbLine
 10
3.921557771104396
 20
160.025146821118
 30
0.0
 11
3.721949999999999
 21
160.019
 31
0.0
  0
LINE
  5
474
330
1E
100
AcDbEntity
  8
0
100
AcDbLine
 10
5.039749999999997
 20
162.87
 30
0.0
 11
4.847949999999997
 21
162.757
 31
0.0
  0
LINE
  5
475
330
1E
100
AcDbEntity
  8
0
100
AcDbLine
 10
5.94395
 20
163.2479999999999
 30
0.0
 11
5.435049999999996
 21
163.0729999999999
 31
0.0
  0
LINE
  5
476
330
1E
100
AcDbEntity
  8
0
100
AcDbLine
 10
5.435049999999996
 20
163.0729999999999
 30
0.0
 11
5.039749999999997
 21
162.87
 31
0.0
  0
LINE
  5
477
330
1E
100
AcDbEntity
  8
0
100
AcDbLine
 10
4.295450000000002
 20
162.125
 30
0.0
 11
4.208150000000003
 21
161.8179999999999
 31
0.0
  0
LINE
  5
478
330
1E
100
AcDbEntity
  8
0
100
AcDbLine
 10
4.152749999999997
 20
161.6089999999999
 30
0.0
 11
4.060949999999998
 21
160.8729999999999
 31
0.0
  0
LINE
  5
479
330
1E
100
AcDbEntity
  8
0
100
AcDbLine
 10
4.060949999999998
 20
160.8729999999999
 30
0.0
 11
4.015450000000001
 21
160.561
 31
0.0
  0
LINE
  5
47A
330
1E
100
AcDbEntity
  8
0
100
AcDbLine
 10
4.015450000000001
 20
160.561
 30
0.0
 11
3.948250000000001
 21
160.157
 31
0.0
  0
LINE
  5
47B
330
1E
100
AcDbEntity
  8
0
100
AcDbLine
 10
4.208150000000003
 20
161.8179999999999
 30
0.0
 11
4.152749999999997
 21
161.6089999999999
 31
0.0
  0
LINE
  5
47C
330
1E
100
AcDbEntity
  8
0
100
AcDbLine
 10
4.44715
 20
162.365
 30
0.0
 11
4.295450000000002
 21
162.125
 31
0.0
  0
LINE
  5
47D
330
1E
100
AcDbEntity
  8
0
100
AcDbLine
 10
4.560850000000002
 20
162.52
 30
0.0
 11
4.44715
 21
162.365
 31
0.0
  0
LINE
  5
47E
330
1E
100
AcDbEntity
  8
0
100
AcDbLine
 10
4.847949999999997
 20
162.757
 30
0.0
 11
4.560850000000002
 21
162.52
 31
0.0
  0
LINE
  5
47F
330
1E
100
AcDbEntity
  8
0
100
AcDbLine
 10
2.924849999999999
 20
159.967
 30
0.0
 11
2.859349999999999
 21
159.96
 31
0.0
  0
LINE
  5
480
330
1E
100
AcDbEntity
  8
0
100
AcDbLine
 10
3.449249999999999
 20
160.007
 30
0.0
 11
2.924849999999999
 21
159.967
 31
0.0
  0
LINE
  5
481
330
1E
100
AcDbEntity
  8
0
100
AcDbLine
 10
3.901066460253403
 20
159.92392468318
 30
0.0
 11
3.817349999999997
 21
159.6279999999999
 31
0.0
  0
LINE
  5
482
330
1E
100
AcDbEntity
  8
0
100
AcDbLine
 10
3.721949999999999
 20
160.019
 30
0.0
 11
3.449249999999999
 21
160.007
 31
0.0
  0
LINE
  5
483
330
1E
100
AcDbEntity
  8
0
100
AcDbLine
 10
3.818727822550201
 20
159.632870388696
 30
0.0
 11
3.775449999999999
 21
159.592
 31
0.0
  0
LINE
  5
484
330
1E
100
AcDbEntity
  8
0
100
AcDbLine
 10
3.817349999999997
 20
159.6279999999999
 30
0.0
 11
3.701050000000002
 21
159.397
 31
0.0
  0
LINE
  5
485
330
1E
100
AcDbEntity
  8
0
100
AcDbLine
 10
2.414050000000003
 20
159.725
 30
0.0
 11
2.263249999999999
 21
159.466
 31
0.0
  0
LINE
  5
486
330
1E
100
AcDbEntity
  8
0
100
AcDbLine
 10
2.859349999999999
 20
159.96
 30
0.0
 11
2.657649999999996
 21
159.898
 31
0.0
  0
LINE
  5
487
330
1E
100
AcDbEntity
  8
0
100
AcDbLine
 10
2.65135
 20
159.8939999999999
 30
0.0
 11
2.414050000000003
 21
159.725
 31
0.0
  0
LINE
  5
488
330
1E
100
AcDbEntity
  8
0
100
AcDbLine
 10
2.263249999999999
 20
159.466
 30
0.0
 11
2.20955
 21
159.243
 31
0.0
  0
LINE
  5
489
330
1E
100
AcDbEntity
  8
0
100
AcDbLine
 10
1.512949999999996
 20
90.1154
 30
0.0
 11
1.47475
 21
87.049
 31
0.0
  0
LINE
  5
48A
330
1E
100
AcDbEntity
  8
0
100
AcDbLine
 10
1.539250000000002
 20
92.12529999999999
 30
0.0
 11
1.512949999999996
 21
90.1154
 31
0.0
  0
LINE
  5
48B
330
1E
100
AcDbEntity
  8
0
100
AcDbLine
 10
1.56915
 20
94.044
 30
0.0
 11
1.539250000000002
 21
92.12529999999999
 31
0.0
  0
ENDSEC
  0
SECTION
  2
OBJECTS
  0
DICTIONARY
  5
C
330
0
100
AcDbDictionary
281
     1
  3
ACAD_GROUP
350
D
  3
ACAD_LAYOUT
350
19
  3
ACAD_MLINESTYLE
350
16
  3
ACAD_PLOTSETTINGS
350
18
  3
ACAD_PLOTSTYLENAME
350
E
  3
AcDbVariableDictionary
350
48D
  0
DICTIONARY
  5
D
102
{ACAD_REACTORS
330
C
102
}
330
C
100
AcDbDictionary
281
     1
  0
DICTIONARY
  5
19
102
{ACAD_REACTORS
330
C
102
}
330
C
100
AcDbDictionary
281
     1
  3
Layout1
350
1D
  3
Model
350
21
  0
DICTIONARY
  5
16
102
{ACAD_REACTORS
330
C
102
}
330
C
100
AcDbDictionary
281
     1
  3
Standard
350
17
  0
DICTIONARY
  5
18
102
{ACAD_REACTORS
330
C
102
}
330
C
100
AcDbDictionary
281
     1
  0
ACDBDICTIONARYWDFLT
  5
E
102
{ACAD_REACTORS
330
C
102
}
330
C
100
AcDbDictionary
281
     1
  3
Normal
350
F
100
AcDbDictionaryWithDefault
340
F
  0
DICTIONARY
  5
48D
102
{ACAD_REACTORS
330
C
102
}
330
C
100
AcDbDictionary
281
     1
  3
DIMASSOC
350
48E
  0
LAYOUT
  5
1D
102
{ACAD_REACTORS
330
19
102
}
330
19
100
AcDbPlotSettings
  1

  2
C:\Programme\AutoCAD LT 2002 Deu\plotters\DWF ePlot (optimized for plotting).pc3
  4

  6

 40
0.0
 41
0.0
 42
0.0
 43
0.0
 44
0.0
 45
0.0
 46
0.0
 47
0.0
 48
0.0
 49
0.0
140
0.0
141
0.0
142
1.0
143
1.0
 70
   688
 72
     0
 73
     0
 74
     5
  7

 75
    16
147
1.0
148
0.0
149
0.0
100
AcDbLayout
  1
Layout1
 70
     1
 71
     1
 10
0.0
 20
0.0
 11
12.0
 21
9.0
 12
0.0
 22
0.0
 32
0.0
 14
1.000000000000000E+20
 24
1.000000000000000E+20
 34
1.000000000000000E+20
 15
-1.000000000000000E+20
 25
-1.000000000000000E+20
 35
-1.000000000000000E+20
146
0.0
 13
0.0
 23
0.0
 33
0.0
 16
1.0
 26
0.0
 36
0.0
 17
0.0
 27
1.0
 37
0.0
 76
     0
330
1A
  0
LAYOUT
  5
21
102
{ACAD_REACTORS
330
19
102
}
330
19
100
AcDbPlotSettings
  1

  2
C:\Programme\AutoCAD LT 2002 Deu\plotters\DWF ePlot (optimized for plotting).pc3
  4

  6

 40
0.0
 41
0.0
 42
0.0
 43
0.0
 44
0.0
 45
0.0
 46
0.0
 47
0.0
 48
0.0
 49
0.0
140
0.0
141
0.0
142
1.0
143
1.0
 70
  1712
 72
     0
 73
     0
 74
     0
  7

 75
     0
147
1.0
148
0.0
149
0.0
100
AcDbLayout
  1
Model
 70
     1
 71
     0
 10
0.0
 20
0.0
 11
12.0
 21
9.0
 12
0.0
 22
0.0
 32
0.0
 14
0.0
 24
0.0
 34
0.0
 15
0.0
 25
0.0
 35
0.0
146
0.0
 13
0.0
 23
0.0
 33
0.0
 16
1.0
 26
0.0
 36
0.0
 17
0.0
 27
1.0
 37
0.0
 76
     0
330
1E
  0
MLINESTYLE
  5
17
102
{ACAD_REACTORS
330
16
102
}
330
16
100
AcDbMlineStyle
  2
STANDARD
 70
     0
  3

 62
   256
 51
90.0
 52
90.0
 71
     2
 49
0.5
 62
   256
  6
BYLAYER
 49
-0.5
 62
   256
  6
BYLAYER
  0
ACDBPLACEHOLDER
  5
F
102
{ACAD_REACTORS
330
E
102
}
330
E
  0
DICTIONARYVAR
  5
48E
102
{ACAD_REACTORS
330
48D
102
}
330
48D
100
DictionaryVariables
280
     0
  1
1
  0
ENDSEC
  0
EOF
