  0
SECTION
  2
HEADER
  9
$ACADVER
  1
AC1015
  9
$ACADMAINTVER
 70
    13
  9
$DWGCODEPAGE
  3
ANSI_1252
  9
$INSBASE
 10
0.0
 20
0.0
 30
0.0
  9
$EXTMIN
 10
0.118000000000019
 20
-0.0000000000000095
 30
0.0
  9
$EXTMAX
 10
157.882
 20
172.0
 30
0.0
  9
$LIMMIN
 10
0.0
 20
0.0
  9
$LIMMAX
 10
12.0
 20
9.0
  9
$ORTHOMODE
 70
     0
  9
$REGENMODE
 70
     1
  9
$FILLMODE
 70
     1
  9
$QTEXTMODE
 70
     0
  9
$MIRRTEXT
 70
     1
  9
$LTSCALE
 40
1.0
  9
$ATTMODE
 70
     1
  9
$TEXTSIZE
 40
0.2
  9
$TRACEWID
 40
0.05
  9
$TEXTSTYLE
  7
Standard
  9
$CLAYER
  8
0
  9
$CELTYPE
  6
Continuous
  9
$CECOLOR
 62
   256
  9
$CELTSCALE
 40
1.0
  9
$DISPSILH
 70
     0
  9
$DIMSCALE
 40
1.0
  9
$DIMASZ
 40
0.18
  9
$DIMEXO
 40
0.0625
  9
$DIMDLI
 40
0.38
  9
$DIMRND
 40
0.0
  9
$DIMDLE
 40
0.0
  9
$DIMEXE
 40
0.18
  9
$DIMTP
 40
0.0
  9
$DIMTM
 40
0.0
  9
$DIMTXT
 40
0.18
  9
$DIMCEN
 40
0.09
  9
$DIMTSZ
 40
0.0
  9
$DIMTOL
 70
     0
  9
$DIMLIM
 70
     0
  9
$DIMTIH
 70
     1
  9
$DIMTOH
 70
     1
  9
$DIMSE1
 70
     0
  9
$DIMSE2
 70
     0
  9
$DIMTAD
 70
     0
  9
$DIMZIN
 70
     0
  9
$DIMBLK
  1

  9
$DIMASO
 70
     1
  9
$DIMSHO
 70
     1
  9
$DIMPOST
  1

  9
$DIMAPOST
  1

  9
$DIMALT
 70
     0
  9
$DIMALTD
 70
     2
  9
$DIMALTF
 40
25.4
  9
$DIMLFAC
 40
1.0
  9
$DIMTOFL
 70
     0
  9
$DIMTVP
 40
0.0
  9
$DIMTIX
 70
     0
  9
$DIMSOXD
 70
     0
  9
$DIMSAH
 70
     0
  9
$DIMBLK1
  1

  9
$DIMBLK2
  1

  9
$DIMSTYLE
  2
Standard
  9
$DIMCLRD
 70
     0
  9
$DIMCLRE
 70
     0
  9
$DIMCLRT
 70
     0
  9
$DIMTFAC
 40
1.0
  9
$DIMGAP
 40
0.09
  9
$DIMJUST
 70
     0
  9
$DIMSD1
 70
     0
  9
$DIMSD2
 70
     0
  9
$DIMTOLJ
 70
     1
  9
$DIMTZIN
 70
     0
  9
$DIMALTZ
 70
     0
  9
$DIMALTTZ
 70
     0
  9
$DIMUPT
 70
     0
  9
$DIMDEC
 70
     4
  9
$DIMTDEC
 70
     4
  9
$DIMALTU
 70
     2
  9
$DIMALTTD
 70
     2
  9
$DIMTXSTY
  7
Standard
  9
$DIMAUNIT
 70
     0
  9
$DIMADEC
 70
     0
  9
$DIMALTRND
 40
0.0
  9
$DIMAZIN
 70
     0
  9
$DIMDSEP
 70
    46
  9
$DIMATFIT
 70
     3
  9
$DIMFRAC
 70
     0
  9
$DIMLDRBLK
  1

  9
$DIMLUNIT
 70
     2
  9
$DIMLWD
 70
    -2
  9
$DIMLWE
 70
    -2
  9
$DIMTMOVE
 70
     0
  9
$LUNITS
 70
     2
  9
$LUPREC
 70
     4
  9
$SKETCHINC
 40
0.1
  9
$FILLETRAD
 40
0.0
  9
$AUNITS
 70
     0
  9
$AUPREC
 70
     0
  9
$MENU
  1
.
  9
$ELEVATION
 40
0.0
  9
$PELEVATION
 40
0.0
  9
$THICKNESS
 40
0.0
  9
$LIMCHECK
 70
     0
  9
$CHAMFERA
 40
0.0
  9
$CHAMFERB
 40
0.0
  9
$CHAMFERC
 40
0.0
  9
$CHAMFERD
 40
0.0
  9
$SKPOLY
 70
     0
  9
$TDCREATE
 40
2455653.884170822
  9
$TDUCREATE
 40
2455653.800837488
  9
$TDUPDATE
 40
2455653.886389606
  9
$TDUUPDATE
 40
2455653.803056273
  9
$TDINDWG
 40
0.0022187847
  9
$TDUSRTIMER
 40
0.0022187847
  9
$USRTIMER
 70
     1
  9
$ANGBASE
 50
0.0
  9
$ANGDIR
 70
     0
  9
$PDMODE
 70
     0
  9
$PDSIZE
 40
0.0
  9
$PLINEWID
 40
0.0
  9
$SPLFRAME
 70
     0
  9
$SPLINETYPE
 70
     6
  9
$SPLINESEGS
 70
     8
  9
$HANDSEED
  5
29E
  9
$SURFTAB1
 70
     6
  9
$SURFTAB2
 70
     6
  9
$SURFTYPE
 70
     6
  9
$SURFU
 70
     6
  9
$SURFV
 70
     6
  9
$UCSBASE
  2

  9
$UCSNAME
  2

  9
$UCSORG
 10
0.0
 20
0.0
 30
0.0
  9
$UCSXDIR
 10
1.0
 20
0.0
 30
0.0
  9
$UCSYDIR
 10
0.0
 20
1.0
 30
0.0
  9
$UCSORTHOREF
  2

  9
$UCSORTHOVIEW
 70
     1
  9
$UCSORGTOP
 10
0.0
 20
0.0
 30
0.0
  9
$UCSORGBOTTOM
 10
0.0
 20
0.0
 30
0.0
  9
$UCSORGLEFT
 10
0.0
 20
0.0
 30
0.0
  9
$UCSORGRIGHT
 10
0.0
 20
0.0
 30
0.0
  9
$UCSORGFRONT
 10
0.0
 20
0.0
 30
0.0
  9
$UCSORGBACK
 10
0.0
 20
0.0
 30
0.0
  9
$PUCSBASE
  2

  9
$PUCSNAME
  2

  9
$PUCSORG
 10
0.0
 20
0.0
 30
0.0
  9
$PUCSXDIR
 10
1.0
 20
0.0
 30
0.0
  9
$PUCSYDIR
 10
0.0
 20
1.0
 30
0.0
  9
$PUCSORTHOREF
  2

  9
$PUCSORTHOVIEW
 70
     0
  9
$PUCSORGTOP
 10
0.0
 20
0.0
 30
0.0
  9
$PUCSORGBOTTOM
 10
0.0
 20
0.0
 30
0.0
  9
$PUCSORGLEFT
 10
0.0
 20
0.0
 30
0.0
  9
$PUCSORGRIGHT
 10
0.0
 20
0.0
 30
0.0
  9
$PUCSORGFRONT
 10
0.0
 20
0.0
 30
0.0
  9
$PUCSORGBACK
 10
0.0
 20
0.0
 30
0.0
  9
$USERI1
 70
     0
  9
$USERI2
 70
     0
  9
$USERI3
 70
     0
  9
$USERI4
 70
     0
  9
$USERI5
 70
     0
  9
$USERR1
 40
0.0
  9
$USERR2
 40
0.0
  9
$USERR3
 40
0.0
  9
$USERR4
 40
0.0
  9
$USERR5
 40
0.0
  9
$WORLDVIEW
 70
     1
  9
$SHADEDGE
 70
     3
  9
$SHADEDIF
 70
    70
  9
$TILEMODE
 70
     1
  9
$MAXACTVP
 70
    64
  9
$PINSBASE
 10
0.0
 20
0.0
 30
0.0
  9
$PLIMCHECK
 70
     0
  9
$PEXTMIN
 10
1.000000000000000E+20
 20
1.000000000000000E+20
 30
1.000000000000000E+20
  9
$PEXTMAX
 10
-1.000000000000000E+20
 20
-1.000000000000000E+20
 30
-1.000000000000000E+20
  9
$PLIMMIN
 10
0.0
 20
0.0
  9
$PLIMMAX
 10
12.0
 20
9.0
  9
$UNITMODE
 70
     0
  9
$VISRETAIN
 70
     1
  9
$PLINEGEN
 70
     0
  9
$PSLTSCALE
 70
     1
  9
$TREEDEPTH
 70
  3020
  9
$CMLSTYLE
  2
Standard
  9
$CMLJUST
 70
     0
  9
$CMLSCALE
 40
1.0
  9
$PROXYGRAPHICS
 70
     1
  9
$MEASUREMENT
 70
     0
  9
$CELWEIGHT
370
    -1
  9
$ENDCAPS
280
     0
  9
$JOINSTYLE
280
     0
  9
$LWDISPLAY
290
     0
  9
$INSUNITS
 70
     0
  9
$HYPERLINKBASE
  1

  9
$STYLESHEET
  1

  9
$XEDIT
290
     1
  9
$CEPSNTYPE
380
     0
  9
$PSTYLEMODE
290
     1
  9
$FINGERPRINTGUID
  2
{8273C489-4199-46F7-9F65-F2FBC5AF8284}
  9
$VERSIONGUID
  2
{7991CD0F-C935-44B6-A60A-74046E5BCE32}
  9
$EXTNAMES
290
     1
  9
$PSVPSCALE
 40
0.0
  9
$OLESTARTUP
290
     0
  0
ENDSEC
  0
SECTION
  2
CLASSES
  0
CLASS
  1
ACDBDICTIONARYWDFLT
  2
AcDbDictionaryWithDefault
  3
AutoCAD 2000
 90
        0
280
     0
281
     0
  0
CLASS
  1
ACDBPLACEHOLDER
  2
AcDbPlaceHolder
  3
AutoCAD 2000
 90
        0
280
     0
281
     0
  0
CLASS
  1
LAYOUT
  2
AcDbLayout
  3
AutoCAD 2000
 90
        0
280
     0
281
     0
  0
CLASS
  1
DICTIONARYVAR
  2
AcDbDictionaryVar
  3
AutoCAD 2000
 90
        0
280
     0
281
     0
  0
ENDSEC
  0
SECTION
  2
TABLES
  0
TABLE
  2
VPORT
  5
8
330
0
100
AcDbSymbolTable
 70
     3
  0
VPORT
  5
29D
330
8
100
AcDbSymbolTableRecord
100
AcDbViewportTableRecord
  2
*Active
 70
     0
 10
0.0
 20
0.0
 11
1.0
 21
1.0
 12
79.00000000000002
 22
85.99999999999999
 13
0.0
 23
0.0
 14
1.0
 24
1.0
 15
0.0
 25
0.0
 16
0.0
 26
0.0
 36
1.0
 17
0.0
 27
0.0
 37
0.0
 40
173.1634723788049
 41
2.073363431151241
 42
50.0
 43
0.0
 44
0.0
 50
0.0
 51
0.0
 71
     0
 72
   100
 73
     1
 74
     3
 75
     0
 76
     0
 77
     0
 78
     0
281
     0
 65
     1
110
0.0
120
0.0
130
0.0
111
1.0
121
0.0
131
0.0
112
0.0
122
1.0
132
0.0
 79
     1
146
0.0
  0
ENDTAB
  0
TABLE
  2
LTYPE
  5
5
330
0
100
AcDbSymbolTable
 70
     1
  0
LTYPE
  5
13
330
5
100
AcDbSymbolTableRecord
100
AcDbLinetypeTableRecord
  2
ByBlock
 70
     0
  3

 72
    65
 73
     0
 40
0.0
  0
LTYPE
  5
14
330
5
100
AcDbSymbolTableRecord
100
AcDbLinetypeTableRecord
  2
ByLayer
 70
     0
  3

 72
    65
 73
     0
 40
0.0
  0
LTYPE
  5
15
330
5
100
AcDbSymbolTableRecord
100
AcDbLinetypeTableRecord
  2
Continuous
 70
     0
  3
Solid line
 72
    65
 73
     0
 40
0.0
  0
ENDTAB
  0
TABLE
  2
LAYER
  5
2
330
0
100
AcDbSymbolTable
 70
     1
  0
LAYER
  5
10
330
2
100
AcDbSymbolTableRecord
100
AcDbLayerTableRecord
  2
0
 70
     0
 62
     7
  6
Continuous
370
    -3
390
F
  0
ENDTAB
  0
TABLE
  2
STYLE
  5
3
330
0
100
AcDbSymbolTable
 70
     1
  0
STYLE
  5
11
330
3
100
AcDbSymbolTableRecord
100
AcDbTextStyleTableRecord
  2
Standard
 70
     0
 40
0.0
 41
1.0
 50
0.0
 71
     0
 42
0.2
  3
txt
  4

  0
ENDTAB
  0
TABLE
  2
VIEW
  5
6
330
0
100
AcDbSymbolTable
 70
     0
  0
ENDTAB
  0
TABLE
  2
UCS
  5
7
330
0
100
AcDbSymbolTable
 70
     0
  0
ENDTAB
  0
TABLE
  2
APPID
  5
9
330
0
100
AcDbSymbolTable
 70
     1
  0
APPID
  5
12
330
9
100
AcDbSymbolTableRecord
100
AcDbRegAppTableRecord
  2
ACAD
 70
     0
  0
ENDTAB
  0
TABLE
  2
DIMSTYLE
  5
A
330
0
100
AcDbSymbolTable
 70
     1
100
AcDbDimStyleTable
 71
     0
  0
DIMSTYLE
105
295
330
A
100
AcDbSymbolTableRecord
100
AcDbDimStyleTableRecord
  2
Standard
 70
     0
340
11
  0
ENDTAB
  0
TABLE
  2
BLOCK_RECORD
  5
1
330
0
100
AcDbSymbolTable
 70
     0
  0
BLOCK_RECORD
  5
1E
330
1
100
AcDbSymbolTableRecord
100
AcDbBlockTableRecord
  2
*Model_Space
340
21
  0
BLOCK_RECORD
  5
1A
330
1
100
AcDbSymbolTableRecord
100
AcDbBlockTableRecord
  2
*Paper_Space
340
1D
  0
ENDTAB
  0
ENDSEC
  0
SECTION
  2
BLOCKS
  0
BLOCK
  5
1F
330
1E
100
AcDbEntity
  8
0
100
AcDbBlockBegin
  2
*Model_Space
 70
     0
 10
0.0
 20
0.0
 30
0.0
  3
*Model_Space
  1

  0
ENDBLK
  5
20
330
1E
100
AcDbEntity
  8
0
100
AcDbBlockEnd
  0
BLOCK
  5
1B
330
1A
100
AcDbEntity
 67
     1
  8
0
100
AcDbBlockBegin
  2
*Paper_Space
 70
     0
 10
0.0
 20
0.0
 30
0.0
  3
*Paper_Space
  1

  0
ENDBLK
  5
1C
330
1A
100
AcDbEntity
 67
     1
  8
0
100
AcDbBlockEnd
  0
ENDSEC
  0
SECTION
  2
ENTITIES
  0
LINE
  5
22
330
1E
100
AcDbEntity
  8
0
100
AcDbLine
 10
3.54892000000002
 20
105.3579999999999
 30
0.0
 11
3.61151000000002
 21
105.156
 31
0.0
  0
LINE
  5
23
330
1E
100
AcDbEntity
  8
0
100
AcDbLine
 10
3.54892000000002
 20
105.3579999999999
 30
0.0
 11
3.59561000000002
 21
105.5629999999999
 31
0.0
  0
LINE
  5
24
330
1E
100
AcDbEntity
  8
0
100
AcDbLine
 10
3.617444404015059
 20
105.1529410288579
 30
0.0
 11
3.77137000000002
 21
105.0119999999999
 31
0.0
  0
LINE
  5
25
330
1E
100
AcDbEntity
  8
0
100
AcDbLine
 10
3.61151000000002
 20
105.156
 30
0.0
 11
3.76572000000002
 21
105.0149999999999
 31
0.0
  0
LINE
  5
26
330
1E
100
AcDbEntity
  8
0
100
AcDbLine
 10
0.235731000000019
 20
114.037
 30
0.0
 11
0.302246000000019
 21
113.9539999999999
 31
0.0
  0
LINE
  5
2C
330
1E
100
AcDbEntity
  8
0
100
AcDbLine
 10
0.145936000000019
 20
114.672
 30
0.0
 11
0.246706000000019
 21
114.876
 31
0.0
  0
LINE
  5
2D
330
1E
100
AcDbEntity
  8
0
100
AcDbLine
 10
0.118000000000019
 20
114.3489999999999
 30
0.0
 11
0.183406000000019
 21
114.176
 31
0.0
  0
LINE
  5
2E
330
1E
100
AcDbEntity
  8
0
100
AcDbLine
 10
0.118000000000019
 20
114.3489999999999
 30
0.0
 11
0.145936000000019
 21
114.672
 31
0.0
  0
LINE
  5
30
330
1E
100
AcDbEntity
  8
0
100
AcDbLine
 10
0.246706000000019
 20
114.876
 30
0.0
 11
0.622847000000019
 21
115.259
 31
0.0
  0
LINE
  5
31
330
1E
100
AcDbEntity
  8
0
100
AcDbLine
 10
0.183406000000019
 20
114.176
 30
0.0
 11
0.235731000000019
 21
114.037
 31
0.0
  0
LINE
  5
35
330
1E
100
AcDbEntity
  8
0
100
AcDbLine
 10
0.8184000000000191
 20
113.5229999999999
 30
0.0
 11
4.36830000000002
 21
111.217
 31
0.0
  0
LINE
  5
36
330
1E
100
AcDbEntity
  8
0
100
AcDbLine
 10
0.385389000000019
 20
113.85
 30
0.0
 11
0.6259510000000191
 21
113.6689999999999
 31
0.0
  0
LINE
  5
38
330
1E
100
AcDbEntity
  8
0
100
AcDbLine
 10
0.622847000000019
 20
115.259
 30
0.0
 11
2.78990000000002
 21
117.0179999999999
 31
0.0
  0
LINE
  5
3B
330
1E
100
AcDbEntity
  8
0
100
AcDbLine
 10
0.622847000000019
 20
115.259
 30
0.0
 11
2.78990000000002
 21
117.0179999999999
 31
0.0
  0
LINE
  5
3F
330
1E
100
AcDbEntity
  8
0
100
AcDbLine
 10
0.6259510000000191
 20
113.6689999999999
 30
0.0
 11
0.8184000000000191
 21
113.5229999999999
 31
0.0
  0
LINE
  5
41
330
1E
100
AcDbEntity
  8
0
100
AcDbLine
 10
2.78990000000002
 20
117.0179999999999
 30
0.0
 11
5.046740000000019
 21
118.664
 31
0.0
  0
LINE
  5
43
330
1E
100
AcDbEntity
  8
0
100
AcDbLine
 10
0.8184000000000191
 20
113.5229999999999
 30
0.0
 11
4.36830000000002
 21
111.217
 31
0.0
  0
LINE
  5
44
330
1E
100
AcDbEntity
  8
0
100
AcDbLine
 10
0.302246000000019
 20
113.9539999999999
 30
0.0
 11
0.385389000000019
 21
113.85
 31
0.0
  0
LINE
  5
45
330
1E
100
AcDbEntity
  8
0
100
AcDbLine
 10
3.59561000000002
 20
105.5629999999999
 30
0.0
 11
6.05859010934412
 21
110.3085102045729
 31
0.0
  0
LINE
  5
66
330
1E
100
AcDbEntity
  8
0
100
AcDbLine
 10
4.662620000000019
 20
111.062
 30
0.0
 11
5.529640000000019
 21
110.5979999999999
 31
0.0
  0
LINE
  5
6A
330
1E
100
AcDbEntity
  8
0
100
AcDbLine
 10
4.36830000000002
 20
111.217
 30
0.0
 11
4.662620000000019
 21
111.062
 31
0.0
  0
LINE
  5
72
330
1E
100
AcDbEntity
  8
0
100
AcDbLine
 10
5.046740000000019
 20
118.664
 30
0.0
 11
7.389390000000019
 21
120.186
 31
0.0
  0
LINE
  5
75
330
1E
100
AcDbEntity
  8
0
100
AcDbLine
 10
6.916470000000018
 20
109.8389999999999
 30
0.0
 11
26.2065529827521
 21
97.0295665985458
 31
0.0
  0
LINE
  5
7A
330
1E
100
AcDbEntity
  8
0
100
AcDbLine
 10
9.808860000000018
 20
121.571
 30
0.0
 11
12.2982
 21
122.812
 31
0.0
  0
LINE
  5
7C
330
1E
100
AcDbEntity
  8
0
100
AcDbLine
 10
7.389390000000019
 20
120.186
 30
0.0
 11
9.808860000000018
 21
121.571
 31
0.0
  0
LINE
  5
7D
330
1E
100
AcDbEntity
  8
0
100
AcDbLine
 10
5.529640000000019
 20
110.5979999999999
 30
0.0
 11
6.05859010934412
 21
110.3085102045729
 31
0.0
  0
LINE
  5
7E
330
1E
100
AcDbEntity
  8
0
100
AcDbLine
 10
5.529640000000019
 20
110.5979999999999
 30
0.0
 11
6.916470000000018
 21
109.8389999999999
 31
0.0
  0
LINE
  5
7F
330
1E
100
AcDbEntity
  8
0
100
AcDbLine
 10
12.2982
 20
122.812
 30
0.0
 11
14.8493
 21
123.9029999999999
 31
0.0
  0
LINE
  5
8A
330
1E
100
AcDbEntity
  8
0
100
AcDbLine
 10
14.8493
 20
123.9029999999999
 30
0.0
 11
17.45039999999999
 21
124.8429999999999
 31
0.0
  0
LINE
  5
A9
330
1E
100
AcDbEntity
  8
0
100
AcDbLine
 10
24.119
 20
94.45159999999999
 30
0.0
 11
24.2819
 21
94.3674
 31
0.0
  0
LINE
  5
AA
330
1E
100
AcDbEntity
  8
0
100
AcDbLine
 10
24.2819
 20
94.3674
 30
0.0
 11
24.3516
 21
94.3313
 31
0.0
  0
LINE
  5
AB
330
1E
100
AcDbEntity
  8
0
100
AcDbLine
 10
24.346
 20
94.33419999999999
 30
0.0
 11
24.5502
 21
94.2896
 31
0.0
  0
LINE
  5
AC
330
1E
100
AcDbEntity
  8
0
100
AcDbLine
 10
24.7564
 20
94.351
 30
0.0
 11
24.8976
 21
94.50749999999999
 31
0.0
  0
LINE
  5
AD
330
1E
100
AcDbEntity
  8
0
100
AcDbLine
 10
24.5561
 20
94.2866
 30
0.0
 11
24.7564
 21
94.351
 31
0.0
  0
LINE
  5
AE
330
1E
100
AcDbEntity
  8
0
100
AcDbLine
 10
24.3516
 20
94.3313
 30
0.0
 11
24.5561
 21
94.2866
 31
0.0
  0
LINE
  5
B9
330
1E
100
AcDbEntity
  8
0
100
AcDbLine
 10
103.227
 20
-0.0000000000000095
 30
0.0
 11
104.8289999999999
 21
82.0082
 31
0.0
  0
LINE
  5
BA
330
1E
100
AcDbEntity
  8
0
100
AcDbLine
 10
141.459
 20
-0.0000000000000087
 30
0.0
 11
144.099
 21
-0.0000000000000088
 31
0.0
  0
LINE
  5
BB
330
1E
100
AcDbEntity
  8
0
100
AcDbLine
 10
116.5
 20
-0.0000000000000071
 30
0.0
 11
119.9759999999999
 21
-0.0000000000000073
 31
0.0
  0
LINE
  5
BC
330
1E
100
AcDbEntity
  8
0
100
AcDbLine
 10
116.376
 20
-0.0000000000000071
 30
0.0
 11
119.364
 21
-0.0000000000000073
 31
0.0
  0
LINE
  5
BD
330
1E
100
AcDbEntity
  8
0
100
AcDbLine
 10
127.48
 20
-0.0000000000000078
 30
0.0
 11
131.276
 21
-0.000000000000008
 31
0.0
  0
LINE
  5
BE
330
1E
100
AcDbEntity
  8
0
100
AcDbLine
 10
123.6739999999999
 20
-0.0000000000000076
 30
0.0
 11
127.48
 21
-0.0000000000000078
 31
0.0
  0
LINE
  5
BF
330
1E
100
AcDbEntity
  8
0
100
AcDbLine
 10
125.867
 20
-0.0000000000000077
 30
0.0
 11
128.0699999999999
 21
-0.0000000000000078
 31
0.0
  0
LINE
  5
C0
330
1E
100
AcDbEntity
  8
0
100
AcDbLine
 10
128.0699999999999
 20
-0.0000000000000078
 30
0.0
 11
128.4789999999999
 21
-0.0000000000000079
 31
0.0
  0
LINE
  5
C1
330
1E
100
AcDbEntity
  8
0
100
AcDbLine
 10
119.9759999999999
 20
-0.0000000000000073
 30
0.0
 11
123.6739999999999
 21
-0.0000000000000076
 31
0.0
  0
LINE
  5
C2
330
1E
100
AcDbEntity
  8
0
100
AcDbLine
 10
122.6399999999999
 20
-0.0000000000000075
 30
0.0
 11
125.867
 21
-0.0000000000000077
 31
0.0
  0
LINE
  5
C3
330
1E
100
AcDbEntity
  8
0
100
AcDbLine
 10
119.364
 20
-0.0000000000000073
 30
0.0
 11
122.6399999999999
 21
-0.0000000000000075
 31
0.0
  0
LINE
  5
C4
330
1E
100
AcDbEntity
  8
0
100
AcDbLine
 10
110.637
 20
-0.0000000000000068
 30
0.0
 11
113.355
 21
-0.0000000000000069
 31
0.0
  0
LINE
  5
C5
330
1E
100
AcDbEntity
  8
0
100
AcDbLine
 10
108.4319999999999
 20
-0.0000000000000066
 30
0.0
 11
110.637
 21
-0.0000000000000068
 31
0.0
  0
LINE
  5
C6
330
1E
100
AcDbEntity
  8
0
100
AcDbLine
 10
103.227
 20
-0.0000000000000063
 30
0.0
 11
103.461
 21
-0.0000000000000063
 31
0.0
  0
LINE
  5
C7
330
1E
100
AcDbEntity
  8
0
100
AcDbLine
 10
103.227
 20
-0.0000000000000063
 30
0.0
 11
105.472
 21
-0.0000000000000065
 31
0.0
  0
LINE
  5
C8
330
1E
100
AcDbEntity
  8
0
100
AcDbLine
 10
103.227
 20
-0.0000000000000063
 30
0.0
 11
104.8289999999999
 21
82.0082
 31
0.0
  0
LINE
  5
C9
330
1E
100
AcDbEntity
  8
0
100
AcDbLine
 10
103.461
 20
-0.0000000000000063
 30
0.0
 11
103.7639999999999
 21
-0.0000000000000063
 31
0.0
  0
LINE
  5
CA
330
1E
100
AcDbEntity
  8
0
100
AcDbLine
 10
103.7639999999999
 20
-0.0000000000000063
 30
0.0
 11
104.202
 21
-0.0000000000000064
 31
0.0
  0
LINE
  5
CB
330
1E
100
AcDbEntity
  8
0
100
AcDbLine
 10
104.202
 20
-0.0000000000000064
 30
0.0
 11
104.7779999999999
 21
-0.0000000000000064
 31
0.0
  0
LINE
  5
CC
330
1E
100
AcDbEntity
  8
0
100
AcDbLine
 10
104.7779999999999
 20
-0.0000000000000064
 30
0.0
 11
105.4929999999999
 21
-0.0000000000000065
 31
0.0
  0
LINE
  5
CD
330
1E
100
AcDbEntity
  8
0
100
AcDbLine
 10
105.4929999999999
 20
-0.0000000000000065
 30
0.0
 11
106.3489999999999
 21
-0.0000000000000065
 31
0.0
  0
LINE
  5
CE
330
1E
100
AcDbEntity
  8
0
100
AcDbLine
 10
106.804
 20
-0.0000000000000065
 30
0.0
 11
108.4319999999999
 21
-0.0000000000000066
 31
0.0
  0
LINE
  5
CF
330
1E
100
AcDbEntity
  8
0
100
AcDbLine
 10
106.3489999999999
 20
-0.0000000000000065
 30
0.0
 11
107.342
 21
-0.0000000000000066
 31
0.0
  0
LINE
  5
D0
330
1E
100
AcDbEntity
  8
0
100
AcDbLine
 10
107.342
 20
-0.0000000000000066
 30
0.0
 11
108.467
 21
-0.0000000000000066
 31
0.0
  0
LINE
  5
D1
330
1E
100
AcDbEntity
  8
0
100
AcDbLine
 10
108.467
 20
-0.0000000000000066
 30
0.0
 11
109.715
 21
-0.0000000000000067
 31
0.0
  0
LINE
  5
D2
330
1E
100
AcDbEntity
  8
0
100
AcDbLine
 10
109.715
 20
-0.0000000000000067
 30
0.0
 11
111.538
 21
-0.0000000000000068
 31
0.0
  0
LINE
  5
D3
330
1E
100
AcDbEntity
  8
0
100
AcDbLine
 10
113.355
 20
-0.0000000000000069
 30
0.0
 11
116.5
 21
-0.0000000000000071
 31
0.0
  0
LINE
  5
D4
330
1E
100
AcDbEntity
  8
0
100
AcDbLine
 10
111.538
 20
-0.0000000000000068
 30
0.0
 11
113.5279999999999
 21
-0.0000000000000069
 31
0.0
  0
LINE
  5
D5
330
1E
100
AcDbEntity
  8
0
100
AcDbLine
 10
113.5279999999999
 20
-0.0000000000000069
 30
0.0
 11
116.376
 21
-0.0000000000000071
 31
0.0
  0
LINE
  5
D6
330
1E
100
AcDbEntity
  8
0
100
AcDbLine
 10
138.657
 20
-0.0000000000000085
 30
0.0
 11
141.459
 21
-0.0000000000000087
 31
0.0
  0
LINE
  5
D7
330
1E
100
AcDbEntity
  8
0
100
AcDbLine
 10
136.9939999999999
 20
-0.0000000000000084
 30
0.0
 11
138.657
 21
-0.0000000000000085
 31
0.0
  0
LINE
  5
D8
330
1E
100
AcDbEntity
  8
0
100
AcDbLine
 10
131.276
 20
-0.000000000000008
 30
0.0
 11
133.581
 21
-0.0000000000000082
 31
0.0
  0
LINE
  5
D9
330
1E
100
AcDbEntity
  8
0
100
AcDbLine
 10
133.58
 20
-0.0000000000000082
 30
0.0
 11
135.297
 21
-0.0000000000000083
 31
0.0
  0
LINE
  5
DA
330
1E
100
AcDbEntity
  8
0
100
AcDbLine
 10
133.581
 20
-0.0000000000000082
 30
0.0
 11
135.297
 21
-0.0000000000000083
 31
0.0
  0
LINE
  5
DB
330
1E
100
AcDbEntity
  8
0
100
AcDbLine
 10
133.581
 20
-0.0000000000000082
 30
0.0
 11
135.297
 21
-0.0000000000000083
 31
0.0
  0
LINE
  5
DC
330
1E
100
AcDbEntity
  8
0
100
AcDbLine
 10
131.8629999999999
 20
-0.0000000000000081
 30
0.0
 11
133.581
 21
-0.0000000000000082
 31
0.0
  0
LINE
  5
DD
330
1E
100
AcDbEntity
  8
0
100
AcDbLine
 10
131.8629999999999
 20
-0.0000000000000081
 30
0.0
 11
133.58
 21
-0.0000000000000082
 31
0.0
  0
LINE
  5
DE
330
1E
100
AcDbEntity
  8
0
100
AcDbLine
 10
135.297
 20
-0.0000000000000083
 30
0.0
 11
136.9939999999999
 21
-0.0000000000000084
 31
0.0
  0
LINE
  5
DF
330
1E
100
AcDbEntity
  8
0
100
AcDbLine
 10
135.297
 20
-0.0000000000000083
 30
0.0
 11
138.375
 21
-0.0000000000000085
 31
0.0
  0
LINE
  5
E0
330
1E
100
AcDbEntity
  8
0
100
AcDbLine
 10
138.657
 20
-0.0000000000000085
 30
0.0
 11
140.27
 21
-0.0000000000000086
 31
0.0
  0
LINE
  5
E1
330
1E
100
AcDbEntity
  8
0
100
AcDbLine
 10
130.1579999999999
 20
-0.000000000000008
 30
0.0
 11
131.8629999999999
 21
-0.0000000000000081
 31
0.0
  0
LINE
  5
E2
330
1E
100
AcDbEntity
  8
0
100
AcDbLine
 10
128.4789999999999
 20
-0.0000000000000079
 30
0.0
 11
130.1579999999999
 21
-0.000000000000008
 31
0.0
  0
LINE
  5
E3
330
1E
100
AcDbEntity
  8
0
100
AcDbLine
 10
140.27
 20
-0.0000000000000086
 30
0.0
 11
141.8129999999999
 21
-0.0000000000000087
 31
0.0
  0
LINE
  5
E4
330
1E
100
AcDbEntity
  8
0
100
AcDbLine
 10
141.8129999999999
 20
-0.0000000000000087
 30
0.0
 11
143.272
 21
-0.0000000000000088
 31
0.0
  0
LINE
  5
E6
330
1E
100
AcDbEntity
  8
0
100
AcDbLine
 10
143.272
 20
-0.0000000000000088
 30
0.0
 11
144.6309999999999
 21
-0.0000000000000088
 31
0.0
  0
LINE
  5
EB
330
1E
100
AcDbEntity
  8
0
100
AcDbLine
 10
144.099
 20
-0.0000000000000088
 30
0.0
 11
146.216
 21
-0.0000000000000089
 31
0.0
  0
LINE
  5
EF
330
1E
100
AcDbEntity
  8
0
100
AcDbLine
 10
144.5752345923619
 20
51.76255089207479
 30
0.0
 11
145.0629999999999
 21
53.5795
 31
0.0
  0
LINE
  5
F0
330
1E
100
AcDbEntity
  8
0
100
AcDbLine
 10
144.6309999999999
 20
-0.0000000000000088
 30
0.0
 11
146.257
 21
-0.0000000000000089
 31
0.0
  0
LINE
  5
F1
330
1E
100
AcDbEntity
  8
0
100
AcDbLine
 10
144.5752345923619
 20
51.76255089207479
 30
0.0
 11
145.0629999999999
 21
53.5795
 31
0.0
  0
LINE
  5
F7
330
1E
100
AcDbEntity
  8
0
100
AcDbLine
 10
145.638078212346
 20
54.93749479852489
 30
0.0
 11
146.2069999999999
 21
55.6385
 31
0.0
  0
LINE
  5
F8
330
1E
100
AcDbEntity
  8
0
100
AcDbLine
 10
150.906
 20
-0.0000000000000092
 30
0.0
 11
151.1179999999999
 21
-0.0000000000000092
 31
0.0
  0
LINE
  5
F9
330
1E
100
AcDbEntity
  8
0
100
AcDbLine
 10
147.679
 20
-0.000000000000009
 30
0.0
 11
148.5729999999999
 21
-0.0000000000000091
 31
0.0
  0
LINE
  5
FA
330
1E
100
AcDbEntity
  8
0
100
AcDbLine
 10
148.5729999999999
 20
-0.0000000000000091
 30
0.0
 11
148.8729999999999
 21
-0.0000000000000091
 31
0.0
  0
LINE
  5
FB
330
1E
100
AcDbEntity
  8
0
100
AcDbLine
 10
146.216
 20
-0.0000000000000089
 30
0.0
 11
147.679
 21
-0.000000000000009
 31
0.0
  0
LINE
  5
FC
330
1E
100
AcDbEntity
  8
0
100
AcDbLine
 10
146.257
 20
-0.0000000000000089
 30
0.0
 11
147.6629999999999
 21
-0.000000000000009
 31
0.0
  0
LINE
  5
FD
330
1E
100
AcDbEntity
  8
0
100
AcDbLine
 10
147.6629999999999
 20
-0.000000000000009
 30
0.0
 11
149.1659999999999
 21
-0.0000000000000091
 31
0.0
  0
LINE
  5
FE
330
1E
100
AcDbEntity
  8
0
100
AcDbLine
 10
149.1659999999999
 20
-0.0000000000000091
 30
0.0
 11
150.233
 21
-0.0000000000000092
 31
0.0
  0
LINE
  5
FF
330
1E
100
AcDbEntity
  8
0
100
AcDbLine
 10
150.233
 20
-0.0000000000000092
 30
0.0
 11
150.906
 21
-0.0000000000000092
 31
0.0
  0
LINE
  5
100
330
1E
100
AcDbEntity
  8
0
100
AcDbLine
 10
146.2069999999999
 20
55.6385
 30
0.0
 11
147.217
 21
56.24649999999999
 31
0.0
  0
LINE
  5
101
330
1E
100
AcDbEntity
  8
0
100
AcDbLine
 10
150.0224103863319
 20
56.11950790481849
 30
0.0
 11
151.1179999999999
 21
-0.0000000000000092
 31
0.0
  0
LINE
  5
102
330
1E
100
AcDbEntity
  8
0
100
AcDbLine
 10
150.0224103863319
 20
56.11950790481849
 30
0.0
 11
151.1179999999999
 21
-0.0000000000000095
 31
0.0
  0
LINE
  5
103
330
1E
100
AcDbEntity
  8
0
100
AcDbLine
 10
147.217
 20
56.24649999999999
 30
0.0
 11
147.8926625873129
 21
56.32995329303501
 31
0.0
  0
LINE
  5
106
330
1E
100
AcDbEntity
  8
0
100
AcDbLine
 10
145.0629999999999
 20
53.5795
 30
0.0
 11
145.638078212346
 21
54.93749479852489
 31
0.0
  0
LINE
  5
109
330
1E
100
AcDbEntity
  8
0
100
AcDbLine
 10
147.8926625873129
 20
56.32995329303501
 30
0.0
 11
155.7909999999999
 21
55.5495
 31
0.0
  0
LINE
  5
10A
330
1E
100
AcDbEntity
  8
0
100
AcDbLine
 10
142.77460541981
 20
57.9245113043322
 30
0.0
 11
143.734
 21
59.1055
 31
0.0
  0
LINE
  5
10B
330
1E
100
AcDbEntity
  8
0
100
AcDbLine
 10
142.77460541981
 20
57.9245113043322
 30
0.0
 11
143.734
 21
59.1055
 31
0.0
  0
LINE
  5
10D
330
1E
100
AcDbEntity
  8
0
100
AcDbLine
 10
143.734
 20
59.1055
 30
0.0
 11
145.577
 21
60.2135
 31
0.0
  0
LINE
  5
113
330
1E
100
AcDbEntity
  8
0
100
AcDbLine
 10
154.841
 20
57.5885
 30
0.0
 11
155.0689999999999
 21
56.3285
 31
0.0
  0
LINE
  5
114
330
1E
100
AcDbEntity
  8
0
100
AcDbLine
 10
154.841
 20
57.5885
 30
0.0
 11
155.1939999999999
 21
58.84949999999999
 31
0.0
  0
LINE
  5
115
330
1E
100
AcDbEntity
  8
0
100
AcDbLine
 10
155.0689999999999
 20
56.3285
 30
0.0
 11
155.7909999999999
 21
55.5495
 31
0.0
  0
LINE
  5
116
330
1E
100
AcDbEntity
  8
0
100
AcDbLine
 10
155.7909999999999
 20
55.5495
 30
0.0
 11
156.7299999999999
 21
55.5495
 31
0.0
  0
LINE
  5
117
330
1E
100
AcDbEntity
  8
0
100
AcDbLine
 10
157.654
 20
58.84949999999999
 30
0.0
 11
157.882
 21
57.5885
 31
0.0
  0
LINE
  5
118
330
1E
100
AcDbEntity
  8
0
100
AcDbLine
 10
157.529
 20
56.3285
 30
0.0
 11
157.882
 21
57.5885
 31
0.0
  0
LINE
  5
119
330
1E
100
AcDbEntity
  8
0
100
AcDbLine
 10
156.7299999999999
 20
55.5495
 30
0.0
 11
157.529
 21
56.3285
 31
0.0
  0
LINE
  5
11A
330
1E
100
AcDbEntity
  8
0
100
AcDbLine
 10
155.992
 20
59.6285
 30
0.0
 11
156.932
 21
59.6285
 31
0.0
  0
LINE
  5
11B
330
1E
100
AcDbEntity
  8
0
100
AcDbLine
 10
155.1939999999999
 20
58.84949999999999
 30
0.0
 11
155.992
 21
59.6285
 31
0.0
  0
LINE
  5
11C
330
1E
100
AcDbEntity
  8
0
100
AcDbLine
 10
145.577
 20
60.2135
 30
0.0
 11
147.5729999999999
 21
60.4615
 31
0.0
  0
LINE
  5
11F
330
1E
100
AcDbEntity
  8
0
100
AcDbLine
 10
27.00099999999999
 20
96.5259
 30
0.0
 11
27.709
 21
96.1522
 31
0.0
  0
LINE
  5
121
330
1E
100
AcDbEntity
  8
0
100
AcDbLine
 10
26.8998
 20
96.5793
 30
0.0
 11
27.00099999999999
 21
96.5259
 31
0.0
  0
LINE
  5
123
330
1E
100
AcDbEntity
  8
0
100
AcDbLine
 10
27.709
 20
96.1522
 30
0.0
 11
28.0711
 21
96.11830000000001
 31
0.0
  0
LINE
  5
125
330
1E
100
AcDbEntity
  8
0
100
AcDbLine
 10
28.5999
 20
96.3977
 30
0.0
 11
28.9751
 21
96.83469999999999
 31
0.0
  0
LINE
  5
129
330
1E
100
AcDbEntity
  8
0
100
AcDbLine
 10
28.9751
 20
96.83469999999999
 30
0.0
 11
31.1451
 21
99.44499999999999
 31
0.0
  0
LINE
  5
12A
330
1E
100
AcDbEntity
  8
0
100
AcDbLine
 10
28.3984
 20
96.2391
 30
0.0
 11
28.5999
 21
96.3977
 31
0.0
  0
LINE
  5
12B
330
1E
100
AcDbEntity
  8
0
100
AcDbLine
 10
28.0711
 20
96.11830000000001
 30
0.0
 11
28.3984
 21
96.2391
 31
0.0
  0
LINE
  5
12C
330
1E
100
AcDbEntity
  8
0
100
AcDbLine
 10
104.29
 20
92.2348
 30
0.0
 11
104.7429999999999
 21
88.90210000000001
 31
0.0
  0
LINE
  5
12D
330
1E
100
AcDbEntity
  8
0
100
AcDbLine
 10
103.6579999999999
 20
94.6396
 30
0.0
 11
104.29
 21
92.2348
 31
0.0
  0
LINE
  5
12E
330
1E
100
AcDbEntity
  8
0
100
AcDbLine
 10
26.2065529827521
 20
97.0295665985458
 30
0.0
 11
26.8998
 21
96.5793
 31
0.0
  0
LINE
  5
12F
330
1E
100
AcDbEntity
  8
0
100
AcDbLine
 10
102.7449999999999
 20
96.9086
 30
0.0
 11
103.6579999999999
 21
94.6396
 31
0.0
  0
LINE
  5
130
330
1E
100
AcDbEntity
  8
0
100
AcDbLine
 10
104.8289999999999
 20
82.0082
 30
0.0
 11
104.855
 21
86.6341
 31
0.0
  0
LINE
  5
131
330
1E
100
AcDbEntity
  8
0
100
AcDbLine
 10
104.7429999999999
 20
88.90210000000001
 30
0.0
 11
104.855
 21
86.6341
 31
0.0
  0
LINE
  5
133
330
1E
100
AcDbEntity
  8
0
100
AcDbLine
 10
147.5729999999999
 20
60.4615
 30
0.0
 11
148.512
 21
60.4615
 31
0.0
  0
LINE
  5
134
330
1E
100
AcDbEntity
  8
0
100
AcDbLine
 10
149.435
 20
82.0082
 30
0.0
 11
149.5169999999999
 21
82.0082
 31
0.0
  0
LINE
  5
135
330
1E
100
AcDbEntity
  8
0
100
AcDbLine
 10
149.5169999999999
 20
82.0082
 30
0.0
 11
149.940402898771
 21
60.3201865065705
 31
0.0
  0
LINE
  5
136
330
1E
100
AcDbEntity
  8
0
100
AcDbLine
 10
149.5169999999999
 20
82.0082
 30
0.0
 11
149.940402898771
 21
60.3201865065705
 31
0.0
  0
LINE
  5
137
330
1E
100
AcDbEntity
  8
0
100
AcDbLine
 10
148.512
 20
60.4615
 30
0.0
 11
156.932
 21
59.6285
 31
0.0
  0
LINE
  5
138
330
1E
100
AcDbEntity
  8
0
100
AcDbLine
 10
156.932
 20
59.6285
 30
0.0
 11
157.654
 21
58.84949999999999
 31
0.0
  0
LINE
  5
139
330
1E
100
AcDbEntity
  8
0
100
AcDbLine
 10
24.8976
 20
94.50749999999999
 30
0.0
 11
26.2152503566719
 21
97.0463245390885
 31
0.0
  0
LINE
  5
13C
330
1E
100
AcDbEntity
  8
0
100
AcDbLine
 10
31.1451
 20
99.44499999999999
 30
0.0
 11
33.35309999999999
 21
101.6669999999999
 31
0.0
  0
LINE
  5
13E
330
1E
100
AcDbEntity
  8
0
100
AcDbLine
 10
101.5479999999999
 20
98.98899999999999
 30
0.0
 11
102.7449999999999
 21
96.9086
 31
0.0
  0
LINE
  5
141
330
1E
100
AcDbEntity
  8
0
100
AcDbLine
 10
100.1065
 20
100.8229999999999
 30
0.0
 11
101.5479999999999
 21
98.98899999999999
 31
0.0
  0
LINE
  5
144
330
1E
100
AcDbEntity
  8
0
100
AcDbLine
 10
33.35309999999999
 20
101.6669999999999
 30
0.0
 11
35.6658
 21
103.48
 31
0.0
  0
LINE
  5
14E
330
1E
100
AcDbEntity
  8
0
100
AcDbLine
 10
39.4362
 20
105.432
 30
0.0
 11
41.48449999999999
 21
106.082
 31
0.0
  0
LINE
  5
151
330
1E
100
AcDbEntity
  8
0
100
AcDbLine
 10
41.48449999999999
 20
106.082
 30
0.0
 11
43.6465
 21
106.54
 31
0.0
  0
LINE
  5
155
330
1E
100
AcDbEntity
  8
0
100
AcDbLine
 10
46.7066
 20
106.896
 30
0.0
 11
48.8497
 21
107.006
 31
0.0
  0
LINE
  5
156
330
1E
100
AcDbEntity
  8
0
100
AcDbLine
 10
43.6465
 20
106.54
 30
0.0
 11
46.7066
 21
106.896
 31
0.0
  0
LINE
  5
158
330
1E
100
AcDbEntity
  8
0
100
AcDbLine
 10
37.50059999999999
 20
104.569
 30
0.0
 11
39.4362
 21
105.432
 31
0.0
  0
LINE
  5
159
330
1E
100
AcDbEntity
  8
0
100
AcDbLine
 10
35.6658
 20
103.48
 30
0.0
 11
37.50059999999999
 21
104.569
 31
0.0
  0
LINE
  5
15A
330
1E
100
AcDbEntity
  8
0
100
AcDbLine
 10
17.45039999999999
 20
124.8429999999999
 30
0.0
 11
20.0904
 21
125.634
 31
0.0
  0
LINE
  5
15C
330
1E
100
AcDbEntity
  8
0
100
AcDbLine
 10
27.2221
 20
127.0499999999999
 30
0.0
 11
31.9423
 21
127.512
 31
0.0
  0
LINE
  5
15D
330
1E
100
AcDbEntity
  8
0
100
AcDbLine
 10
23.6492
 20
126.462
 30
0.0
 11
27.2221
 21
127.0499999999999
 31
0.0
  0
LINE
  5
15E
330
1E
100
AcDbEntity
  8
0
100
AcDbLine
 10
40.85289999999999
 20
127.72
 30
0.0
 11
76.261
 21
127.6379999999999
 31
0.0
  0
LINE
  5
15F
330
1E
100
AcDbEntity
  8
0
100
AcDbLine
 10
31.9423
 20
127.512
 30
0.0
 11
35.0173
 21
127.656
 31
0.0
  0
LINE
  5
160
330
1E
100
AcDbEntity
  8
0
100
AcDbLine
 10
20.0904
 20
125.634
 30
0.0
 11
23.6492
 21
126.462
 31
0.0
  0
LINE
  5
168
330
1E
100
AcDbEntity
  8
0
100
AcDbLine
 10
48.8497
 20
107.006
 30
0.0
 11
53.3384
 21
107.055
 31
0.0
  0
LINE
  5
16A
330
1E
100
AcDbEntity
  8
0
100
AcDbLine
 10
43.3652
 20
170.009
 30
0.0
 11
43.7204
 21
170.684
 31
0.0
  0
LINE
  5
16B
330
1E
100
AcDbEntity
  8
0
100
AcDbLine
 10
43.2744
 20
169.689
 30
0.0
 11
43.3652
 21
170.009
 31
0.0
  0
LINE
  5
16C
330
1E
100
AcDbEntity
  8
0
100
AcDbLine
 10
43.27239999999999
 20
169.225
 30
0.0
 11
43.44
 21
168.7949999999999
 31
0.0
  0
LINE
  5
16D
330
1E
100
AcDbEntity
  8
0
100
AcDbLine
 10
43.27239999999999
 20
169.225
 30
0.0
 11
43.2744
 21
169.689
 31
0.0
  0
LINE
  5
16F
330
1E
100
AcDbEntity
  8
0
100
AcDbLine
 10
52.8665
 20
163.201
 30
0.0
 11
54.8071
 21
162.465
 31
0.0
  0
LINE
  5
170
330
1E
100
AcDbEntity
  8
0
100
AcDbLine
 10
49.95309999999999
 20
164.525
 30
0.0
 11
52.8665
 21
163.201
 31
0.0
  0
LINE
  5
176
330
1E
100
AcDbEntity
  8
0
100
AcDbLine
 10
47.0647
 20
166.132
 30
0.0
 11
49.95309999999999
 21
164.525
 31
0.0
  0
LINE
  5
177
330
1E
100
AcDbEntity
  8
0
100
AcDbLine
 10
45.636
 20
167.049
 30
0.0
 11
47.0647
 21
166.132
 31
0.0
  0
LINE
  5
17D
330
1E
100
AcDbEntity
  8
0
100
AcDbLine
 10
44.33399999999999
 20
171.6709999999999
 30
0.0
 11
44.69319999999999
 21
171.958
 31
0.0
  0
LINE
  5
17E
330
1E
100
AcDbEntity
  8
0
100
AcDbLine
 10
44.0706
 20
171.269
 30
0.0
 11
44.33399999999999
 21
171.6709999999999
 31
0.0
  0
LINE
  5
17F
330
1E
100
AcDbEntity
  8
0
100
AcDbLine
 10
43.7204
 20
170.684
 30
0.0
 11
44.0706
 21
171.269
 31
0.0
  0
LINE
  5
180
330
1E
100
AcDbEntity
  8
0
100
AcDbLine
 10
44.69319999999999
 20
171.958
 30
0.0
 11
45.15109999999999
 21
172.0
 31
0.0
  0
LINE
  5
184
330
1E
100
AcDbEntity
  8
0
100
AcDbLine
 10
45.15109999999999
 20
172.0
 30
0.0
 11
45.30219999999999
 21
171.9659999999999
 31
0.0
  0
LINE
  5
187
330
1E
100
AcDbEntity
  8
0
100
AcDbLine
 10
45.30219999999999
 20
171.9659999999999
 30
0.0
 11
45.621
 21
171.894
 31
0.0
  0
LINE
  5
188
330
1E
100
AcDbEntity
  8
0
100
AcDbLine
 10
43.6406
 20
168.534
 30
0.0
 11
44.22019999999999
 21
168.046
 31
0.0
  0
LINE
  5
189
330
1E
100
AcDbEntity
  8
0
100
AcDbLine
 10
44.22019999999999
 20
168.046
 30
0.0
 11
45.636
 21
167.049
 31
0.0
  0
LINE
  5
18A
330
1E
100
AcDbEntity
  8
0
100
AcDbLine
 10
51.4768
 20
170.565
 30
0.0
 11
54.39
 21
170.0099999999999
 31
0.0
  0
LINE
  5
190
330
1E
100
AcDbEntity
  8
0
100
AcDbLine
 10
50.0968
 20
170.828
 30
0.0
 11
54.39
 21
170.0099999999999
 31
0.0
  0
LINE
  5
191
330
1E
100
AcDbEntity
  8
0
100
AcDbLine
 10
50.0968
 20
170.828
 30
0.0
 11
51.4768
 21
170.565
 31
0.0
  0
LINE
  5
193
330
1E
100
AcDbEntity
  8
0
100
AcDbLine
 10
45.621
 20
171.894
 30
0.0
 11
50.0968
 21
170.828
 31
0.0
  0
LINE
  5
195
330
1E
100
AcDbEntity
  8
0
100
AcDbLine
 10
43.44
 20
168.7949999999999
 30
0.0
 11
43.6406
 21
168.534
 31
0.0
  0
LINE
  5
196
330
1E
100
AcDbEntity
  8
0
100
AcDbLine
 10
35.0173
 20
127.656
 30
0.0
 11
40.85289999999999
 21
127.72
 31
0.0
  0
LINE
  5
197
330
1E
100
AcDbEntity
  8
0
100
AcDbLine
 10
97.9545
 20
102.795
 30
0.0
 11
99.04899999999999
 21
101.882
 31
0.0
  0
LINE
  5
198
330
1E
100
AcDbEntity
  8
0
100
AcDbLine
 10
96.5247
 20
103.7679999999999
 30
0.0
 11
97.9545
 21
102.795
 31
0.0
  0
LINE
  5
199
330
1E
100
AcDbEntity
  8
0
100
AcDbLine
 10
95.6567
 20
104.2549999999999
 30
0.0
 11
96.5247
 21
103.7679999999999
 31
0.0
  0
LINE
  5
19A
330
1E
100
AcDbEntity
  8
0
100
AcDbLine
 10
86.93859999999999
 20
106.6439999999999
 30
0.0
 11
89.6006
 21
106.238
 31
0.0
  0
LINE
  5
19B
330
1E
100
AcDbEntity
  8
0
100
AcDbLine
 10
54.80699999999999
 20
162.465
 30
0.0
 11
56.7426
 21
161.8319999999999
 31
0.0
  0
LINE
  5
19E
330
1E
100
AcDbEntity
  8
0
100
AcDbLine
 10
67.0381
 20
159.776
 30
0.0
 11
70.4603
 21
159.4289999999999
 31
0.0
  0
LINE
  5
19F
330
1E
100
AcDbEntity
  8
0
100
AcDbLine
 10
64.33530000000001
 20
160.144
 30
0.0
 11
67.0381
 21
159.776
 31
0.0
  0
LINE
  5
1A0
330
1E
100
AcDbEntity
  8
0
100
AcDbLine
 10
61.5427
 20
160.637
 30
0.0
 11
64.33530000000001
 21
160.144
 31
0.0
  0
LINE
  5
1A1
330
1E
100
AcDbEntity
  8
0
100
AcDbLine
 10
59.1581
 20
161.1699999999999
 30
0.0
 11
61.5427
 21
160.637
 31
0.0
  0
LINE
  5
1A6
330
1E
100
AcDbEntity
  8
0
100
AcDbLine
 10
57.7513
 20
169.5009999999999
 30
0.0
 11
61.0039
 21
169.108
 31
0.0
  0
LINE
  5
1A7
330
1E
100
AcDbEntity
  8
0
100
AcDbLine
 10
61.0039
 20
169.108
 30
0.0
 11
64.0965
 21
168.8349999999999
 31
0.0
  0
LINE
  5
1A9
330
1E
100
AcDbEntity
  8
0
100
AcDbLine
 10
64.0965
 20
168.8349999999999
 30
0.0
 11
65.56149999999999
 21
168.705
 31
0.0
  0
LINE
  5
1AA
330
1E
100
AcDbEntity
  8
0
100
AcDbLine
 10
65.56149999999999
 20
168.705
 30
0.0
 11
69.9105
 21
168.455
 31
0.0
  0
LINE
  5
1AB
330
1E
100
AcDbEntity
  8
0
100
AcDbLine
 10
70.4603
 20
159.4289999999999
 30
0.0
 11
72.6004
 21
159.2579999999999
 31
0.0
  0
LINE
  5
1AC
330
1E
100
AcDbEntity
  8
0
100
AcDbLine
 10
69.9105
 20
168.455
 30
0.0
 11
76.8148
 21
168.2599999999999
 31
0.0
  0
LINE
  5
1AD
330
1E
100
AcDbEntity
  8
0
100
AcDbLine
 10
72.6004
 20
159.2579999999999
 30
0.0
 11
76.47159999999999
 21
158.99
 31
0.0
  0
LINE
  5
1AE
330
1E
100
AcDbEntity
  8
0
100
AcDbLine
 10
56.7426
 20
161.8319999999999
 30
0.0
 11
59.1581
 21
161.1699999999999
 31
0.0
  0
LINE
  5
1AF
330
1E
100
AcDbEntity
  8
0
100
AcDbLine
 10
54.39
 20
170.0099999999999
 30
0.0
 11
57.7513
 21
169.5009999999999
 31
0.0
  0
LINE
  5
1B0
330
1E
100
AcDbEntity
  8
0
100
AcDbLine
 10
88.97899999999999
 20
157.999
 30
0.0
 11
91.6259000000001
 21
157.75
 31
0.0
  0
LINE
  5
1B2
330
1E
100
AcDbEntity
  8
0
100
AcDbLine
 10
82.83200000000009
 20
158.5149999999999
 30
0.0
 11
88.97899999999999
 21
157.999
 31
0.0
  0
LINE
  5
1B3
330
1E
100
AcDbEntity
  8
0
100
AcDbLine
 10
76.47159999999999
 20
158.99
 30
0.0
 11
82.83200000000009
 21
158.5149999999999
 31
0.0
  0
LINE
  5
1B4
330
1E
100
AcDbEntity
  8
0
100
AcDbLine
 10
76.8148
 20
168.2599999999999
 30
0.0
 11
81.16179999999999
 21
168.2199999999999
 31
0.0
  0
LINE
  5
1B5
330
1E
100
AcDbEntity
  8
0
100
AcDbLine
 10
81.16179999999999
 20
168.2199999999999
 30
0.0
 11
83.8057
 21
168.2159999999999
 31
0.0
  0
LINE
  5
1B7
330
1E
100
AcDbEntity
  8
0
100
AcDbLine
 10
81.16179999999999
 20
168.2199999999999
 30
0.0
 11
82.1067
 21
168.174
 31
0.0
  0
LINE
  5
1B8
330
1E
100
AcDbEntity
  8
0
100
AcDbLine
 10
83.8057
 20
168.2159999999999
 30
0.0
 11
89.387
 21
168.208
 31
0.0
  0
LINE
  5
1B9
330
1E
100
AcDbEntity
  8
0
100
AcDbLine
 10
89.387
 20
168.208
 30
0.0
 11
146.7309999999999
 21
168.208
 31
0.0
  0
LINE
  5
1BA
330
1E
100
AcDbEntity
  8
0
100
AcDbLine
 10
76.261
 20
127.6379999999999
 30
0.0
 11
112.4789999999999
 21
127.7139999999999
 31
0.0
  0
LINE
  5
1BB
330
1E
100
AcDbEntity
  8
0
100
AcDbLine
 10
73.9483
 20
107.055
 30
0.0
 11
80.5193
 21
107.026
 31
0.0
  0
LINE
  5
1BC
330
1E
100
AcDbEntity
  8
0
100
AcDbLine
 10
80.5193
 20
107.026
 30
0.0
 11
86.93859999999999
 21
106.6439999999999
 31
0.0
  0
LINE
  5
208
330
1E
100
AcDbEntity
  8
0
100
AcDbLine
 10
104.6829999999999
 20
147.5079999999999
 30
0.0
 11
105.196
 21
130.705
 31
0.0
  0
LINE
  5
20A
330
1E
100
AcDbEntity
  8
0
100
AcDbLine
 10
104.0529999999999
 20
151.405
 30
0.0
 11
104.471
 21
149.61
 31
0.0
  0
LINE
  5
20B
330
1E
100
AcDbEntity
  8
0
100
AcDbLine
 10
103.498
 20
152.741
 30
0.0
 11
104.0529999999999
 21
151.405
 31
0.0
  0
LINE
  5
20C
330
1E
100
AcDbEntity
  8
0
100
AcDbLine
 10
101.8629999999999
 20
154.763
 30
0.0
 11
102.7689999999999
 21
153.8499999999999
 31
0.0
  0
LINE
  5
20D
330
1E
100
AcDbEntity
  8
0
100
AcDbLine
 10
101.068
 20
155.336
 30
0.0
 11
101.8629999999999
 21
154.763
 31
0.0
  0
LINE
  5
20E
330
1E
100
AcDbEntity
  8
0
100
AcDbLine
 10
100.181
 20
155.8239999999999
 30
0.0
 11
101.068
 21
155.336
 31
0.0
  0
LINE
  5
20F
330
1E
100
AcDbEntity
  8
0
100
AcDbLine
 10
99.2126
 20
156.242
 30
0.0
 11
100.181
 21
155.8239999999999
 31
0.0
  0
LINE
  5
210
330
1E
100
AcDbEntity
  8
0
100
AcDbLine
 10
102.7689999999999
 20
153.8499999999999
 30
0.0
 11
103.498
 21
152.741
 31
0.0
  0
LINE
  5
211
330
1E
100
AcDbEntity
  8
0
100
AcDbLine
 10
98.17100000000001
 20
156.5939999999999
 30
0.0
 11
99.2126
 21
156.242
 31
0.0
  0
LINE
  5
212
330
1E
100
AcDbEntity
  8
0
100
AcDbLine
 10
96.6913
 20
156.9789999999999
 30
0.0
 11
98.17100000000001
 21
156.5939999999999
 31
0.0
  0
LINE
  5
213
330
1E
100
AcDbEntity
  8
0
100
AcDbLine
 10
95.13989999999999
 20
157.282
 30
0.0
 11
96.6913
 21
156.9789999999999
 31
0.0
  0
LINE
  5
214
330
1E
100
AcDbEntity
  8
0
100
AcDbLine
 10
93.14876518000508
 20
157.573817224943
 30
0.0
 11
95.13989999999999
 21
157.282
 31
0.0
  0
LINE
  5
215
330
1E
100
AcDbEntity
  8
0
100
AcDbLine
 10
91.6259000000001
 20
157.75
 30
0.0
 11
93.02469999999999
 21
157.592
 31
0.0
  0
LINE
  5
216
330
1E
100
AcDbEntity
  8
0
100
AcDbLine
 10
104.471
 20
149.61
 30
0.0
 11
104.6829999999999
 21
147.5079999999999
 31
0.0
  0
LINE
  5
217
330
1E
100
AcDbEntity
  8
0
100
AcDbLine
 10
105.7539999999999
 20
130.22
 30
0.0
 11
106.095
 21
130.22
 31
0.0
  0
LINE
  5
218
330
1E
100
AcDbEntity
  8
0
100
AcDbLine
 10
105.6939999999999
 20
130.22
 30
0.0
 11
105.7539999999999
 21
130.22
 31
0.0
  0
LINE
  5
219
330
1E
100
AcDbEntity
  8
0
100
AcDbLine
 10
105.8159999999999
 20
130.22
 30
0.0
 11
105.997
 21
130.22
 31
0.0
  0
LINE
  5
21A
330
1E
100
AcDbEntity
  8
0
100
AcDbLine
 10
106.095
 20
130.22
 30
0.0
 11
106.729
 21
130.22
 31
0.0
  0
LINE
  5
21B
330
1E
100
AcDbEntity
  8
0
100
AcDbLine
 10
105.997
 20
130.22
 30
0.0
 11
106.542
 21
130.22
 31
0.0
  0
LINE
  5
21C
330
1E
100
AcDbEntity
  8
0
100
AcDbLine
 10
106.542
 20
130.22
 30
0.0
 11
107.1484433139539
 21
130.22
 31
0.0
  0
LINE
  5
21D
330
1E
100
AcDbEntity
  8
0
100
AcDbLine
 10
105.4489999999999
 20
130.2839999999999
 30
0.0
 11
105.6939999999999
 21
130.22
 31
0.0
  0
LINE
  5
21E
330
1E
100
AcDbEntity
  8
0
100
AcDbLine
 10
105.267
 20
130.461
 30
0.0
 11
105.4489999999999
 21
130.2839999999999
 31
0.0
  0
LINE
  5
21F
330
1E
100
AcDbEntity
  8
0
100
AcDbLine
 10
105.196
 20
130.705
 30
0.0
 11
105.267
 21
130.461
 31
0.0
  0
LINE
  5
222
330
1E
100
AcDbEntity
  8
0
100
AcDbLine
 10
91.09154045620179
 20
127.6642180093469
 30
0.0
 11
110.685
 21
127.715
 31
0.0
  0
LINE
  5
223
330
1E
100
AcDbEntity
  8
0
100
AcDbLine
 10
92.0949
 20
105.641
 30
0.0
 11
94.37560000000001
 21
104.847
 31
0.0
  0
LINE
  5
224
330
1E
100
AcDbEntity
  8
0
100
AcDbLine
 10
89.6006
 20
106.238
 30
0.0
 11
92.0949
 21
105.641
 31
0.0
  0
LINE
  5
225
330
1E
100
AcDbEntity
  8
0
100
AcDbLine
 10
94.37560000000001
 20
104.847
 30
0.0
 11
95.6567
 21
104.2549999999999
 31
0.0
  0
LINE
  5
226
330
1E
100
AcDbEntity
  8
0
100
AcDbLine
 10
53.3384
 20
107.055
 30
0.0
 11
73.9483
 21
107.055
 31
0.0
  0
LINE
  5
227
330
1E
100
AcDbEntity
  8
0
100
AcDbLine
 10
99.04899999999999
 20
101.882
 30
0.0
 11
100.1065
 21
100.8229999999999
 31
0.0
  0
LINE
  5
22E
330
1E
100
AcDbEntity
  8
0
100
AcDbLine
 10
127.802
 20
127.7109999999999
 30
0.0
 11
129.531
 21
127.7109999999999
 31
0.0
  0
LINE
  5
22F
330
1E
100
AcDbEntity
  8
0
100
AcDbLine
 10
129.531
 20
127.7109999999999
 30
0.0
 11
131.242
 21
127.712
 31
0.0
  0
LINE
  5
230
330
1E
100
AcDbEntity
  8
0
100
AcDbLine
 10
131.242
 20
127.712
 30
0.0
 11
132.926
 21
127.712
 31
0.0
  0
LINE
  5
231
330
1E
100
AcDbEntity
  8
0
100
AcDbLine
 10
137.667
 20
127.712
 30
0.0
 11
139.1029999999999
 21
127.712
 31
0.0
  0
LINE
  5
232
330
1E
100
AcDbEntity
  8
0
100
AcDbLine
 10
136.155
 20
127.712
 30
0.0
 11
137.667
 21
127.712
 31
0.0
  0
LINE
  5
233
330
1E
100
AcDbEntity
  8
0
100
AcDbLine
 10
145.2849999999999
 20
127.712
 30
0.0
 11
146.5339999999999
 21
127.712
 31
0.0
  0
LINE
  5
234
330
1E
100
AcDbEntity
  8
0
100
AcDbLine
 10
147.6049999999999
 20
127.712
 30
0.0
 11
147.676
 21
127.712
 31
0.0
  0
LINE
  5
235
330
1E
100
AcDbEntity
  8
0
100
AcDbLine
 10
147.389
 20
127.712
 30
0.0
 11
147.6049999999999
 21
127.712
 31
0.0
  0
LINE
  5
236
330
1E
100
AcDbEntity
  8
0
100
AcDbLine
 10
146.5339999999999
 20
127.712
 30
0.0
 11
147.027
 21
127.712
 31
0.0
  0
LINE
  5
237
330
1E
100
AcDbEntity
  8
0
100
AcDbLine
 10
147.027
 20
127.712
 30
0.0
 11
147.389
 21
127.712
 31
0.0
  0
LINE
  5
238
330
1E
100
AcDbEntity
  8
0
100
AcDbLine
 10
141.717
 20
127.712
 30
0.0
 11
143.745
 21
127.712
 31
0.0
  0
LINE
  5
239
330
1E
100
AcDbEntity
  8
0
100
AcDbLine
 10
140.4569999999999
 20
127.712
 30
0.0
 11
141.717
 21
127.712
 31
0.0
  0
LINE
  5
23A
330
1E
100
AcDbEntity
  8
0
100
AcDbLine
 10
139.1029999999999
 20
127.712
 30
0.0
 11
140.4569999999999
 21
127.712
 31
0.0
  0
LINE
  5
23B
330
1E
100
AcDbEntity
  8
0
100
AcDbLine
 10
134.567
 20
127.712
 30
0.0
 11
136.155
 21
127.712
 31
0.0
  0
LINE
  5
23C
330
1E
100
AcDbEntity
  8
0
100
AcDbLine
 10
132.926
 20
127.712
 30
0.0
 11
134.567
 21
127.712
 31
0.0
  0
LINE
  5
23D
330
1E
100
AcDbEntity
  8
0
100
AcDbLine
 10
106.873152940564
 20
127.7197213734379
 30
0.0
 11
106.929
 21
128.8089999999999
 31
0.0
  0
LINE
  5
23E
330
1E
100
AcDbEntity
  8
0
100
AcDbLine
 10
108.0079999999999
 20
127.7179999999999
 30
0.0
 11
109.18
 21
127.716
 31
0.0
  0
LINE
  5
23F
330
1E
100
AcDbEntity
  8
0
100
AcDbLine
 10
107.192
 20
127.719
 30
0.0
 11
108.0079999999999
 21
127.7179999999999
 31
0.0
  0
LINE
  5
240
330
1E
100
AcDbEntity
  8
0
100
AcDbLine
 10
106.729
 20
130.22
 30
0.0
 11
107.6439999999999
 21
130.22
 31
0.0
  0
LINE
  5
241
330
1E
100
AcDbEntity
  8
0
100
AcDbLine
 10
107.6439999999999
 20
130.22
 30
0.0
 11
108.826
 21
130.22
 31
0.0
  0
LINE
  5
242
330
1E
100
AcDbEntity
  8
0
100
AcDbLine
 10
108.826
 20
130.22
 30
0.0
 11
110.357
 21
130.22
 31
0.0
  0
LINE
  5
243
330
1E
100
AcDbEntity
  8
0
100
AcDbLine
 10
106.929
 20
128.8089999999999
 30
0.0
 11
107.1484433139539
 21
130.22
 31
0.0
  0
LINE
  5
244
330
1E
100
AcDbEntity
  8
0
100
AcDbLine
 10
106.75
 20
127.72
 30
0.0
 11
107.192
 21
127.719
 31
0.0
  0
LINE
  5
245
330
1E
100
AcDbEntity
  8
0
100
AcDbLine
 10
114.51
 20
127.7129999999999
 30
0.0
 11
117.083
 21
127.7139999999999
 31
0.0
  0
LINE
  5
246
330
1E
100
AcDbEntity
  8
0
100
AcDbLine
 10
112.4789999999999
 20
127.7139999999999
 30
0.0
 11
114.51
 21
127.7129999999999
 31
0.0
  0
LINE
  5
247
330
1E
100
AcDbEntity
  8
0
100
AcDbLine
 10
117.083
 20
127.7139999999999
 30
0.0
 11
119.817
 21
127.715
 31
0.0
  0
LINE
  5
248
330
1E
100
AcDbEntity
  8
0
100
AcDbLine
 10
119.817
 20
127.715
 30
0.0
 11
121.6229999999999
 21
127.716
 31
0.0
  0
LINE
  5
249
330
1E
100
AcDbEntity
  8
0
100
AcDbLine
 10
110.357
 20
130.22
 30
0.0
 11
112.148
 21
130.22
 31
0.0
  0
LINE
  5
24A
330
1E
100
AcDbEntity
  8
0
100
AcDbLine
 10
114.171
 20
130.22
 30
0.0
 11
116.4
 21
130.22
 31
0.0
  0
LINE
  5
24B
330
1E
100
AcDbEntity
  8
0
100
AcDbLine
 10
112.148
 20
130.22
 30
0.0
 11
114.171
 21
130.22
 31
0.0
  0
LINE
  5
24C
330
1E
100
AcDbEntity
  8
0
100
AcDbLine
 10
120.73
 20
130.22
 30
0.0
 11
123.037
 21
130.22
 31
0.0
  0
LINE
  5
24D
330
1E
100
AcDbEntity
  8
0
100
AcDbLine
 10
118.51
 20
130.22
 30
0.0
 11
120.73
 21
130.22
 31
0.0
  0
LINE
  5
24E
330
1E
100
AcDbEntity
  8
0
100
AcDbLine
 10
116.4
 20
130.22
 30
0.0
 11
118.51
 21
130.22
 31
0.0
  0
LINE
  5
24F
330
1E
100
AcDbEntity
  8
0
100
AcDbLine
 10
123.037
 20
130.22
 30
0.0
 11
125.405
 21
130.22
 31
0.0
  0
LINE
  5
250
330
1E
100
AcDbEntity
  8
0
100
AcDbLine
 10
127.157
 20
130.22
 30
0.0
 11
127.303
 21
130.242
 31
0.0
  0
LINE
  5
251
330
1E
100
AcDbEntity
  8
0
100
AcDbLine
 10
127.303
 20
130.242
 30
0.0
 11
129.0449999999999
 21
130.774
 31
0.0
  0
LINE
  5
252
330
1E
100
AcDbEntity
  8
0
100
AcDbLine
 10
125.405
 20
130.22
 30
0.0
 11
127.157
 21
130.22
 31
0.0
  0
LINE
  5
258
330
1E
100
AcDbEntity
  8
0
100
AcDbLine
 10
129.0449999999999
 20
130.774
 30
0.0
 11
145.806
 21
135.899
 31
0.0
  0
LINE
  5
25A
330
1E
100
AcDbEntity
  8
0
100
AcDbLine
 10
147.402
 20
128.8089999999999
 30
0.0
 11
147.457717297556
 21
127.712
 31
0.0
  0
LINE
  5
25B
330
1E
100
AcDbEntity
  8
0
100
AcDbLine
 10
147.081
 20
130.8729999999999
 30
0.0
 11
147.402
 21
128.8089999999999
 31
0.0
  0
LINE
  5
268
330
1E
100
AcDbEntity
  8
0
100
AcDbLine
 10
145.806
 20
135.899
 30
0.0
 11
146.987
 21
136.26
 31
0.0
  0
LINE
  5
269
330
1E
100
AcDbEntity
  8
0
100
AcDbLine
 10
145.3621938538709
 20
135.7635204009239
 30
0.0
 11
145.817
 21
134.85
 31
0.0
  0
LINE
  5
26B
330
1E
100
AcDbEntity
  8
0
100
AcDbLine
 10
146.987
 20
136.26
 30
0.0
 11
147.8489999999999
 21
136.524
 31
0.0
  0
LINE
  5
26D
330
1E
100
AcDbEntity
  8
0
100
AcDbLine
 10
146.552
 20
168.204
 30
0.0
 11
146.686
 21
168.2069999999999
 31
0.0
  0
LINE
  5
26E
330
1E
100
AcDbEntity
  8
0
100
AcDbLine
 10
146.33
 20
168.199
 30
0.0
 11
146.552
 21
168.204
 31
0.0
  0
LINE
  5
26F
330
1E
100
AcDbEntity
  8
0
100
AcDbLine
 10
146.7309999999999
 20
168.208
 30
0.0
 11
147.293
 21
168.179
 31
0.0
  0
LINE
  5
270
330
1E
100
AcDbEntity
  8
0
100
AcDbLine
 10
147.293
 20
168.179
 30
0.0
 11
147.517
 21
168.12
 31
0.0
  0
LINE
  5
271
330
1E
100
AcDbEntity
  8
0
100
AcDbLine
 10
147.517
 20
168.12
 30
0.0
 11
147.782
 21
167.955
 31
0.0
  0
LINE
  5
272
330
1E
100
AcDbEntity
  8
0
100
AcDbLine
 10
145.817
 20
134.85
 30
0.0
 11
146.551
 21
132.895
 31
0.0
  0
LINE
  5
273
330
1E
100
AcDbEntity
  8
0
100
AcDbLine
 10
146.551
 20
132.895
 30
0.0
 11
147.081
 21
130.8729999999999
 31
0.0
  0
LINE
  5
274
330
1E
100
AcDbEntity
  8
0
100
AcDbLine
 10
123.446
 20
127.717
 30
0.0
 11
124.916
 21
127.716
 31
0.0
  0
LINE
  5
275
330
1E
100
AcDbEntity
  8
0
100
AcDbLine
 10
124.916
 20
127.716
 30
0.0
 11
127.802
 21
127.7109999999999
 31
0.0
  0
LINE
  5
276
330
1E
100
AcDbEntity
  8
0
100
AcDbLine
 10
121.6229999999999
 20
127.716
 30
0.0
 11
123.446
 21
127.717
 31
0.0
  0
LINE
  5
277
330
1E
100
AcDbEntity
  8
0
100
AcDbLine
 10
110.685
 20
127.715
 30
0.0
 11
112.4789999999999
 21
127.7139999999999
 31
0.0
  0
LINE
  5
278
330
1E
100
AcDbEntity
  8
0
100
AcDbLine
 10
109.18
 20
127.716
 30
0.0
 11
110.685
 21
127.715
 31
0.0
  0
LINE
  5
279
330
1E
100
AcDbEntity
  8
0
100
AcDbLine
 10
143.745
 20
127.712
 30
0.0
 11
145.2849999999999
 21
127.712
 31
0.0
  0
LINE
  5
27A
330
1E
100
AcDbEntity
  8
0
100
AcDbLine
 10
148.444
 20
127.3479999999999
 30
0.0
 11
148.572
 21
127.0929999999999
 31
0.0
  0
LINE
  5
27B
330
1E
100
AcDbEntity
  8
0
100
AcDbLine
 10
148.572
 20
127.0929999999999
 30
0.0
 11
148.649
 21
126.424
 31
0.0
  0
LINE
  5
27C
330
1E
100
AcDbEntity
  8
0
100
AcDbLine
 10
147.8489999999999
 20
136.524
 30
0.0
 11
148.3789999999999
 21
136.686
 31
0.0
  0
LINE
  5
27D
330
1E
100
AcDbEntity
  8
0
100
AcDbLine
 10
147.782
 20
167.955
 30
0.0
 11
147.955
 21
167.6949999999999
 31
0.0
  0
LINE
  5
27E
330
1E
100
AcDbEntity
  8
0
100
AcDbLine
 10
148.02
 20
167.4729999999999
 30
0.0
 11
148.066
 21
166.9109999999999
 31
0.0
  0
LINE
  5
27F
330
1E
100
AcDbEntity
  8
0
100
AcDbLine
 10
147.955
 20
167.6949999999999
 30
0.0
 11
148.02
 21
167.4729999999999
 31
0.0
  0
LINE
  5
280
330
1E
100
AcDbEntity
  8
0
100
AcDbLine
 10
148.066
 20
166.9109999999999
 30
0.0
 11
148.931
 21
137.2379999999999
 31
0.0
  0
LINE
  5
282
330
1E
100
AcDbEntity
  8
0
100
AcDbLine
 10
148.579
 20
136.747
 30
0.0
 11
148.7649999999999
 21
136.8529999999999
 31
0.0
  0
LINE
  5
283
330
1E
100
AcDbEntity
  8
0
100
AcDbLine
 10
148.577
 20
136.746
 30
0.0
 11
148.7649999999999
 21
136.8529999999999
 31
0.0
  0
LINE
  5
287
330
1E
100
AcDbEntity
  8
0
100
AcDbLine
 10
148.836
 20
136.9329999999999
 30
0.0
 11
148.8909999999999
 21
137.0279999999999
 31
0.0
  0
LINE
  5
289
330
1E
100
AcDbEntity
  8
0
100
AcDbLine
 10
148.7649999999999
 20
136.8529999999999
 30
0.0
 11
148.836
 21
136.9329999999999
 31
0.0
  0
LINE
  5
28A
330
1E
100
AcDbEntity
  8
0
100
AcDbLine
 10
148.8909999999999
 20
137.0279999999999
 30
0.0
 11
148.931
 21
137.2379999999999
 31
0.0
  0
LINE
  5
28B
330
1E
100
AcDbEntity
  8
0
100
AcDbLine
 10
148.3789999999999
 20
136.686
 30
0.0
 11
148.577
 21
136.746
 31
0.0
  0
LINE
  5
28C
330
1E
100
AcDbEntity
  8
0
100
AcDbLine
 10
148.08
 20
127.626
 30
0.0
 11
148.444
 21
127.3479999999999
 31
0.0
  0
LINE
  5
28D
330
1E
100
AcDbEntity
  8
0
100
AcDbLine
 10
147.676
 20
127.712
 30
0.0
 11
148.08
 21
127.626
 31
0.0
  0
LINE
  5
28E
330
1E
100
AcDbEntity
  8
0
100
AcDbLine
 10
148.649
 20
126.424
 30
0.0
 11
149.5169999999999
 21
82.0082
 31
0.0
  0
LINE
  5
290
330
1E
100
AcDbEntity
  8
0
100
AcDbLine
 10
106.6699999999999
 20
127.72
 30
0.0
 11
106.75
 21
127.72
 31
0.0
  0
LINE
  5
299
330
1E
100
AcDbEntity
  8
0
100
AcDbLine
 10
3.77137000000002
 20
105.0119999999999
 30
0.0
 11
24.119
 21
94.45159999999999
 31
0.0
  0
ENDSEC
  0
SECTION
  2
OBJECTS
  0
DICTIONARY
  5
C
330
0
100
AcDbDictionary
281
     1
  3
ACAD_GROUP
350
D
  3
ACAD_LAYOUT
350
19
  3
ACAD_MLINESTYLE
350
16
  3
ACAD_PLOTSETTINGS
350
18
  3
ACAD_PLOTSTYLENAME
350
E
  3
AcDbVariableDictionary
350
29B
  0
DICTIONARY
  5
D
102
{ACAD_REACTORS
330
C
102
}
330
C
100
AcDbDictionary
281
     1
  0
DICTIONARY
  5
19
102
{ACAD_REACTORS
330
C
102
}
330
C
100
AcDbDictionary
281
     1
  3
Layout1
350
1D
  3
Model
350
21
  0
DICTIONARY
  5
16
102
{ACAD_REACTORS
330
C
102
}
330
C
100
AcDbDictionary
281
     1
  3
Standard
350
17
  0
DICTIONARY
  5
18
102
{ACAD_REACTORS
330
C
102
}
330
C
100
AcDbDictionary
281
     1
  0
ACDBDICTIONARYWDFLT
  5
E
102
{ACAD_REACTORS
330
C
102
}
330
C
100
AcDbDictionary
281
     1
  3
Normal
350
F
100
AcDbDictionaryWithDefault
340
F
  0
DICTIONARY
  5
29B
102
{ACAD_REACTORS
330
C
102
}
330
C
100
AcDbDictionary
281
     1
  3
DIMASSOC
350
29C
  0
LAYOUT
  5
1D
102
{ACAD_REACTORS
330
19
102
}
330
19
100
AcDbPlotSettings
  1

  2
C:\Programme\AutoCAD LT 2002 Deu\plotters\DWF ePlot (optimized for plotting).pc3
  4

  6

 40
0.0
 41
0.0
 42
0.0
 43
0.0
 44
0.0
 45
0.0
 46
0.0
 47
0.0
 48
0.0
 49
0.0
140
0.0
141
0.0
142
1.0
143
1.0
 70
   688
 72
     0
 73
     0
 74
     5
  7

 75
    16
147
1.0
148
0.0
149
0.0
100
AcDbLayout
  1
Layout1
 70
     1
 71
     1
 10
0.0
 20
0.0
 11
12.0
 21
9.0
 12
0.0
 22
0.0
 32
0.0
 14
1.000000000000000E+20
 24
1.000000000000000E+20
 34
1.000000000000000E+20
 15
-1.000000000000000E+20
 25
-1.000000000000000E+20
 35
-1.000000000000000E+20
146
0.0
 13
0.0
 23
0.0
 33
0.0
 16
1.0
 26
0.0
 36
0.0
 17
0.0
 27
1.0
 37
0.0
 76
     0
330
1A
  0
LAYOUT
  5
21
102
{ACAD_REACTORS
330
19
102
}
330
19
100
AcDbPlotSettings
  1

  2
C:\Programme\AutoCAD LT 2002 Deu\plotters\DWF ePlot (optimized for plotting).pc3
  4

  6

 40
0.0
 41
0.0
 42
0.0
 43
0.0
 44
0.0
 45
0.0
 46
0.0
 47
0.0
 48
0.0
 49
0.0
140
0.0
141
0.0
142
1.0
143
1.0
 70
  1712
 72
     0
 73
     0
 74
     0
  7

 75
     0
147
1.0
148
0.0
149
0.0
100
AcDbLayout
  1
Model
 70
     1
 71
     0
 10
0.0
 20
0.0
 11
12.0
 21
9.0
 12
0.0
 22
0.0
 32
0.0
 14
0.0
 24
0.0
 34
0.0
 15
0.0
 25
0.0
 35
0.0
146
0.0
 13
0.0
 23
0.0
 33
0.0
 16
1.0
 26
0.0
 36
0.0
 17
0.0
 27
1.0
 37
0.0
 76
     0
330
1E
  0
MLINESTYLE
  5
17
102
{ACAD_REACTORS
330
16
102
}
330
16
100
AcDbMlineStyle
  2
STANDARD
 70
     0
  3

 62
   256
 51
90.0
 52
90.0
 71
     2
 49
0.5
 62
   256
  6
BYLAYER
 49
-0.5
 62
   256
  6
BYLAYER
  0
ACDBPLACEHOLDER
  5
F
102
{ACAD_REACTORS
330
E
102
}
330
E
  0
DICTIONARYVAR
  5
29C
102
{ACAD_REACTORS
330
29B
102
}
330
29B
100
DictionaryVariables
280
     0
  1
1
  0
ENDSEC
  0
EOF
