  0
SECTION
  2
HEADER
  9
$ACADVER
  1
AC1015
  9
$ACADMAINTVER
 70
    13
  9
$DWGCODEPAGE
  3
ANSI_1252
  9
$INSBASE
 10
0.0
 20
0.0
 30
0.0
  9
$EXTMIN
 10
0.104964999999996
 20
0.0784250000000082
 30
0.0
  9
$EXTMAX
 10
157.895035
 20
87.921575
 30
0.0
  9
$LIMMIN
 10
0.0
 20
0.0
  9
$LIMMAX
 10
12.0
 20
9.0
  9
$ORTHOMODE
 70
     0
  9
$REGENMODE
 70
     1
  9
$FILLMODE
 70
     1
  9
$QTEXTMODE
 70
     0
  9
$MIRRTEXT
 70
     1
  9
$LTSCALE
 40
1.0
  9
$ATTMODE
 70
     1
  9
$TEXTSIZE
 40
0.2
  9
$TRACEWID
 40
0.05
  9
$TEXTSTYLE
  7
Standard
  9
$CLAYER
  8
0
  9
$CELTYPE
  6
Continuous
  9
$CECOLOR
 62
   256
  9
$CELTSCALE
 40
1.0
  9
$DISPSILH
 70
     0
  9
$DIMSCALE
 40
1.0
  9
$DIMASZ
 40
0.18
  9
$DIMEXO
 40
0.0625
  9
$DIMDLI
 40
0.38
  9
$DIMRND
 40
0.0
  9
$DIMDLE
 40
0.0
  9
$DIMEXE
 40
0.18
  9
$DIMTP
 40
0.0
  9
$DIMTM
 40
0.0
  9
$DIMTXT
 40
0.18
  9
$DIMCEN
 40
0.09
  9
$DIMTSZ
 40
0.0
  9
$DIMTOL
 70
     0
  9
$DIMLIM
 70
     0
  9
$DIMTIH
 70
     1
  9
$DIMTOH
 70
     1
  9
$DIMSE1
 70
     0
  9
$DIMSE2
 70
     0
  9
$DIMTAD
 70
     0
  9
$DIMZIN
 70
     0
  9
$DIMBLK
  1

  9
$DIMASO
 70
     1
  9
$DIMSHO
 70
     1
  9
$DIMPOST
  1

  9
$DIMAPOST
  1

  9
$DIMALT
 70
     0
  9
$DIMALTD
 70
     2
  9
$DIMALTF
 40
25.4
  9
$DIMLFAC
 40
1.0
  9
$DIMTOFL
 70
     0
  9
$DIMTVP
 40
0.0
  9
$DIMTIX
 70
     0
  9
$DIMSOXD
 70
     0
  9
$DIMSAH
 70
     0
  9
$DIMBLK1
  1

  9
$DIMBLK2
  1

  9
$DIMSTYLE
  2
Standard
  9
$DIMCLRD
 70
     0
  9
$DIMCLRE
 70
     0
  9
$DIMCLRT
 70
     0
  9
$DIMTFAC
 40
1.0
  9
$DIMGAP
 40
0.09
  9
$DIMJUST
 70
     0
  9
$DIMSD1
 70
     0
  9
$DIMSD2
 70
     0
  9
$DIMTOLJ
 70
     1
  9
$DIMTZIN
 70
     0
  9
$DIMALTZ
 70
     0
  9
$DIMALTTZ
 70
     0
  9
$DIMUPT
 70
     0
  9
$DIMDEC
 70
     4
  9
$DIMTDEC
 70
     4
  9
$DIMALTU
 70
     2
  9
$DIMALTTD
 70
     2
  9
$DIMTXSTY
  7
Standard
  9
$DIMAUNIT
 70
     0
  9
$DIMADEC
 70
     0
  9
$DIMALTRND
 40
0.0
  9
$DIMAZIN
 70
     0
  9
$DIMDSEP
 70
    46
  9
$DIMATFIT
 70
     3
  9
$DIMFRAC
 70
     0
  9
$DIMLDRBLK
  1

  9
$DIMLUNIT
 70
     2
  9
$DIMLWD
 70
    -2
  9
$DIMLWE
 70
    -2
  9
$DIMTMOVE
 70
     0
  9
$LUNITS
 70
     2
  9
$LUPREC
 70
     4
  9
$SKETCHINC
 40
0.1
  9
$FILLETRAD
 40
0.0
  9
$AUNITS
 70
     0
  9
$AUPREC
 70
     0
  9
$MENU
  1
.
  9
$ELEVATION
 40
0.0
  9
$PELEVATION
 40
0.0
  9
$THICKNESS
 40
0.0
  9
$LIMCHECK
 70
     0
  9
$CHAMFERA
 40
0.0
  9
$CHAMFERB
 40
0.0
  9
$CHAMFERC
 40
0.0
  9
$CHAMFERD
 40
0.0
  9
$SKPOLY
 70
     0
  9
$TDCREATE
 40
2454760.859634688
  9
$TDUCREATE
 40
2454760.776301354
  9
$TDUPDATE
 40
2454760.859978472
  9
$TDUUPDATE
 40
2454760.776645139
  9
$TDINDWG
 40
0.0003439699
  9
$TDUSRTIMER
 40
0.0003439699
  9
$USRTIMER
 70
     1
  9
$ANGBASE
 50
0.0
  9
$ANGDIR
 70
     0
  9
$PDMODE
 70
     0
  9
$PDSIZE
 40
0.0
  9
$PLINEWID
 40
0.0
  9
$SPLFRAME
 70
     0
  9
$SPLINETYPE
 70
     6
  9
$SPLINESEGS
 70
     8
  9
$HANDSEED
  5
1E9
  9
$SURFTAB1
 70
     6
  9
$SURFTAB2
 70
     6
  9
$SURFTYPE
 70
     6
  9
$SURFU
 70
     6
  9
$SURFV
 70
     6
  9
$UCSBASE
  2

  9
$UCSNAME
  2

  9
$UCSORG
 10
0.0
 20
0.0
 30
0.0
  9
$UCSXDIR
 10
1.0
 20
0.0
 30
0.0
  9
$UCSYDIR
 10
0.0
 20
1.0
 30
0.0
  9
$UCSORTHOREF
  2

  9
$UCSORTHOVIEW
 70
     1
  9
$UCSORGTOP
 10
0.0
 20
0.0
 30
0.0
  9
$UCSORGBOTTOM
 10
0.0
 20
0.0
 30
0.0
  9
$UCSORGLEFT
 10
0.0
 20
0.0
 30
0.0
  9
$UCSORGRIGHT
 10
0.0
 20
0.0
 30
0.0
  9
$UCSORGFRONT
 10
0.0
 20
0.0
 30
0.0
  9
$UCSORGBACK
 10
0.0
 20
0.0
 30
0.0
  9
$PUCSBASE
  2

  9
$PUCSNAME
  2

  9
$PUCSORG
 10
0.0
 20
0.0
 30
0.0
  9
$PUCSXDIR
 10
1.0
 20
0.0
 30
0.0
  9
$PUCSYDIR
 10
0.0
 20
1.0
 30
0.0
  9
$PUCSORTHOREF
  2

  9
$PUCSORTHOVIEW
 70
     0
  9
$PUCSORGTOP
 10
0.0
 20
0.0
 30
0.0
  9
$PUCSORGBOTTOM
 10
0.0
 20
0.0
 30
0.0
  9
$PUCSORGLEFT
 10
0.0
 20
0.0
 30
0.0
  9
$PUCSORGRIGHT
 10
0.0
 20
0.0
 30
0.0
  9
$PUCSORGFRONT
 10
0.0
 20
0.0
 30
0.0
  9
$PUCSORGBACK
 10
0.0
 20
0.0
 30
0.0
  9
$USERI1
 70
     0
  9
$USERI2
 70
     0
  9
$USERI3
 70
     0
  9
$USERI4
 70
     0
  9
$USERI5
 70
     0
  9
$USERR1
 40
0.0
  9
$USERR2
 40
0.0
  9
$USERR3
 40
0.0
  9
$USERR4
 40
0.0
  9
$USERR5
 40
0.0
  9
$WORLDVIEW
 70
     1
  9
$SHADEDGE
 70
     3
  9
$SHADEDIF
 70
    70
  9
$TILEMODE
 70
     1
  9
$MAXACTVP
 70
    64
  9
$PINSBASE
 10
0.0
 20
0.0
 30
0.0
  9
$PLIMCHECK
 70
     0
  9
$PEXTMIN
 10
1.000000000000000E+20
 20
1.000000000000000E+20
 30
1.000000000000000E+20
  9
$PEXTMAX
 10
-1.000000000000000E+20
 20
-1.000000000000000E+20
 30
-1.000000000000000E+20
  9
$PLIMMIN
 10
0.0
 20
0.0
  9
$PLIMMAX
 10
12.0
 20
9.0
  9
$UNITMODE
 70
     0
  9
$VISRETAIN
 70
     1
  9
$PLINEGEN
 70
     0
  9
$PSLTSCALE
 70
     1
  9
$TREEDEPTH
 70
  3020
  9
$CMLSTYLE
  2
Standard
  9
$CMLJUST
 70
     0
  9
$CMLSCALE
 40
1.0
  9
$PROXYGRAPHICS
 70
     1
  9
$MEASUREMENT
 70
     0
  9
$CELWEIGHT
370
    -1
  9
$ENDCAPS
280
     0
  9
$JOINSTYLE
280
     0
  9
$LWDISPLAY
290
     0
  9
$INSUNITS
 70
     0
  9
$HYPERLINKBASE
  1

  9
$STYLESHEET
  1

  9
$XEDIT
290
     1
  9
$CEPSNTYPE
380
     0
  9
$PSTYLEMODE
290
     1
  9
$FINGERPRINTGUID
  2
{BDF84722-7109-44DE-B927-4E50AFB89432}
  9
$VERSIONGUID
  2
{40466BEF-EDCA-423F-9A98-F7E79D85AA74}
  9
$EXTNAMES
290
     1
  9
$PSVPSCALE
 40
0.0
  9
$OLESTARTUP
290
     0
  0
ENDSEC
  0
SECTION
  2
CLASSES
  0
CLASS
  1
ACDBDICTIONARYWDFLT
  2
AcDbDictionaryWithDefault
  3
AutoCAD 2000
 90
        0
280
     0
281
     0
  0
CLASS
  1
ACDBPLACEHOLDER
  2
AcDbPlaceHolder
  3
AutoCAD 2000
 90
        0
280
     0
281
     0
  0
CLASS
  1
LAYOUT
  2
AcDbLayout
  3
AutoCAD 2000
 90
        0
280
     0
281
     0
  0
CLASS
  1
DICTIONARYVAR
  2
AcDbDictionaryVar
  3
AutoCAD 2000
 90
        0
280
     0
281
     0
  0
ENDSEC
  0
SECTION
  2
TABLES
  0
TABLE
  2
VPORT
  5
8
330
0
100
AcDbSymbolTable
 70
     2
  0
VPORT
  5
1E8
330
8
100
AcDbSymbolTableRecord
100
AcDbViewportTableRecord
  2
*Active
 70
     0
 10
0.0
 20
0.0
 11
1.0
 21
1.0
 12
79.0
 22
44.00000000000001
 13
0.0
 23
0.0
 14
1.0
 24
1.0
 15
0.0
 25
0.0
 16
0.0
 26
0.0
 36
1.0
 17
0.0
 27
0.0
 37
0.0
 40
88.51713836317136
 41
2.078104993597951
 42
50.0
 43
0.0
 44
0.0
 50
0.0
 51
0.0
 71
     0
 72
   100
 73
     1
 74
     3
 75
     0
 76
     0
 77
     0
 78
     0
281
     0
 65
     1
110
0.0
120
0.0
130
0.0
111
1.0
121
0.0
131
0.0
112
0.0
122
1.0
132
0.0
 79
     1
146
0.0
  0
ENDTAB
  0
TABLE
  2
LTYPE
  5
5
330
0
100
AcDbSymbolTable
 70
     1
  0
LTYPE
  5
13
330
5
100
AcDbSymbolTableRecord
100
AcDbLinetypeTableRecord
  2
ByBlock
 70
     0
  3

 72
    65
 73
     0
 40
0.0
  0
LTYPE
  5
14
330
5
100
AcDbSymbolTableRecord
100
AcDbLinetypeTableRecord
  2
ByLayer
 70
     0
  3

 72
    65
 73
     0
 40
0.0
  0
LTYPE
  5
15
330
5
100
AcDbSymbolTableRecord
100
AcDbLinetypeTableRecord
  2
Continuous
 70
     0
  3
Solid line
 72
    65
 73
     0
 40
0.0
  0
ENDTAB
  0
TABLE
  2
LAYER
  5
2
330
0
100
AcDbSymbolTable
 70
     1
  0
LAYER
  5
10
330
2
100
AcDbSymbolTableRecord
100
AcDbLayerTableRecord
  2
0
 70
     0
 62
     7
  6
Continuous
370
    -3
390
F
  0
ENDTAB
  0
TABLE
  2
STYLE
  5
3
330
0
100
AcDbSymbolTable
 70
     1
  0
STYLE
  5
11
330
3
100
AcDbSymbolTableRecord
100
AcDbTextStyleTableRecord
  2
Standard
 70
     0
 40
0.0
 41
1.0
 50
0.0
 71
     0
 42
0.2
  3
txt
  4

  0
ENDTAB
  0
TABLE
  2
VIEW
  5
6
330
0
100
AcDbSymbolTable
 70
     0
  0
ENDTAB
  0
TABLE
  2
UCS
  5
7
330
0
100
AcDbSymbolTable
 70
     0
  0
ENDTAB
  0
TABLE
  2
APPID
  5
9
330
0
100
AcDbSymbolTable
 70
     1
  0
APPID
  5
12
330
9
100
AcDbSymbolTableRecord
100
AcDbRegAppTableRecord
  2
ACAD
 70
     0
  0
ENDTAB
  0
TABLE
  2
DIMSTYLE
  5
A
330
0
100
AcDbSymbolTable
 70
     1
100
AcDbDimStyleTable
 71
     0
  0
DIMSTYLE
105
1E2
330
A
100
AcDbSymbolTableRecord
100
AcDbDimStyleTableRecord
  2
Standard
 70
     0
340
11
  0
ENDTAB
  0
TABLE
  2
BLOCK_RECORD
  5
1
330
0
100
AcDbSymbolTable
 70
     0
  0
BLOCK_RECORD
  5
1E
330
1
100
AcDbSymbolTableRecord
100
AcDbBlockTableRecord
  2
*Model_Space
340
21
  0
BLOCK_RECORD
  5
1A
330
1
100
AcDbSymbolTableRecord
100
AcDbBlockTableRecord
  2
*Paper_Space
340
1D
  0
ENDTAB
  0
ENDSEC
  0
SECTION
  2
BLOCKS
  0
BLOCK
  5
1F
330
1E
100
AcDbEntity
  8
0
100
AcDbBlockBegin
  2
*Model_Space
 70
     0
 10
0.0
 20
0.0
 30
0.0
  3
*Model_Space
  1

  0
ENDBLK
  5
20
330
1E
100
AcDbEntity
  8
0
100
AcDbBlockEnd
  0
BLOCK
  5
1B
330
1A
100
AcDbEntity
 67
     1
  8
0
100
AcDbBlockBegin
  2
*Paper_Space
 70
     0
 10
0.0
 20
0.0
 30
0.0
  3
*Paper_Space
  1

  0
ENDBLK
  5
1C
330
1A
100
AcDbEntity
 67
     1
  8
0
100
AcDbBlockEnd
  0
ENDSEC
  0
SECTION
  2
ENTITIES
  0
LINE
  5
22
330
1E
100
AcDbEntity
  8
0
100
AcDbLine
 10
14.097835
 20
1.80660500000001
 30
0.0
 11
14.661635
 21
1.303345000000009
 31
0.0
  0
LINE
  5
23
330
1E
100
AcDbEntity
  8
0
100
AcDbLine
 10
14.097835
 20
1.80660500000001
 30
0.0
 11
14.61074112908099
 21
1.34905085560413
 31
0.0
  0
LINE
  5
24
330
1E
100
AcDbEntity
  8
0
100
AcDbLine
 10
13.019335
 20
2.764315000000009
 30
0.0
 11
14.097835
 21
1.80660500000001
 31
0.0
  0
LINE
  5
25
330
1E
100
AcDbEntity
  8
0
100
AcDbLine
 10
13.469635
 20
2.373835000000009
 30
0.0
 11
14.661635
 21
1.303345000000009
 31
0.0
  0
LINE
  5
26
330
1E
100
AcDbEntity
  8
0
100
AcDbLine
 10
14.661635
 20
1.303345000000009
 30
0.0
 11
15.423935
 21
0.624815000000009
 31
0.0
  0
LINE
  5
27
330
1E
100
AcDbEntity
  8
0
100
AcDbLine
 10
12.2415170833068
 20
3.453843394492589
 30
0.0
 11
13.019335
 21
2.764315000000009
 31
0.0
  0
LINE
  5
28
330
1E
100
AcDbEntity
  8
0
100
AcDbLine
 10
11.879735
 20
3.771995000000009
 30
0.0
 11
13.469635
 21
2.373835000000009
 31
0.0
  0
LINE
  5
29
330
1E
100
AcDbEntity
  8
0
100
AcDbLine
 10
14.613835
 20
3.739535000000009
 30
0.0
 11
15.877235
 21
2.744045000000009
 31
0.0
  0
LINE
  5
2A
330
1E
100
AcDbEntity
  8
0
100
AcDbLine
 10
14.232035
 20
3.284425000000009
 30
0.0
 11
15.495335
 21
2.288935000000009
 31
0.0
  0
LINE
  5
2B
330
1E
100
AcDbEntity
  8
0
100
AcDbLine
 10
15.673335
 20
0.3948050000000089
 30
0.0
 11
16.5643184452978
 21
1.4566373174288
 31
0.0
  0
LINE
  5
2C
330
1E
100
AcDbEntity
  8
0
100
AcDbLine
 10
15.423935
 20
0.624815000000009
 30
0.0
 11
15.673335
 21
0.3948050000000089
 31
0.0
  0
LINE
  5
2D
330
1E
100
AcDbEntity
  8
0
100
AcDbLine
 10
15.495335
 20
2.288935000000009
 30
0.0
 11
16.292335
 21
1.65900500000001
 31
0.0
  0
LINE
  5
2E
330
1E
100
AcDbEntity
  8
0
100
AcDbLine
 10
14.889435
 20
3.146455000000009
 30
0.0
 11
16.217635
 21
2.096585000000009
 31
0.0
  0
LINE
  5
2F
330
1E
100
AcDbEntity
  8
0
100
AcDbLine
 10
15.673335
 20
0.3948050000000089
 30
0.0
 11
16.512435
 21
0.0784250000000082
 31
0.0
  0
LINE
  5
30
330
1E
100
AcDbEntity
  8
0
100
AcDbLine
 10
15.673335
 20
0.3948050000000089
 30
0.0
 11
16.5643184452978
 21
1.4566373174288
 31
0.0
  0
LINE
  5
31
330
1E
100
AcDbEntity
  8
0
100
AcDbLine
 10
4.353164999999999
 20
10.598475
 30
0.0
 11
4.66511499999999
 21
10.31297499999999
 31
0.0
  0
LINE
  5
32
330
1E
100
AcDbEntity
  8
0
100
AcDbLine
 10
4.353164999999999
 20
10.598475
 30
0.0
 11
6.16838499999999
 21
8.944675000000009
 31
0.0
  0
LINE
  5
33
330
1E
100
AcDbEntity
  8
0
100
AcDbLine
 10
4.66511499999999
 20
10.31297499999999
 30
0.0
 11
5.256514234213169
 21
9.775456873524019
 31
0.0
  0
LINE
  5
34
330
1E
100
AcDbEntity
  8
0
100
AcDbLine
 10
4.546875
 20
10.829675
 30
0.0
 11
6.490224999999999
 21
9.328175000000008
 31
0.0
  0
LINE
  5
35
330
1E
100
AcDbEntity
  8
0
100
AcDbLine
 10
6.16838499999999
 20
8.944675000000009
 30
0.0
 11
8.112834999999989
 21
7.187575000000009
 31
0.0
  0
LINE
  5
36
330
1E
100
AcDbEntity
  8
0
100
AcDbLine
 10
4.928694999999999
 20
11.28467499999999
 30
0.0
 11
6.872105
 21
9.78327500000001
 31
0.0
  0
LINE
  5
37
330
1E
100
AcDbEntity
  8
0
100
AcDbLine
 10
1.558214999999999
 20
13.065775
 30
0.0
 11
2.76395499999999
 21
11.997375
 31
0.0
  0
LINE
  5
38
330
1E
100
AcDbEntity
  8
0
100
AcDbLine
 10
0.8064449999999949
 20
13.744275
 30
0.0
 11
1.558214999999999
 21
13.065775
 31
0.0
  0
LINE
  5
39
330
1E
100
AcDbEntity
  8
0
100
AcDbLine
 10
0.8342449999999949
 20
13.776875
 30
0.0
 11
1.631174999999999
 21
13.146975
 31
0.0
  0
LINE
  5
3A
330
1E
100
AcDbEntity
  8
0
100
AcDbLine
 10
1.631174999999999
 20
13.146975
 30
0.0
 11
2.894484999999999
 21
12.151575
 31
0.0
  0
LINE
  5
3B
330
1E
100
AcDbEntity
  8
0
100
AcDbLine
 10
2.012994999999989
 20
13.60197499999999
 30
0.0
 11
3.276304999999999
 21
12.60657499999999
 31
0.0
  0
LINE
  5
3C
330
1E
100
AcDbEntity
  8
0
100
AcDbLine
 10
2.52214499999999
 20
14.208775
 30
0.0
 11
3.78545499999999
 21
13.213375
 31
0.0
  0
LINE
  5
3D
330
1E
100
AcDbEntity
  8
0
100
AcDbLine
 10
0.5622149999999961
 20
13.97927499999999
 30
0.0
 11
0.8342449999999949
 21
13.776875
 31
0.0
  0
LINE
  5
3E
330
1E
100
AcDbEntity
  8
0
100
AcDbLine
 10
0.5622149999999961
 20
13.97927499999999
 30
0.0
 11
0.8064449999999949
 21
13.744275
 31
0.0
  0
LINE
  5
3F
330
1E
100
AcDbEntity
  8
0
100
AcDbLine
 10
0.944064518497468
 20
14.4343455979125
 30
0.0
 11
1.453227948986499
 21
15.04114302863739
 31
0.0
  0
LINE
  5
40
330
1E
100
AcDbEntity
  8
0
100
AcDbLine
 10
0.9440645184974691
 20
14.4343455979125
 30
0.0
 11
1.453227948986499
 21
15.04114302863739
 31
0.0
  0
LINE
  5
41
330
1E
100
AcDbEntity
  8
0
100
AcDbLine
 10
0.9440249999999959
 20
14.43437499999999
 30
0.0
 11
1.216064999999999
 21
14.231975
 31
0.0
  0
LINE
  5
42
330
1E
100
AcDbEntity
  8
0
100
AcDbLine
 10
1.216064999999999
 20
14.231975
 30
0.0
 11
2.012994999999989
 21
13.60197499999999
 31
0.0
  0
LINE
  5
43
330
1E
100
AcDbEntity
  8
0
100
AcDbLine
 10
0.4354449999999951
 20
14.48627499999999
 30
0.0
 11
1.290824999999999
 21
13.794375
 31
0.0
  0
LINE
  5
44
330
1E
100
AcDbEntity
  8
0
100
AcDbLine
 10
1.290824999999999
 20
13.794375
 30
0.0
 11
2.61901499999999
 21
12.744575
 31
0.0
  0
LINE
  5
45
330
1E
100
AcDbEntity
  8
0
100
AcDbLine
 10
2.891359632161769
 20
11.8852272410939
 30
0.0
 11
3.20924499999999
 21
11.603675
 31
0.0
  0
LINE
  5
46
330
1E
100
AcDbEntity
  8
0
100
AcDbLine
 10
2.76395499999999
 20
11.997375
 30
0.0
 11
3.20924499999999
 21
11.603675
 31
0.0
  0
LINE
  5
47
330
1E
100
AcDbEntity
  8
0
100
AcDbLine
 10
2.76395499999999
 20
11.997375
 30
0.0
 11
4.353164999999999
 21
10.598475
 31
0.0
  0
LINE
  5
48
330
1E
100
AcDbEntity
  8
0
100
AcDbLine
 10
3.20924499999999
 20
11.603675
 30
0.0
 11
4.66511499999999
 21
10.31297499999999
 31
0.0
  0
LINE
  5
49
330
1E
100
AcDbEntity
  8
0
100
AcDbLine
 10
5.43784499999999
 20
11.891475
 30
0.0
 11
7.38119499999999
 21
10.390075
 31
0.0
  0
LINE
  5
4A
330
1E
100
AcDbEntity
  8
0
100
AcDbLine
 10
5.81972499999999
 20
12.34657499999999
 30
0.0
 11
7.763074999999999
 21
10.845175
 31
0.0
  0
LINE
  5
4B
330
1E
100
AcDbEntity
  8
0
100
AcDbLine
 10
5.298334999999999
 20
12.383475
 30
0.0
 11
7.377744999999999
 21
10.780775
 31
0.0
  0
LINE
  5
4C
330
1E
100
AcDbEntity
  8
0
100
AcDbLine
 10
2.894484999999999
 20
12.151575
 30
0.0
 11
4.546875
 21
10.829675
 31
0.0
  0
LINE
  5
4D
330
1E
100
AcDbEntity
  8
0
100
AcDbLine
 10
2.904024999999999
 20
14.663875
 30
0.0
 11
4.167334999999999
 21
13.668475
 31
0.0
  0
LINE
  5
4E
330
1E
100
AcDbEntity
  8
0
100
AcDbLine
 10
6.32887499999999
 20
12.953375
 30
0.0
 11
8.272234999999991
 21
11.451875
 31
0.0
  0
LINE
  5
4F
330
1E
100
AcDbEntity
  8
0
100
AcDbLine
 10
6.18930499999999
 20
13.445275
 30
0.0
 11
8.268735000000001
 21
11.84257499999999
 31
0.0
  0
LINE
  5
50
330
1E
100
AcDbEntity
  8
0
100
AcDbLine
 10
3.78545499999999
 20
13.213375
 30
0.0
 11
5.43784499999999
 21
11.891475
 31
0.0
  0
LINE
  5
51
330
1E
100
AcDbEntity
  8
0
100
AcDbLine
 10
4.676484999999999
 20
14.275275
 30
0.0
 11
6.32887499999999
 21
12.953375
 31
0.0
  0
LINE
  5
52
330
1E
100
AcDbEntity
  8
0
100
AcDbLine
 10
5.058305
 20
14.730275
 30
0.0
 11
6.710685
 21
13.408375
 31
0.0
  0
LINE
  5
53
330
1E
100
AcDbEntity
  8
0
100
AcDbLine
 10
4.167334999999999
 20
13.668475
 30
0.0
 11
5.81972499999999
 21
12.34657499999999
 31
0.0
  0
LINE
  5
54
330
1E
100
AcDbEntity
  8
0
100
AcDbLine
 10
3.50998499999999
 20
13.80637499999999
 30
0.0
 11
5.298334999999999
 21
12.383475
 31
0.0
  0
LINE
  5
55
330
1E
100
AcDbEntity
  8
0
100
AcDbLine
 10
3.276304999999999
 20
12.60657499999999
 30
0.0
 11
4.928694999999999
 21
11.28467499999999
 31
0.0
  0
LINE
  5
56
330
1E
100
AcDbEntity
  8
0
100
AcDbLine
 10
2.61901499999999
 20
12.744575
 30
0.0
 11
4.40730499999999
 21
11.32157499999999
 31
0.0
  0
LINE
  5
57
330
1E
100
AcDbEntity
  8
0
100
AcDbLine
 10
4.40730499999999
 20
11.32157499999999
 30
0.0
 11
6.48671499999999
 21
9.718875000000009
 31
0.0
  0
LINE
  5
58
330
1E
100
AcDbEntity
  8
0
100
AcDbLine
 10
10.06193499999999
 20
5.420325000000009
 30
0.0
 11
11.879735
 21
3.771995000000009
 31
0.0
  0
LINE
  5
59
330
1E
100
AcDbEntity
  8
0
100
AcDbLine
 10
9.871534999999999
 20
5.592565000000009
 30
0.0
 11
11.564035
 21
4.054425000000009
 31
0.0
  0
LINE
  5
5A
330
1E
100
AcDbEntity
  8
0
100
AcDbLine
 10
8.92262969013557
 20
6.453333726518859
 30
0.0
 11
9.871534999999999
 21
5.592565000000009
 31
0.0
  0
LINE
  5
5B
330
1E
100
AcDbEntity
  8
0
100
AcDbLine
 10
8.112834999999989
 20
7.187575000000009
 30
0.0
 11
10.06193499999999
 21
5.420325000000009
 31
0.0
  0
LINE
  5
5C
330
1E
100
AcDbEntity
  8
0
100
AcDbLine
 10
11.018235
 20
6.562815000000009
 30
0.0
 11
12.961535
 21
5.061355000000009
 31
0.0
  0
LINE
  5
5D
330
1E
100
AcDbEntity
  8
0
100
AcDbLine
 10
10.636335
 20
6.107715000000009
 30
0.0
 11
12.579735
 21
4.606255000000009
 31
0.0
  0
LINE
  5
5E
330
1E
100
AcDbEntity
  8
0
100
AcDbLine
 10
11.564035
 20
4.054425000000009
 30
0.0
 11
11.7532694923221
 21
3.886670371476889
 31
0.0
  0
LINE
  5
5F
330
1E
100
AcDbEntity
  8
0
100
AcDbLine
 10
15.12303499999999
 20
4.346315000000009
 30
0.0
 11
16.386435
 21
3.350835000000009
 31
0.0
  0
LINE
  5
60
330
1E
100
AcDbEntity
  8
0
100
AcDbLine
 10
15.780435
 20
4.208275000000009
 30
0.0
 11
17.108635
 21
3.158395000000009
 31
0.0
  0
LINE
  5
61
330
1E
100
AcDbEntity
  8
0
100
AcDbLine
 10
11.527235
 20
7.169475000000009
 30
0.0
 11
13.470735
 21
5.668145000000009
 31
0.0
  0
LINE
  5
62
330
1E
100
AcDbEntity
  8
0
100
AcDbLine
 10
11.909135
 20
7.624675000000009
 30
0.0
 11
13.852535
 21
6.123175000000009
 31
0.0
  0
LINE
  5
63
330
1E
100
AcDbEntity
  8
0
100
AcDbLine
 10
11.912735
 20
7.233975000000009
 30
0.0
 11
13.992135
 21
5.631285000000009
 31
0.0
  0
LINE
  5
64
330
1E
100
AcDbEntity
  8
0
100
AcDbLine
 10
15.504835
 20
4.801345000000009
 30
0.0
 11
16.768235
 21
3.805855000000009
 31
0.0
  0
LINE
  5
65
330
1E
100
AcDbEntity
  8
0
100
AcDbLine
 10
13.852535
 20
6.123175000000009
 30
0.0
 11
15.504835
 21
4.801345000000009
 31
0.0
  0
LINE
  5
66
330
1E
100
AcDbEntity
  8
0
100
AcDbLine
 10
13.470735
 20
5.668145000000009
 30
0.0
 11
15.12303499999999
 21
4.346315000000009
 31
0.0
  0
LINE
  5
67
330
1E
100
AcDbEntity
  8
0
100
AcDbLine
 10
14.743535
 20
7.185075000000009
 30
0.0
 11
16.395835
 21
5.863235000000009
 31
0.0
  0
LINE
  5
68
330
1E
100
AcDbEntity
  8
0
100
AcDbLine
 10
14.361735
 20
6.729955000000009
 30
0.0
 11
16.01403499999999
 21
5.408125000000009
 31
0.0
  0
LINE
  5
69
330
1E
100
AcDbEntity
  8
0
100
AcDbLine
 10
14.883035
 20
6.693105000000009
 30
0.0
 11
16.671335
 21
5.270085000000009
 31
0.0
  0
LINE
  5
6A
330
1E
100
AcDbEntity
  8
0
100
AcDbLine
 10
13.992135
 20
5.631285000000009
 30
0.0
 11
15.780435
 21
4.208275000000009
 31
0.0
  0
LINE
  5
6B
330
1E
100
AcDbEntity
  8
0
100
AcDbLine
 10
12.961535
 20
5.061355000000009
 30
0.0
 11
14.613835
 21
3.739535000000009
 31
0.0
  0
LINE
  5
6C
330
1E
100
AcDbEntity
  8
0
100
AcDbLine
 10
12.579735
 20
4.606255000000009
 30
0.0
 11
14.232035
 21
3.284425000000009
 31
0.0
  0
LINE
  5
6D
330
1E
100
AcDbEntity
  8
0
100
AcDbLine
 10
13.101135
 20
4.569475000000009
 30
0.0
 11
14.889435
 21
3.146455000000009
 31
0.0
  0
LINE
  5
6E
330
1E
100
AcDbEntity
  8
0
100
AcDbLine
 10
11.021635
 20
6.172065000000009
 30
0.0
 11
13.101135
 21
4.569475000000009
 31
0.0
  0
LINE
  5
6F
330
1E
100
AcDbEntity
  8
0
100
AcDbLine
 10
15.252735
 20
7.791775000000009
 30
0.0
 11
16.905035
 21
6.469985000000009
 31
0.0
  0
LINE
  5
70
330
1E
100
AcDbEntity
  8
0
100
AcDbLine
 10
15.774035
 20
7.754975000000009
 30
0.0
 11
17.562335
 21
6.331955000000009
 31
0.0
  0
LINE
  5
71
330
1E
100
AcDbEntity
  8
0
100
AcDbLine
 10
12.800135
 20
8.68647500000001
 30
0.0
 11
14.743535
 21
7.185075000000009
 31
0.0
  0
LINE
  5
72
330
1E
100
AcDbEntity
  8
0
100
AcDbLine
 10
12.418335
 20
8.231375000000008
 30
0.0
 11
14.361735
 21
6.729955000000009
 31
0.0
  0
LINE
  5
73
330
1E
100
AcDbEntity
  8
0
100
AcDbLine
 10
15.634535
 20
8.246875000000009
 30
0.0
 11
17.28683499999999
 21
6.925075000000009
 31
0.0
  0
LINE
  5
74
330
1E
100
AcDbEntity
  8
0
100
AcDbLine
 10
12.80363499999999
 20
8.295775000000009
 30
0.0
 11
14.883035
 21
6.693105000000009
 31
0.0
  0
LINE
  5
75
330
1E
100
AcDbEntity
  8
0
100
AcDbLine
 10
13.309335
 20
9.29327500000001
 30
0.0
 11
15.252735
 21
7.791775000000009
 31
0.0
  0
LINE
  5
76
330
1E
100
AcDbEntity
  8
0
100
AcDbLine
 10
13.691135
 20
9.74837500000001
 30
0.0
 11
15.634535
 21
8.246875000000009
 31
0.0
  0
LINE
  5
77
330
1E
100
AcDbEntity
  8
0
100
AcDbLine
 10
13.694635
 20
9.357575000000009
 30
0.0
 11
15.774035
 21
7.754975000000009
 31
0.0
  0
LINE
  5
78
330
1E
100
AcDbEntity
  8
0
100
AcDbLine
 10
9.836134999999989
 20
9.234875000000009
 30
0.0
 11
11.909135
 21
7.624675000000009
 31
0.0
  0
LINE
  5
79
330
1E
100
AcDbEntity
  8
0
100
AcDbLine
 10
9.64523499999999
 20
9.00737500000001
 30
0.0
 11
11.912735
 21
7.233975000000009
 31
0.0
  0
LINE
  5
7A
330
1E
100
AcDbEntity
  8
0
100
AcDbLine
 10
9.454235
 20
8.779775000000009
 30
0.0
 11
11.527235
 21
7.169475000000009
 31
0.0
  0
LINE
  5
7B
330
1E
100
AcDbEntity
  8
0
100
AcDbLine
 10
8.945135
 20
8.173075000000009
 30
0.0
 11
11.018235
 21
6.562815000000009
 31
0.0
  0
LINE
  5
7C
330
1E
100
AcDbEntity
  8
0
100
AcDbLine
 10
8.754134999999999
 20
7.945475000000009
 30
0.0
 11
11.021635
 21
6.172065000000009
 31
0.0
  0
LINE
  5
7D
330
1E
100
AcDbEntity
  8
0
100
AcDbLine
 10
8.563234999999989
 20
7.717975000000009
 30
0.0
 11
10.636335
 21
6.107715000000009
 31
0.0
  0
LINE
  5
7E
330
1E
100
AcDbEntity
  8
0
100
AcDbLine
 10
6.490224999999999
 20
9.328175000000008
 30
0.0
 11
8.563234999999989
 21
7.717975000000009
 31
0.0
  0
LINE
  5
7F
330
1E
100
AcDbEntity
  8
0
100
AcDbLine
 10
7.21984499999999
 20
14.01517499999999
 30
0.0
 11
9.163234999999989
 21
12.513775
 31
0.0
  0
LINE
  5
80
330
1E
100
AcDbEntity
  8
0
100
AcDbLine
 10
7.080294999999999
 20
14.507075
 30
0.0
 11
9.15973499999999
 21
12.904375
 31
0.0
  0
LINE
  5
81
330
1E
100
AcDbEntity
  8
0
100
AcDbLine
 10
6.710685
 20
13.408375
 30
0.0
 11
8.654035
 21
11.90697499999999
 31
0.0
  0
LINE
  5
82
330
1E
100
AcDbEntity
  8
0
100
AcDbLine
 10
14.582135
 20
10.81017499999999
 30
0.0
 11
16.525535
 21
9.308675000000009
 31
0.0
  0
LINE
  5
83
330
1E
100
AcDbEntity
  8
0
100
AcDbLine
 10
14.200335
 20
10.355075
 30
0.0
 11
16.143635
 21
8.853675000000009
 31
0.0
  0
LINE
  5
84
330
1E
100
AcDbEntity
  8
0
100
AcDbLine
 10
14.585635
 20
10.419475
 30
0.0
 11
16.665035
 21
8.816775000000008
 31
0.0
  0
LINE
  5
85
330
1E
100
AcDbEntity
  8
0
100
AcDbLine
 10
10.727135
 20
10.296675
 30
0.0
 11
12.800135
 21
8.68647500000001
 31
0.0
  0
LINE
  5
86
330
1E
100
AcDbEntity
  8
0
100
AcDbLine
 10
10.536235
 20
10.06917499999999
 30
0.0
 11
12.80363499999999
 21
8.295775000000009
 31
0.0
  0
LINE
  5
87
330
1E
100
AcDbEntity
  8
0
100
AcDbLine
 10
10.345235
 20
9.841675000000009
 30
0.0
 11
12.418335
 21
8.231375000000008
 31
0.0
  0
LINE
  5
88
330
1E
100
AcDbEntity
  8
0
100
AcDbLine
 10
7.38119499999999
 20
10.390075
 30
0.0
 11
9.454235
 21
8.779775000000009
 31
0.0
  0
LINE
  5
89
330
1E
100
AcDbEntity
  8
0
100
AcDbLine
 10
7.60168499999999
 20
14.470275
 30
0.0
 11
9.545035
 21
12.968775
 31
0.0
  0
LINE
  5
8A
330
1E
100
AcDbEntity
  8
0
100
AcDbLine
 10
15.473135
 20
11.871975
 30
0.0
 11
17.41653499999999
 21
10.370575
 31
0.0
  0
LINE
  5
8B
330
1E
100
AcDbEntity
  8
0
100
AcDbLine
 10
15.091235
 20
11.416975
 30
0.0
 11
17.034635
 21
9.915475000000009
 31
0.0
  0
LINE
  5
8C
330
1E
100
AcDbEntity
  8
0
100
AcDbLine
 10
15.476635
 20
11.48127499999999
 30
0.0
 11
17.556035
 21
9.87867500000001
 31
0.0
  0
LINE
  5
8D
330
1E
100
AcDbEntity
  8
0
100
AcDbLine
 10
11.618135
 20
11.35857499999999
 30
0.0
 11
13.691135
 21
9.74837500000001
 31
0.0
  0
LINE
  5
8E
330
1E
100
AcDbEntity
  8
0
100
AcDbLine
 10
11.427235
 20
11.13107499999999
 30
0.0
 11
13.694635
 21
9.357575000000009
 31
0.0
  0
LINE
  5
8F
330
1E
100
AcDbEntity
  8
0
100
AcDbLine
 10
11.236235
 20
10.903475
 30
0.0
 11
13.309335
 21
9.29327500000001
 31
0.0
  0
LINE
  5
90
330
1E
100
AcDbEntity
  8
0
100
AcDbLine
 10
8.272234999999991
 20
11.451875
 30
0.0
 11
10.345235
 21
9.841675000000009
 31
0.0
  0
LINE
  5
91
330
1E
100
AcDbEntity
  8
0
100
AcDbLine
 10
12.509135
 20
12.420375
 30
0.0
 11
14.582135
 21
10.81017499999999
 31
0.0
  0
LINE
  5
92
330
1E
100
AcDbEntity
  8
0
100
AcDbLine
 10
12.318135
 20
12.192875
 30
0.0
 11
14.585635
 21
10.419475
 31
0.0
  0
LINE
  5
93
330
1E
100
AcDbEntity
  8
0
100
AcDbLine
 10
12.127235
 20
11.965375
 30
0.0
 11
14.200335
 21
10.355075
 31
0.0
  0
LINE
  5
94
330
1E
100
AcDbEntity
  8
0
100
AcDbLine
 10
9.163234999999989
 20
12.513775
 30
0.0
 11
11.236235
 21
10.903475
 31
0.0
  0
LINE
  5
95
330
1E
100
AcDbEntity
  8
0
100
AcDbLine
 10
15.7347649886398
 20
13.3973781710375
 30
0.0
 11
16.333035
 21
12.89537499999999
 31
0.0
  0
LINE
  5
96
330
1E
100
AcDbEntity
  8
0
100
AcDbLine
 10
15.327635
 20
13.73897499999999
 30
0.0
 11
16.364735
 21
12.868775
 31
0.0
  0
LINE
  5
97
330
1E
100
AcDbEntity
  8
0
100
AcDbLine
 10
13.400135
 20
13.482275
 30
0.0
 11
15.473135
 21
11.871975
 31
0.0
  0
LINE
  5
98
330
1E
100
AcDbEntity
  8
0
100
AcDbLine
 10
13.209135
 20
13.254675
 30
0.0
 11
15.476635
 21
11.48127499999999
 31
0.0
  0
LINE
  5
99
330
1E
100
AcDbEntity
  8
0
100
AcDbLine
 10
13.018235
 20
13.02717499999999
 30
0.0
 11
15.091235
 21
11.416975
 31
0.0
  0
LINE
  5
9A
330
1E
100
AcDbEntity
  8
0
100
AcDbLine
 10
10.054235
 20
13.575575
 30
0.0
 11
12.127235
 21
11.965375
 31
0.0
  0
LINE
  5
9B
330
1E
100
AcDbEntity
  8
0
100
AcDbLine
 10
13.909235
 20
14.088975
 30
0.0
 11
15.982235
 21
12.478775
 31
0.0
  0
LINE
  5
9C
330
1E
100
AcDbEntity
  8
0
100
AcDbLine
 10
14.322935
 20
14.58197499999999
 30
0.0
 11
16.480135
 21
12.77197499999999
 31
0.0
  0
LINE
  5
9D
330
1E
100
AcDbEntity
  8
0
100
AcDbLine
 10
14.10013499999999
 20
14.316575
 30
0.0
 11
14.291135
 21
14.544075
 31
0.0
  0
LINE
  5
9E
330
1E
100
AcDbEntity
  8
0
100
AcDbLine
 10
14.10013499999999
 20
14.316575
 30
0.0
 11
16.36763499999999
 21
12.54317499999999
 31
0.0
  0
LINE
  5
9F
330
1E
100
AcDbEntity
  8
0
100
AcDbLine
 10
14.10013499999999
 20
14.316575
 30
0.0
 11
15.327635
 21
13.73897499999999
 31
0.0
  0
LINE
  5
A0
330
1E
100
AcDbEntity
  8
0
100
AcDbLine
 10
10.945135
 20
14.637375
 30
0.0
 11
13.018235
 21
13.02717499999999
 31
0.0
  0
LINE
  5
A1
330
1E
100
AcDbEntity
  8
0
100
AcDbLine
 10
10.436035
 20
14.030675
 30
0.0
 11
12.509135
 21
12.420375
 31
0.0
  0
LINE
  5
A2
330
1E
100
AcDbEntity
  8
0
100
AcDbLine
 10
10.050735
 20
13.966275
 30
0.0
 11
12.318135
 21
12.192875
 31
0.0
  0
LINE
  5
A3
330
1E
100
AcDbEntity
  8
0
100
AcDbLine
 10
9.545035
 20
12.968775
 30
0.0
 11
11.618135
 21
11.35857499999999
 31
0.0
  0
LINE
  5
A4
330
1E
100
AcDbEntity
  8
0
100
AcDbLine
 10
9.15973499999999
 20
12.904375
 30
0.0
 11
11.427235
 21
11.13107499999999
 31
0.0
  0
LINE
  5
A5
330
1E
100
AcDbEntity
  8
0
100
AcDbLine
 10
8.654035
 20
11.90697499999999
 30
0.0
 11
10.727135
 21
10.296675
 31
0.0
  0
LINE
  5
A6
330
1E
100
AcDbEntity
  8
0
100
AcDbLine
 10
8.268735000000001
 20
11.84257499999999
 30
0.0
 11
10.536235
 21
10.06917499999999
 31
0.0
  0
LINE
  5
A7
330
1E
100
AcDbEntity
  8
0
100
AcDbLine
 10
7.763074999999999
 20
10.845175
 30
0.0
 11
9.836134999999989
 21
9.234875000000009
 31
0.0
  0
LINE
  5
A8
330
1E
100
AcDbEntity
  8
0
100
AcDbLine
 10
7.377744999999999
 20
10.780775
 30
0.0
 11
9.64523499999999
 21
9.00737500000001
 31
0.0
  0
LINE
  5
A9
330
1E
100
AcDbEntity
  8
0
100
AcDbLine
 10
6.872105
 20
9.78327500000001
 30
0.0
 11
8.945135
 21
8.173075000000009
 31
0.0
  0
LINE
  5
AA
330
1E
100
AcDbEntity
  8
0
100
AcDbLine
 10
6.48671499999999
 20
9.718875000000009
 30
0.0
 11
8.754134999999999
 21
7.945475000000009
 31
0.0
  0
LINE
  5
AB
330
1E
100
AcDbEntity
  8
0
100
AcDbLine
 10
16.194735
 20
0.3579550000000089
 30
0.0
 11
16.512435
 21
0.0784250000000082
 31
0.0
  0
LINE
  5
AC
330
1E
100
AcDbEntity
  8
0
100
AcDbLine
 10
15.982235
 20
12.478775
 30
0.0
 11
17.92563499999999
 21
10.977375
 31
0.0
  0
LINE
  5
AD
330
1E
100
AcDbEntity
  8
0
100
AcDbLine
 10
16.01403499999999
 20
5.408125000000009
 30
0.0
 11
17.277335
 21
4.412645000000009
 31
0.0
  0
LINE
  5
AE
330
1E
100
AcDbEntity
  8
0
100
AcDbLine
 10
15.877235
 20
2.744045000000009
 30
0.0
 11
16.674135
 21
2.11411500000001
 31
0.0
  0
LINE
  5
AF
330
1E
100
AcDbEntity
  8
0
100
AcDbLine
 10
16.564335
 20
1.45662500000001
 30
0.0
 11
17.403435
 21
1.140315000000009
 31
0.0
  0
LINE
  5
B0
330
1E
100
AcDbEntity
  8
0
100
AcDbLine
 10
16.94614783974009
 20
1.911683696688509
 30
0.0
 11
17.4553387652383
 21
2.518513580328799
 31
0.0
  0
LINE
  5
B1
330
1E
100
AcDbEntity
  8
0
100
AcDbLine
 10
16.94614783974009
 20
1.911683696688509
 30
0.0
 11
17.4553387652383
 21
2.518513580328799
 31
0.0
  0
LINE
  5
B2
330
1E
100
AcDbEntity
  8
0
100
AcDbLine
 10
16.946135
 20
1.91173500000001
 30
0.0
 11
17.403435
 21
1.140315000000009
 31
0.0
  0
LINE
  5
B3
330
1E
100
AcDbEntity
  8
0
100
AcDbLine
 10
16.292335
 20
1.65900500000001
 30
0.0
 11
16.564335
 21
1.45662500000001
 31
0.0
  0
LINE
  5
B4
330
1E
100
AcDbEntity
  8
0
100
AcDbLine
 10
17.073035
 20
1.40468500000001
 30
0.0
 11
17.403435
 21
1.140315000000009
 31
0.0
  0
LINE
  5
B5
330
1E
100
AcDbEntity
  8
0
100
AcDbLine
 10
16.480135
 20
12.77197499999999
 30
0.0
 11
18.502435
 21
11.074975
 31
0.0
  0
LINE
  5
B6
330
1E
100
AcDbEntity
  8
0
100
AcDbLine
 10
16.480135
 20
12.77197499999999
 30
0.0
 11
17.37330852171369
 21
12.02247420073769
 31
0.0
  0
LINE
  5
B7
330
1E
100
AcDbEntity
  8
0
100
AcDbLine
 10
16.480135
 20
12.77197499999999
 30
0.0
 11
17.37330852171369
 21
12.02247420073769
 31
0.0
  0
LINE
  5
B8
330
1E
100
AcDbEntity
  8
0
100
AcDbLine
 10
16.364735
 20
12.868775
 30
0.0
 11
17.37330852171369
 21
12.02247420073769
 31
0.0
  0
LINE
  5
B9
330
1E
100
AcDbEntity
  8
0
100
AcDbLine
 10
16.36763499999999
 20
12.54317499999999
 30
0.0
 11
18.44703499999999
 21
10.940475
 31
0.0
  0
LINE
  5
BA
330
1E
100
AcDbEntity
  8
0
100
AcDbLine
 10
16.525535
 20
9.308675000000009
 30
0.0
 11
18.177835
 21
7.986875000000009
 31
0.0
  0
LINE
  5
BB
330
1E
100
AcDbEntity
  8
0
100
AcDbLine
 10
16.143635
 20
8.853675000000009
 30
0.0
 11
17.795935
 21
7.531775000000009
 31
0.0
  0
LINE
  5
BC
330
1E
100
AcDbEntity
  8
0
100
AcDbLine
 10
16.665035
 20
8.816775000000008
 30
0.0
 11
18.45333499999999
 21
7.393775000000009
 31
0.0
  0
LINE
  5
BD
330
1E
100
AcDbEntity
  8
0
100
AcDbLine
 10
16.395835
 20
5.863235000000009
 30
0.0
 11
17.65923499999999
 21
4.867755000000009
 31
0.0
  0
LINE
  5
BE
330
1E
100
AcDbEntity
  8
0
100
AcDbLine
 10
16.671335
 20
5.270085000000009
 30
0.0
 11
17.999535
 21
4.220215000000009
 31
0.0
  0
LINE
  5
BF
330
1E
100
AcDbEntity
  8
0
100
AcDbLine
 10
16.386435
 20
3.350835000000009
 30
0.0
 11
17.18333499999999
 21
2.720905000000009
 31
0.0
  0
LINE
  5
C0
330
1E
100
AcDbEntity
  8
0
100
AcDbLine
 10
17.455335
 20
2.51851500000001
 30
0.0
 11
18.294435
 21
2.202135000000009
 31
0.0
  0
LINE
  5
C1
330
1E
100
AcDbEntity
  8
0
100
AcDbLine
 10
17.837139731381
 20
2.97352608007314
 30
0.0
 11
18.34631633122939
 21
3.58033889107531
 31
0.0
  0
LINE
  5
C2
330
1E
100
AcDbEntity
  8
0
100
AcDbLine
 10
17.837135
 20
2.973545000000009
 30
0.0
 11
18.294435
 21
2.202135000000009
 31
0.0
  0
LINE
  5
C3
330
1E
100
AcDbEntity
  8
0
100
AcDbLine
 10
17.18333499999999
 20
2.720905000000009
 30
0.0
 11
17.455335
 21
2.51851500000001
 31
0.0
  0
LINE
  5
C4
330
1E
100
AcDbEntity
  8
0
100
AcDbLine
 10
17.96393499999999
 20
2.466495000000009
 30
0.0
 11
18.294435
 21
2.202135000000009
 31
0.0
  0
LINE
  5
C5
330
1E
100
AcDbEntity
  8
0
100
AcDbLine
 10
17.41653499999999
 20
10.370575
 30
0.0
 11
19.068835
 21
9.048775000000009
 31
0.0
  0
LINE
  5
C6
330
1E
100
AcDbEntity
  8
0
100
AcDbLine
 10
17.034635
 20
9.915475000000009
 30
0.0
 11
18.686935
 21
8.593675000000009
 31
0.0
  0
LINE
  5
C7
330
1E
100
AcDbEntity
  8
0
100
AcDbLine
 10
17.556035
 20
9.87867500000001
 30
0.0
 11
19.344335
 21
8.45567500000001
 31
0.0
  0
LINE
  5
C8
330
1E
100
AcDbEntity
  8
0
100
AcDbLine
 10
17.28683499999999
 20
6.925075000000009
 30
0.0
 11
18.550235
 21
5.929575000000009
 31
0.0
  0
LINE
  5
C9
330
1E
100
AcDbEntity
  8
0
100
AcDbLine
 10
16.905035
 20
6.469985000000009
 30
0.0
 11
18.16833499999999
 21
5.474495000000009
 31
0.0
  0
LINE
  5
CA
330
1E
100
AcDbEntity
  8
0
100
AcDbLine
 10
17.562335
 20
6.331955000000009
 30
0.0
 11
18.890535
 21
5.282085000000009
 31
0.0
  0
LINE
  5
CB
330
1E
100
AcDbEntity
  8
0
100
AcDbLine
 10
17.92563499999999
 20
10.977375
 30
0.0
 11
19.577935
 21
9.655475000000009
 31
0.0
  0
LINE
  5
CC
330
1E
100
AcDbEntity
  8
0
100
AcDbLine
 10
17.795935
 20
7.531775000000009
 30
0.0
 11
19.059335
 21
6.536345000000009
 31
0.0
  0
LINE
  5
CD
330
1E
100
AcDbEntity
  8
0
100
AcDbLine
 10
17.65923499999999
 20
4.867755000000009
 30
0.0
 11
18.45613499999999
 21
4.237825000000009
 31
0.0
  0
LINE
  5
CE
330
1E
100
AcDbEntity
  8
0
100
AcDbLine
 10
17.277335
 20
4.412645000000009
 30
0.0
 11
18.074335
 21
3.782715000000009
 31
0.0
  0
LINE
  5
CF
330
1E
100
AcDbEntity
  8
0
100
AcDbLine
 10
18.44703499999999
 20
10.940475
 30
0.0
 11
20.235335
 21
9.517475000000009
 31
0.0
  0
LINE
  5
D0
330
1E
100
AcDbEntity
  8
0
100
AcDbLine
 10
18.177835
 20
7.986875000000009
 30
0.0
 11
19.44123499999999
 21
6.991375000000009
 31
0.0
  0
LINE
  5
D1
330
1E
100
AcDbEntity
  8
0
100
AcDbLine
 10
18.502435
 20
11.074975
 30
0.0
 11
20.288835
 21
9.57597500000001
 31
0.0
  0
LINE
  5
D2
330
1E
100
AcDbEntity
  8
0
100
AcDbLine
 10
18.686935
 20
8.593675000000009
 30
0.0
 11
19.95033499999999
 21
7.598175000000009
 31
0.0
  0
LINE
  5
D3
330
1E
100
AcDbEntity
  8
0
100
AcDbLine
 10
18.45333499999999
 20
7.393775000000009
 30
0.0
 11
19.781535
 21
6.343935000000009
 31
0.0
  0
LINE
  5
D4
330
1E
100
AcDbEntity
  8
0
100
AcDbLine
 10
18.550235
 20
5.929575000000009
 30
0.0
 11
19.347135
 21
5.299645000000009
 31
0.0
  0
LINE
  5
D5
330
1E
100
AcDbEntity
  8
0
100
AcDbLine
 10
18.16833499999999
 20
5.474495000000009
 30
0.0
 11
18.965335
 21
4.844565000000009
 31
0.0
  0
LINE
  5
D6
330
1E
100
AcDbEntity
  8
0
100
AcDbLine
 10
18.45613499999999
 20
4.237825000000009
 30
0.0
 11
18.728135
 21
4.035435000000009
 31
0.0
  0
LINE
  5
D7
330
1E
100
AcDbEntity
  8
0
100
AcDbLine
 10
18.72814704210099
 20
4.0353868391937
 30
0.0
 11
19.2373204394936
 21
4.64219583365914
 31
0.0
  0
LINE
  5
D8
330
1E
100
AcDbEntity
  8
0
100
AcDbLine
 10
18.72814704210099
 20
4.035386839193709
 30
0.0
 11
19.2373204394936
 21
4.64219583365914
 31
0.0
  0
LINE
  5
D9
330
1E
100
AcDbEntity
  8
0
100
AcDbLine
 10
19.237335
 20
4.642185000000009
 30
0.0
 11
20.07643499999999
 21
4.325825000000009
 31
0.0
  0
LINE
  5
DA
330
1E
100
AcDbEntity
  8
0
100
AcDbLine
 10
19.6191408692098
 20
5.09723152917832
 30
0.0
 11
20.1283142168466
 21
5.704040464347129
 31
0.0
  0
LINE
  5
DB
330
1E
100
AcDbEntity
  8
0
100
AcDbLine
 10
19.61913499999999
 20
5.097255000000009
 30
0.0
 11
20.07643499999999
 21
4.325825000000009
 31
0.0
  0
LINE
  5
DC
330
1E
100
AcDbEntity
  8
0
100
AcDbLine
 10
18.965335
 20
4.844565000000009
 30
0.0
 11
19.237335
 21
4.642185000000009
 31
0.0
  0
LINE
  5
DD
330
1E
100
AcDbEntity
  8
0
100
AcDbLine
 10
19.745935
 20
4.590185000000009
 30
0.0
 11
20.07643499999999
 21
4.325825000000009
 31
0.0
  0
LINE
  5
DE
330
1E
100
AcDbEntity
  8
0
100
AcDbLine
 10
19.068835
 20
9.048775000000009
 30
0.0
 11
20.332235
 21
8.053275000000009
 31
0.0
  0
LINE
  5
DF
330
1E
100
AcDbEntity
  8
0
100
AcDbLine
 10
19.344335
 20
8.45567500000001
 30
0.0
 11
20.672535
 21
7.405775000000009
 31
0.0
  0
LINE
  5
E0
330
1E
100
AcDbEntity
  8
0
100
AcDbLine
 10
19.059335
 20
6.536345000000009
 30
0.0
 11
19.856335
 21
5.906415000000009
 31
0.0
  0
LINE
  5
E1
330
1E
100
AcDbEntity
  8
0
100
AcDbLine
 10
20.128335
 20
5.704025000000009
 30
0.0
 11
20.967435
 21
5.387665000000009
 31
0.0
  0
LINE
  5
E2
330
1E
100
AcDbEntity
  8
0
100
AcDbLine
 10
20.51014047493999
 20
6.15908310585317
 30
0.0
 11
21.01930799494879
 21
6.76588509592799
 31
0.0
  0
LINE
  5
E3
330
1E
100
AcDbEntity
  8
0
100
AcDbLine
 10
20.51014047493999
 20
6.15908310585317
 30
0.0
 11
21.01930799494879
 21
6.76588509592799
 31
0.0
  0
LINE
  5
E4
330
1E
100
AcDbEntity
  8
0
100
AcDbLine
 10
20.510135
 20
6.159105000000009
 30
0.0
 11
20.967435
 21
5.387665000000009
 31
0.0
  0
LINE
  5
E5
330
1E
100
AcDbEntity
  8
0
100
AcDbLine
 10
19.856335
 20
5.906415000000009
 30
0.0
 11
20.128335
 21
5.704025000000009
 31
0.0
  0
LINE
  5
E6
330
1E
100
AcDbEntity
  8
0
100
AcDbLine
 10
20.636935
 20
5.652035000000009
 30
0.0
 11
20.967435
 21
5.387665000000009
 31
0.0
  0
LINE
  5
E7
330
1E
100
AcDbEntity
  8
0
100
AcDbLine
 10
20.288835
 20
9.57597500000001
 30
0.0
 11
21.637135
 21
8.444675000000009
 31
0.0
  0
LINE
  5
E8
330
1E
100
AcDbEntity
  8
0
100
AcDbLine
 10
19.577935
 20
9.655475000000009
 30
0.0
 11
20.841335
 21
8.660075000000009
 31
0.0
  0
LINE
  5
E9
330
1E
100
AcDbEntity
  8
0
100
AcDbLine
 10
20.235335
 20
9.517475000000009
 30
0.0
 11
21.563535
 21
8.467575000000008
 31
0.0
  0
LINE
  5
EA
330
1E
100
AcDbEntity
  8
0
100
AcDbLine
 10
20.332235
 20
8.053275000000009
 30
0.0
 11
21.129135
 21
7.423375000000009
 31
0.0
  0
LINE
  5
EB
330
1E
100
AcDbEntity
  8
0
100
AcDbLine
 10
19.95033499999999
 20
7.598175000000009
 30
0.0
 11
20.747335
 21
6.968275000000009
 31
0.0
  0
LINE
  5
EC
330
1E
100
AcDbEntity
  8
0
100
AcDbLine
 10
20.8269308955871
 20
9.124482092874229
 30
0.0
 11
21.527035
 21
8.536975000000008
 31
0.0
  0
LINE
  5
ED
330
1E
100
AcDbEntity
  8
0
100
AcDbLine
 10
20.841335
 20
8.660075000000009
 30
0.0
 11
21.638235
 21
8.030075000000008
 31
0.0
  0
LINE
  5
EE
330
1E
100
AcDbEntity
  8
0
100
AcDbLine
 10
21.129135
 20
7.423375000000009
 30
0.0
 11
21.401135
 21
7.220975000000009
 31
0.0
  0
LINE
  5
EF
330
1E
100
AcDbEntity
  8
0
100
AcDbLine
 10
21.637135
 20
8.444675000000009
 30
0.0
 11
22.446035
 21
7.765875000000009
 31
0.0
  0
LINE
  5
F0
330
1E
100
AcDbEntity
  8
0
100
AcDbLine
 10
21.637135
 20
8.444675000000009
 30
0.0
 11
21.87044412473349
 21
8.248890312314129
 31
0.0
  0
LINE
  5
F1
330
1E
100
AcDbEntity
  8
0
100
AcDbLine
 10
21.637135
 20
8.444675000000009
 30
0.0
 11
21.87044412473349
 21
8.248890312314129
 31
0.0
  0
LINE
  5
F2
330
1E
100
AcDbEntity
  8
0
100
AcDbLine
 10
21.40114393328719
 20
7.22093927389639
 30
0.0
 11
21.9102508412204
 21
7.827669029339849
 31
0.0
  0
LINE
  5
F3
330
1E
100
AcDbEntity
  8
0
100
AcDbLine
 10
22.405135
 20
7.800175000000009
 30
0.0
 11
22.749435
 21
7.511375000000009
 31
0.0
  0
LINE
  5
F4
330
1E
100
AcDbEntity
  8
0
100
AcDbLine
 10
22.749435
 20
7.511375000000009
 30
0.0
 11
45.73203499999999
 21
35.084575
 31
0.0
  0
LINE
  5
F5
330
1E
100
AcDbEntity
  8
0
100
AcDbLine
 10
22.749435
 20
7.511375000000009
 30
0.0
 11
45.73203499999999
 21
35.084575
 31
0.0
  0
LINE
  5
F6
330
1E
100
AcDbEntity
  8
0
100
AcDbLine
 10
22.446035
 20
7.765875000000009
 30
0.0
 11
22.749435
 21
7.511375000000009
 31
0.0
  0
LINE
  5
F7
330
1E
100
AcDbEntity
  8
0
100
AcDbLine
 10
22.418935
 20
7.775675000000009
 30
0.0
 11
22.749435
 21
7.511375000000009
 31
0.0
  0
LINE
  5
F8
330
1E
100
AcDbEntity
  8
0
100
AcDbLine
 10
22.1012073522352
 20
8.05524205068953
 30
0.0
 11
22.446035
 21
7.765875000000009
 31
0.0
  0
LINE
  5
F9
330
1E
100
AcDbEntity
  8
0
100
AcDbLine
 10
22.10118464891719
 20
8.05521499393901
 30
0.0
 11
22.405135
 21
7.800175000000009
 31
0.0
  0
LINE
  5
FA
330
1E
100
AcDbEntity
  8
0
100
AcDbLine
 10
21.910235
 20
7.827675000000009
 30
0.0
 11
22.749435
 21
7.511375000000009
 31
0.0
  0
LINE
  5
FB
330
1E
100
AcDbEntity
  8
0
100
AcDbLine
 10
21.638235
 20
8.030075000000008
 30
0.0
 11
22.418935
 21
7.775675000000009
 31
0.0
  0
LINE
  5
FC
330
1E
100
AcDbEntity
  8
0
100
AcDbLine
 10
21.638235
 20
8.030075000000008
 30
0.0
 11
21.910235
 21
7.827675000000009
 31
0.0
  0
LINE
  5
FD
330
1E
100
AcDbEntity
  8
0
100
AcDbLine
 10
21.638235
 20
8.030075000000008
 30
0.0
 11
22.749435
 21
7.511375000000009
 31
0.0
  0
LINE
  5
FE
330
1E
100
AcDbEntity
  8
0
100
AcDbLine
 10
21.52521966487999
 20
8.538578299429881
 30
0.0
 11
21.637135
 21
8.444675000000009
 31
0.0
  0
LINE
  5
FF
330
1E
100
AcDbEntity
  8
0
100
AcDbLine
 10
21.52521966487999
 20
8.538578299429881
 30
0.0
 11
21.84173499999999
 21
8.272975000000009
 31
0.0
  0
LINE
  5
100
330
1E
100
AcDbEntity
  8
0
100
AcDbLine
 10
21.52521966487999
 20
8.538578299429881
 30
0.0
 11
21.637135
 21
8.444675000000009
 31
0.0
  0
LINE
  5
101
330
1E
100
AcDbEntity
  8
0
100
AcDbLine
 10
21.527035
 20
8.536975000000008
 30
0.0
 11
22.405135
 21
7.800175000000009
 31
0.0
  0
LINE
  5
102
330
1E
100
AcDbEntity
  8
0
100
AcDbLine
 10
21.563535
 20
8.467575000000008
 30
0.0
 11
22.418935
 21
7.775675000000009
 31
0.0
  0
LINE
  5
103
330
1E
100
AcDbEntity
  8
0
100
AcDbLine
 10
21.401135
 20
7.220975000000009
 30
0.0
 11
21.858435
 21
6.449515000000009
 31
0.0
  0
LINE
  5
104
330
1E
100
AcDbEntity
  8
0
100
AcDbLine
 10
21.019335
 20
6.765865000000009
 30
0.0
 11
21.858435
 21
6.449515000000009
 31
0.0
  0
LINE
  5
105
330
1E
100
AcDbEntity
  8
0
100
AcDbLine
 10
20.747335
 20
6.968275000000009
 30
0.0
 11
21.019335
 21
6.765865000000009
 31
0.0
  0
LINE
  5
106
330
1E
100
AcDbEntity
  8
0
100
AcDbLine
 10
21.527935
 20
6.713875000000009
 30
0.0
 11
21.858435
 21
6.449515000000009
 31
0.0
  0
LINE
  5
107
330
1E
100
AcDbEntity
  8
0
100
AcDbLine
 10
20.672535
 20
7.405775000000009
 30
0.0
 11
21.527935
 21
6.713875000000009
 31
0.0
  0
LINE
  5
108
330
1E
100
AcDbEntity
  8
0
100
AcDbLine
 10
20.238135
 20
6.361485000000009
 30
0.0
 11
20.510135
 21
6.159105000000009
 31
0.0
  0
LINE
  5
109
330
1E
100
AcDbEntity
  8
0
100
AcDbLine
 10
19.44123499999999
 20
6.991375000000009
 30
0.0
 11
20.238135
 21
6.361485000000009
 31
0.0
  0
LINE
  5
10A
330
1E
100
AcDbEntity
  8
0
100
AcDbLine
 10
19.781535
 20
6.343935000000009
 30
0.0
 11
20.636935
 21
5.652035000000009
 31
0.0
  0
LINE
  5
10B
330
1E
100
AcDbEntity
  8
0
100
AcDbLine
 10
19.347135
 20
5.299645000000009
 30
0.0
 11
19.61913499999999
 21
5.097255000000009
 31
0.0
  0
LINE
  5
10C
330
1E
100
AcDbEntity
  8
0
100
AcDbLine
 10
18.890535
 20
5.282085000000009
 30
0.0
 11
19.745935
 21
4.590185000000009
 31
0.0
  0
LINE
  5
10D
330
1E
100
AcDbEntity
  8
0
100
AcDbLine
 10
18.728135
 20
4.035435000000009
 30
0.0
 11
19.185435
 21
3.263945000000009
 31
0.0
  0
LINE
  5
10E
330
1E
100
AcDbEntity
  8
0
100
AcDbLine
 10
18.34633499999999
 20
3.580325000000009
 30
0.0
 11
19.185435
 21
3.263945000000009
 31
0.0
  0
LINE
  5
10F
330
1E
100
AcDbEntity
  8
0
100
AcDbLine
 10
18.074335
 20
3.782715000000009
 30
0.0
 11
18.34633499999999
 21
3.580325000000009
 31
0.0
  0
LINE
  5
110
330
1E
100
AcDbEntity
  8
0
100
AcDbLine
 10
18.854935
 20
3.528315000000009
 30
0.0
 11
19.185435
 21
3.263945000000009
 31
0.0
  0
LINE
  5
111
330
1E
100
AcDbEntity
  8
0
100
AcDbLine
 10
17.999535
 20
4.220215000000009
 30
0.0
 11
18.854935
 21
3.528315000000009
 31
0.0
  0
LINE
  5
112
330
1E
100
AcDbEntity
  8
0
100
AcDbLine
 10
17.565135
 20
3.175935000000009
 30
0.0
 11
17.837135
 21
2.973545000000009
 31
0.0
  0
LINE
  5
113
330
1E
100
AcDbEntity
  8
0
100
AcDbLine
 10
16.768235
 20
3.805855000000009
 30
0.0
 11
17.565135
 21
3.175935000000009
 31
0.0
  0
LINE
  5
114
330
1E
100
AcDbEntity
  8
0
100
AcDbLine
 10
17.108635
 20
3.158395000000009
 30
0.0
 11
17.96393499999999
 21
2.466495000000009
 31
0.0
  0
LINE
  5
115
330
1E
100
AcDbEntity
  8
0
100
AcDbLine
 10
16.674135
 20
2.11411500000001
 30
0.0
 11
16.946135
 21
1.91173500000001
 31
0.0
  0
LINE
  5
116
330
1E
100
AcDbEntity
  8
0
100
AcDbLine
 10
16.217635
 20
2.096585000000009
 30
0.0
 11
17.073035
 21
1.40468500000001
 31
0.0
  0
LINE
  5
117
330
1E
100
AcDbEntity
  8
0
100
AcDbLine
 10
16.055235
 20
0.849915000000009
 30
0.0
 11
16.512435
 21
0.0784250000000082
 31
0.0
  0
LINE
  5
118
330
1E
100
AcDbEntity
  8
0
100
AcDbLine
 10
15.8755036488241
 20
0.6357401217750321
 30
0.0
 11
16.194735
 21
0.3579550000000089
 31
0.0
  0
LINE
  5
119
330
1E
100
AcDbEntity
  8
0
100
AcDbLine
 10
15.8755036488241
 20
0.6357401217750321
 30
0.0
 11
16.194735
 21
0.3579550000000089
 31
0.0
  0
LINE
  5
11A
330
1E
100
AcDbEntity
  8
0
100
AcDbLine
 10
1.326414999999999
 20
15.548175
 30
0.0
 11
2.181795
 21
14.856275
 31
0.0
  0
LINE
  5
11B
330
1E
100
AcDbEntity
  8
0
100
AcDbLine
 10
0.9959349999999959
 20
15.81247499999999
 30
0.0
 11
1.453184999999999
 21
15.041175
 31
0.0
  0
LINE
  5
11C
330
1E
100
AcDbEntity
  8
0
100
AcDbLine
 10
0.9959349999999959
 20
15.81247499999999
 30
0.0
 11
1.835065
 21
15.496275
 31
0.0
  0
LINE
  5
11D
330
1E
100
AcDbEntity
  8
0
100
AcDbLine
 10
0.9959349999999959
 20
15.81247499999999
 30
0.0
 11
1.326414999999999
 21
15.548175
 31
0.0
  0
LINE
  5
11E
330
1E
100
AcDbEntity
  8
0
100
AcDbLine
 10
1.725215
 20
14.838675
 30
0.0
 11
2.52214499999999
 21
14.208775
 31
0.0
  0
LINE
  5
11F
330
1E
100
AcDbEntity
  8
0
100
AcDbLine
 10
1.83510438012229
 20
15.4962456997877
 30
0.0
 11
2.34418541276516
 21
16.10294493257
 31
0.0
  0
LINE
  5
120
330
1E
100
AcDbEntity
  8
0
100
AcDbLine
 10
1.83510438012229
 20
15.4962456997877
 30
0.0
 11
2.34418541276516
 21
16.10294493257
 31
0.0
  0
LINE
  5
121
330
1E
100
AcDbEntity
  8
0
100
AcDbLine
 10
1.886974999999999
 20
16.874375
 30
0.0
 11
2.344145
 21
16.102975
 31
0.0
  0
LINE
  5
122
330
1E
100
AcDbEntity
  8
0
100
AcDbLine
 10
1.886974999999999
 20
16.874375
 30
0.0
 11
2.726024999999999
 21
16.55807499999999
 31
0.0
  0
LINE
  5
123
330
1E
100
AcDbEntity
  8
0
100
AcDbLine
 10
1.886974999999999
 20
16.874375
 30
0.0
 11
2.21744499999999
 21
16.60997499999999
 31
0.0
  0
LINE
  5
124
330
1E
100
AcDbEntity
  8
0
100
AcDbLine
 10
1.835065
 20
15.496275
 30
0.0
 11
2.107095
 21
15.293875
 31
0.0
  0
LINE
  5
125
330
1E
100
AcDbEntity
  8
0
100
AcDbLine
 10
2.616184999999999
 20
15.900575
 30
0.0
 11
3.413174999999999
 21
15.270675
 31
0.0
  0
LINE
  5
126
330
1E
100
AcDbEntity
  8
0
100
AcDbLine
 10
3.413174999999999
 20
15.270675
 30
0.0
 11
4.676484999999999
 21
14.275275
 31
0.0
  0
LINE
  5
127
330
1E
100
AcDbEntity
  8
0
100
AcDbLine
 10
3.794994999999999
 20
15.725675
 30
0.0
 11
5.058305
 21
14.730275
 31
0.0
  0
LINE
  5
128
330
1E
100
AcDbEntity
  8
0
100
AcDbLine
 10
3.072824999999999
 20
15.918175
 30
0.0
 11
4.40101499999999
 21
14.868275
 31
0.0
  0
LINE
  5
129
330
1E
100
AcDbEntity
  8
0
100
AcDbLine
 10
5.567455
 20
15.337075
 30
0.0
 11
7.21984499999999
 21
14.01517499999999
 31
0.0
  0
LINE
  5
12A
330
1E
100
AcDbEntity
  8
0
100
AcDbLine
 10
8.11083499999999
 20
15.07697499999999
 30
0.0
 11
10.054235
 21
13.575575
 31
0.0
  0
LINE
  5
12B
330
1E
100
AcDbEntity
  8
0
100
AcDbLine
 10
11.327035
 20
15.092475
 30
0.0
 11
13.400135
 21
13.482275
 31
0.0
  0
LINE
  5
12C
330
1E
100
AcDbEntity
  8
0
100
AcDbLine
 10
10.941735
 20
15.028075
 30
0.0
 11
13.209135
 21
13.254675
 31
0.0
  0
LINE
  5
12D
330
1E
100
AcDbEntity
  8
0
100
AcDbLine
 10
8.49273499999999
 20
15.532075
 30
0.0
 11
10.436035
 21
14.030675
 31
0.0
  0
LINE
  5
12E
330
1E
100
AcDbEntity
  8
0
100
AcDbLine
 10
11.836135
 20
15.699275
 30
0.0
 11
13.909235
 21
14.088975
 31
0.0
  0
LINE
  5
12F
330
1E
100
AcDbEntity
  8
0
100
AcDbLine
 10
7.971335
 20
15.568975
 30
0.0
 11
10.050735
 21
13.966275
 31
0.0
  0
LINE
  5
130
330
1E
100
AcDbEntity
  8
0
100
AcDbLine
 10
5.949315
 20
15.792175
 30
0.0
 11
7.60168499999999
 21
14.470275
 31
0.0
  0
LINE
  5
131
330
1E
100
AcDbEntity
  8
0
100
AcDbLine
 10
11.832635
 20
16.089975
 30
0.0
 11
14.10013499999999
 21
14.316575
 31
0.0
  0
LINE
  5
132
330
1E
100
AcDbEntity
  8
0
100
AcDbLine
 10
5.291995
 20
15.930075
 30
0.0
 11
7.080294999999999
 21
14.507075
 31
0.0
  0
LINE
  5
133
330
1E
100
AcDbEntity
  8
0
100
AcDbLine
 10
4.40101499999999
 20
14.868275
 30
0.0
 11
6.18930499999999
 21
13.445275
 31
0.0
  0
LINE
  5
134
330
1E
100
AcDbEntity
  8
0
100
AcDbLine
 10
12.218035
 20
16.154375
 30
0.0
 11
14.291135
 21
14.544075
 31
0.0
  0
LINE
  5
135
330
1E
100
AcDbEntity
  8
0
100
AcDbLine
 10
9.00183499999999
 20
16.13887499999999
 30
0.0
 11
10.945135
 21
14.637375
 31
0.0
  0
LINE
  5
136
330
1E
100
AcDbEntity
  8
0
100
AcDbLine
 10
4.304145
 20
16.33247499999999
 30
0.0
 11
5.567455
 21
15.337075
 31
0.0
  0
LINE
  5
137
330
1E
100
AcDbEntity
  8
0
100
AcDbLine
 10
2.726061835694399
 20
16.55804759394009
 30
0.0
 11
3.23522526673069
 21
17.16484502531719
 31
0.0
  0
LINE
  5
138
330
1E
100
AcDbEntity
  8
0
100
AcDbLine
 10
2.726061835694399
 20
16.55804759394009
 30
0.0
 11
3.23522526673069
 21
17.16484502531719
 31
0.0
  0
LINE
  5
139
330
1E
100
AcDbEntity
  8
0
100
AcDbLine
 10
3.50721499999999
 20
16.962375
 30
0.0
 11
4.304145
 21
16.33247499999999
 31
0.0
  0
LINE
  5
13A
330
1E
100
AcDbEntity
  8
0
100
AcDbLine
 10
12.16573499999999
 20
16.39207499999999
 30
0.0
 11
14.322935
 21
14.58197499999999
 31
0.0
  0
LINE
  5
13B
330
1E
100
AcDbEntity
  8
0
100
AcDbLine
 10
9.383634999999999
 20
16.593875
 30
0.0
 11
11.327035
 21
15.092475
 31
0.0
  0
LINE
  5
13C
330
1E
100
AcDbEntity
  8
0
100
AcDbLine
 10
8.862234999999991
 20
16.63077499999999
 30
0.0
 11
10.941735
 21
15.028075
 31
0.0
  0
LINE
  5
13D
330
1E
100
AcDbEntity
  8
0
100
AcDbLine
 10
6.458455
 20
16.398875
 30
0.0
 11
8.11083499999999
 21
15.07697499999999
 31
0.0
  0
LINE
  5
13E
330
1E
100
AcDbEntity
  8
0
100
AcDbLine
 10
6.84029499999999
 20
16.85397499999999
 30
0.0
 11
8.49273499999999
 21
15.532075
 31
0.0
  0
LINE
  5
13F
330
1E
100
AcDbEntity
  8
0
100
AcDbLine
 10
4.685995
 20
16.787575
 30
0.0
 11
5.949315
 21
15.792175
 31
0.0
  0
LINE
  5
140
330
1E
100
AcDbEntity
  8
0
100
AcDbLine
 10
2.777954999999999
 20
17.93627499999999
 30
0.0
 11
3.108424999999999
 21
17.671875
 31
0.0
  0
LINE
  5
141
330
1E
100
AcDbEntity
  8
0
100
AcDbLine
 10
2.777954999999999
 20
17.93627499999999
 30
0.0
 11
3.617024999999999
 21
17.619875
 31
0.0
  0
LINE
  5
142
330
1E
100
AcDbEntity
  8
0
100
AcDbLine
 10
2.777954999999999
 20
17.93627499999999
 30
0.0
 11
3.235184999999999
 21
17.16487499999999
 31
0.0
  0
LINE
  5
143
330
1E
100
AcDbEntity
  8
0
100
AcDbLine
 10
9.89283499999999
 20
17.200675
 30
0.0
 11
11.836135
 21
15.699275
 31
0.0
  0
LINE
  5
144
330
1E
100
AcDbEntity
  8
0
100
AcDbLine
 10
5.195134999999999
 20
17.394375
 30
0.0
 11
6.458455
 21
16.398875
 31
0.0
  0
LINE
  5
145
330
1E
100
AcDbEntity
  8
0
100
AcDbLine
 10
6.18299499999999
 20
16.991975
 30
0.0
 11
7.971335
 21
15.568975
 31
0.0
  0
LINE
  5
146
330
1E
100
AcDbEntity
  8
0
100
AcDbLine
 10
3.235184999999999
 20
17.16487499999999
 30
0.0
 11
3.50721499999999
 21
16.962375
 31
0.0
  0
LINE
  5
147
330
1E
100
AcDbEntity
  8
0
100
AcDbLine
 10
3.61703466467111
 20
17.6198678094051
 30
0.0
 11
4.12619041694259
 21
18.2266560895854
 31
0.0
  0
LINE
  5
148
330
1E
100
AcDbEntity
  8
0
100
AcDbLine
 10
3.61703466467111
 20
17.6198678094051
 30
0.0
 11
4.12619041694259
 21
18.2266560895854
 31
0.0
  0
LINE
  5
149
330
1E
100
AcDbEntity
  8
0
100
AcDbLine
 10
4.398204999999999
 20
18.024275
 30
0.0
 11
5.195134999999999
 21
17.394375
 31
0.0
  0
LINE
  5
14A
330
1E
100
AcDbEntity
  8
0
100
AcDbLine
 10
10.274635
 20
17.655775
 30
0.0
 11
12.218035
 21
16.154375
 31
0.0
  0
LINE
  5
14B
330
1E
100
AcDbEntity
  8
0
100
AcDbLine
 10
10.433835
 20
17.845275
 30
0.0
 11
11.71076982980139
 21
16.7738372101597
 31
0.0
  0
LINE
  5
14C
330
1E
100
AcDbEntity
  8
0
100
AcDbLine
 10
9.753234999999991
 20
17.692575
 30
0.0
 11
11.832635
 21
16.089975
 31
0.0
  0
LINE
  5
14D
330
1E
100
AcDbEntity
  8
0
100
AcDbLine
 10
7.349435
 20
17.460775
 30
0.0
 11
9.00183499999999
 21
16.13887499999999
 31
0.0
  0
LINE
  5
14E
330
1E
100
AcDbEntity
  8
0
100
AcDbLine
 10
10.14333499999999
 20
18.089075
 30
0.0
 11
12.16573499999999
 21
16.39207499999999
 31
0.0
  0
LINE
  5
14F
330
1E
100
AcDbEntity
  8
0
100
AcDbLine
 10
7.73129499999999
 20
17.915775
 30
0.0
 11
9.383634999999999
 21
16.593875
 31
0.0
  0
LINE
  5
150
330
1E
100
AcDbEntity
  8
0
100
AcDbLine
 10
7.07398499999999
 20
18.053775
 30
0.0
 11
8.862234999999991
 21
16.63077499999999
 31
0.0
  0
LINE
  5
151
330
1E
100
AcDbEntity
  8
0
100
AcDbLine
 10
5.576984999999999
 20
17.84937499999999
 30
0.0
 11
6.84029499999999
 21
16.85397499999999
 31
0.0
  0
LINE
  5
152
330
1E
100
AcDbEntity
  8
0
100
AcDbLine
 10
4.854794999999999
 20
18.041775
 30
0.0
 11
6.18299499999999
 21
16.991975
 31
0.0
  0
LINE
  5
153
330
1E
100
AcDbEntity
  8
0
100
AcDbLine
 10
4.50805530883155
 20
18.68174500879499
 30
0.0
 11
5.01715940236686
 21
19.28847172448239
 31
0.0
  0
LINE
  5
154
330
1E
100
AcDbEntity
  8
0
100
AcDbLine
 10
4.50805530883155
 20
18.68174500879499
 30
0.0
 11
5.01715940236686
 21
19.28847172448239
 31
0.0
  0
LINE
  5
155
330
1E
100
AcDbEntity
  8
0
100
AcDbLine
 10
4.50801499999999
 20
18.68177499999999
 30
0.0
 11
4.780044999999999
 21
18.479375
 31
0.0
  0
LINE
  5
156
330
1E
100
AcDbEntity
  8
0
100
AcDbLine
 10
9.78088185556898
 20
18.3932158774642
 30
0.0
 11
10.433835
 21
17.845275
 31
0.0
  0
LINE
  5
157
330
1E
100
AcDbEntity
  8
0
100
AcDbLine
 10
8.240434999999999
 20
18.522575
 30
0.0
 11
9.89283499999999
 21
17.200675
 31
0.0
  0
LINE
  5
158
330
1E
100
AcDbEntity
  8
0
100
AcDbLine
 10
6.08612499999999
 20
18.456175
 30
0.0
 11
7.349435
 21
17.460775
 31
0.0
  0
LINE
  5
159
330
1E
100
AcDbEntity
  8
0
100
AcDbLine
 10
4.780044999999999
 20
18.479375
 30
0.0
 11
5.576984999999999
 21
17.84937499999999
 31
0.0
  0
LINE
  5
15A
330
1E
100
AcDbEntity
  8
0
100
AcDbLine
 10
5.01715499999999
 20
19.28847499999999
 30
0.0
 11
5.28918499999999
 21
19.086075
 31
0.0
  0
LINE
  5
15B
330
1E
100
AcDbEntity
  8
0
100
AcDbLine
 10
5.39902813819216
 20
19.74356522471749
 30
0.0
 11
5.90818389024108
 21
20.3503535046326
 31
0.0
  0
LINE
  5
15C
330
1E
100
AcDbEntity
  8
0
100
AcDbLine
 10
5.28918499999999
 20
19.086075
 30
0.0
 11
6.08612499999999
 21
18.456175
 31
0.0
  0
LINE
  5
15D
330
1E
100
AcDbEntity
  8
0
100
AcDbLine
 10
5.399015
 20
19.74357499999999
 30
0.0
 11
5.671044999999999
 21
19.54117499999999
 31
0.0
  0
LINE
  5
15E
330
1E
100
AcDbEntity
  8
0
100
AcDbLine
 10
5.671044999999999
 20
19.54117499999999
 30
0.0
 11
6.467975
 21
18.91127499999999
 31
0.0
  0
LINE
  5
15F
330
1E
100
AcDbEntity
  8
0
100
AcDbLine
 10
5.450924999999999
 20
21.121775
 30
0.0
 11
5.90815499999999
 21
20.350375
 31
0.0
  0
LINE
  5
160
330
1E
100
AcDbEntity
  8
0
100
AcDbLine
 10
5.450924999999999
 20
21.121775
 30
0.0
 11
6.29000499999999
 21
20.805475
 31
0.0
  0
LINE
  5
161
330
1E
100
AcDbEntity
  8
0
100
AcDbLine
 10
5.450924999999999
 20
21.121775
 30
0.0
 11
5.781405
 21
20.857375
 31
0.0
  0
LINE
  5
162
330
1E
100
AcDbEntity
  8
0
100
AcDbLine
 10
4.55993499999999
 20
20.059875
 30
0.0
 11
4.890405
 21
19.795575
 31
0.0
  0
LINE
  5
163
330
1E
100
AcDbEntity
  8
0
100
AcDbLine
 10
4.55993499999999
 20
20.059875
 30
0.0
 11
5.399015
 21
19.74357499999999
 31
0.0
  0
LINE
  5
164
330
1E
100
AcDbEntity
  8
0
100
AcDbLine
 10
4.55993499999999
 20
20.059875
 30
0.0
 11
5.01715499999999
 21
19.28847499999999
 31
0.0
  0
LINE
  5
165
330
1E
100
AcDbEntity
  8
0
100
AcDbLine
 10
4.890405
 20
19.795575
 30
0.0
 11
5.745784999999999
 21
19.10367499999999
 31
0.0
  0
LINE
  5
166
330
1E
100
AcDbEntity
  8
0
100
AcDbLine
 10
5.89642499999999
 20
21.652675
 30
0.0
 11
30.17573499999999
 21
50.640875
 31
0.0
  0
LINE
  5
167
330
1E
100
AcDbEntity
  8
0
100
AcDbLine
 10
5.89642499999999
 20
21.652675
 30
0.0
 11
6.199774999999999
 21
21.39817499999999
 31
0.0
  0
LINE
  5
168
330
1E
100
AcDbEntity
  8
0
100
AcDbLine
 10
5.89642499999999
 20
21.652675
 30
0.0
 11
30.17573499999999
 21
50.640875
 31
0.0
  0
LINE
  5
169
330
1E
100
AcDbEntity
  8
0
100
AcDbLine
 10
5.781405
 20
20.857375
 30
0.0
 11
6.63678499999999
 21
20.165475
 31
0.0
  0
LINE
  5
16A
330
1E
100
AcDbEntity
  8
0
100
AcDbLine
 10
8.62233499999999
 20
18.977675
 30
0.0
 11
10.274635
 21
17.655775
 31
0.0
  0
LINE
  5
16B
330
1E
100
AcDbEntity
  8
0
100
AcDbLine
 10
6.180184999999999
 20
20.14797499999999
 30
0.0
 11
6.977114999999999
 21
19.51797499999999
 31
0.0
  0
LINE
  5
16C
330
1E
100
AcDbEntity
  8
0
100
AcDbLine
 10
6.199774999999999
 20
21.39817499999999
 30
0.0
 11
7.008714999999999
 21
20.719375
 31
0.0
  0
LINE
  5
16D
330
1E
100
AcDbEntity
  8
0
100
AcDbLine
 10
6.290048774176439
 20
20.80544241436339
 30
0.0
 11
6.544575
 21
21.108775
 31
0.0
  0
LINE
  5
16E
330
1E
100
AcDbEntity
  8
0
100
AcDbLine
 10
6.290048774176429
 20
20.80544241436339
 30
0.0
 11
6.544575
 21
21.108775
 31
0.0
  0
LINE
  5
16F
330
1E
100
AcDbEntity
  8
0
100
AcDbLine
 10
6.544575
 20
21.108775
 30
0.0
 11
6.803725
 21
20.891375
 31
0.0
  0
LINE
  5
170
330
1E
100
AcDbEntity
  8
0
100
AcDbLine
 10
6.29000499999999
 20
20.805475
 30
0.0
 11
6.562035
 21
20.602975
 31
0.0
  0
LINE
  5
171
330
1E
100
AcDbEntity
  8
0
100
AcDbLine
 10
6.562035
 20
20.602975
 30
0.0
 11
7.358975
 21
19.973075
 31
0.0
  0
LINE
  5
172
330
1E
100
AcDbEntity
  8
0
100
AcDbLine
 10
8.356934999999991
 20
19.58807499999999
 30
0.0
 11
10.14333499999999
 21
18.089075
 31
0.0
  0
LINE
  5
173
330
1E
100
AcDbEntity
  8
0
100
AcDbLine
 10
6.977114999999999
 20
19.51797499999999
 30
0.0
 11
8.240434999999999
 21
18.522575
 31
0.0
  0
LINE
  5
174
330
1E
100
AcDbEntity
  8
0
100
AcDbLine
 10
7.008714999999999
 20
20.719375
 30
0.0
 11
8.356934999999991
 21
19.58807499999999
 31
0.0
  0
LINE
  5
175
330
1E
100
AcDbEntity
  8
0
100
AcDbLine
 10
6.803725
 20
20.891375
 30
0.0
 11
7.580264999999999
 21
20.239775
 31
0.0
  0
LINE
  5
176
330
1E
100
AcDbEntity
  8
0
100
AcDbLine
 10
149.895035
 20
30.421575
 30
0.0
 11
149.895035
 21
29.421575
 31
0.0
  0
LINE
  5
177
330
1E
100
AcDbEntity
  8
0
100
AcDbLine
 10
7.580264999999999
 20
20.239775
 30
0.0
 11
7.76833008643704
 21
20.0819771366793
 31
0.0
  0
LINE
  5
178
330
1E
100
AcDbEntity
  8
0
100
AcDbLine
 10
7.63285850750265
 20
20.19565220250569
 30
0.0
 11
7.70093333802055
 21
20.1385270423336
 31
0.0
  0
LINE
  5
179
330
1E
100
AcDbEntity
  8
0
100
AcDbLine
 10
7.473731330163559
 20
20.3291681275471
 30
0.0
 11
7.55925141344037
 21
20.25741638454769
 31
0.0
  0
LINE
  5
17A
330
1E
100
AcDbEntity
  8
0
100
AcDbLine
 10
7.358975
 20
19.973075
 30
0.0
 11
8.62233499999999
 21
18.977675
 31
0.0
  0
LINE
  5
17B
330
1E
100
AcDbEntity
  8
0
100
AcDbLine
 10
6.63678499999999
 20
20.165475
 30
0.0
 11
7.964935
 21
19.11557499999999
 31
0.0
  0
LINE
  5
17C
330
1E
100
AcDbEntity
  8
0
100
AcDbLine
 10
7.964935
 20
19.11557499999999
 30
0.0
 11
9.753234999999991
 21
17.692575
 31
0.0
  0
LINE
  5
17D
330
1E
100
AcDbEntity
  8
0
100
AcDbLine
 10
5.90815499999999
 20
20.350375
 30
0.0
 11
6.180184999999999
 21
20.14797499999999
 31
0.0
  0
LINE
  5
17E
330
1E
100
AcDbEntity
  8
0
100
AcDbLine
 10
6.467975
 20
18.91127499999999
 30
0.0
 11
7.73129499999999
 21
17.915775
 31
0.0
  0
LINE
  5
17F
330
1E
100
AcDbEntity
  8
0
100
AcDbLine
 10
5.745784999999999
 20
19.10367499999999
 30
0.0
 11
7.07398499999999
 21
18.053775
 31
0.0
  0
LINE
  5
180
330
1E
100
AcDbEntity
  8
0
100
AcDbLine
 10
3.99942499999999
 20
18.733675
 30
0.0
 11
4.854794999999999
 21
18.041775
 31
0.0
  0
LINE
  5
181
330
1E
100
AcDbEntity
  8
0
100
AcDbLine
 10
3.668934999999999
 20
18.998075
 30
0.0
 11
4.126165
 21
18.226675
 31
0.0
  0
LINE
  5
182
330
1E
100
AcDbEntity
  8
0
100
AcDbLine
 10
3.668934999999999
 20
18.998075
 30
0.0
 11
4.50801499999999
 21
18.68177499999999
 31
0.0
  0
LINE
  5
183
330
1E
100
AcDbEntity
  8
0
100
AcDbLine
 10
3.668934999999999
 20
18.998075
 30
0.0
 11
3.99942499999999
 21
18.733675
 31
0.0
  0
LINE
  5
184
330
1E
100
AcDbEntity
  8
0
100
AcDbLine
 10
4.126165
 20
18.226675
 30
0.0
 11
4.398204999999999
 21
18.024275
 31
0.0
  0
LINE
  5
185
330
1E
100
AcDbEntity
  8
0
100
AcDbLine
 10
3.617024999999999
 20
17.619875
 30
0.0
 11
3.889065
 21
17.41747499999999
 31
0.0
  0
LINE
  5
186
330
1E
100
AcDbEntity
  8
0
100
AcDbLine
 10
3.889065
 20
17.41747499999999
 30
0.0
 11
4.685995
 21
16.787575
 31
0.0
  0
LINE
  5
187
330
1E
100
AcDbEntity
  8
0
100
AcDbLine
 10
3.108424999999999
 20
17.671875
 30
0.0
 11
3.963794999999999
 21
16.979975
 31
0.0
  0
LINE
  5
188
330
1E
100
AcDbEntity
  8
0
100
AcDbLine
 10
3.963794999999999
 20
16.979975
 30
0.0
 11
5.291995
 21
15.930075
 31
0.0
  0
LINE
  5
189
330
1E
100
AcDbEntity
  8
0
100
AcDbLine
 10
2.726024999999999
 20
16.55807499999999
 30
0.0
 11
2.998065
 21
16.355675
 31
0.0
  0
LINE
  5
18A
330
1E
100
AcDbEntity
  8
0
100
AcDbLine
 10
2.998065
 20
16.355675
 30
0.0
 11
3.794994999999999
 21
15.725675
 31
0.0
  0
LINE
  5
18B
330
1E
100
AcDbEntity
  8
0
100
AcDbLine
 10
2.21744499999999
 20
16.60997499999999
 30
0.0
 11
3.072824999999999
 21
15.918175
 31
0.0
  0
LINE
  5
18C
330
1E
100
AcDbEntity
  8
0
100
AcDbLine
 10
2.344145
 20
16.102975
 30
0.0
 11
2.616184999999999
 21
15.900575
 31
0.0
  0
LINE
  5
18D
330
1E
100
AcDbEntity
  8
0
100
AcDbLine
 10
2.107095
 20
15.293875
 30
0.0
 11
2.904024999999999
 21
14.663875
 31
0.0
  0
LINE
  5
18E
330
1E
100
AcDbEntity
  8
0
100
AcDbLine
 10
2.181795
 20
14.856275
 30
0.0
 11
3.50998499999999
 21
13.80637499999999
 31
0.0
  0
LINE
  5
18F
330
1E
100
AcDbEntity
  8
0
100
AcDbLine
 10
1.453184999999999
 20
15.041175
 30
0.0
 11
1.725215
 21
14.838675
 31
0.0
  0
LINE
  5
190
330
1E
100
AcDbEntity
  8
0
100
AcDbLine
 10
0.104964999999996
 20
14.75067499999999
 30
0.0
 11
0.9440249999999959
 21
14.43437499999999
 31
0.0
  0
LINE
  5
191
330
1E
100
AcDbEntity
  8
0
100
AcDbLine
 10
0.104964999999996
 20
14.75067499999999
 30
0.0
 11
0.4354449999999951
 21
14.48627499999999
 31
0.0
  0
LINE
  5
192
330
1E
100
AcDbEntity
  8
0
100
AcDbLine
 10
0.104964999999996
 20
14.75067499999999
 30
0.0
 11
0.5622149999999961
 21
13.97927499999999
 31
0.0
  0
LINE
  5
193
330
1E
100
AcDbEntity
  8
0
100
AcDbLine
 10
0.104964999999996
 20
14.75067499999999
 30
0.0
 11
0.5622149999999961
 21
13.97927499999999
 31
0.0
  0
LINE
  5
194
330
1E
100
AcDbEntity
  8
0
100
AcDbLine
 10
0.104964999999996
 20
14.75067499999999
 30
0.0
 11
0.9440249999999959
 21
14.43437499999999
 31
0.0
  0
LINE
  5
195
330
1E
100
AcDbEntity
  8
0
100
AcDbLine
 10
0.104964999999996
 20
14.75067499999999
 30
0.0
 11
0.4354449999999951
 21
14.48627499999999
 31
0.0
  0
LINE
  5
196
330
1E
100
AcDbEntity
  8
0
100
AcDbLine
 10
45.73203499999999
 20
35.084575
 30
0.0
 11
49.37083499999999
 21
38.275675
 31
0.0
  0
LINE
  5
197
330
1E
100
AcDbEntity
  8
0
100
AcDbLine
 10
57.735735
 20
43.10507499999999
 30
0.0
 11
62.31873499999999
 21
44.66087499999999
 31
0.0
  0
LINE
  5
198
330
1E
100
AcDbEntity
  8
0
100
AcDbLine
 10
53.395035
 20
40.964475
 30
0.0
 11
57.735735
 21
43.10507499999999
 31
0.0
  0
LINE
  5
199
330
1E
100
AcDbEntity
  8
0
100
AcDbLine
 10
49.37083499999999
 20
38.275675
 30
0.0
 11
53.395035
 21
40.964475
 31
0.0
  0
LINE
  5
19A
330
1E
100
AcDbEntity
  8
0
100
AcDbLine
 10
149.895035
 20
30.421575
 30
0.0
 11
149.895035
 21
37.521575
 31
0.0
  0
LINE
  5
19B
330
1E
100
AcDbEntity
  8
0
100
AcDbLine
 10
149.895035
 20
29.421575
 30
0.0
 11
150.395035
 21
27.921575
 31
0.0
  0
LINE
  5
19C
330
1E
100
AcDbEntity
  8
0
100
AcDbLine
 10
149.895035
 20
29.421575
 30
0.0
 11
149.895035
 21
30.421575
 31
0.0
  0
LINE
  5
19D
330
1E
100
AcDbEntity
  8
0
100
AcDbLine
 10
62.31873499999999
 20
44.66087499999999
 30
0.0
 11
67.065535
 21
45.60507499999999
 31
0.0
  0
LINE
  5
19E
330
1E
100
AcDbEntity
  8
0
100
AcDbLine
 10
67.065535
 20
45.60507499999999
 30
0.0
 11
71.89503499999999
 21
45.92157499999999
 31
0.0
  0
LINE
  5
19F
330
1E
100
AcDbEntity
  8
0
100
AcDbLine
 10
71.89503499999999
 20
45.92157499999999
 30
0.0
 11
149.895035
 21
45.92157499999999
 31
0.0
  0
LINE
  5
1A0
330
1E
100
AcDbEntity
  8
0
100
AcDbLine
 10
149.895035
 20
45.92157499999999
 30
0.0
 11
149.895035
 21
46.31757499999999
 31
0.0
  0
LINE
  5
1A1
330
1E
100
AcDbEntity
  8
0
100
AcDbLine
 10
149.895035
 20
46.31757499999999
 30
0.0
 11
149.895035
 21
47.373575
 31
0.0
  0
LINE
  5
1A2
330
1E
100
AcDbEntity
  8
0
100
AcDbLine
 10
30.17573499999999
 20
50.640875
 30
0.0
 11
35.97813499999999
 21
55.729375
 31
0.0
  0
LINE
  5
1A3
330
1E
100
AcDbEntity
  8
0
100
AcDbLine
 10
149.895035
 20
49.821575
 30
0.0
 11
149.895035
 21
56.921575
 31
0.0
  0
LINE
  5
1A4
330
1E
100
AcDbEntity
  8
0
100
AcDbLine
 10
149.895035
 20
49.821575
 30
0.0
 11
149.895035
 21
43.221575
 31
0.0
  0
LINE
  5
1A5
330
1E
100
AcDbEntity
  8
0
100
AcDbLine
 10
149.895035
 20
47.373575
 30
0.0
 11
149.895035
 21
49.133575
 31
0.0
  0
LINE
  5
1A6
330
1E
100
AcDbEntity
  8
0
100
AcDbLine
 10
149.895035
 20
49.133575
 30
0.0
 11
149.895035
 21
51.465575
 31
0.0
  0
LINE
  5
1A7
330
1E
100
AcDbEntity
  8
0
100
AcDbLine
 10
56.624735
 20
65.911175
 30
0.0
 11
64.194035
 21
67.416775
 31
0.0
  0
LINE
  5
1A8
330
1E
100
AcDbEntity
  8
0
100
AcDbLine
 10
64.194035
 20
67.416775
 30
0.0
 11
71.89503499999999
 21
67.921575
 31
0.0
  0
LINE
  5
1A9
330
1E
100
AcDbEntity
  8
0
100
AcDbLine
 10
49.31673499999999
 20
63.430475
 30
0.0
 11
56.624735
 21
65.911175
 31
0.0
  0
LINE
  5
1AA
330
1E
100
AcDbEntity
  8
0
100
AcDbLine
 10
42.395035
 20
60.017075
 30
0.0
 11
49.31673499999999
 21
63.430475
 31
0.0
  0
LINE
  5
1AB
330
1E
100
AcDbEntity
  8
0
100
AcDbLine
 10
35.97813499999999
 20
55.729375
 30
0.0
 11
42.395035
 21
60.017075
 31
0.0
  0
LINE
  5
1AC
330
1E
100
AcDbEntity
  8
0
100
AcDbLine
 10
71.89503499999999
 20
67.921575
 30
0.0
 11
149.895035
 21
67.921575
 31
0.0
  0
LINE
  5
1AD
330
1E
100
AcDbEntity
  8
0
100
AcDbLine
 10
149.895035
 20
51.465575
 30
0.0
 11
149.895035
 21
54.105575
 31
0.0
  0
LINE
  5
1AE
330
1E
100
AcDbEntity
  8
0
100
AcDbLine
 10
149.895035
 20
54.105575
 30
0.0
 11
149.895035
 21
56.921575
 31
0.0
  0
LINE
  5
1AF
330
1E
100
AcDbEntity
  8
0
100
AcDbLine
 10
149.895035
 20
43.221575
 30
0.0
 11
149.895035
 21
37.521575
 31
0.0
  0
LINE
  5
1B0
330
1E
100
AcDbEntity
  8
0
100
AcDbLine
 10
149.895035
 20
43.221575
 30
0.0
 11
149.895035
 21
49.821575
 31
0.0
  0
LINE
  5
1B1
330
1E
100
AcDbEntity
  8
0
100
AcDbLine
 10
157.895035
 20
25.921575
 30
0.0
 11
157.895035
 21
27.021575
 31
0.0
  0
LINE
  5
1B2
330
1E
100
AcDbEntity
  8
0
100
AcDbLine
 10
149.895035
 20
64.021575
 30
0.0
 11
149.895035
 21
56.921575
 31
0.0
  0
LINE
  5
1B3
330
1E
100
AcDbEntity
  8
0
100
AcDbLine
 10
149.895035
 20
67.525575
 30
0.0
 11
149.895035
 21
67.921575
 31
0.0
  0
LINE
  5
1B4
330
1E
100
AcDbEntity
  8
0
100
AcDbLine
 10
149.895035
 20
66.469575
 30
0.0
 11
149.895035
 21
67.525575
 31
0.0
  0
LINE
  5
1B5
330
1E
100
AcDbEntity
  8
0
100
AcDbLine
 10
149.895035
 20
64.709575
 30
0.0
 11
149.895035
 21
66.469575
 31
0.0
  0
LINE
  5
1B6
330
1E
100
AcDbEntity
  8
0
100
AcDbLine
 10
149.895035
 20
62.377575
 30
0.0
 11
149.895035
 21
64.709575
 31
0.0
  0
LINE
  5
1B7
330
1E
100
AcDbEntity
  8
0
100
AcDbLine
 10
149.895035
 20
59.737575
 30
0.0
 11
149.895035
 21
62.377575
 31
0.0
  0
LINE
  5
1B8
330
1E
100
AcDbEntity
  8
0
100
AcDbLine
 10
149.895035
 20
56.921575
 30
0.0
 11
149.895035
 21
59.737575
 31
0.0
  0
LINE
  5
1B9
330
1E
100
AcDbEntity
  8
0
100
AcDbLine
 10
149.895035
 20
56.921575
 30
0.0
 11
149.895035
 21
64.021575
 31
0.0
  0
LINE
  5
1BA
330
1E
100
AcDbEntity
  8
0
100
AcDbLine
 10
149.895035
 20
80.72157500000001
 30
0.0
 11
149.895035
 21
83.421575
 31
0.0
  0
LINE
  5
1BB
330
1E
100
AcDbEntity
  8
0
100
AcDbLine
 10
149.895035
 20
83.421575
 30
0.0
 11
149.895035
 21
80.72157500000001
 31
0.0
  0
LINE
  5
1BC
330
1E
100
AcDbEntity
  8
0
100
AcDbLine
 10
149.895035
 20
83.421575
 30
0.0
 11
149.895035
 21
84.421575
 31
0.0
  0
LINE
  5
1BD
330
1E
100
AcDbEntity
  8
0
100
AcDbLine
 10
149.895035
 20
80.72157500000001
 30
0.0
 11
149.895035
 21
70.62157500000001
 31
0.0
  0
LINE
  5
1BE
330
1E
100
AcDbEntity
  8
0
100
AcDbLine
 10
149.895035
 20
70.62157500000001
 30
0.0
 11
149.895035
 21
80.72157500000001
 31
0.0
  0
LINE
  5
1BF
330
1E
100
AcDbEntity
  8
0
100
AcDbLine
 10
149.895035
 20
70.62157500000001
 30
0.0
 11
149.895035
 21
67.921575
 31
0.0
  0
LINE
  5
1C0
330
1E
100
AcDbEntity
  8
0
100
AcDbLine
 10
149.895035
 20
67.921575
 30
0.0
 11
149.895035
 21
70.62157500000001
 31
0.0
  0
LINE
  5
1C1
330
1E
100
AcDbEntity
  8
0
100
AcDbLine
 10
149.895035
 20
84.421575
 30
0.0
 11
150.395035
 21
85.921575
 31
0.0
  0
LINE
  5
1C2
330
1E
100
AcDbEntity
  8
0
100
AcDbLine
 10
149.895035
 20
84.421575
 30
0.0
 11
149.895035
 21
83.421575
 31
0.0
  0
LINE
  5
1C3
330
1E
100
AcDbEntity
  8
0
100
AcDbLine
 10
150.395035
 20
85.921575
 30
0.0
 11
150.895035
 21
86.42157500000001
 31
0.0
  0
LINE
  5
1C4
330
1E
100
AcDbEntity
  8
0
100
AcDbLine
 10
150.895035
 20
86.42157500000001
 30
0.0
 11
152.3950349999999
 21
86.921575
 31
0.0
  0
LINE
  5
1C5
330
1E
100
AcDbEntity
  8
0
100
AcDbLine
 10
150.395035
 20
27.921575
 30
0.0
 11
150.895035
 21
27.421575
 31
0.0
  0
LINE
  5
1C6
330
1E
100
AcDbEntity
  8
0
100
AcDbLine
 10
157.895035
 20
41.521575
 30
0.0
 11
157.895035
 21
35.021575
 31
0.0
  0
LINE
  5
1C7
330
1E
100
AcDbEntity
  8
0
100
AcDbLine
 10
157.895035
 20
41.521575
 30
0.0
 11
157.895035
 21
48.92157499999999
 31
0.0
  0
LINE
  5
1C8
330
1E
100
AcDbEntity
  8
0
100
AcDbLine
 10
157.895035
 20
48.92157499999999
 30
0.0
 11
157.895035
 21
41.521575
 31
0.0
  0
LINE
  5
1C9
330
1E
100
AcDbEntity
  8
0
100
AcDbLine
 10
157.895035
 20
48.92157499999999
 30
0.0
 11
157.895035
 21
56.921575
 31
0.0
  0
LINE
  5
1CA
330
1E
100
AcDbEntity
  8
0
100
AcDbLine
 10
157.895035
 20
83.721575
 30
0.0
 11
157.895035
 21
78.82157499999999
 31
0.0
  0
LINE
  5
1CB
330
1E
100
AcDbEntity
  8
0
100
AcDbLine
 10
157.895035
 20
83.721575
 30
0.0
 11
157.895035
 21
86.821575
 31
0.0
  0
LINE
  5
1CC
330
1E
100
AcDbEntity
  8
0
100
AcDbLine
 10
157.895035
 20
86.821575
 30
0.0
 11
157.895035
 21
83.721575
 31
0.0
  0
LINE
  5
1CD
330
1E
100
AcDbEntity
  8
0
100
AcDbLine
 10
157.895035
 20
86.821575
 30
0.0
 11
157.895035
 21
87.921575
 31
0.0
  0
LINE
  5
1CE
330
1E
100
AcDbEntity
  8
0
100
AcDbLine
 10
157.895035
 20
78.82157499999999
 30
0.0
 11
157.895035
 21
72.32157499999999
 31
0.0
  0
LINE
  5
1CF
330
1E
100
AcDbEntity
  8
0
100
AcDbLine
 10
157.895035
 20
78.82157499999999
 30
0.0
 11
157.895035
 21
83.721575
 31
0.0
  0
LINE
  5
1D0
330
1E
100
AcDbEntity
  8
0
100
AcDbLine
 10
157.895035
 20
72.32157499999999
 30
0.0
 11
157.895035
 21
64.92157500000001
 31
0.0
  0
LINE
  5
1D1
330
1E
100
AcDbEntity
  8
0
100
AcDbLine
 10
157.895035
 20
72.32157499999999
 30
0.0
 11
157.895035
 21
78.82157499999999
 31
0.0
  0
LINE
  5
1D2
330
1E
100
AcDbEntity
  8
0
100
AcDbLine
 10
157.895035
 20
64.92157500000001
 30
0.0
 11
157.895035
 21
56.921575
 31
0.0
  0
LINE
  5
1D3
330
1E
100
AcDbEntity
  8
0
100
AcDbLine
 10
157.895035
 20
64.92157500000001
 30
0.0
 11
157.895035
 21
72.32157499999999
 31
0.0
  0
LINE
  5
1D4
330
1E
100
AcDbEntity
  8
0
100
AcDbLine
 10
157.895035
 20
56.921575
 30
0.0
 11
157.895035
 21
48.92157499999999
 31
0.0
  0
LINE
  5
1D5
330
1E
100
AcDbEntity
  8
0
100
AcDbLine
 10
157.895035
 20
56.921575
 30
0.0
 11
157.895035
 21
64.92157500000001
 31
0.0
  0
LINE
  5
1D6
330
1E
100
AcDbEntity
  8
0
100
AcDbLine
 10
157.895035
 20
35.021575
 30
0.0
 11
157.895035
 21
30.121575
 31
0.0
  0
LINE
  5
1D7
330
1E
100
AcDbEntity
  8
0
100
AcDbLine
 10
157.895035
 20
35.021575
 30
0.0
 11
157.895035
 21
41.521575
 31
0.0
  0
LINE
  5
1D8
330
1E
100
AcDbEntity
  8
0
100
AcDbLine
 10
157.895035
 20
30.121575
 30
0.0
 11
157.895035
 21
27.021575
 31
0.0
  0
LINE
  5
1D9
330
1E
100
AcDbEntity
  8
0
100
AcDbLine
 10
157.895035
 20
30.121575
 30
0.0
 11
157.895035
 21
35.021575
 31
0.0
  0
LINE
  5
1DA
330
1E
100
AcDbEntity
  8
0
100
AcDbLine
 10
157.895035
 20
27.021575
 30
0.0
 11
157.895035
 21
25.921575
 31
0.0
  0
LINE
  5
1DB
330
1E
100
AcDbEntity
  8
0
100
AcDbLine
 10
157.895035
 20
27.021575
 30
0.0
 11
157.895035
 21
30.121575
 31
0.0
  0
LINE
  5
1DC
330
1E
100
AcDbEntity
  8
0
100
AcDbLine
 10
157.895035
 20
87.921575
 30
0.0
 11
157.895035
 21
86.821575
 31
0.0
  0
LINE
  5
1DD
330
1E
100
AcDbEntity
  8
0
100
AcDbLine
 10
152.3950349999999
 20
86.921575
 30
0.0
 11
157.895035
 21
87.921575
 31
0.0
  0
LINE
  5
1DE
330
1E
100
AcDbEntity
  8
0
100
AcDbLine
 10
150.895035
 20
27.421575
 30
0.0
 11
152.3950349999999
 21
26.921575
 31
0.0
  0
LINE
  5
1DF
330
1E
100
AcDbEntity
  8
0
100
AcDbLine
 10
152.3950349999999
 20
26.921575
 30
0.0
 11
157.895035
 21
25.921575
 31
0.0
  0
LINE
  5
1E0
330
1E
100
AcDbEntity
  8
0
100
AcDbLine
 10
149.895035
 20
37.521575
 30
0.0
 11
149.895035
 21
43.221575
 31
0.0
  0
LINE
  5
1E1
330
1E
100
AcDbEntity
  8
0
100
AcDbLine
 10
149.895035
 20
37.521575
 30
0.0
 11
149.895035
 21
30.421575
 31
0.0
  0
ENDSEC
  0
SECTION
  2
OBJECTS
  0
DICTIONARY
  5
C
330
0
100
AcDbDictionary
281
     1
  3
ACAD_GROUP
350
D
  3
ACAD_LAYOUT
350
19
  3
ACAD_MLINESTYLE
350
16
  3
ACAD_PLOTSETTINGS
350
18
  3
ACAD_PLOTSTYLENAME
350
E
  3
AcDbVariableDictionary
350
1E6
  0
DICTIONARY
  5
D
102
{ACAD_REACTORS
330
C
102
}
330
C
100
AcDbDictionary
281
     1
  0
DICTIONARY
  5
19
102
{ACAD_REACTORS
330
C
102
}
330
C
100
AcDbDictionary
281
     1
  3
Layout1
350
1D
  3
Model
350
21
  0
DICTIONARY
  5
16
102
{ACAD_REACTORS
330
C
102
}
330
C
100
AcDbDictionary
281
     1
  3
Standard
350
17
  0
DICTIONARY
  5
18
102
{ACAD_REACTORS
330
C
102
}
330
C
100
AcDbDictionary
281
     1
  0
ACDBDICTIONARYWDFLT
  5
E
102
{ACAD_REACTORS
330
C
102
}
330
C
100
AcDbDictionary
281
     1
  3
Normal
350
F
100
AcDbDictionaryWithDefault
340
F
  0
DICTIONARY
  5
1E6
102
{ACAD_REACTORS
330
C
102
}
330
C
100
AcDbDictionary
281
     1
  3
DIMASSOC
350
1E7
  0
LAYOUT
  5
1D
102
{ACAD_REACTORS
330
19
102
}
330
19
100
AcDbPlotSettings
  1

  2
hp deskjet 980c series
  4

  6

 40
0.0
 41
0.0
 42
0.0
 43
0.0
 44
0.0
 45
0.0
 46
0.0
 47
0.0
 48
0.0
 49
0.0
140
0.0
141
0.0
142
1.0
143
1.0
 70
   688
 72
     0
 73
     0
 74
     5
  7

 75
    16
147
1.0
148
0.0
149
0.0
100
AcDbLayout
  1
Layout1
 70
     1
 71
     1
 10
0.0
 20
0.0
 11
12.0
 21
9.0
 12
0.0
 22
0.0
 32
0.0
 14
1.000000000000000E+20
 24
1.000000000000000E+20
 34
1.000000000000000E+20
 15
-1.000000000000000E+20
 25
-1.000000000000000E+20
 35
-1.000000000000000E+20
146
0.0
 13
0.0
 23
0.0
 33
0.0
 16
1.0
 26
0.0
 36
0.0
 17
0.0
 27
1.0
 37
0.0
 76
     0
330
1A
  0
LAYOUT
  5
21
102
{ACAD_REACTORS
330
19
102
}
330
19
100
AcDbPlotSettings
  1

  2
hp deskjet 980c series
  4

  6

 40
0.0
 41
0.0
 42
0.0
 43
0.0
 44
0.0
 45
0.0
 46
0.0
 47
0.0
 48
0.0
 49
0.0
140
0.0
141
0.0
142
1.0
143
1.0
 70
  1712
 72
     0
 73
     0
 74
     0
  7

 75
     0
147
1.0
148
0.0
149
0.0
100
AcDbLayout
  1
Model
 70
     1
 71
     0
 10
0.0
 20
0.0
 11
12.0
 21
9.0
 12
0.0
 22
0.0
 32
0.0
 14
0.0
 24
0.0
 34
0.0
 15
0.0
 25
0.0
 35
0.0
146
0.0
 13
0.0
 23
0.0
 33
0.0
 16
1.0
 26
0.0
 36
0.0
 17
0.0
 27
1.0
 37
0.0
 76
     0
330
1E
  0
MLINESTYLE
  5
17
102
{ACAD_REACTORS
330
16
102
}
330
16
100
AcDbMlineStyle
  2
STANDARD
 70
     0
  3

 62
   256
 51
90.0
 52
90.0
 71
     2
 49
0.5
 62
   256
  6
BYLAYER
 49
-0.5
 62
   256
  6
BYLAYER
  0
ACDBPLACEHOLDER
  5
F
102
{ACAD_REACTORS
330
E
102
}
330
E
  0
DICTIONARYVAR
  5
1E7
102
{ACAD_REACTORS
330
1E6
102
}
330
1E6
100
DictionaryVariables
280
     0
  1
1
  0
ENDSEC
  0
EOF
