  0
SECTION
  2
HEADER
  9
$ACADVER
  1
AC1015
  9
$ACADMAINTVER
 70
    13
  9
$DWGCODEPAGE
  3
ANSI_1252
  9
$INSBASE
 10
0.0
 20
0.0
 30
0.0
  9
$EXTMIN
 10
0.0000000000000009
 20
0.0784250000000082
 30
0.0
  9
$EXTMAX
 10
62.0
 20
87.921575
 30
0.0
  9
$LIMMIN
 10
0.0
 20
0.0
  9
$LIMMAX
 10
12.0
 20
9.0
  9
$ORTHOMODE
 70
     0
  9
$REGENMODE
 70
     1
  9
$FILLMODE
 70
     1
  9
$QTEXTMODE
 70
     0
  9
$MIRRTEXT
 70
     1
  9
$LTSCALE
 40
1.0
  9
$ATTMODE
 70
     1
  9
$TEXTSIZE
 40
0.2
  9
$TRACEWID
 40
0.05
  9
$TEXTSTYLE
  7
Standard
  9
$CLAYER
  8
0
  9
$CELTYPE
  6
Continuous
  9
$CECOLOR
 62
   256
  9
$CELTSCALE
 40
1.0
  9
$DISPSILH
 70
     0
  9
$DIMSCALE
 40
1.0
  9
$DIMASZ
 40
0.18
  9
$DIMEXO
 40
0.0625
  9
$DIMDLI
 40
0.38
  9
$DIMRND
 40
0.0
  9
$DIMDLE
 40
0.0
  9
$DIMEXE
 40
0.18
  9
$DIMTP
 40
0.0
  9
$DIMTM
 40
0.0
  9
$DIMTXT
 40
0.18
  9
$DIMCEN
 40
0.09
  9
$DIMTSZ
 40
0.0
  9
$DIMTOL
 70
     0
  9
$DIMLIM
 70
     0
  9
$DIMTIH
 70
     1
  9
$DIMTOH
 70
     1
  9
$DIMSE1
 70
     0
  9
$DIMSE2
 70
     0
  9
$DIMTAD
 70
     0
  9
$DIMZIN
 70
     0
  9
$DIMBLK
  1

  9
$DIMASO
 70
     1
  9
$DIMSHO
 70
     1
  9
$DIMPOST
  1

  9
$DIMAPOST
  1

  9
$DIMALT
 70
     0
  9
$DIMALTD
 70
     2
  9
$DIMALTF
 40
25.4
  9
$DIMLFAC
 40
1.0
  9
$DIMTOFL
 70
     0
  9
$DIMTVP
 40
0.0
  9
$DIMTIX
 70
     0
  9
$DIMSOXD
 70
     0
  9
$DIMSAH
 70
     0
  9
$DIMBLK1
  1

  9
$DIMBLK2
  1

  9
$DIMSTYLE
  2
Standard
  9
$DIMCLRD
 70
     0
  9
$DIMCLRE
 70
     0
  9
$DIMCLRT
 70
     0
  9
$DIMTFAC
 40
1.0
  9
$DIMGAP
 40
0.09
  9
$DIMJUST
 70
     0
  9
$DIMSD1
 70
     0
  9
$DIMSD2
 70
     0
  9
$DIMTOLJ
 70
     1
  9
$DIMTZIN
 70
     0
  9
$DIMALTZ
 70
     0
  9
$DIMALTTZ
 70
     0
  9
$DIMUPT
 70
     0
  9
$DIMDEC
 70
     4
  9
$DIMTDEC
 70
     4
  9
$DIMALTU
 70
     2
  9
$DIMALTTD
 70
     2
  9
$DIMTXSTY
  7
Standard
  9
$DIMAUNIT
 70
     0
  9
$DIMADEC
 70
     0
  9
$DIMALTRND
 40
0.0
  9
$DIMAZIN
 70
     0
  9
$DIMDSEP
 70
    46
  9
$DIMATFIT
 70
     3
  9
$DIMFRAC
 70
     0
  9
$DIMLDRBLK
  1

  9
$DIMLUNIT
 70
     2
  9
$DIMLWD
 70
    -2
  9
$DIMLWE
 70
    -2
  9
$DIMTMOVE
 70
     0
  9
$LUNITS
 70
     2
  9
$LUPREC
 70
     4
  9
$SKETCHINC
 40
0.1
  9
$FILLETRAD
 40
0.0
  9
$AUNITS
 70
     0
  9
$AUPREC
 70
     0
  9
$MENU
  1
.
  9
$ELEVATION
 40
0.0
  9
$PELEVATION
 40
0.0
  9
$THICKNESS
 40
0.0
  9
$LIMCHECK
 70
     0
  9
$CHAMFERA
 40
0.0
  9
$CHAMFERB
 40
0.0
  9
$CHAMFERC
 40
0.0
  9
$CHAMFERD
 40
0.0
  9
$SKPOLY
 70
     0
  9
$TDCREATE
 40
2454760.859630891
  9
$TDUCREATE
 40
2454760.776297558
  9
$TDUPDATE
 40
2454760.860177951
  9
$TDUUPDATE
 40
2454760.776844618
  9
$TDINDWG
 40
0.0005472338
  9
$TDUSRTIMER
 40
0.0005472338
  9
$USRTIMER
 70
     1
  9
$ANGBASE
 50
0.0
  9
$ANGDIR
 70
     0
  9
$PDMODE
 70
     0
  9
$PDSIZE
 40
0.0
  9
$PLINEWID
 40
0.0
  9
$SPLFRAME
 70
     0
  9
$SPLINETYPE
 70
     6
  9
$SPLINESEGS
 70
     8
  9
$HANDSEED
  5
166
  9
$SURFTAB1
 70
     6
  9
$SURFTAB2
 70
     6
  9
$SURFTYPE
 70
     6
  9
$SURFU
 70
     6
  9
$SURFV
 70
     6
  9
$UCSBASE
  2

  9
$UCSNAME
  2

  9
$UCSORG
 10
0.0
 20
0.0
 30
0.0
  9
$UCSXDIR
 10
1.0
 20
0.0
 30
0.0
  9
$UCSYDIR
 10
0.0
 20
1.0
 30
0.0
  9
$UCSORTHOREF
  2

  9
$UCSORTHOVIEW
 70
     1
  9
$UCSORGTOP
 10
0.0
 20
0.0
 30
0.0
  9
$UCSORGBOTTOM
 10
0.0
 20
0.0
 30
0.0
  9
$UCSORGLEFT
 10
0.0
 20
0.0
 30
0.0
  9
$UCSORGRIGHT
 10
0.0
 20
0.0
 30
0.0
  9
$UCSORGFRONT
 10
0.0
 20
0.0
 30
0.0
  9
$UCSORGBACK
 10
0.0
 20
0.0
 30
0.0
  9
$PUCSBASE
  2

  9
$PUCSNAME
  2

  9
$PUCSORG
 10
0.0
 20
0.0
 30
0.0
  9
$PUCSXDIR
 10
1.0
 20
0.0
 30
0.0
  9
$PUCSYDIR
 10
0.0
 20
1.0
 30
0.0
  9
$PUCSORTHOREF
  2

  9
$PUCSORTHOVIEW
 70
     0
  9
$PUCSORGTOP
 10
0.0
 20
0.0
 30
0.0
  9
$PUCSORGBOTTOM
 10
0.0
 20
0.0
 30
0.0
  9
$PUCSORGLEFT
 10
0.0
 20
0.0
 30
0.0
  9
$PUCSORGRIGHT
 10
0.0
 20
0.0
 30
0.0
  9
$PUCSORGFRONT
 10
0.0
 20
0.0
 30
0.0
  9
$PUCSORGBACK
 10
0.0
 20
0.0
 30
0.0
  9
$USERI1
 70
     0
  9
$USERI2
 70
     0
  9
$USERI3
 70
     0
  9
$USERI4
 70
     0
  9
$USERI5
 70
     0
  9
$USERR1
 40
0.0
  9
$USERR2
 40
0.0
  9
$USERR3
 40
0.0
  9
$USERR4
 40
0.0
  9
$USERR5
 40
0.0
  9
$WORLDVIEW
 70
     1
  9
$SHADEDGE
 70
     3
  9
$SHADEDIF
 70
    70
  9
$TILEMODE
 70
     1
  9
$MAXACTVP
 70
    64
  9
$PINSBASE
 10
0.0
 20
0.0
 30
0.0
  9
$PLIMCHECK
 70
     0
  9
$PEXTMIN
 10
1.000000000000000E+20
 20
1.000000000000000E+20
 30
1.000000000000000E+20
  9
$PEXTMAX
 10
-1.000000000000000E+20
 20
-1.000000000000000E+20
 30
-1.000000000000000E+20
  9
$PLIMMIN
 10
0.0
 20
0.0
  9
$PLIMMAX
 10
12.0
 20
9.0
  9
$UNITMODE
 70
     0
  9
$VISRETAIN
 70
     1
  9
$PLINEGEN
 70
     0
  9
$PSLTSCALE
 70
     1
  9
$TREEDEPTH
 70
  3020
  9
$CMLSTYLE
  2
Standard
  9
$CMLJUST
 70
     0
  9
$CMLSCALE
 40
1.0
  9
$PROXYGRAPHICS
 70
     1
  9
$MEASUREMENT
 70
     0
  9
$CELWEIGHT
370
    -1
  9
$ENDCAPS
280
     0
  9
$JOINSTYLE
280
     0
  9
$LWDISPLAY
290
     0
  9
$INSUNITS
 70
     0
  9
$HYPERLINKBASE
  1

  9
$STYLESHEET
  1

  9
$XEDIT
290
     1
  9
$CEPSNTYPE
380
     0
  9
$PSTYLEMODE
290
     1
  9
$FINGERPRINTGUID
  2
{ACB66DDA-DFD2-4C9A-841D-6B8B08D8AA9F}
  9
$VERSIONGUID
  2
{03FDC38A-0AC1-4181-9A88-BFBFC97AC872}
  9
$EXTNAMES
290
     1
  9
$PSVPSCALE
 40
0.0
  9
$OLESTARTUP
290
     0
  0
ENDSEC
  0
SECTION
  2
CLASSES
  0
CLASS
  1
ACDBDICTIONARYWDFLT
  2
AcDbDictionaryWithDefault
  3
AutoCAD 2000
 90
        0
280
     0
281
     0
  0
CLASS
  1
ACDBPLACEHOLDER
  2
AcDbPlaceHolder
  3
AutoCAD 2000
 90
        0
280
     0
281
     0
  0
CLASS
  1
LAYOUT
  2
AcDbLayout
  3
AutoCAD 2000
 90
        0
280
     0
281
     0
  0
CLASS
  1
DICTIONARYVAR
  2
AcDbDictionaryVar
  3
AutoCAD 2000
 90
        0
280
     0
281
     0
  0
ENDSEC
  0
SECTION
  2
TABLES
  0
TABLE
  2
VPORT
  5
8
330
0
100
AcDbSymbolTable
 70
     2
  0
VPORT
  5
165
330
8
100
AcDbSymbolTableRecord
100
AcDbViewportTableRecord
  2
*Active
 70
     0
 10
0.0
 20
0.0
 11
1.0
 21
1.0
 12
31.0
 22
44.00000000000001
 13
0.0
 23
0.0
 14
1.0
 24
1.0
 15
0.0
 25
0.0
 16
0.0
 26
0.0
 36
1.0
 17
0.0
 27
0.0
 37
0.0
 40
88.51713836317136
 41
2.078104993597951
 42
50.0
 43
0.0
 44
0.0
 50
0.0
 51
0.0
 71
     0
 72
   100
 73
     1
 74
     3
 75
     0
 76
     0
 77
     0
 78
     0
281
     0
 65
     1
110
0.0
120
0.0
130
0.0
111
1.0
121
0.0
131
0.0
112
0.0
122
1.0
132
0.0
 79
     1
146
0.0
  0
ENDTAB
  0
TABLE
  2
LTYPE
  5
5
330
0
100
AcDbSymbolTable
 70
     1
  0
LTYPE
  5
13
330
5
100
AcDbSymbolTableRecord
100
AcDbLinetypeTableRecord
  2
ByBlock
 70
     0
  3

 72
    65
 73
     0
 40
0.0
  0
LTYPE
  5
14
330
5
100
AcDbSymbolTableRecord
100
AcDbLinetypeTableRecord
  2
ByLayer
 70
     0
  3

 72
    65
 73
     0
 40
0.0
  0
LTYPE
  5
15
330
5
100
AcDbSymbolTableRecord
100
AcDbLinetypeTableRecord
  2
Continuous
 70
     0
  3
Solid line
 72
    65
 73
     0
 40
0.0
  0
ENDTAB
  0
TABLE
  2
LAYER
  5
2
330
0
100
AcDbSymbolTable
 70
     1
  0
LAYER
  5
10
330
2
100
AcDbSymbolTableRecord
100
AcDbLayerTableRecord
  2
0
 70
     0
 62
     7
  6
Continuous
370
    -3
390
F
  0
ENDTAB
  0
TABLE
  2
STYLE
  5
3
330
0
100
AcDbSymbolTable
 70
     1
  0
STYLE
  5
11
330
3
100
AcDbSymbolTableRecord
100
AcDbTextStyleTableRecord
  2
Standard
 70
     0
 40
0.0
 41
1.0
 50
0.0
 71
     0
 42
0.2
  3
txt
  4

  0
ENDTAB
  0
TABLE
  2
VIEW
  5
6
330
0
100
AcDbSymbolTable
 70
     0
  0
ENDTAB
  0
TABLE
  2
UCS
  5
7
330
0
100
AcDbSymbolTable
 70
     0
  0
ENDTAB
  0
TABLE
  2
APPID
  5
9
330
0
100
AcDbSymbolTable
 70
     1
  0
APPID
  5
12
330
9
100
AcDbSymbolTableRecord
100
AcDbRegAppTableRecord
  2
ACAD
 70
     0
  0
ENDTAB
  0
TABLE
  2
DIMSTYLE
  5
A
330
0
100
AcDbSymbolTable
 70
     1
100
AcDbDimStyleTable
 71
     0
  0
DIMSTYLE
105
15F
330
A
100
AcDbSymbolTableRecord
100
AcDbDimStyleTableRecord
  2
Standard
 70
     0
340
11
  0
ENDTAB
  0
TABLE
  2
BLOCK_RECORD
  5
1
330
0
100
AcDbSymbolTable
 70
     0
  0
BLOCK_RECORD
  5
1E
330
1
100
AcDbSymbolTableRecord
100
AcDbBlockTableRecord
  2
*Model_Space
340
21
  0
BLOCK_RECORD
  5
1A
330
1
100
AcDbSymbolTableRecord
100
AcDbBlockTableRecord
  2
*Paper_Space
340
1D
  0
ENDTAB
  0
ENDSEC
  0
SECTION
  2
BLOCKS
  0
BLOCK
  5
1F
330
1E
100
AcDbEntity
  8
0
100
AcDbBlockBegin
  2
*Model_Space
 70
     0
 10
0.0
 20
0.0
 30
0.0
  3
*Model_Space
  1

  0
ENDBLK
  5
20
330
1E
100
AcDbEntity
  8
0
100
AcDbBlockEnd
  0
BLOCK
  5
1B
330
1A
100
AcDbEntity
 67
     1
  8
0
100
AcDbBlockBegin
  2
*Paper_Space
 70
     0
 10
0.0
 20
0.0
 30
0.0
  3
*Paper_Space
  1

  0
ENDBLK
  5
1C
330
1A
100
AcDbEntity
 67
     1
  8
0
100
AcDbBlockEnd
  0
ENDSEC
  0
SECTION
  2
ENTITIES
  0
LINE
  5
22
330
1E
100
AcDbEntity
  8
0
100
AcDbLine
 10
1.1
 20
48.92157499999999
 30
0.0
 11
4.2
 21
41.521575
 31
0.0
  0
LINE
  5
23
330
1E
100
AcDbEntity
  8
0
100
AcDbLine
 10
20.0
 20
14.58197499999999
 30
0.0
 11
20.0873092032451
 21
14.1829102073901
 31
0.0
  0
LINE
  5
24
330
1E
100
AcDbEntity
  8
0
100
AcDbLine
 10
20.0
 20
14.58197499999999
 30
0.0
 11
20.0
 21
42.862675
 31
0.0
  0
LINE
  5
25
330
1E
100
AcDbEntity
  8
0
100
AcDbLine
 10
20.0
 20
14.58197499999999
 30
0.0
 11
20.396
 21
16.39207499999999
 31
0.0
  0
LINE
  5
26
330
1E
100
AcDbEntity
  8
0
100
AcDbLine
 10
20.0
 20
13.78567499999999
 30
0.0
 11
20.4231
 21
15.710675
 31
0.0
  0
LINE
  5
27
330
1E
100
AcDbEntity
  8
0
100
AcDbLine
 10
20.0
 20
13.78567499999999
 30
0.0
 11
20.11669261077349
 21
13.254725
 31
0.0
  0
LINE
  5
28
330
1E
100
AcDbEntity
  8
0
100
AcDbLine
 10
20.0
 20
12.723775
 30
0.0
 11
20.4231
 21
14.648875
 31
0.0
  0
LINE
  5
29
330
1E
100
AcDbEntity
  8
0
100
AcDbLine
 10
20.0
 20
12.723775
 30
0.0
 11
20.1166816217339
 21
12.192875
 31
0.0
  0
LINE
  5
2A
330
1E
100
AcDbEntity
  8
0
100
AcDbLine
 10
20.0
 20
11.66197499999999
 30
0.0
 11
20.4231
 21
13.587075
 31
0.0
  0
LINE
  5
2B
330
1E
100
AcDbEntity
  8
0
100
AcDbLine
 10
20.0
 20
11.66197499999999
 30
0.0
 11
20.11669261077349
 21
11.13102499999999
 31
0.0
  0
LINE
  5
2C
330
1E
100
AcDbEntity
  8
0
100
AcDbLine
 10
20.0
 20
10.60007499999999
 30
0.0
 11
20.4231
 21
12.525175
 31
0.0
  0
LINE
  5
2D
330
1E
100
AcDbEntity
  8
0
100
AcDbLine
 10
20.0
 20
10.60007499999999
 30
0.0
 11
20.1166846523467
 21
10.06918878925219
 31
0.0
  0
LINE
  5
2E
330
1E
100
AcDbEntity
  8
0
100
AcDbLine
 10
20.0
 20
9.538275000000009
 30
0.0
 11
20.4231
 21
11.463375
 31
0.0
  0
LINE
  5
2F
330
1E
100
AcDbEntity
  8
0
100
AcDbLine
 10
20.0
 20
9.538275000000009
 30
0.0
 11
20.11669261077349
 21
9.007325000000008
 31
0.0
  0
LINE
  5
30
330
1E
100
AcDbEntity
  8
0
100
AcDbLine
 10
20.0
 20
8.476375000000009
 30
0.0
 11
20.4231
 21
10.401475
 31
0.0
  0
LINE
  5
31
330
1E
100
AcDbEntity
  8
0
100
AcDbLine
 10
20.0
 20
8.476375000000009
 30
0.0
 11
20.1166831370206
 21
7.945481894536589
 31
0.0
  0
LINE
  5
32
330
1E
100
AcDbEntity
  8
0
100
AcDbLine
 10
20.0
 20
8.476375000000009
 30
0.0
 11
20.1166831370206
 21
7.945481894536589
 31
0.0
  0
LINE
  5
33
330
1E
100
AcDbEntity
  8
0
100
AcDbLine
 10
28.3769
 20
0.624815000000009
 30
0.0
 11
31.0
 21
0.3948050000000089
 31
0.0
  0
LINE
  5
34
330
1E
100
AcDbEntity
  8
0
100
AcDbLine
 10
33.6231
 20
0.624815000000009
 30
0.0
 11
36.0769
 21
1.303345000000009
 31
0.0
  0
LINE
  5
35
330
1E
100
AcDbEntity
  8
0
100
AcDbLine
 10
31.0
 20
0.3948050000000089
 30
0.0
 11
31.0
 21
0.0784250000000082
 31
0.0
  0
LINE
  5
36
330
1E
100
AcDbEntity
  8
0
100
AcDbLine
 10
31.0
 20
0.3948050000000089
 30
0.0
 11
33.6231
 21
0.624815000000009
 31
0.0
  0
LINE
  5
37
330
1E
100
AcDbEntity
  8
0
100
AcDbLine
 10
31.0
 20
0.9621550000000079
 30
0.0
 11
33.3692
 21
1.29963500000001
 31
0.0
  0
LINE
  5
38
330
1E
100
AcDbEntity
  8
0
100
AcDbLine
 10
28.3769
 20
0.6275350000000091
 30
0.0
 11
31.0
 21
0.3948050000000089
 31
0.0
  0
LINE
  5
39
330
1E
100
AcDbEntity
  8
0
100
AcDbLine
 10
28.1231
 20
0.3579550000000089
 30
0.0
 11
31.0
 21
0.0784250000000082
 31
0.0
  0
LINE
  5
3A
330
1E
100
AcDbEntity
  8
0
100
AcDbLine
 10
23.80759999999999
 20
2.373835000000009
 30
0.0
 11
25.9231
 21
1.303345000000009
 31
0.0
  0
LINE
  5
3B
330
1E
100
AcDbEntity
  8
0
100
AcDbLine
 10
33.3692
 20
1.29963500000001
 30
0.0
 11
35.6539
 21
1.80660500000001
 31
0.0
  0
LINE
  5
3C
330
1E
100
AcDbEntity
  8
0
100
AcDbLine
 10
28.6308
 20
1.29963500000001
 30
0.0
 11
31.0
 21
0.9621550000000079
 31
0.0
  0
LINE
  5
3D
330
1E
100
AcDbEntity
  8
0
100
AcDbLine
 10
36.0769
 20
1.303345000000009
 30
0.0
 11
38.1923
 21
2.373835000000009
 31
0.0
  0
LINE
  5
3E
330
1E
100
AcDbEntity
  8
0
100
AcDbLine
 10
35.6539
 20
1.80660500000001
 30
0.0
 11
37.6
 21
2.764315000000009
 31
0.0
  0
LINE
  5
3F
330
1E
100
AcDbEntity
  8
0
100
AcDbLine
 10
38.1923
 20
2.373835000000009
 30
0.0
 11
39.8
 21
3.771995000000009
 31
0.0
  0
LINE
  5
40
330
1E
100
AcDbEntity
  8
0
100
AcDbLine
 10
37.6
 20
2.764315000000009
 30
0.0
 11
39.0385
 21
4.054425000000009
 31
0.0
  0
LINE
  5
41
330
1E
100
AcDbEntity
  8
0
100
AcDbLine
 10
26.3461
 20
1.80660500000001
 30
0.0
 11
28.6308
 21
1.29963500000001
 31
0.0
  0
LINE
  5
42
330
1E
100
AcDbEntity
  8
0
100
AcDbLine
 10
25.9231
 20
1.303345000000009
 30
0.0
 11
28.3769
 21
0.624815000000009
 31
0.0
  0
LINE
  5
43
330
1E
100
AcDbEntity
  8
0
100
AcDbLine
 10
24.39999999999999
 20
2.764315000000009
 30
0.0
 11
26.3461
 21
1.80660500000001
 31
0.0
  0
LINE
  5
44
330
1E
100
AcDbEntity
  8
0
100
AcDbLine
 10
25.9231
 20
1.302965000000009
 30
0.0
 11
28.3769
 21
0.6275350000000091
 31
0.0
  0
LINE
  5
45
330
1E
100
AcDbEntity
  8
0
100
AcDbLine
 10
23.80759999999999
 20
2.374285000000009
 30
0.0
 11
25.9231
 21
1.302965000000009
 31
0.0
  0
LINE
  5
46
330
1E
100
AcDbEntity
  8
0
100
AcDbLine
 10
25.5
 20
1.08019500000001
 30
0.0
 11
28.1231
 21
0.3579550000000089
 31
0.0
  0
LINE
  5
47
330
1E
100
AcDbEntity
  8
0
100
AcDbLine
 10
25.5
 20
1.08019500000001
 30
0.0
 11
28.1231
 21
0.3579550000000089
 31
0.0
  0
LINE
  5
48
330
1E
100
AcDbEntity
  8
0
100
AcDbLine
 10
23.2154
 20
2.205915000000009
 30
0.0
 11
25.5
 21
1.08019500000001
 31
0.0
  0
LINE
  5
49
330
1E
100
AcDbEntity
  8
0
100
AcDbLine
 10
21.1846
 20
5.420325000000009
 30
0.0
 11
22.2
 21
3.771995000000009
 31
0.0
  0
LINE
  5
4A
330
1E
100
AcDbEntity
  8
0
100
AcDbLine
 10
39.8
 20
3.771995000000009
 30
0.0
 11
40.81539999999999
 21
5.420325000000009
 31
0.0
  0
LINE
  5
4B
330
1E
100
AcDbEntity
  8
0
100
AcDbLine
 10
39.0385
 20
4.054425000000009
 30
0.0
 11
39.8
 21
5.592565000000009
 31
0.0
  0
LINE
  5
4C
330
1E
100
AcDbEntity
  8
0
100
AcDbLine
 10
22.9615
 20
4.054425000000009
 30
0.0
 11
24.39999999999999
 21
2.764315000000009
 31
0.0
  0
LINE
  5
4D
330
1E
100
AcDbEntity
  8
0
100
AcDbLine
 10
22.2
 20
3.771995000000009
 30
0.0
 11
23.80759999999999
 21
2.373835000000009
 31
0.0
  0
LINE
  5
4E
330
1E
100
AcDbEntity
  8
0
100
AcDbLine
 10
40.09176100741839
 20
4.24561960247977
 30
0.0
 11
40.4769
 21
4.569475000000009
 31
0.0
  0
LINE
  5
4F
330
1E
100
AcDbEntity
  8
0
100
AcDbLine
 10
40.81539999999999
 20
5.420325000000009
 30
0.0
 11
41.1538
 21
7.187575000000009
 31
0.0
  0
LINE
  5
50
330
1E
100
AcDbEntity
  8
0
100
AcDbLine
 10
39.8
 20
5.592565000000009
 30
0.0
 11
40.30769999999999
 21
7.184375000000009
 31
0.0
  0
LINE
  5
51
330
1E
100
AcDbEntity
  8
0
100
AcDbLine
 10
22.2
 20
5.592565000000009
 30
0.0
 11
22.9615
 21
4.054425000000009
 31
0.0
  0
LINE
  5
52
330
1E
100
AcDbEntity
  8
0
100
AcDbLine
 10
21.69239999999999
 20
7.184375000000009
 30
0.0
 11
22.2
 21
8.774775000000008
 31
0.0
  0
LINE
  5
53
330
1E
100
AcDbEntity
  8
0
100
AcDbLine
 10
21.69239999999999
 20
7.184375000000009
 30
0.0
 11
22.2
 21
5.592565000000009
 31
0.0
  0
LINE
  5
54
330
1E
100
AcDbEntity
  8
0
100
AcDbLine
 10
40.4769
 20
4.569475000000009
 30
0.0
 11
41.5769
 21
6.172065000000009
 31
0.0
  0
LINE
  5
55
330
1E
100
AcDbEntity
  8
0
100
AcDbLine
 10
41.5769
 20
6.172065000000009
 30
0.0
 11
42.0
 21
7.945475000000009
 31
0.0
  0
LINE
  5
56
330
1E
100
AcDbEntity
  8
0
100
AcDbLine
 10
22.2
 20
3.771955000000009
 30
0.0
 11
23.80759999999999
 21
2.374285000000009
 31
0.0
  0
LINE
  5
57
330
1E
100
AcDbEntity
  8
0
100
AcDbLine
 10
21.1846
 20
5.425085000000009
 30
0.0
 11
22.2
 21
3.771955000000009
 31
0.0
  0
LINE
  5
58
330
1E
100
AcDbEntity
  8
0
100
AcDbLine
 10
21.52309999999999
 20
3.719935000000009
 30
0.0
 11
23.2154
 21
2.205915000000009
 31
0.0
  0
LINE
  5
59
330
1E
100
AcDbEntity
  8
0
100
AcDbLine
 10
20.4231
 20
5.489515000000009
 30
0.0
 11
21.52309999999999
 21
3.719935000000009
 31
0.0
  0
LINE
  5
5A
330
1E
100
AcDbEntity
  8
0
100
AcDbLine
 10
20.396
 20
16.39207499999999
 30
0.0
 11
21.45199999999999
 21
18.089075
 31
0.0
  0
LINE
  5
5B
330
1E
100
AcDbEntity
  8
0
100
AcDbLine
 10
20.4231
 20
15.710675
 30
0.0
 11
21.52309999999999
 21
17.480275
 31
0.0
  0
LINE
  5
5C
330
1E
100
AcDbEntity
  8
0
100
AcDbLine
 10
20.4231
 20
14.648875
 30
0.0
 11
21.52309999999999
 21
16.418375
 31
0.0
  0
LINE
  5
5D
330
1E
100
AcDbEntity
  8
0
100
AcDbLine
 10
20.4231
 20
13.587075
 30
0.0
 11
21.52309999999999
 21
15.356575
 31
0.0
  0
LINE
  5
5E
330
1E
100
AcDbEntity
  8
0
100
AcDbLine
 10
20.4231
 20
12.525175
 30
0.0
 11
21.52309999999999
 21
14.294675
 31
0.0
  0
LINE
  5
5F
330
1E
100
AcDbEntity
  8
0
100
AcDbLine
 10
20.4231
 20
11.463375
 30
0.0
 11
21.52309999999999
 21
13.232875
 31
0.0
  0
LINE
  5
60
330
1E
100
AcDbEntity
  8
0
100
AcDbLine
 10
20.4231
 20
10.401475
 30
0.0
 11
21.52309999999999
 21
12.170975
 31
0.0
  0
LINE
  5
61
330
1E
100
AcDbEntity
  8
0
100
AcDbLine
 10
41.1538
 20
7.187575000000009
 30
0.0
 11
41.1538
 21
7.717975000000009
 31
0.0
  0
LINE
  5
63
330
1E
100
AcDbEntity
  8
0
100
AcDbLine
 10
41.1538
 20
7.717975000000009
 30
0.0
 11
41.1538
 21
7.187575000000009
 31
0.0
  0
LINE
  5
64
330
1E
100
AcDbEntity
  8
0
100
AcDbLine
 10
39.8
 20
8.774775000000008
 30
0.0
 11
40.30769999999999
 21
7.184375000000009
 31
0.0
  0
LINE
  5
66
330
1E
100
AcDbEntity
  8
0
100
AcDbLine
 10
40.81539999999999
 20
8.944675000000009
 30
0.0
 11
41.1538
 21
7.187575000000009
 31
0.0
  0
LINE
  5
68
330
1E
100
AcDbEntity
  8
0
100
AcDbLine
 10
22.2
 20
8.774775000000008
 30
0.0
 11
22.9615
 21
10.31297499999999
 31
0.0
  0
LINE
  5
69
330
1E
100
AcDbEntity
  8
0
100
AcDbLine
 10
21.1846
 20
8.944675000000009
 30
0.0
 11
22.2
 21
10.598475
 31
0.0
  0
LINE
  5
6A
330
1E
100
AcDbEntity
  8
0
100
AcDbLine
 10
20.8461
 20
7.187575000000009
 30
0.0
 11
21.1846
 21
8.944675000000009
 31
0.0
  0
LINE
  5
6B
330
1E
100
AcDbEntity
  8
0
100
AcDbLine
 10
20.8461
 20
7.187575000000009
 30
0.0
 11
21.1846
 21
5.420325000000009
 31
0.0
  0
LINE
  5
6C
330
1E
100
AcDbEntity
  8
0
100
AcDbLine
 10
41.8733252819443
 20
8.476425000000009
 30
0.0
 11
42.0
 21
9.00737500000001
 31
0.0
  0
LINE
  5
6D
330
1E
100
AcDbEntity
  8
0
100
AcDbLine
 10
21.45199999999999
 20
18.089075
 30
0.0
 11
23.212
 21
19.58807499999999
 31
0.0
  0
LINE
  5
6E
330
1E
100
AcDbEntity
  8
0
100
AcDbLine
 10
21.52309999999999
 20
17.480275
 30
0.0
 11
23.2154
 21
18.99427499999999
 31
0.0
  0
LINE
  5
6F
330
1E
100
AcDbEntity
  8
0
100
AcDbLine
 10
21.52309999999999
 20
16.418375
 30
0.0
 11
23.2154
 21
17.932475
 31
0.0
  0
LINE
  5
70
330
1E
100
AcDbEntity
  8
0
100
AcDbLine
 10
21.52309999999999
 20
15.356575
 30
0.0
 11
23.2154
 21
16.87057499999999
 31
0.0
  0
LINE
  5
71
330
1E
100
AcDbEntity
  8
0
100
AcDbLine
 10
21.52309999999999
 20
14.294675
 30
0.0
 11
23.2154
 21
15.808775
 31
0.0
  0
LINE
  5
72
330
1E
100
AcDbEntity
  8
0
100
AcDbLine
 10
21.52309999999999
 20
13.232875
 30
0.0
 11
23.2154
 21
14.74687499999999
 31
0.0
  0
LINE
  5
73
330
1E
100
AcDbEntity
  8
0
100
AcDbLine
 10
21.52309999999999
 20
12.170975
 30
0.0
 11
23.2154
 21
13.684975
 31
0.0
  0
LINE
  5
75
330
1E
100
AcDbEntity
  8
0
100
AcDbLine
 10
39.0385
 20
10.31297499999999
 30
0.0
 11
39.8
 21
8.774775000000008
 31
0.0
  0
LINE
  5
78
330
1E
100
AcDbEntity
  8
0
100
AcDbLine
 10
39.8
 20
10.598475
 30
0.0
 11
40.81539999999999
 21
8.944675000000009
 31
0.0
  0
LINE
  5
7A
330
1E
100
AcDbEntity
  8
0
100
AcDbLine
 10
22.9615
 20
10.31297499999999
 30
0.0
 11
24.39999999999999
 21
11.603675
 31
0.0
  0
LINE
  5
7B
330
1E
100
AcDbEntity
  8
0
100
AcDbLine
 10
22.2
 20
10.598475
 30
0.0
 11
23.80759999999999
 21
11.997375
 31
0.0
  0
LINE
  5
7C
330
1E
100
AcDbEntity
  8
0
100
AcDbLine
 10
40.81539999999999
 20
9.328175000000008
 30
0.0
 11
41.1538
 21
7.717975000000009
 31
0.0
  0
LINE
  5
7D
330
1E
100
AcDbEntity
  8
0
100
AcDbLine
 10
41.87332885336489
 20
10.60011003059009
 30
0.0
 11
42.0
 21
11.13107499999999
 31
0.0
  0
LINE
  5
7E
330
1E
100
AcDbEntity
  8
0
100
AcDbLine
 10
41.8733372110071
 20
9.538275000000009
 30
0.0
 11
42.0
 21
10.06917499999999
 31
0.0
  0
LINE
  5
7F
330
1E
100
AcDbEntity
  8
0
100
AcDbLine
 10
41.5769
 20
9.718875000000009
 30
0.0
 11
42.0
 21
7.945475000000009
 31
0.0
  0
LINE
  5
80
330
1E
100
AcDbEntity
  8
0
100
AcDbLine
 10
23.212
 20
19.58807499999999
 30
0.0
 11
25.544
 21
20.719375
 31
0.0
  0
LINE
  5
81
330
1E
100
AcDbEntity
  8
0
100
AcDbLine
 10
23.2154
 20
18.99427499999999
 30
0.0
 11
25.5
 21
20.119975
 31
0.0
  0
LINE
  5
82
330
1E
100
AcDbEntity
  8
0
100
AcDbLine
 10
23.2154
 20
17.932475
 30
0.0
 11
25.5
 21
19.05817499999999
 31
0.0
  0
LINE
  5
83
330
1E
100
AcDbEntity
  8
0
100
AcDbLine
 10
23.2154
 20
16.87057499999999
 30
0.0
 11
25.5
 21
17.996275
 31
0.0
  0
LINE
  5
84
330
1E
100
AcDbEntity
  8
0
100
AcDbLine
 10
23.2154
 20
15.808775
 30
0.0
 11
25.5
 21
16.93447499999999
 31
0.0
  0
LINE
  5
85
330
1E
100
AcDbEntity
  8
0
100
AcDbLine
 10
23.2154
 20
14.74687499999999
 30
0.0
 11
25.5
 21
15.87257499999999
 31
0.0
  0
LINE
  5
86
330
1E
100
AcDbEntity
  8
0
100
AcDbLine
 10
23.2154
 20
13.684975
 30
0.0
 11
25.5
 21
14.810775
 31
0.0
  0
LINE
  5
88
330
1E
100
AcDbEntity
  8
0
100
AcDbLine
 10
37.6
 20
11.603675
 30
0.0
 11
39.0385
 21
10.31297499999999
 31
0.0
  0
LINE
  5
89
330
1E
100
AcDbEntity
  8
0
100
AcDbLine
 10
24.39999999999999
 20
11.603675
 30
0.0
 11
26.3461
 21
12.558375
 31
0.0
  0
LINE
  5
8A
330
1E
100
AcDbEntity
  8
0
100
AcDbLine
 10
38.1923
 20
11.997375
 30
0.0
 11
39.8
 21
10.598475
 31
0.0
  0
LINE
  5
8B
330
1E
100
AcDbEntity
  8
0
100
AcDbLine
 10
23.80759999999999
 20
11.997375
 30
0.0
 11
25.9231
 21
13.065775
 31
0.0
  0
LINE
  5
8C
330
1E
100
AcDbEntity
  8
0
100
AcDbLine
 10
39.8
 20
10.829675
 30
0.0
 11
40.81539999999999
 21
9.328175000000008
 31
0.0
  0
LINE
  5
8D
330
1E
100
AcDbEntity
  8
0
100
AcDbLine
 10
41.8733336397214
 20
11.6619600311557
 30
0.0
 11
42.0
 21
12.192875
 31
0.0
  0
LINE
  5
8E
330
1E
100
AcDbEntity
  8
0
100
AcDbLine
 10
41.5769
 20
11.84257499999999
 30
0.0
 11
42.0
 21
10.06917499999999
 31
0.0
  0
LINE
  5
8F
330
1E
100
AcDbEntity
  8
0
100
AcDbLine
 10
41.5769
 20
10.780775
 30
0.0
 11
42.0
 21
9.00737500000001
 31
0.0
  0
LINE
  5
90
330
1E
100
AcDbEntity
  8
0
100
AcDbLine
 10
40.4769
 20
11.32157499999999
 30
0.0
 11
41.5769
 21
9.718875000000009
 31
0.0
  0
LINE
  5
91
330
1E
100
AcDbEntity
  8
0
100
AcDbLine
 10
23.80759999999999
 20
18.370875
 30
0.0
 11
25.9231
 21
19.44217499999999
 31
0.0
  0
LINE
  5
92
330
1E
100
AcDbEntity
  8
0
100
AcDbLine
 10
23.4184217633106
 20
18.0325107169565
 30
0.0
 11
23.80759999999999
 21
18.370875
 31
0.0
  0
LINE
  5
93
330
1E
100
AcDbEntity
  8
0
100
AcDbLine
 10
23.80759999999999
 20
17.30907499999999
 30
0.0
 11
25.9231
 21
18.380275
 31
0.0
  0
LINE
  5
94
330
1E
100
AcDbEntity
  8
0
100
AcDbLine
 10
23.41822059768289
 20
16.9705115958205
 30
0.0
 11
23.80759999999999
 21
17.30907499999999
 31
0.0
  0
LINE
  5
95
330
1E
100
AcDbEntity
  8
0
100
AcDbLine
 10
23.80759999999999
 20
16.247175
 30
0.0
 11
25.9231
 21
17.31847499999999
 31
0.0
  0
LINE
  5
96
330
1E
100
AcDbEntity
  8
0
100
AcDbLine
 10
23.4184217633106
 20
15.9088107169565
 30
0.0
 11
23.80759999999999
 21
16.247175
 31
0.0
  0
LINE
  5
97
330
1E
100
AcDbEntity
  8
0
100
AcDbLine
 10
23.80759999999999
 20
15.185375
 30
0.0
 11
25.9231
 21
16.256675
 31
0.0
  0
LINE
  5
98
330
1E
100
AcDbEntity
  8
0
100
AcDbLine
 10
23.4181562991871
 20
14.8467799137683
 30
0.0
 11
23.80759999999999
 21
15.185375
 31
0.0
  0
LINE
  5
99
330
1E
100
AcDbEntity
  8
0
100
AcDbLine
 10
23.80759999999999
 20
14.123475
 30
0.0
 11
25.9231
 21
15.19477499999999
 31
0.0
  0
LINE
  5
9A
330
1E
100
AcDbEntity
  8
0
100
AcDbLine
 10
23.41817986163929
 20
13.7849003997345
 30
0.0
 11
23.80759999999999
 21
14.123475
 31
0.0
  0
LINE
  5
9B
330
1E
100
AcDbEntity
  8
0
100
AcDbLine
 10
25.5
 20
20.119975
 30
0.0
 11
28.1231
 21
20.842175
 31
0.0
  0
LINE
  5
9C
330
1E
100
AcDbEntity
  8
0
100
AcDbLine
 10
25.5
 20
19.05817499999999
 30
0.0
 11
28.1231
 21
19.780375
 31
0.0
  0
LINE
  5
9D
330
1E
100
AcDbEntity
  8
0
100
AcDbLine
 10
25.5
 20
17.996275
 30
0.0
 11
28.1231
 21
18.718475
 31
0.0
  0
LINE
  5
9E
330
1E
100
AcDbEntity
  8
0
100
AcDbLine
 10
25.5
 20
16.93447499999999
 30
0.0
 11
28.1231
 21
17.656675
 31
0.0
  0
LINE
  5
9F
330
1E
100
AcDbEntity
  8
0
100
AcDbLine
 10
25.5
 20
15.87257499999999
 30
0.0
 11
28.1231
 21
16.594875
 31
0.0
  0
LINE
  5
A0
330
1E
100
AcDbEntity
  8
0
100
AcDbLine
 10
25.5
 20
14.810775
 30
0.0
 11
28.1231
 21
15.532975
 31
0.0
  0
LINE
  5
A1
330
1E
100
AcDbEntity
  8
0
100
AcDbLine
 10
23.80759999999999
 20
13.06167499999999
 30
0.0
 11
25.9231
 21
14.132975
 31
0.0
  0
LINE
  5
A2
330
1E
100
AcDbEntity
  8
0
100
AcDbLine
 10
23.4181562991871
 20
12.7230799137683
 30
0.0
 11
23.80759999999999
 21
13.06167499999999
 31
0.0
  0
LINE
  5
A3
330
1E
100
AcDbEntity
  8
0
100
AcDbLine
 10
35.6539
 20
12.558375
 30
0.0
 11
37.6
 21
11.603675
 31
0.0
  0
LINE
  5
A4
330
1E
100
AcDbEntity
  8
0
100
AcDbLine
 10
33.3692
 20
13.063275
 30
0.0
 11
35.6539
 21
12.558375
 31
0.0
  0
LINE
  5
A5
330
1E
100
AcDbEntity
  8
0
100
AcDbLine
 10
36.0769
 20
13.065775
 30
0.0
 11
38.1923
 21
11.997375
 31
0.0
  0
LINE
  5
A6
330
1E
100
AcDbEntity
  8
0
100
AcDbLine
 10
28.6308
 20
13.063275
 30
0.0
 11
31.0
 21
13.405275
 31
0.0
  0
LINE
  5
A7
330
1E
100
AcDbEntity
  8
0
100
AcDbLine
 10
26.3461
 20
12.558375
 30
0.0
 11
28.6308
 21
13.063275
 31
0.0
  0
LINE
  5
A8
330
1E
100
AcDbEntity
  8
0
100
AcDbLine
 10
25.9231
 20
13.065775
 30
0.0
 11
28.3769
 21
13.744275
 31
0.0
  0
LINE
  5
A9
330
1E
100
AcDbEntity
  8
0
100
AcDbLine
 10
38.1923
 20
12.151575
 30
0.0
 11
39.8
 21
10.829675
 31
0.0
  0
LINE
  5
AA
330
1E
100
AcDbEntity
  8
0
100
AcDbLine
 10
39.7592624496686
 20
12.9868706570151
 30
0.0
 11
39.8
 21
12.953375
 31
0.0
  0
LINE
  5
AB
330
1E
100
AcDbEntity
  8
0
100
AcDbLine
 10
41.8733372110071
 20
12.723775
 30
0.0
 11
42.0
 21
13.254675
 31
0.0
  0
LINE
  5
AC
330
1E
100
AcDbEntity
  8
0
100
AcDbLine
 10
41.8733372110071
 20
12.723775
 30
0.0
 11
42.0
 21
13.254675
 31
0.0
  0
LINE
  5
AD
330
1E
100
AcDbEntity
  8
0
100
AcDbLine
 10
41.5769
 20
12.904375
 30
0.0
 11
42.0
 21
11.13107499999999
 31
0.0
  0
LINE
  5
AE
330
1E
100
AcDbEntity
  8
0
100
AcDbLine
 10
40.4769
 20
12.383475
 30
0.0
 11
41.5769
 21
10.780775
 31
0.0
  0
LINE
  5
AF
330
1E
100
AcDbEntity
  8
0
100
AcDbLine
 10
38.7846
 20
12.744575
 30
0.0
 11
40.4769
 21
11.32157499999999
 31
0.0
  0
LINE
  5
B0
330
1E
100
AcDbEntity
  8
0
100
AcDbLine
 10
25.544
 20
20.719375
 30
0.0
 11
28.184
 21
21.39817499999999
 31
0.0
  0
LINE
  5
B1
330
1E
100
AcDbEntity
  8
0
100
AcDbLine
 10
25.9231
 20
20.239775
 30
0.0
 11
26.2617738796998
 21
20.32970893920139
 31
0.0
  0
LINE
  5
B2
330
1E
100
AcDbEntity
  8
0
100
AcDbLine
 10
28.1231
 20
20.842175
 30
0.0
 11
31.0
 21
21.121775
 31
0.0
  0
LINE
  5
B3
330
1E
100
AcDbEntity
  8
0
100
AcDbLine
 10
25.9231
 20
19.44217499999999
 30
0.0
 11
28.3769
 21
20.11757499999999
 31
0.0
  0
LINE
  5
B4
330
1E
100
AcDbEntity
  8
0
100
AcDbLine
 10
28.1231
 20
19.780375
 30
0.0
 11
31.0
 21
20.059875
 31
0.0
  0
LINE
  5
B5
330
1E
100
AcDbEntity
  8
0
100
AcDbLine
 10
25.9231
 20
18.380275
 30
0.0
 11
28.3769
 21
19.055775
 31
0.0
  0
LINE
  5
B6
330
1E
100
AcDbEntity
  8
0
100
AcDbLine
 10
28.1231
 20
18.718475
 30
0.0
 11
31.0
 21
18.998075
 31
0.0
  0
LINE
  5
B7
330
1E
100
AcDbEntity
  8
0
100
AcDbLine
 10
25.9231
 20
17.31847499999999
 30
0.0
 11
28.3769
 21
17.99397499999999
 31
0.0
  0
LINE
  5
B8
330
1E
100
AcDbEntity
  8
0
100
AcDbLine
 10
28.1231
 20
17.656675
 30
0.0
 11
31.0
 21
17.93627499999999
 31
0.0
  0
LINE
  5
B9
330
1E
100
AcDbEntity
  8
0
100
AcDbLine
 10
25.9231
 20
16.256675
 30
0.0
 11
28.3769
 21
16.932075
 31
0.0
  0
LINE
  5
BA
330
1E
100
AcDbEntity
  8
0
100
AcDbLine
 10
28.1231
 20
16.594875
 30
0.0
 11
31.0
 21
16.874375
 31
0.0
  0
LINE
  5
BB
330
1E
100
AcDbEntity
  8
0
100
AcDbLine
 10
25.9231
 20
15.19477499999999
 30
0.0
 11
28.3769
 21
15.87017499999999
 31
0.0
  0
LINE
  5
BC
330
1E
100
AcDbEntity
  8
0
100
AcDbLine
 10
28.1231
 20
15.532975
 30
0.0
 11
31.0
 21
15.81247499999999
 31
0.0
  0
LINE
  5
BD
330
1E
100
AcDbEntity
  8
0
100
AcDbLine
 10
25.9231
 20
14.132975
 30
0.0
 11
28.3769
 21
14.80837499999999
 31
0.0
  0
LINE
  5
BE
330
1E
100
AcDbEntity
  8
0
100
AcDbLine
 10
31.0
 20
13.405275
 30
0.0
 11
33.3692
 21
13.063275
 31
0.0
  0
LINE
  5
BF
330
1E
100
AcDbEntity
  8
0
100
AcDbLine
 10
33.6231
 20
13.744275
 30
0.0
 11
36.0769
 21
13.065775
 31
0.0
  0
LINE
  5
C0
330
1E
100
AcDbEntity
  8
0
100
AcDbLine
 10
28.3769
 20
13.744275
 30
0.0
 11
31.0
 21
13.97927499999999
 31
0.0
  0
LINE
  5
C1
330
1E
100
AcDbEntity
  8
0
100
AcDbLine
 10
40.4769
 20
13.445275
 30
0.0
 11
41.5769
 21
11.84257499999999
 31
0.0
  0
LINE
  5
C2
330
1E
100
AcDbEntity
  8
0
100
AcDbLine
 10
38.1923
 20
13.213375
 30
0.0
 11
38.73440374828499
 21
12.7676407555154
 31
0.0
  0
LINE
  5
C3
330
1E
100
AcDbEntity
  8
0
100
AcDbLine
 10
36.0769
 20
13.146975
 30
0.0
 11
38.1923
 21
12.151575
 31
0.0
  0
LINE
  5
C4
330
1E
100
AcDbEntity
  8
0
100
AcDbLine
 10
31.0
 20
13.97927499999999
 30
0.0
 11
33.6231
 21
13.776875
 31
0.0
  0
LINE
  5
C5
330
1E
100
AcDbEntity
  8
0
100
AcDbLine
 10
31.0
 20
13.97927499999999
 30
0.0
 11
33.6231
 21
13.744275
 31
0.0
  0
LINE
  5
C6
330
1E
100
AcDbEntity
  8
0
100
AcDbLine
 10
36.0769
 20
14.208775
 30
0.0
 11
38.1923
 21
13.213375
 31
0.0
  0
LINE
  5
C7
330
1E
100
AcDbEntity
  8
0
100
AcDbLine
 10
33.6231
 20
13.776875
 30
0.0
 11
36.0769
 21
13.146975
 31
0.0
  0
LINE
  5
C8
330
1E
100
AcDbEntity
  8
0
100
AcDbLine
 10
28.184
 20
21.39817499999999
 30
0.0
 11
31.0
 21
21.652675
 31
0.0
  0
LINE
  5
C9
330
1E
100
AcDbEntity
  8
0
100
AcDbLine
 10
28.3769
 20
20.891375
 30
0.0
 11
30.0914751148124
 21
21.0334773331021
 31
0.0
  0
LINE
  5
CA
330
1E
100
AcDbEntity
  8
0
100
AcDbLine
 10
28.231177789159
 20
20.85267885826719
 30
0.0
 11
28.3769
 21
20.891375
 31
0.0
  0
LINE
  5
CB
330
1E
100
AcDbEntity
  8
0
100
AcDbLine
 10
28.3769
 20
20.11757499999999
 30
0.0
 11
31.0
 21
20.350375
 31
0.0
  0
LINE
  5
CC
330
1E
100
AcDbEntity
  8
0
100
AcDbLine
 10
28.3769
 20
19.055775
 30
0.0
 11
31.0
 21
19.28847499999999
 31
0.0
  0
LINE
  5
CD
330
1E
100
AcDbEntity
  8
0
100
AcDbLine
 10
28.3769
 20
17.99397499999999
 30
0.0
 11
31.0
 21
18.226675
 31
0.0
  0
LINE
  5
CE
330
1E
100
AcDbEntity
  8
0
100
AcDbLine
 10
28.3769
 20
16.932075
 30
0.0
 11
31.0
 21
17.16487499999999
 31
0.0
  0
LINE
  5
CF
330
1E
100
AcDbEntity
  8
0
100
AcDbLine
 10
31.0
 20
16.102975
 30
0.0
 11
33.6231
 21
15.900575
 31
0.0
  0
LINE
  5
D0
330
1E
100
AcDbEntity
  8
0
100
AcDbLine
 10
31.0
 20
21.652675
 30
0.0
 11
33.816
 21
21.39817499999999
 31
0.0
  0
LINE
  5
D1
330
1E
100
AcDbEntity
  8
0
100
AcDbLine
 10
31.0
 20
20.350375
 30
0.0
 11
33.6231
 21
20.14797499999999
 31
0.0
  0
LINE
  5
D2
330
1E
100
AcDbEntity
  8
0
100
AcDbLine
 10
31.0
 20
21.121775
 30
0.0
 11
33.8769
 21
20.857375
 31
0.0
  0
LINE
  5
D3
330
1E
100
AcDbEntity
  8
0
100
AcDbLine
 10
31.0
 20
19.28847499999999
 30
0.0
 11
33.6231
 21
19.086075
 31
0.0
  0
LINE
  5
D4
330
1E
100
AcDbEntity
  8
0
100
AcDbLine
 10
31.0
 20
20.059875
 30
0.0
 11
33.8769
 21
19.795575
 31
0.0
  0
LINE
  5
D5
330
1E
100
AcDbEntity
  8
0
100
AcDbLine
 10
31.0
 20
18.226675
 30
0.0
 11
33.6231
 21
18.024275
 31
0.0
  0
LINE
  5
D6
330
1E
100
AcDbEntity
  8
0
100
AcDbLine
 10
31.0
 20
18.998075
 30
0.0
 11
33.8769
 21
18.733675
 31
0.0
  0
LINE
  5
D7
330
1E
100
AcDbEntity
  8
0
100
AcDbLine
 10
31.0
 20
17.16487499999999
 30
0.0
 11
33.6231
 21
16.962375
 31
0.0
  0
LINE
  5
D8
330
1E
100
AcDbEntity
  8
0
100
AcDbLine
 10
31.0
 20
17.93627499999999
 30
0.0
 11
33.8769
 21
17.671875
 31
0.0
  0
LINE
  5
D9
330
1E
100
AcDbEntity
  8
0
100
AcDbLine
 10
31.0
 20
16.874375
 30
0.0
 11
33.8769
 21
16.60997499999999
 31
0.0
  0
LINE
  5
DA
330
1E
100
AcDbEntity
  8
0
100
AcDbLine
 10
28.3769
 20
15.87017499999999
 30
0.0
 11
31.0
 21
16.102975
 31
0.0
  0
LINE
  5
DB
330
1E
100
AcDbEntity
  8
0
100
AcDbLine
 10
31.0
 20
15.041175
 30
0.0
 11
33.6231
 21
14.838675
 31
0.0
  0
LINE
  5
DC
330
1E
100
AcDbEntity
  8
0
100
AcDbLine
 10
31.0
 20
15.81247499999999
 30
0.0
 11
33.8769
 21
15.548175
 31
0.0
  0
LINE
  5
DD
330
1E
100
AcDbEntity
  8
0
100
AcDbLine
 10
28.3769
 20
14.80837499999999
 30
0.0
 11
31.0
 21
15.041175
 31
0.0
  0
LINE
  5
DE
330
1E
100
AcDbEntity
  8
0
100
AcDbLine
 10
33.6231
 20
14.838675
 30
0.0
 11
36.0769
 21
14.208775
 31
0.0
  0
LINE
  5
DF
330
1E
100
AcDbEntity
  8
0
100
AcDbLine
 10
33.6231
 20
15.900575
 30
0.0
 11
36.0769
 21
15.270675
 31
0.0
  0
LINE
  5
E0
330
1E
100
AcDbEntity
  8
0
100
AcDbLine
 10
32.4403723098864
 20
20.9893983311085
 30
0.0
 11
33.6231
 21
20.891375
 31
0.0
  0
LINE
  5
E1
330
1E
100
AcDbEntity
  8
0
100
AcDbLine
 10
33.816
 20
21.39817499999999
 30
0.0
 11
36.45599999999999
 21
20.719375
 31
0.0
  0
LINE
  5
E2
330
1E
100
AcDbEntity
  8
0
100
AcDbLine
 10
33.6231
 20
20.891375
 30
0.0
 11
33.6845747099429
 21
20.87505055587299
 31
0.0
  0
LINE
  5
E3
330
1E
100
AcDbEntity
  8
0
100
AcDbLine
 10
33.6231
 20
20.14797499999999
 30
0.0
 11
36.0769
 21
19.51797499999999
 31
0.0
  0
LINE
  5
E4
330
1E
100
AcDbEntity
  8
0
100
AcDbLine
 10
33.8769
 20
20.857375
 30
0.0
 11
36.5
 21
20.165475
 31
0.0
  0
LINE
  5
E5
330
1E
100
AcDbEntity
  8
0
100
AcDbLine
 10
33.6231
 20
19.086075
 30
0.0
 11
36.0769
 21
18.456175
 31
0.0
  0
LINE
  5
E6
330
1E
100
AcDbEntity
  8
0
100
AcDbLine
 10
33.8769
 20
19.795575
 30
0.0
 11
36.5
 21
19.10367499999999
 31
0.0
  0
LINE
  5
E7
330
1E
100
AcDbEntity
  8
0
100
AcDbLine
 10
33.6231
 20
18.024275
 30
0.0
 11
36.0769
 21
17.394375
 31
0.0
  0
LINE
  5
E8
330
1E
100
AcDbEntity
  8
0
100
AcDbLine
 10
33.8769
 20
18.733675
 30
0.0
 11
36.5
 21
18.041775
 31
0.0
  0
LINE
  5
E9
330
1E
100
AcDbEntity
  8
0
100
AcDbLine
 10
33.6231
 20
16.962375
 30
0.0
 11
36.0769
 21
16.33247499999999
 31
0.0
  0
LINE
  5
EA
330
1E
100
AcDbEntity
  8
0
100
AcDbLine
 10
33.8769
 20
17.671875
 30
0.0
 11
36.5
 21
16.979975
 31
0.0
  0
LINE
  5
EB
330
1E
100
AcDbEntity
  8
0
100
AcDbLine
 10
33.8769
 20
16.60997499999999
 30
0.0
 11
36.5
 21
15.918175
 31
0.0
  0
LINE
  5
EC
330
1E
100
AcDbEntity
  8
0
100
AcDbLine
 10
36.0769
 20
15.270675
 30
0.0
 11
38.1923
 21
14.275275
 31
0.0
  0
LINE
  5
ED
330
1E
100
AcDbEntity
  8
0
100
AcDbLine
 10
36.45599999999999
 20
20.719375
 30
0.0
 11
38.788
 21
19.58807499999999
 31
0.0
  0
LINE
  5
EE
330
1E
100
AcDbEntity
  8
0
100
AcDbLine
 10
36.0769
 20
19.51797499999999
 30
0.0
 11
38.1923
 21
18.522575
 31
0.0
  0
LINE
  5
EF
330
1E
100
AcDbEntity
  8
0
100
AcDbLine
 10
36.5
 20
20.165475
 30
0.0
 11
38.7846
 21
19.11557499999999
 31
0.0
  0
LINE
  5
F0
330
1E
100
AcDbEntity
  8
0
100
AcDbLine
 10
36.0769
 20
18.456175
 30
0.0
 11
38.1923
 21
17.460775
 31
0.0
  0
LINE
  5
F1
330
1E
100
AcDbEntity
  8
0
100
AcDbLine
 10
36.5
 20
19.10367499999999
 30
0.0
 11
38.7846
 21
18.053775
 31
0.0
  0
LINE
  5
F2
330
1E
100
AcDbEntity
  8
0
100
AcDbLine
 10
36.0769
 20
17.394375
 30
0.0
 11
38.1923
 21
16.398875
 31
0.0
  0
LINE
  5
F3
330
1E
100
AcDbEntity
  8
0
100
AcDbLine
 10
36.5
 20
18.041775
 30
0.0
 11
38.7846
 21
16.991975
 31
0.0
  0
LINE
  5
F4
330
1E
100
AcDbEntity
  8
0
100
AcDbLine
 10
36.0769
 20
16.33247499999999
 30
0.0
 11
38.1923
 21
15.337075
 31
0.0
  0
LINE
  5
F5
330
1E
100
AcDbEntity
  8
0
100
AcDbLine
 10
36.5
 20
16.979975
 30
0.0
 11
38.7846
 21
15.930075
 31
0.0
  0
LINE
  5
F6
330
1E
100
AcDbEntity
  8
0
100
AcDbLine
 10
36.5
 20
15.918175
 30
0.0
 11
38.7846
 21
14.868275
 31
0.0
  0
LINE
  5
F7
330
1E
100
AcDbEntity
  8
0
100
AcDbLine
 10
33.8769
 20
15.548175
 30
0.0
 11
36.5
 21
14.856275
 31
0.0
  0
LINE
  5
F8
330
1E
100
AcDbEntity
  8
0
100
AcDbLine
 10
36.5
 20
14.856275
 30
0.0
 11
38.7846
 21
13.80637499999999
 31
0.0
  0
LINE
  5
F9
330
1E
100
AcDbEntity
  8
0
100
AcDbLine
 10
31.0
 20
14.75067499999999
 30
0.0
 11
33.8769
 21
14.48627499999999
 31
0.0
  0
LINE
  5
FA
330
1E
100
AcDbEntity
  8
0
100
AcDbLine
 10
33.8769
 20
14.48627499999999
 30
0.0
 11
36.5
 21
13.794375
 31
0.0
  0
LINE
  5
FB
330
1E
100
AcDbEntity
  8
0
100
AcDbLine
 10
41.8733252819443
 20
13.785625
 30
0.0
 11
42.0
 21
14.316575
 31
0.0
  0
LINE
  5
FC
330
1E
100
AcDbEntity
  8
0
100
AcDbLine
 10
38.1923
 20
18.522575
 30
0.0
 11
38.73439769009039
 21
18.0768457367478
 31
0.0
  0
LINE
  5
FD
330
1E
100
AcDbEntity
  8
0
100
AcDbLine
 10
38.7846
 20
19.11557499999999
 30
0.0
 11
40.4769
 21
17.692575
 31
0.0
  0
LINE
  5
FE
330
1E
100
AcDbEntity
  8
0
100
AcDbLine
 10
38.1923
 20
17.460775
 30
0.0
 11
38.73440374828499
 21
17.0150407555154
 31
0.0
  0
LINE
  5
FF
330
1E
100
AcDbEntity
  8
0
100
AcDbLine
 10
38.7846
 20
18.053775
 30
0.0
 11
40.4769
 21
16.63077499999999
 31
0.0
  0
LINE
  5
100
330
1E
100
AcDbEntity
  8
0
100
AcDbLine
 10
38.1923
 20
16.398875
 30
0.0
 11
38.73439769009049
 21
15.9531457367478
 31
0.0
  0
LINE
  5
101
330
1E
100
AcDbEntity
  8
0
100
AcDbLine
 10
38.7846
 20
16.991975
 30
0.0
 11
40.4769
 21
15.568975
 31
0.0
  0
LINE
  5
102
330
1E
100
AcDbEntity
  8
0
100
AcDbLine
 10
38.1923
 20
15.337075
 30
0.0
 11
38.73439769009049
 21
14.8913457367478
 31
0.0
  0
LINE
  5
103
330
1E
100
AcDbEntity
  8
0
100
AcDbLine
 10
38.7846
 20
15.930075
 30
0.0
 11
40.4769
 21
14.507075
 31
0.0
  0
LINE
  5
104
330
1E
100
AcDbEntity
  8
0
100
AcDbLine
 10
38.1923
 20
14.275275
 30
0.0
 11
38.7346734188722
 21
13.8293190241294
 31
0.0
  0
LINE
  5
105
330
1E
100
AcDbEntity
  8
0
100
AcDbLine
 10
41.96971063443929
 20
14.44353118266449
 30
0.0
 11
42.0
 21
14.58197499999999
 31
0.0
  0
LINE
  5
106
330
1E
100
AcDbEntity
  8
0
100
AcDbLine
 10
41.5769
 20
13.966275
 30
0.0
 11
42.0
 21
12.192875
 31
0.0
  0
LINE
  5
107
330
1E
100
AcDbEntity
  8
0
100
AcDbLine
 10
38.788
 20
19.58807499999999
 30
0.0
 11
40.548
 21
18.089075
 31
0.0
  0
LINE
  5
108
330
1E
100
AcDbEntity
  8
0
100
AcDbLine
 10
40.4769
 20
17.692575
 30
0.0
 11
41.5769
 21
16.089975
 31
0.0
  0
LINE
  5
109
330
1E
100
AcDbEntity
  8
0
100
AcDbLine
 10
40.4769
 20
16.63077499999999
 30
0.0
 11
41.5769
 21
15.028075
 31
0.0
  0
LINE
  5
10A
330
1E
100
AcDbEntity
  8
0
100
AcDbLine
 10
42.0
 20
14.58197499999999
 30
0.0
 11
42.0
 21
42.862675
 31
0.0
  0
LINE
  5
10B
330
1E
100
AcDbEntity
  8
0
100
AcDbLine
 10
40.548
 20
18.089075
 30
0.0
 11
41.604
 21
16.39207499999999
 31
0.0
  0
LINE
  5
10C
330
1E
100
AcDbEntity
  8
0
100
AcDbLine
 10
41.604
 20
16.39207499999999
 30
0.0
 11
42.0
 21
14.58197499999999
 31
0.0
  0
LINE
  5
10D
330
1E
100
AcDbEntity
  8
0
100
AcDbLine
 10
46.39999999999999
 20
30.121575
 30
0.0
 11
52.9
 21
35.021575
 31
0.0
  0
LINE
  5
10E
330
1E
100
AcDbEntity
  8
0
100
AcDbLine
 10
42.0
 20
28.2783317567568
 30
0.0
 11
46.39999999999999
 21
30.121575
 31
0.0
  0
LINE
  5
10F
330
1E
100
AcDbEntity
  8
0
100
AcDbLine
 10
41.5769
 20
16.089975
 30
0.0
 11
42.0
 21
14.316575
 31
0.0
  0
LINE
  5
110
330
1E
100
AcDbEntity
  8
0
100
AcDbLine
 10
41.5769
 20
15.028075
 30
0.0
 11
42.0
 21
13.254675
 31
0.0
  0
LINE
  5
111
330
1E
100
AcDbEntity
  8
0
100
AcDbLine
 10
40.4769
 20
15.568975
 30
0.0
 11
41.5769
 21
13.966275
 31
0.0
  0
LINE
  5
112
330
1E
100
AcDbEntity
  8
0
100
AcDbLine
 10
40.4769
 20
14.507075
 30
0.0
 11
41.5769
 21
12.904375
 31
0.0
  0
LINE
  5
113
330
1E
100
AcDbEntity
  8
0
100
AcDbLine
 10
38.7846
 20
14.868275
 30
0.0
 11
40.4769
 21
13.445275
 31
0.0
  0
LINE
  5
114
330
1E
100
AcDbEntity
  8
0
100
AcDbLine
 10
38.7846
 20
13.80637499999999
 30
0.0
 11
40.4769
 21
12.383475
 31
0.0
  0
LINE
  5
115
330
1E
100
AcDbEntity
  8
0
100
AcDbLine
 10
36.5
 20
13.794375
 30
0.0
 11
38.7846
 21
12.744575
 31
0.0
  0
LINE
  5
116
330
1E
100
AcDbEntity
  8
0
100
AcDbLine
 10
28.3769
 20
13.746575
 30
0.0
 11
31.0
 21
13.97927499999999
 31
0.0
  0
LINE
  5
117
330
1E
100
AcDbEntity
  8
0
100
AcDbLine
 10
28.1231
 20
14.471175
 30
0.0
 11
31.0
 21
14.75067499999999
 31
0.0
  0
LINE
  5
118
330
1E
100
AcDbEntity
  8
0
100
AcDbLine
 10
25.9231
 20
13.071175
 30
0.0
 11
28.3769
 21
13.746575
 31
0.0
  0
LINE
  5
119
330
1E
100
AcDbEntity
  8
0
100
AcDbLine
 10
25.5
 20
13.748875
 30
0.0
 11
28.1231
 21
14.471175
 31
0.0
  0
LINE
  5
11A
330
1E
100
AcDbEntity
  8
0
100
AcDbLine
 10
23.80759999999999
 20
11.99987499999999
 30
0.0
 11
25.9231
 21
13.071175
 31
0.0
  0
LINE
  5
11B
330
1E
100
AcDbEntity
  8
0
100
AcDbLine
 10
23.2154
 20
12.62317499999999
 30
0.0
 11
25.5
 21
13.748875
 31
0.0
  0
LINE
  5
11C
330
1E
100
AcDbEntity
  8
0
100
AcDbLine
 10
22.2
 20
10.602175
 30
0.0
 11
23.80759999999999
 21
11.99987499999999
 31
0.0
  0
LINE
  5
11D
330
1E
100
AcDbEntity
  8
0
100
AcDbLine
 10
21.52309999999999
 20
11.109175
 30
0.0
 11
23.2154
 21
12.62317499999999
 31
0.0
  0
LINE
  5
11E
330
1E
100
AcDbEntity
  8
0
100
AcDbLine
 10
21.1846
 20
8.948975000000009
 30
0.0
 11
22.2
 21
10.602175
 31
0.0
  0
LINE
  5
11F
330
1E
100
AcDbEntity
  8
0
100
AcDbLine
 10
20.4231
 20
9.33967500000001
 30
0.0
 11
21.52309999999999
 21
11.109175
 31
0.0
  0
LINE
  5
120
330
1E
100
AcDbEntity
  8
0
100
AcDbLine
 10
20.8461
 20
7.186975000000009
 30
0.0
 11
21.1846
 21
8.948975000000009
 31
0.0
  0
LINE
  5
121
330
1E
100
AcDbEntity
  8
0
100
AcDbLine
 10
20.8461
 20
7.186975000000009
 30
0.0
 11
21.1846
 21
5.425085000000009
 31
0.0
  0
LINE
  5
122
330
1E
100
AcDbEntity
  8
0
100
AcDbLine
 10
20.0
 20
7.414575000000009
 30
0.0
 11
20.4231
 21
9.33967500000001
 31
0.0
  0
LINE
  5
123
330
1E
100
AcDbEntity
  8
0
100
AcDbLine
 10
20.0
 20
7.414575000000009
 30
0.0
 11
20.4231
 21
5.489515000000009
 31
0.0
  0
LINE
  5
124
330
1E
100
AcDbEntity
  8
0
100
AcDbLine
 10
20.0
 20
42.862675
 30
0.0
 11
20.0
 21
47.002575
 31
0.0
  0
LINE
  5
125
330
1E
100
AcDbEntity
  8
0
100
AcDbLine
 10
20.0
 20
42.862675
 30
0.0
 11
20.0
 21
14.58197499999999
 31
0.0
  0
LINE
  5
126
330
1E
100
AcDbEntity
  8
0
100
AcDbLine
 10
20.0
 20
47.002575
 30
0.0
 11
20.0
 21
42.862675
 31
0.0
  0
LINE
  5
127
330
1E
100
AcDbEntity
  8
0
100
AcDbLine
 10
20.0
 20
47.002575
 30
0.0
 11
20.0
 21
50.490775
 31
0.0
  0
LINE
  5
128
330
1E
100
AcDbEntity
  8
0
100
AcDbLine
 10
42.0
 20
42.862675
 30
0.0
 11
42.0
 21
47.002575
 31
0.0
  0
LINE
  5
129
330
1E
100
AcDbEntity
  8
0
100
AcDbLine
 10
42.0
 20
42.862675
 30
0.0
 11
42.0
 21
14.58197499999999
 31
0.0
  0
LINE
  5
12A
330
1E
100
AcDbEntity
  8
0
100
AcDbLine
 10
42.0
 20
47.002575
 30
0.0
 11
42.0
 21
50.490775
 31
0.0
  0
LINE
  5
12B
330
1E
100
AcDbEntity
  8
0
100
AcDbLine
 10
42.0
 20
47.002575
 30
0.0
 11
42.0
 21
42.862675
 31
0.0
  0
LINE
  5
12C
330
1E
100
AcDbEntity
  8
0
100
AcDbLine
 10
52.9
 20
35.021575
 30
0.0
 11
57.8
 21
41.521575
 31
0.0
  0
LINE
  5
12D
330
1E
100
AcDbEntity
  8
0
100
AcDbLine
 10
57.8
 20
41.521575
 30
0.0
 11
60.89999999999999
 21
48.92157499999999
 31
0.0
  0
LINE
  5
12E
330
1E
100
AcDbEntity
  8
0
100
AcDbLine
 10
60.89999999999999
 20
48.92157499999999
 30
0.0
 11
62.0
 21
56.921575
 31
0.0
  0
LINE
  5
12F
330
1E
100
AcDbEntity
  8
0
100
AcDbLine
 10
9.099999999999999
 20
35.021575
 30
0.0
 11
15.6
 21
30.121575
 31
0.0
  0
LINE
  5
130
330
1E
100
AcDbEntity
  8
0
100
AcDbLine
 10
15.6
 20
30.121575
 30
0.0
 11
20.0
 21
28.2783317567568
 31
0.0
  0
LINE
  5
131
330
1E
100
AcDbEntity
  8
0
100
AcDbLine
 10
4.2
 20
41.521575
 30
0.0
 11
9.099999999999999
 21
35.021575
 31
0.0
  0
LINE
  5
132
330
1E
100
AcDbEntity
  8
0
100
AcDbLine
 10
1.1
 20
64.92157500000001
 30
0.0
 11
4.2
 21
72.32157499999999
 31
0.0
  0
LINE
  5
133
330
1E
100
AcDbEntity
  8
0
100
AcDbLine
 10
4.2
 20
72.32157499999999
 30
0.0
 11
9.099999999999999
 21
78.82157499999999
 31
0.0
  0
LINE
  5
134
330
1E
100
AcDbEntity
  8
0
100
AcDbLine
 10
1.1
 20
64.92157500000001
 30
0.0
 11
4.2
 21
72.32157499999999
 31
0.0
  0
LINE
  5
135
330
1E
100
AcDbEntity
  8
0
100
AcDbLine
 10
20.0
 20
56.510975
 30
0.0
 11
20.0
 21
55.285975
 31
0.0
  0
LINE
  5
136
330
1E
100
AcDbEntity
  8
0
100
AcDbLine
 10
20.0
 20
56.510975
 30
0.0
 11
20.0
 21
56.921575
 31
0.0
  0
LINE
  5
137
330
1E
100
AcDbEntity
  8
0
100
AcDbLine
 10
20.0
 20
55.285975
 30
0.0
 11
20.0
 21
53.267775
 31
0.0
  0
LINE
  5
138
330
1E
100
AcDbEntity
  8
0
100
AcDbLine
 10
20.0
 20
55.285975
 30
0.0
 11
20.0
 21
56.510975
 31
0.0
  0
LINE
  5
139
330
1E
100
AcDbEntity
  8
0
100
AcDbLine
 10
20.0
 20
53.267775
 30
0.0
 11
20.0
 21
50.490775
 31
0.0
  0
LINE
  5
13A
330
1E
100
AcDbEntity
  8
0
100
AcDbLine
 10
20.0
 20
53.267775
 30
0.0
 11
20.0
 21
55.285975
 31
0.0
  0
LINE
  5
13B
330
1E
100
AcDbEntity
  8
0
100
AcDbLine
 10
20.0
 20
50.490775
 30
0.0
 11
20.0
 21
53.267775
 31
0.0
  0
LINE
  5
13C
330
1E
100
AcDbEntity
  8
0
100
AcDbLine
 10
20.0
 20
50.490775
 30
0.0
 11
20.0
 21
47.002575
 31
0.0
  0
LINE
  5
13D
330
1E
100
AcDbEntity
  8
0
100
AcDbLine
 10
21.45199999999999
 20
62.377575
 30
0.0
 11
23.212
 21
64.709575
 31
0.0
  0
LINE
  5
13E
330
1E
100
AcDbEntity
  8
0
100
AcDbLine
 10
20.396
 20
59.737575
 30
0.0
 11
21.45199999999999
 21
62.377575
 31
0.0
  0
LINE
  5
13F
330
1E
100
AcDbEntity
  8
0
100
AcDbLine
 10
20.0
 20
56.921575
 30
0.0
 11
20.396
 21
59.737575
 31
0.0
  0
LINE
  5
140
330
1E
100
AcDbEntity
  8
0
100
AcDbLine
 10
20.0
 20
56.921575
 30
0.0
 11
20.0
 21
56.510975
 31
0.0
  0
LINE
  5
141
330
1E
100
AcDbEntity
  8
0
100
AcDbLine
 10
9.099999999999999
 20
78.82157499999999
 30
0.0
 11
15.6
 21
83.721575
 31
0.0
  0
LINE
  5
142
330
1E
100
AcDbEntity
  8
0
100
AcDbLine
 10
15.6
 20
83.721575
 30
0.0
 11
23.0
 21
86.821575
 31
0.0
  0
LINE
  5
143
330
1E
100
AcDbEntity
  8
0
100
AcDbLine
 10
42.0
 20
56.510975
 30
0.0
 11
42.0
 21
56.921575
 31
0.0
  0
LINE
  5
144
330
1E
100
AcDbEntity
  8
0
100
AcDbLine
 10
42.0
 20
56.510975
 30
0.0
 11
42.0
 21
55.285975
 31
0.0
  0
LINE
  5
145
330
1E
100
AcDbEntity
  8
0
100
AcDbLine
 10
42.0
 20
56.921575
 30
0.0
 11
42.0
 21
56.510975
 31
0.0
  0
LINE
  5
146
330
1E
100
AcDbEntity
  8
0
100
AcDbLine
 10
42.0
 20
55.285975
 30
0.0
 11
42.0
 21
53.267775
 31
0.0
  0
LINE
  5
147
330
1E
100
AcDbEntity
  8
0
100
AcDbLine
 10
42.0
 20
55.285975
 30
0.0
 11
42.0
 21
56.510975
 31
0.0
  0
LINE
  5
148
330
1E
100
AcDbEntity
  8
0
100
AcDbLine
 10
42.0
 20
53.267775
 30
0.0
 11
42.0
 21
50.490775
 31
0.0
  0
LINE
  5
149
330
1E
100
AcDbEntity
  8
0
100
AcDbLine
 10
42.0
 20
53.267775
 30
0.0
 11
42.0
 21
55.285975
 31
0.0
  0
LINE
  5
14A
330
1E
100
AcDbEntity
  8
0
100
AcDbLine
 10
42.0
 20
50.490775
 30
0.0
 11
42.0
 21
47.002575
 31
0.0
  0
LINE
  5
14B
330
1E
100
AcDbEntity
  8
0
100
AcDbLine
 10
42.0
 20
50.490775
 30
0.0
 11
42.0
 21
53.267775
 31
0.0
  0
LINE
  5
14C
330
1E
100
AcDbEntity
  8
0
100
AcDbLine
 10
23.212
 20
64.709575
 30
0.0
 11
25.544
 21
66.469575
 31
0.0
  0
LINE
  5
14D
330
1E
100
AcDbEntity
  8
0
100
AcDbLine
 10
28.184
 20
67.525575
 30
0.0
 11
31.0
 21
67.921575
 31
0.0
  0
LINE
  5
14E
330
1E
100
AcDbEntity
  8
0
100
AcDbLine
 10
25.544
 20
66.469575
 30
0.0
 11
28.184
 21
67.525575
 31
0.0
  0
LINE
  5
14F
330
1E
100
AcDbEntity
  8
0
100
AcDbLine
 10
31.0
 20
87.921575
 30
0.0
 11
39.0
 21
86.821575
 31
0.0
  0
LINE
  5
150
330
1E
100
AcDbEntity
  8
0
100
AcDbLine
 10
31.0
 20
67.921575
 30
0.0
 11
33.816
 21
67.525575
 31
0.0
  0
LINE
  5
151
330
1E
100
AcDbEntity
  8
0
100
AcDbLine
 10
33.816
 20
67.525575
 30
0.0
 11
36.45599999999999
 21
66.469575
 31
0.0
  0
LINE
  5
152
330
1E
100
AcDbEntity
  8
0
100
AcDbLine
 10
39.0
 20
86.821575
 30
0.0
 11
46.39999999999999
 21
83.721575
 31
0.0
  0
LINE
  5
153
330
1E
100
AcDbEntity
  8
0
100
AcDbLine
 10
36.45599999999999
 20
66.469575
 30
0.0
 11
38.788
 21
64.709575
 31
0.0
  0
LINE
  5
154
330
1E
100
AcDbEntity
  8
0
100
AcDbLine
 10
38.788
 20
64.709575
 30
0.0
 11
40.548
 21
62.377575
 31
0.0
  0
LINE
  5
155
330
1E
100
AcDbEntity
  8
0
100
AcDbLine
 10
46.39999999999999
 20
83.721575
 30
0.0
 11
52.9
 21
78.82157499999999
 31
0.0
  0
LINE
  5
156
330
1E
100
AcDbEntity
  8
0
100
AcDbLine
 10
52.9
 20
78.82157499999999
 30
0.0
 11
57.8
 21
72.32157499999999
 31
0.0
  0
LINE
  5
157
330
1E
100
AcDbEntity
  8
0
100
AcDbLine
 10
57.8
 20
72.32157499999999
 30
0.0
 11
60.89999999999999
 21
64.92157500000001
 31
0.0
  0
LINE
  5
158
330
1E
100
AcDbEntity
  8
0
100
AcDbLine
 10
60.89999999999999
 20
64.92157500000001
 30
0.0
 11
62.0
 21
56.921575
 31
0.0
  0
LINE
  5
159
330
1E
100
AcDbEntity
  8
0
100
AcDbLine
 10
40.548
 20
62.377575
 30
0.0
 11
41.604
 21
59.737575
 31
0.0
  0
LINE
  5
15A
330
1E
100
AcDbEntity
  8
0
100
AcDbLine
 10
41.604
 20
59.737575
 30
0.0
 11
42.0
 21
56.921575
 31
0.0
  0
LINE
  5
15B
330
1E
100
AcDbEntity
  8
0
100
AcDbLine
 10
23.0
 20
86.821575
 30
0.0
 11
31.0
 21
87.921575
 31
0.0
  0
LINE
  5
15C
330
1E
100
AcDbEntity
  8
0
100
AcDbLine
 10
1.1
 20
48.92157499999999
 30
0.0
 11
4.2
 21
41.521575
 31
0.0
  0
LINE
  5
15D
330
1E
100
AcDbEntity
  8
0
100
AcDbLine
 10
0.0000000000000009
 20
56.921575
 30
0.0
 11
1.1
 21
48.92157499999999
 31
0.0
  0
LINE
  5
15E
330
1E
100
AcDbEntity
  8
0
100
AcDbLine
 10
0.0000000000000009
 20
56.921575
 30
0.0
 11
1.1
 21
64.92157500000001
 31
0.0
  0
ENDSEC
  0
SECTION
  2
OBJECTS
  0
DICTIONARY
  5
C
330
0
100
AcDbDictionary
281
     1
  3
ACAD_GROUP
350
D
  3
ACAD_LAYOUT
350
19
  3
ACAD_MLINESTYLE
350
16
  3
ACAD_PLOTSETTINGS
350
18
  3
ACAD_PLOTSTYLENAME
350
E
  3
AcDbVariableDictionary
350
163
  0
DICTIONARY
  5
D
102
{ACAD_REACTORS
330
C
102
}
330
C
100
AcDbDictionary
281
     1
  0
DICTIONARY
  5
19
102
{ACAD_REACTORS
330
C
102
}
330
C
100
AcDbDictionary
281
     1
  3
Layout1
350
1D
  3
Model
350
21
  0
DICTIONARY
  5
16
102
{ACAD_REACTORS
330
C
102
}
330
C
100
AcDbDictionary
281
     1
  3
Standard
350
17
  0
DICTIONARY
  5
18
102
{ACAD_REACTORS
330
C
102
}
330
C
100
AcDbDictionary
281
     1
  0
ACDBDICTIONARYWDFLT
  5
E
102
{ACAD_REACTORS
330
C
102
}
330
C
100
AcDbDictionary
281
     1
  3
Normal
350
F
100
AcDbDictionaryWithDefault
340
F
  0
DICTIONARY
  5
163
102
{ACAD_REACTORS
330
C
102
}
330
C
100
AcDbDictionary
281
     1
  3
DIMASSOC
350
164
  0
LAYOUT
  5
1D
102
{ACAD_REACTORS
330
19
102
}
330
19
100
AcDbPlotSettings
  1

  2
hp deskjet 980c series
  4

  6

 40
0.0
 41
0.0
 42
0.0
 43
0.0
 44
0.0
 45
0.0
 46
0.0
 47
0.0
 48
0.0
 49
0.0
140
0.0
141
0.0
142
1.0
143
1.0
 70
   688
 72
     0
 73
     0
 74
     5
  7

 75
    16
147
1.0
148
0.0
149
0.0
100
AcDbLayout
  1
Layout1
 70
     1
 71
     1
 10
0.0
 20
0.0
 11
12.0
 21
9.0
 12
0.0
 22
0.0
 32
0.0
 14
1.000000000000000E+20
 24
1.000000000000000E+20
 34
1.000000000000000E+20
 15
-1.000000000000000E+20
 25
-1.000000000000000E+20
 35
-1.000000000000000E+20
146
0.0
 13
0.0
 23
0.0
 33
0.0
 16
1.0
 26
0.0
 36
0.0
 17
0.0
 27
1.0
 37
0.0
 76
     0
330
1A
  0
LAYOUT
  5
21
102
{ACAD_REACTORS
330
19
102
}
330
19
100
AcDbPlotSettings
  1

  2
hp deskjet 980c series
  4

  6

 40
0.0
 41
0.0
 42
0.0
 43
0.0
 44
0.0
 45
0.0
 46
0.0
 47
0.0
 48
0.0
 49
0.0
140
0.0
141
0.0
142
1.0
143
1.0
 70
  1712
 72
     0
 73
     0
 74
     0
  7

 75
     0
147
1.0
148
0.0
149
0.0
100
AcDbLayout
  1
Model
 70
     1
 71
     0
 10
0.0
 20
0.0
 11
12.0
 21
9.0
 12
0.0
 22
0.0
 32
0.0
 14
0.0
 24
0.0
 34
0.0
 15
0.0
 25
0.0
 35
0.0
146
0.0
 13
0.0
 23
0.0
 33
0.0
 16
1.0
 26
0.0
 36
0.0
 17
0.0
 27
1.0
 37
0.0
 76
     0
330
1E
  0
MLINESTYLE
  5
17
102
{ACAD_REACTORS
330
16
102
}
330
16
100
AcDbMlineStyle
  2
STANDARD
 70
     0
  3

 62
   256
 51
90.0
 52
90.0
 71
     2
 49
0.5
 62
   256
  6
BYLAYER
 49
-0.5
 62
   256
  6
BYLAYER
  0
ACDBPLACEHOLDER
  5
F
102
{ACAD_REACTORS
330
E
102
}
330
E
  0
DICTIONARYVAR
  5
164
102
{ACAD_REACTORS
330
163
102
}
330
163
100
DictionaryVariables
280
     0
  1
1
  0
ENDSEC
  0
EOF
