  0
SECTION
  2
HEADER
  9
$ACADVER
  1
AC1015
  9
$ACADMAINTVER
 70
    13
  9
$DWGCODEPAGE
  3
ANSI_1252
  9
$INSBASE
 10
0.0
 20
0.0
 30
0.0
  9
$EXTMIN
 10
-0.0732350000000083
 20
0.0187149999999621
 30
0.0
  9
$EXTMAX
 10
125.0732349999999
 20
936.981285
 30
0.0
  9
$LIMMIN
 10
0.0
 20
0.0
  9
$LIMMAX
 10
12.0
 20
9.0
  9
$ORTHOMODE
 70
     0
  9
$REGENMODE
 70
     1
  9
$FILLMODE
 70
     1
  9
$QTEXTMODE
 70
     0
  9
$MIRRTEXT
 70
     1
  9
$LTSCALE
 40
1.0
  9
$ATTMODE
 70
     1
  9
$TEXTSIZE
 40
0.2
  9
$TRACEWID
 40
0.05
  9
$TEXTSTYLE
  7
Standard
  9
$CLAYER
  8
0
  9
$CELTYPE
  6
Continuous
  9
$CECOLOR
 62
   256
  9
$CELTSCALE
 40
1.0
  9
$DISPSILH
 70
     0
  9
$DIMSCALE
 40
1.0
  9
$DIMASZ
 40
0.18
  9
$DIMEXO
 40
0.0625
  9
$DIMDLI
 40
0.38
  9
$DIMRND
 40
0.0
  9
$DIMDLE
 40
0.0
  9
$DIMEXE
 40
0.18
  9
$DIMTP
 40
0.0
  9
$DIMTM
 40
0.0
  9
$DIMTXT
 40
0.18
  9
$DIMCEN
 40
0.09
  9
$DIMTSZ
 40
0.0
  9
$DIMTOL
 70
     0
  9
$DIMLIM
 70
     0
  9
$DIMTIH
 70
     1
  9
$DIMTOH
 70
     1
  9
$DIMSE1
 70
     0
  9
$DIMSE2
 70
     0
  9
$DIMTAD
 70
     0
  9
$DIMZIN
 70
     0
  9
$DIMBLK
  1

  9
$DIMASO
 70
     1
  9
$DIMSHO
 70
     1
  9
$DIMPOST
  1

  9
$DIMAPOST
  1

  9
$DIMALT
 70
     0
  9
$DIMALTD
 70
     2
  9
$DIMALTF
 40
25.4
  9
$DIMLFAC
 40
1.0
  9
$DIMTOFL
 70
     0
  9
$DIMTVP
 40
0.0
  9
$DIMTIX
 70
     0
  9
$DIMSOXD
 70
     0
  9
$DIMSAH
 70
     0
  9
$DIMBLK1
  1

  9
$DIMBLK2
  1

  9
$DIMSTYLE
  2
Standard
  9
$DIMCLRD
 70
     0
  9
$DIMCLRE
 70
     0
  9
$DIMCLRT
 70
     0
  9
$DIMTFAC
 40
1.0
  9
$DIMGAP
 40
0.09
  9
$DIMJUST
 70
     0
  9
$DIMSD1
 70
     0
  9
$DIMSD2
 70
     0
  9
$DIMTOLJ
 70
     1
  9
$DIMTZIN
 70
     0
  9
$DIMALTZ
 70
     0
  9
$DIMALTTZ
 70
     0
  9
$DIMUPT
 70
     0
  9
$DIMDEC
 70
     4
  9
$DIMTDEC
 70
     4
  9
$DIMALTU
 70
     2
  9
$DIMALTTD
 70
     2
  9
$DIMTXSTY
  7
Standard
  9
$DIMAUNIT
 70
     0
  9
$DIMADEC
 70
     0
  9
$DIMALTRND
 40
0.0
  9
$DIMAZIN
 70
     0
  9
$DIMDSEP
 70
    46
  9
$DIMATFIT
 70
     3
  9
$DIMFRAC
 70
     0
  9
$DIMLDRBLK
  1

  9
$DIMLUNIT
 70
     2
  9
$DIMLWD
 70
    -2
  9
$DIMLWE
 70
    -2
  9
$DIMTMOVE
 70
     0
  9
$LUNITS
 70
     2
  9
$LUPREC
 70
     4
  9
$SKETCHINC
 40
0.1
  9
$FILLETRAD
 40
0.0
  9
$AUNITS
 70
     0
  9
$AUPREC
 70
     0
  9
$MENU
  1
.
  9
$ELEVATION
 40
0.0
  9
$PELEVATION
 40
0.0
  9
$THICKNESS
 40
0.0
  9
$LIMCHECK
 70
     0
  9
$CHAMFERA
 40
0.0
  9
$CHAMFERB
 40
0.0
  9
$CHAMFERC
 40
0.0
  9
$CHAMFERD
 40
0.0
  9
$SKPOLY
 70
     0
  9
$TDCREATE
 40
2455656.897899062
  9
$TDUCREATE
 40
2455656.814565729
  9
$TDUPDATE
 40
2455656.900577014
  9
$TDUUPDATE
 40
2455656.817243680
  9
$TDINDWG
 40
0.0026781366
  9
$TDUSRTIMER
 40
0.0026781366
  9
$USRTIMER
 70
     1
  9
$ANGBASE
 50
0.0
  9
$ANGDIR
 70
     0
  9
$PDMODE
 70
     0
  9
$PDSIZE
 40
0.0
  9
$PLINEWID
 40
0.0
  9
$SPLFRAME
 70
     0
  9
$SPLINETYPE
 70
     6
  9
$SPLINESEGS
 70
     8
  9
$HANDSEED
  5
D0F
  9
$SURFTAB1
 70
     6
  9
$SURFTAB2
 70
     6
  9
$SURFTYPE
 70
     6
  9
$SURFU
 70
     6
  9
$SURFV
 70
     6
  9
$UCSBASE
  2

  9
$UCSNAME
  2

  9
$UCSORG
 10
0.0
 20
0.0
 30
0.0
  9
$UCSXDIR
 10
1.0
 20
0.0
 30
0.0
  9
$UCSYDIR
 10
0.0
 20
1.0
 30
0.0
  9
$UCSORTHOREF
  2

  9
$UCSORTHOVIEW
 70
     1
  9
$UCSORGTOP
 10
0.0
 20
0.0
 30
0.0
  9
$UCSORGBOTTOM
 10
0.0
 20
0.0
 30
0.0
  9
$UCSORGLEFT
 10
0.0
 20
0.0
 30
0.0
  9
$UCSORGRIGHT
 10
0.0
 20
0.0
 30
0.0
  9
$UCSORGFRONT
 10
0.0
 20
0.0
 30
0.0
  9
$UCSORGBACK
 10
0.0
 20
0.0
 30
0.0
  9
$PUCSBASE
  2

  9
$PUCSNAME
  2

  9
$PUCSORG
 10
0.0
 20
0.0
 30
0.0
  9
$PUCSXDIR
 10
1.0
 20
0.0
 30
0.0
  9
$PUCSYDIR
 10
0.0
 20
1.0
 30
0.0
  9
$PUCSORTHOREF
  2

  9
$PUCSORTHOVIEW
 70
     0
  9
$PUCSORGTOP
 10
0.0
 20
0.0
 30
0.0
  9
$PUCSORGBOTTOM
 10
0.0
 20
0.0
 30
0.0
  9
$PUCSORGLEFT
 10
0.0
 20
0.0
 30
0.0
  9
$PUCSORGRIGHT
 10
0.0
 20
0.0
 30
0.0
  9
$PUCSORGFRONT
 10
0.0
 20
0.0
 30
0.0
  9
$PUCSORGBACK
 10
0.0
 20
0.0
 30
0.0
  9
$USERI1
 70
     0
  9
$USERI2
 70
     0
  9
$USERI3
 70
     0
  9
$USERI4
 70
     0
  9
$USERI5
 70
     0
  9
$USERR1
 40
0.0
  9
$USERR2
 40
0.0
  9
$USERR3
 40
0.0
  9
$USERR4
 40
0.0
  9
$USERR5
 40
0.0
  9
$WORLDVIEW
 70
     1
  9
$SHADEDGE
 70
     3
  9
$SHADEDIF
 70
    70
  9
$TILEMODE
 70
     1
  9
$MAXACTVP
 70
    64
  9
$PINSBASE
 10
0.0
 20
0.0
 30
0.0
  9
$PLIMCHECK
 70
     0
  9
$PEXTMIN
 10
1.000000000000000E+20
 20
1.000000000000000E+20
 30
1.000000000000000E+20
  9
$PEXTMAX
 10
-1.000000000000000E+20
 20
-1.000000000000000E+20
 30
-1.000000000000000E+20
  9
$PLIMMIN
 10
0.0
 20
0.0
  9
$PLIMMAX
 10
12.0
 20
9.0
  9
$UNITMODE
 70
     0
  9
$VISRETAIN
 70
     1
  9
$PLINEGEN
 70
     0
  9
$PSLTSCALE
 70
     1
  9
$TREEDEPTH
 70
  3020
  9
$CMLSTYLE
  2
Standard
  9
$CMLJUST
 70
     0
  9
$CMLSCALE
 40
1.0
  9
$PROXYGRAPHICS
 70
     1
  9
$MEASUREMENT
 70
     0
  9
$CELWEIGHT
370
    -1
  9
$ENDCAPS
280
     0
  9
$JOINSTYLE
280
     0
  9
$LWDISPLAY
290
     0
  9
$INSUNITS
 70
     0
  9
$HYPERLINKBASE
  1

  9
$STYLESHEET
  1

  9
$XEDIT
290
     1
  9
$CEPSNTYPE
380
     0
  9
$PSTYLEMODE
290
     1
  9
$FINGERPRINTGUID
  2
{210AC2D9-1BC2-4583-B90A-57E52543B2F6}
  9
$VERSIONGUID
  2
{EDB7A8AE-302D-453E-ACF2-B970B1341BE8}
  9
$EXTNAMES
290
     1
  9
$PSVPSCALE
 40
0.0
  9
$OLESTARTUP
290
     0
  0
ENDSEC
  0
SECTION
  2
CLASSES
  0
CLASS
  1
ACDBDICTIONARYWDFLT
  2
AcDbDictionaryWithDefault
  3
AutoCAD 2000
 90
        0
280
     0
281
     0
  0
CLASS
  1
ACDBPLACEHOLDER
  2
AcDbPlaceHolder
  3
AutoCAD 2000
 90
        0
280
     0
281
     0
  0
CLASS
  1
LAYOUT
  2
AcDbLayout
  3
AutoCAD 2000
 90
        0
280
     0
281
     0
  0
CLASS
  1
DICTIONARYVAR
  2
AcDbDictionaryVar
  3
AutoCAD 2000
 90
        0
280
     0
281
     0
  0
ENDSEC
  0
SECTION
  2
TABLES
  0
TABLE
  2
VPORT
  5
8
330
0
100
AcDbSymbolTable
 70
     3
  0
VPORT
  5
D0E
330
8
100
AcDbSymbolTableRecord
100
AcDbViewportTableRecord
  2
*Active
 70
     0
 10
0.0
 20
0.0
 11
1.0
 21
1.0
 12
62.49999999999999
 22
468.5
 13
0.0
 23
0.0
 14
1.0
 24
1.0
 15
0.0
 25
0.0
 16
0.0
 26
0.0
 36
1.0
 17
0.0
 27
0.0
 37
0.0
 40
943.3005355242391
 41
2.073363431151241
 42
50.0
 43
0.0
 44
0.0
 50
0.0
 51
0.0
 71
     0
 72
   100
 73
     1
 74
     3
 75
     0
 76
     0
 77
     0
 78
     0
281
     0
 65
     1
110
0.0
120
0.0
130
0.0
111
1.0
121
0.0
131
0.0
112
0.0
122
1.0
132
0.0
 79
     1
146
0.0
  0
ENDTAB
  0
TABLE
  2
LTYPE
  5
5
330
0
100
AcDbSymbolTable
 70
     1
  0
LTYPE
  5
13
330
5
100
AcDbSymbolTableRecord
100
AcDbLinetypeTableRecord
  2
ByBlock
 70
     0
  3

 72
    65
 73
     0
 40
0.0
  0
LTYPE
  5
14
330
5
100
AcDbSymbolTableRecord
100
AcDbLinetypeTableRecord
  2
ByLayer
 70
     0
  3

 72
    65
 73
     0
 40
0.0
  0
LTYPE
  5
15
330
5
100
AcDbSymbolTableRecord
100
AcDbLinetypeTableRecord
  2
Continuous
 70
     0
  3
Solid line
 72
    65
 73
     0
 40
0.0
  0
ENDTAB
  0
TABLE
  2
LAYER
  5
2
330
0
100
AcDbSymbolTable
 70
     1
  0
LAYER
  5
10
330
2
100
AcDbSymbolTableRecord
100
AcDbLayerTableRecord
  2
0
 70
     0
 62
     7
  6
Continuous
370
    -3
390
F
  0
ENDTAB
  0
TABLE
  2
STYLE
  5
3
330
0
100
AcDbSymbolTable
 70
     1
  0
STYLE
  5
11
330
3
100
AcDbSymbolTableRecord
100
AcDbTextStyleTableRecord
  2
Standard
 70
     0
 40
0.0
 41
1.0
 50
0.0
 71
     0
 42
0.2
  3
txt
  4

  0
ENDTAB
  0
TABLE
  2
VIEW
  5
6
330
0
100
AcDbSymbolTable
 70
     0
  0
ENDTAB
  0
TABLE
  2
UCS
  5
7
330
0
100
AcDbSymbolTable
 70
     0
  0
ENDTAB
  0
TABLE
  2
APPID
  5
9
330
0
100
AcDbSymbolTable
 70
     1
  0
APPID
  5
12
330
9
100
AcDbSymbolTableRecord
100
AcDbRegAppTableRecord
  2
ACAD
 70
     0
  0
ENDTAB
  0
TABLE
  2
DIMSTYLE
  5
A
330
0
100
AcDbSymbolTable
 70
     1
100
AcDbDimStyleTable
 71
     0
  0
DIMSTYLE
105
69A
330
A
100
AcDbSymbolTableRecord
100
AcDbDimStyleTableRecord
  2
Standard
 70
     0
340
11
  0
ENDTAB
  0
TABLE
  2
BLOCK_RECORD
  5
1
330
0
100
AcDbSymbolTable
 70
     1
  0
BLOCK_RECORD
  5
1E
330
1
100
AcDbSymbolTableRecord
100
AcDbBlockTableRecord
  2
*Model_Space
340
21
  0
BLOCK_RECORD
  5
1A
330
1
100
AcDbSymbolTableRecord
100
AcDbBlockTableRecord
  2
*Paper_Space
340
1D
  0
ENDTAB
  0
ENDSEC
  0
SECTION
  2
BLOCKS
  0
BLOCK
  5
1F
330
1E
100
AcDbEntity
  8
0
100
AcDbBlockBegin
  2
*Model_Space
 70
     0
 10
0.0
 20
0.0
 30
0.0
  3
*Model_Space
  1

  0
ENDBLK
  5
20
330
1E
100
AcDbEntity
  8
0
100
AcDbBlockEnd
  0
BLOCK
  5
1B
330
1A
100
AcDbEntity
 67
     1
  8
0
100
AcDbBlockBegin
  2
*Paper_Space
 70
     0
 10
0.0
 20
0.0
 30
0.0
  3
*Paper_Space
  1

  0
ENDBLK
  5
1C
330
1A
100
AcDbEntity
 67
     1
  8
0
100
AcDbBlockEnd
  0
ENDSEC
  0
SECTION
  2
ENTITIES
  0
LINE
  5
22
330
1E
100
AcDbEntity
  8
0
100
AcDbLine
 10
73.262035
 20
0.0187150000000056
 30
0.0
 11
74.147835
 21
525.364285
 31
0.0
  0
LINE
  5
23
330
1E
100
AcDbEntity
  8
0
100
AcDbLine
 10
73.262035
 20
0.0187149999999621
 30
0.0
 11
73.52513499999999
 21
0.147614999999962
 31
0.0
  0
LINE
  5
24
330
1E
100
AcDbEntity
  8
0
100
AcDbLine
 10
73.262035
 20
0.0187149999999621
 30
0.0
 11
74.147835
 21
525.364285
 31
0.0
  0
LINE
  5
25
330
1E
100
AcDbEntity
  8
0
100
AcDbLine
 10
41.173235
 20
268.481285
 30
0.0
 11
42.27323499999999
 21
268.481285
 31
0.0
  0
LINE
  5
26
330
1E
100
AcDbEntity
  8
0
100
AcDbLine
 10
40.773235
 20
268.481285
 30
0.0
 11
40.773235
 21
319.481285
 31
0.0
  0
LINE
  5
27
330
1E
100
AcDbEntity
  8
0
100
AcDbLine
 10
40.773235
 20
268.481285
 30
0.0
 11
41.173235
 21
268.481285
 31
0.0
  0
LINE
  5
28
330
1E
100
AcDbEntity
  8
0
100
AcDbLine
 10
40.773235
 20
268.481285
 30
0.0
 11
41.273235
 21
267.981285
 31
0.0
  0
LINE
  5
29
330
1E
100
AcDbEntity
  8
0
100
AcDbLine
 10
41.673235
 20
267.981285
 30
0.0
 11
42.67323499999999
 21
267.981285
 31
0.0
  0
LINE
  5
2A
330
1E
100
AcDbEntity
  8
0
100
AcDbLine
 10
41.273235
 20
267.981285
 30
0.0
 11
51.77323499999999
 21
267.981285
 31
0.0
  0
LINE
  5
2B
330
1E
100
AcDbEntity
  8
0
100
AcDbLine
 10
41.273235
 20
267.981285
 30
0.0
 11
41.673235
 21
267.981285
 31
0.0
  0
LINE
  5
2C
330
1E
100
AcDbEntity
  8
0
100
AcDbLine
 10
41.173235
 20
319.481285
 30
0.0
 11
42.27323499999999
 21
319.481285
 31
0.0
  0
LINE
  5
2D
330
1E
100
AcDbEntity
  8
0
100
AcDbLine
 10
40.773235
 20
319.481285
 30
0.0
 11
41.273235
 21
319.981285
 31
0.0
  0
LINE
  5
2E
330
1E
100
AcDbEntity
  8
0
100
AcDbLine
 10
40.773235
 20
319.481285
 30
0.0
 11
41.173235
 21
319.481285
 31
0.0
  0
LINE
  5
2F
330
1E
100
AcDbEntity
  8
0
100
AcDbLine
 10
40.773235
 20
319.481285
 30
0.0
 11
40.773235
 21
268.481285
 31
0.0
  0
LINE
  5
30
330
1E
100
AcDbEntity
  8
0
100
AcDbLine
 10
42.67323499999999
 20
267.981285
 30
0.0
 11
44.373235
 21
267.981285
 31
0.0
  0
LINE
  5
31
330
1E
100
AcDbEntity
  8
0
100
AcDbLine
 10
43.97323499999999
 20
268.481285
 30
0.0
 11
46.273235
 21
268.481285
 31
0.0
  0
LINE
  5
32
330
1E
100
AcDbEntity
  8
0
100
AcDbLine
 10
42.27323499999999
 20
268.481285
 30
0.0
 11
43.97323499999999
 21
268.481285
 31
0.0
  0
LINE
  5
33
330
1E
100
AcDbEntity
  8
0
100
AcDbLine
 10
44.373235
 20
267.981285
 30
0.0
 11
46.57323499999999
 21
267.981285
 31
0.0
  0
LINE
  5
34
330
1E
100
AcDbEntity
  8
0
100
AcDbLine
 10
43.97323499999999
 20
319.481285
 30
0.0
 11
46.273235
 21
319.481285
 31
0.0
  0
LINE
  5
35
330
1E
100
AcDbEntity
  8
0
100
AcDbLine
 10
42.27323499999999
 20
319.481285
 30
0.0
 11
43.97323499999999
 21
319.481285
 31
0.0
  0
LINE
  5
36
330
1E
100
AcDbEntity
  8
0
100
AcDbLine
 10
46.57323499999999
 20
267.981285
 30
0.0
 11
49.073235
 21
267.981285
 31
0.0
  0
LINE
  5
37
330
1E
100
AcDbEntity
  8
0
100
AcDbLine
 10
48.97323499999999
 20
268.481285
 30
0.0
 11
51.77323499999999
 21
268.481285
 31
0.0
  0
LINE
  5
38
330
1E
100
AcDbEntity
  8
0
100
AcDbLine
 10
46.273235
 20
268.481285
 30
0.0
 11
48.97323499999999
 21
268.481285
 31
0.0
  0
LINE
  5
39
330
1E
100
AcDbEntity
  8
0
100
AcDbLine
 10
49.073235
 20
267.981285
 30
0.0
 11
51.77323499999999
 21
267.981285
 31
0.0
  0
LINE
  5
3A
330
1E
100
AcDbEntity
  8
0
100
AcDbLine
 10
48.97323499999999
 20
319.481285
 30
0.0
 11
51.77323499999999
 21
319.481285
 31
0.0
  0
LINE
  5
3B
330
1E
100
AcDbEntity
  8
0
100
AcDbLine
 10
46.273235
 20
319.481285
 30
0.0
 11
48.97323499999999
 21
319.481285
 31
0.0
  0
LINE
  5
3C
330
1E
100
AcDbEntity
  8
0
100
AcDbLine
 10
51.77323499999999
 20
267.981285
 30
0.0
 11
62.273235
 21
267.981285
 31
0.0
  0
LINE
  5
3D
330
1E
100
AcDbEntity
  8
0
100
AcDbLine
 10
51.77323499999999
 20
267.981285
 30
0.0
 11
54.47323499999999
 21
267.981285
 31
0.0
  0
LINE
  5
3E
330
1E
100
AcDbEntity
  8
0
100
AcDbLine
 10
51.77323499999999
 20
268.481285
 30
0.0
 11
54.573235
 21
268.481285
 31
0.0
  0
LINE
  5
3F
330
1E
100
AcDbEntity
  8
0
100
AcDbLine
 10
51.77323499999999
 20
319.481285
 30
0.0
 11
54.573235
 21
319.481285
 31
0.0
  0
LINE
  5
40
330
1E
100
AcDbEntity
  8
0
100
AcDbLine
 10
54.47323499999999
 20
267.981285
 30
0.0
 11
56.97323499999999
 21
267.981285
 31
0.0
  0
LINE
  5
41
330
1E
100
AcDbEntity
  8
0
100
AcDbLine
 10
56.97323499999999
 20
267.981285
 30
0.0
 11
59.173235
 21
267.981285
 31
0.0
  0
LINE
  5
42
330
1E
100
AcDbEntity
  8
0
100
AcDbLine
 10
54.573235
 20
268.481285
 30
0.0
 11
57.273235
 21
268.481285
 31
0.0
  0
LINE
  5
43
330
1E
100
AcDbEntity
  8
0
100
AcDbLine
 10
54.573235
 20
319.481285
 30
0.0
 11
57.273235
 21
319.481285
 31
0.0
  0
LINE
  5
44
330
1E
100
AcDbEntity
  8
0
100
AcDbLine
 10
51.77323499999999
 20
319.981285
 30
0.0
 11
54.47323499999999
 21
319.981285
 31
0.0
  0
LINE
  5
45
330
1E
100
AcDbEntity
  8
0
100
AcDbLine
 10
54.47323499999999
 20
319.981285
 30
0.0
 11
56.97323499999999
 21
319.981285
 31
0.0
  0
LINE
  5
46
330
1E
100
AcDbEntity
  8
0
100
AcDbLine
 10
57.273235
 20
268.481285
 30
0.0
 11
59.573235
 21
268.481285
 31
0.0
  0
LINE
  5
47
330
1E
100
AcDbEntity
  8
0
100
AcDbLine
 10
59.173235
 20
267.981285
 30
0.0
 11
60.873235
 21
267.981285
 31
0.0
  0
LINE
  5
48
330
1E
100
AcDbEntity
  8
0
100
AcDbLine
 10
60.873235
 20
267.981285
 30
0.0
 11
61.873235
 21
267.981285
 31
0.0
  0
LINE
  5
49
330
1E
100
AcDbEntity
  8
0
100
AcDbLine
 10
59.573235
 20
268.481285
 30
0.0
 11
61.273235
 21
268.481285
 31
0.0
  0
LINE
  5
4A
330
1E
100
AcDbEntity
  8
0
100
AcDbLine
 10
57.273235
 20
319.481285
 30
0.0
 11
59.573235
 21
319.481285
 31
0.0
  0
LINE
  5
4B
330
1E
100
AcDbEntity
  8
0
100
AcDbLine
 10
59.573235
 20
319.481285
 30
0.0
 11
61.273235
 21
319.481285
 31
0.0
  0
LINE
  5
4C
330
1E
100
AcDbEntity
  8
0
100
AcDbLine
 10
56.97323499999999
 20
319.981285
 30
0.0
 11
59.173235
 21
319.981285
 31
0.0
  0
LINE
  5
4D
330
1E
100
AcDbEntity
  8
0
100
AcDbLine
 10
59.173235
 20
319.981285
 30
0.0
 11
60.873235
 21
319.981285
 31
0.0
  0
LINE
  5
4E
330
1E
100
AcDbEntity
  8
0
100
AcDbLine
 10
61.873235
 20
267.981285
 30
0.0
 11
62.273235
 21
267.981285
 31
0.0
  0
LINE
  5
4F
330
1E
100
AcDbEntity
  8
0
100
AcDbLine
 10
61.273235
 20
268.481285
 30
0.0
 11
62.373235
 21
268.481285
 31
0.0
  0
LINE
  5
50
330
1E
100
AcDbEntity
  8
0
100
AcDbLine
 10
62.373235
 20
268.481285
 30
0.0
 11
62.773235
 21
268.481285
 31
0.0
  0
LINE
  5
51
330
1E
100
AcDbEntity
  8
0
100
AcDbLine
 10
61.273235
 20
319.481285
 30
0.0
 11
62.373235
 21
319.481285
 31
0.0
  0
LINE
  5
52
330
1E
100
AcDbEntity
  8
0
100
AcDbLine
 10
62.773235
 20
268.481285
 30
0.0
 11
62.773235
 21
319.481285
 31
0.0
  0
LINE
  5
53
330
1E
100
AcDbEntity
  8
0
100
AcDbLine
 10
62.773235
 20
319.481285
 30
0.0
 11
62.773235
 21
268.481285
 31
0.0
  0
LINE
  5
54
330
1E
100
AcDbEntity
  8
0
100
AcDbLine
 10
62.373235
 20
319.481285
 30
0.0
 11
62.773235
 21
319.481285
 31
0.0
  0
LINE
  5
55
330
1E
100
AcDbEntity
  8
0
100
AcDbLine
 10
62.273235
 20
319.981285
 30
0.0
 11
62.773235
 21
319.481285
 31
0.0
  0
LINE
  5
56
330
1E
100
AcDbEntity
  8
0
100
AcDbLine
 10
62.273235
 20
319.981285
 30
0.0
 11
62.773235
 21
320.4822849999999
 31
0.0
  0
LINE
  5
57
330
1E
100
AcDbEntity
  8
0
100
AcDbLine
 10
60.873235
 20
319.981285
 30
0.0
 11
61.873235
 21
319.981285
 31
0.0
  0
LINE
  5
58
330
1E
100
AcDbEntity
  8
0
100
AcDbLine
 10
61.873235
 20
319.981285
 30
0.0
 11
62.273235
 21
319.981285
 31
0.0
  0
LINE
  5
59
330
1E
100
AcDbEntity
  8
0
100
AcDbLine
 10
49.073235
 20
319.981285
 30
0.0
 11
51.77323499999999
 21
319.981285
 31
0.0
  0
LINE
  5
5A
330
1E
100
AcDbEntity
  8
0
100
AcDbLine
 10
46.57323499999999
 20
319.981285
 30
0.0
 11
49.073235
 21
319.981285
 31
0.0
  0
LINE
  5
5B
330
1E
100
AcDbEntity
  8
0
100
AcDbLine
 10
44.373235
 20
319.981285
 30
0.0
 11
46.57323499999999
 21
319.981285
 31
0.0
  0
LINE
  5
5C
330
1E
100
AcDbEntity
  8
0
100
AcDbLine
 10
42.67323499999999
 20
319.981285
 30
0.0
 11
44.373235
 21
319.981285
 31
0.0
  0
LINE
  5
5D
330
1E
100
AcDbEntity
  8
0
100
AcDbLine
 10
41.673235
 20
319.981285
 30
0.0
 11
42.67323499999999
 21
319.981285
 31
0.0
  0
LINE
  5
5E
330
1E
100
AcDbEntity
  8
0
100
AcDbLine
 10
51.77323499999999
 20
320.4822849999999
 30
0.0
 11
54.573235
 21
320.4822849999999
 31
0.0
  0
LINE
  5
5F
330
1E
100
AcDbEntity
  8
0
100
AcDbLine
 10
54.573235
 20
320.4822849999999
 30
0.0
 11
57.273235
 21
320.4822849999999
 31
0.0
  0
LINE
  5
60
330
1E
100
AcDbEntity
  8
0
100
AcDbLine
 10
57.273235
 20
320.4822849999999
 30
0.0
 11
59.573235
 21
320.4822849999999
 31
0.0
  0
LINE
  5
61
330
1E
100
AcDbEntity
  8
0
100
AcDbLine
 10
59.573235
 20
320.4822849999999
 30
0.0
 11
61.273235
 21
320.4822849999999
 31
0.0
  0
LINE
  5
62
330
1E
100
AcDbEntity
  8
0
100
AcDbLine
 10
61.273235
 20
320.4822849999999
 30
0.0
 11
62.373235
 21
320.4822849999999
 31
0.0
  0
LINE
  5
63
330
1E
100
AcDbEntity
  8
0
100
AcDbLine
 10
62.773235
 20
320.4822849999999
 30
0.0
 11
62.773235
 21
667.9812849999999
 31
0.0
  0
LINE
  5
64
330
1E
100
AcDbEntity
  8
0
100
AcDbLine
 10
62.373235
 20
320.4822849999999
 30
0.0
 11
62.773235
 21
320.4822849999999
 31
0.0
  0
LINE
  5
65
330
1E
100
AcDbEntity
  8
0
100
AcDbLine
 10
48.97323499999999
 20
320.4822849999999
 30
0.0
 11
51.77323499999999
 21
320.4822849999999
 31
0.0
  0
LINE
  5
66
330
1E
100
AcDbEntity
  8
0
100
AcDbLine
 10
46.273235
 20
320.4822849999999
 30
0.0
 11
48.97323499999999
 21
320.4822849999999
 31
0.0
  0
LINE
  5
67
330
1E
100
AcDbEntity
  8
0
100
AcDbLine
 10
43.97323499999999
 20
320.4822849999999
 30
0.0
 11
46.273235
 21
320.4822849999999
 31
0.0
  0
LINE
  5
68
330
1E
100
AcDbEntity
  8
0
100
AcDbLine
 10
42.27323499999999
 20
320.4822849999999
 30
0.0
 11
43.97323499999999
 21
320.4822849999999
 31
0.0
  0
LINE
  5
69
330
1E
100
AcDbEntity
  8
0
100
AcDbLine
 10
41.173235
 20
320.4822849999999
 30
0.0
 11
42.27323499999999
 21
320.4822849999999
 31
0.0
  0
LINE
  5
6A
330
1E
100
AcDbEntity
  8
0
100
AcDbLine
 10
40.773235
 20
320.4822849999999
 30
0.0
 11
41.173235
 21
320.4822849999999
 31
0.0
  0
LINE
  5
6B
330
1E
100
AcDbEntity
  8
0
100
AcDbLine
 10
40.773235
 20
320.4822849999999
 30
0.0
 11
41.273235
 21
319.981285
 31
0.0
  0
LINE
  5
6C
330
1E
100
AcDbEntity
  8
0
100
AcDbLine
 10
40.773235
 20
320.4822849999999
 30
0.0
 11
40.773235
 21
668.008965711894
 31
0.0
  0
LINE
  5
6D
330
1E
100
AcDbEntity
  8
0
100
AcDbLine
 10
41.273235
 20
319.981285
 30
0.0
 11
41.673235
 21
319.981285
 31
0.0
  0
LINE
  5
6E
330
1E
100
AcDbEntity
  8
0
100
AcDbLine
 10
73.97142509517791
 20
0.366768074690072
 30
0.0
 11
74.298035
 21
0.5270149999999621
 31
0.0
  0
LINE
  5
6F
330
1E
100
AcDbEntity
  8
0
100
AcDbLine
 10
73.52513499999999
 20
0.147614999999962
 30
0.0
 11
74.95613500000001
 21
0.8503149999999619
 31
0.0
  0
LINE
  5
70
330
1E
100
AcDbEntity
  8
0
100
AcDbLine
 10
74.298035
 20
0.5270149999999621
 30
0.0
 11
76.235935
 21
1.47801499999996
 31
0.0
  0
LINE
  5
71
330
1E
100
AcDbEntity
  8
0
100
AcDbLine
 10
76.235935
 20
1.47801499999996
 30
0.0
 11
76.69231014916059
 21
1.702108280404889
 31
0.0
  0
LINE
  5
72
330
1E
100
AcDbEntity
  8
0
100
AcDbLine
 10
74.95613500000001
 20
0.8503149999999619
 30
0.0
 11
77.35353499999999
 21
2.026514999999959
 31
0.0
  0
LINE
  5
73
330
1E
100
AcDbEntity
  8
0
100
AcDbLine
 10
80.26613499999999
 20
3.456214999999959
 30
0.0
 11
83.415835
 21
5.00121499999996
 31
0.0
  0
LINE
  5
74
330
1E
100
AcDbEntity
  8
0
100
AcDbLine
 10
80.27136521357791
 20
3.458780539568139
 30
0.0
 11
82.17753499999998
 21
4.393614999999959
 31
0.0
  0
LINE
  5
75
330
1E
100
AcDbEntity
  8
0
100
AcDbLine
 10
77.35353499999999
 20
2.026514999999959
 30
0.0
 11
80.26613499999999
 21
3.456214999999959
 31
0.0
  0
LINE
  5
76
330
1E
100
AcDbEntity
  8
0
100
AcDbLine
 10
74.131935
 20
558.365285
 30
0.0
 11
74.147835
 21
525.364285
 31
0.0
  0
LINE
  5
77
330
1E
100
AcDbEntity
  8
0
100
AcDbLine
 10
74.103835
 20
581.3622849999999
 30
0.0
 11
74.131935
 21
558.365285
 31
0.0
  0
LINE
  5
78
330
1E
100
AcDbEntity
  8
0
100
AcDbLine
 10
74.06193499999999
 20
606.1592849999999
 30
0.0
 11
74.103835
 21
581.3622849999999
 31
0.0
  0
LINE
  5
79
330
1E
100
AcDbEntity
  8
0
100
AcDbLine
 10
74.00803499999999
 20
631.2562849999999
 30
0.0
 11
74.06193499999999
 21
606.1592849999999
 31
0.0
  0
LINE
  5
7A
330
1E
100
AcDbEntity
  8
0
100
AcDbLine
 10
6.23473499999999
 20
667.9812849999999
 30
0.0
 11
37.311735
 21
667.9812849999999
 31
0.0
  0
LINE
  5
7B
330
1E
100
AcDbEntity
  8
0
100
AcDbLine
 10
6.23473499999999
 20
667.9812849999999
 30
0.0
 11
37.311735
 21
667.9812849999999
 31
0.0
  0
LINE
  5
7C
330
1E
100
AcDbEntity
  8
0
100
AcDbLine
 10
6.23473499999999
 20
667.9812849999999
 30
0.0
 11
6.23473499999999
 21
668.647285
 31
0.0
  0
LINE
  5
7D
330
1E
100
AcDbEntity
  8
0
100
AcDbLine
 10
38.234735
 20
667.9812849999999
 30
0.0
 11
40.773235
 21
667.9812849999999
 31
0.0
  0
LINE
  5
7E
330
1E
100
AcDbEntity
  8
0
100
AcDbLine
 10
38.234735
 20
667.9812849999999
 30
0.0
 11
38.234735
 21
668.647285
 31
0.0
  0
LINE
  5
7F
330
1E
100
AcDbEntity
  8
0
100
AcDbLine
 10
38.234735
 20
667.9812849999999
 30
0.0
 11
40.773235
 21
667.9812849999999
 31
0.0
  0
LINE
  5
80
330
1E
100
AcDbEntity
  8
0
100
AcDbLine
 10
37.311735
 20
667.9812849999999
 30
0.0
 11
37.773235
 21
668.4252849999999
 31
0.0
  0
LINE
  5
81
330
1E
100
AcDbEntity
  8
0
100
AcDbLine
 10
37.311735
 20
667.9812849999999
 30
0.0
 11
37.311735
 21
668.647285
 31
0.0
  0
LINE
  5
82
330
1E
100
AcDbEntity
  8
0
100
AcDbLine
 10
5.77323499999999
 20
669.091285
 30
0.0
 11
5.77323499999999
 21
668.4252849999999
 31
0.0
  0
LINE
  5
83
330
1E
100
AcDbEntity
  8
0
100
AcDbLine
 10
5.77323499999999
 20
669.091285
 30
0.0
 11
5.77323499999999
 21
670.8672849999999
 31
0.0
  0
LINE
  5
84
330
1E
100
AcDbEntity
  8
0
100
AcDbLine
 10
5.77323499999999
 20
668.4252849999999
 30
0.0
 11
6.23473499999999
 21
667.9812849999999
 31
0.0
  0
LINE
  5
85
330
1E
100
AcDbEntity
  8
0
100
AcDbLine
 10
5.77323499999999
 20
668.4252849999999
 30
0.0
 11
5.77323499999999
 21
669.091285
 31
0.0
  0
LINE
  5
86
330
1E
100
AcDbEntity
  8
0
100
AcDbLine
 10
6.23473499999999
 20
670.4232849999999
 30
0.0
 11
6.23473499999999
 21
668.647285
 31
0.0
  0
LINE
  5
87
330
1E
100
AcDbEntity
  8
0
100
AcDbLine
 10
6.23473499999999
 20
670.4232849999999
 30
0.0
 11
6.23473499999999
 21
673.3832849999999
 31
0.0
  0
LINE
  5
88
330
1E
100
AcDbEntity
  8
0
100
AcDbLine
 10
6.23473499999999
 20
668.647285
 30
0.0
 11
6.23473499999999
 21
667.9812849999999
 31
0.0
  0
LINE
  5
89
330
1E
100
AcDbEntity
  8
0
100
AcDbLine
 10
6.23473499999999
 20
668.647285
 30
0.0
 11
6.23473499999999
 21
670.4232849999999
 31
0.0
  0
LINE
  5
8A
330
1E
100
AcDbEntity
  8
0
100
AcDbLine
 10
5.77323499999999
 20
673.753285
 30
0.0
 11
5.77323499999999
 21
670.8672849999999
 31
0.0
  0
LINE
  5
8B
330
1E
100
AcDbEntity
  8
0
100
AcDbLine
 10
5.77323499999999
 20
673.753285
 30
0.0
 11
5.77323499999999
 21
677.527285
 31
0.0
  0
LINE
  5
8C
330
1E
100
AcDbEntity
  8
0
100
AcDbLine
 10
5.77323499999999
 20
670.8672849999999
 30
0.0
 11
5.77323499999999
 21
669.091285
 31
0.0
  0
LINE
  5
8D
330
1E
100
AcDbEntity
  8
0
100
AcDbLine
 10
5.77323499999999
 20
670.8672849999999
 30
0.0
 11
5.77323499999999
 21
673.753285
 31
0.0
  0
LINE
  5
8E
330
1E
100
AcDbEntity
  8
0
100
AcDbLine
 10
6.23473499999999
 20
677.3052849999999
 30
0.0
 11
6.23473499999999
 21
673.3832849999999
 31
0.0
  0
LINE
  5
8F
330
1E
100
AcDbEntity
  8
0
100
AcDbLine
 10
6.23473499999999
 20
677.3052849999999
 30
0.0
 11
6.23473499999999
 21
681.7452849999999
 31
0.0
  0
LINE
  5
90
330
1E
100
AcDbEntity
  8
0
100
AcDbLine
 10
6.23473499999999
 20
673.3832849999999
 30
0.0
 11
6.23473499999999
 21
670.4232849999999
 31
0.0
  0
LINE
  5
91
330
1E
100
AcDbEntity
  8
0
100
AcDbLine
 10
6.23473499999999
 20
673.3832849999999
 30
0.0
 11
6.23473499999999
 21
677.3052849999999
 31
0.0
  0
LINE
  5
92
330
1E
100
AcDbEntity
  8
0
100
AcDbLine
 10
5.77323499999999
 20
686.4812849999999
 30
0.0
 11
5.77323499999999
 21
681.8192849999999
 31
0.0
  0
LINE
  5
93
330
1E
100
AcDbEntity
  8
0
100
AcDbLine
 10
5.77323499999999
 20
686.4812849999999
 30
0.0
 11
5.77323499999999
 21
691.1432849999999
 31
0.0
  0
LINE
  5
94
330
1E
100
AcDbEntity
  8
0
100
AcDbLine
 10
5.77323499999999
 20
681.8192849999999
 30
0.0
 11
5.77323499999999
 21
677.527285
 31
0.0
  0
LINE
  5
95
330
1E
100
AcDbEntity
  8
0
100
AcDbLine
 10
5.77323499999999
 20
681.8192849999999
 30
0.0
 11
5.77323499999999
 21
686.4812849999999
 31
0.0
  0
LINE
  5
96
330
1E
100
AcDbEntity
  8
0
100
AcDbLine
 10
5.77323499999999
 20
677.527285
 30
0.0
 11
5.77323499999999
 21
673.753285
 31
0.0
  0
LINE
  5
97
330
1E
100
AcDbEntity
  8
0
100
AcDbLine
 10
5.77323499999999
 20
677.527285
 30
0.0
 11
5.77323499999999
 21
681.8192849999999
 31
0.0
  0
LINE
  5
98
330
1E
100
AcDbEntity
  8
0
100
AcDbLine
 10
6.23473499999999
 20
686.4812849999999
 30
0.0
 11
6.23473499999999
 21
681.7452849999999
 31
0.0
  0
LINE
  5
99
330
1E
100
AcDbEntity
  8
0
100
AcDbLine
 10
6.23473499999999
 20
686.4812849999999
 30
0.0
 11
6.23473499999999
 21
691.2172849999999
 31
0.0
  0
LINE
  5
9A
330
1E
100
AcDbEntity
  8
0
100
AcDbLine
 10
6.23473499999999
 20
681.7452849999999
 30
0.0
 11
6.23473499999999
 21
677.3052849999999
 31
0.0
  0
LINE
  5
9B
330
1E
100
AcDbEntity
  8
0
100
AcDbLine
 10
6.23473499999999
 20
681.7452849999999
 30
0.0
 11
6.23473499999999
 21
686.4812849999999
 31
0.0
  0
LINE
  5
9C
330
1E
100
AcDbEntity
  8
0
100
AcDbLine
 10
5.77323499999999
 20
691.1432849999999
 30
0.0
 11
5.77323499999999
 21
686.4812849999999
 31
0.0
  0
LINE
  5
9D
330
1E
100
AcDbEntity
  8
0
100
AcDbLine
 10
5.77323499999999
 20
691.1432849999999
 30
0.0
 11
5.77323499999999
 21
695.4352849999999
 31
0.0
  0
LINE
  5
9E
330
1E
100
AcDbEntity
  8
0
100
AcDbLine
 10
6.23473499999999
 20
691.2172849999999
 30
0.0
 11
6.23473499999999
 21
686.4812849999999
 31
0.0
  0
LINE
  5
9F
330
1E
100
AcDbEntity
  8
0
100
AcDbLine
 10
6.23473499999999
 20
691.2172849999999
 30
0.0
 11
6.23473499999999
 21
695.657285
 31
0.0
  0
LINE
  5
A0
330
1E
100
AcDbEntity
  8
0
100
AcDbLine
 10
37.311735
 20
691.2172849999999
 30
0.0
 11
37.311735
 21
695.657285
 31
0.0
  0
LINE
  5
A1
330
1E
100
AcDbEntity
  8
0
100
AcDbLine
 10
37.311735
 20
691.2172849999999
 30
0.0
 11
37.311735
 21
686.4812849999999
 31
0.0
  0
LINE
  5
A2
330
1E
100
AcDbEntity
  8
0
100
AcDbLine
 10
37.311735
 20
686.4812849999999
 30
0.0
 11
37.311735
 21
681.7452849999999
 31
0.0
  0
LINE
  5
A3
330
1E
100
AcDbEntity
  8
0
100
AcDbLine
 10
37.311735
 20
686.4812849999999
 30
0.0
 11
37.311735
 21
691.2172849999999
 31
0.0
  0
LINE
  5
A4
330
1E
100
AcDbEntity
  8
0
100
AcDbLine
 10
37.311735
 20
681.7452849999999
 30
0.0
 11
37.311735
 21
677.3052849999999
 31
0.0
  0
LINE
  5
A5
330
1E
100
AcDbEntity
  8
0
100
AcDbLine
 10
37.311735
 20
681.7452849999999
 30
0.0
 11
37.311735
 21
686.4812849999999
 31
0.0
  0
LINE
  5
A6
330
1E
100
AcDbEntity
  8
0
100
AcDbLine
 10
37.311735
 20
677.3052849999999
 30
0.0
 11
37.311735
 21
673.3832849999999
 31
0.0
  0
LINE
  5
A7
330
1E
100
AcDbEntity
  8
0
100
AcDbLine
 10
37.311735
 20
677.3052849999999
 30
0.0
 11
37.311735
 21
681.7452849999999
 31
0.0
  0
LINE
  5
A8
330
1E
100
AcDbEntity
  8
0
100
AcDbLine
 10
37.311735
 20
673.3832849999999
 30
0.0
 11
37.311735
 21
670.4232849999999
 31
0.0
  0
LINE
  5
A9
330
1E
100
AcDbEntity
  8
0
100
AcDbLine
 10
37.311735
 20
673.3832849999999
 30
0.0
 11
37.311735
 21
677.3052849999999
 31
0.0
  0
LINE
  5
AA
330
1E
100
AcDbEntity
  8
0
100
AcDbLine
 10
37.311735
 20
670.4232849999999
 30
0.0
 11
37.311735
 21
668.647285
 31
0.0
  0
LINE
  5
AB
330
1E
100
AcDbEntity
  8
0
100
AcDbLine
 10
37.311735
 20
670.4232849999999
 30
0.0
 11
37.311735
 21
673.3832849999999
 31
0.0
  0
LINE
  5
AC
330
1E
100
AcDbEntity
  8
0
100
AcDbLine
 10
37.773235
 20
691.1432849999999
 30
0.0
 11
37.773235
 21
695.4352849999999
 31
0.0
  0
LINE
  5
AD
330
1E
100
AcDbEntity
  8
0
100
AcDbLine
 10
37.773235
 20
691.1432849999999
 30
0.0
 11
37.773235
 21
686.4812849999999
 31
0.0
  0
LINE
  5
AE
330
1E
100
AcDbEntity
  8
0
100
AcDbLine
 10
37.773235
 20
686.4812849999999
 30
0.0
 11
37.773235
 21
681.8192849999999
 31
0.0
  0
LINE
  5
AF
330
1E
100
AcDbEntity
  8
0
100
AcDbLine
 10
37.773235
 20
686.4812849999999
 30
0.0
 11
37.773235
 21
691.1432849999999
 31
0.0
  0
LINE
  5
B0
330
1E
100
AcDbEntity
  8
0
100
AcDbLine
 10
37.773235
 20
681.8192849999999
 30
0.0
 11
37.773235
 21
686.4812849999999
 31
0.0
  0
LINE
  5
B1
330
1E
100
AcDbEntity
  8
0
100
AcDbLine
 10
37.773235
 20
681.8192849999999
 30
0.0
 11
37.773235
 21
677.527285
 31
0.0
  0
LINE
  5
B2
330
1E
100
AcDbEntity
  8
0
100
AcDbLine
 10
37.773235
 20
677.527285
 30
0.0
 11
37.773235
 21
681.8192849999999
 31
0.0
  0
LINE
  5
B3
330
1E
100
AcDbEntity
  8
0
100
AcDbLine
 10
37.773235
 20
677.527285
 30
0.0
 11
37.773235
 21
673.753285
 31
0.0
  0
LINE
  5
B4
330
1E
100
AcDbEntity
  8
0
100
AcDbLine
 10
37.773235
 20
673.753285
 30
0.0
 11
37.773235
 21
677.527285
 31
0.0
  0
LINE
  5
B5
330
1E
100
AcDbEntity
  8
0
100
AcDbLine
 10
37.773235
 20
673.753285
 30
0.0
 11
37.773235
 21
670.8672849999999
 31
0.0
  0
LINE
  5
B6
330
1E
100
AcDbEntity
  8
0
100
AcDbLine
 10
37.773235
 20
670.8672849999999
 30
0.0
 11
37.773235
 21
673.753285
 31
0.0
  0
LINE
  5
B7
330
1E
100
AcDbEntity
  8
0
100
AcDbLine
 10
37.773235
 20
670.8672849999999
 30
0.0
 11
37.773235
 21
669.091285
 31
0.0
  0
LINE
  5
B8
330
1E
100
AcDbEntity
  8
0
100
AcDbLine
 10
38.234735
 20
691.2172849999999
 30
0.0
 11
38.234735
 21
686.4812849999999
 31
0.0
  0
LINE
  5
B9
330
1E
100
AcDbEntity
  8
0
100
AcDbLine
 10
38.234735
 20
691.2172849999999
 30
0.0
 11
38.234735
 21
695.657285
 31
0.0
  0
LINE
  5
BA
330
1E
100
AcDbEntity
  8
0
100
AcDbLine
 10
38.234735
 20
686.4812849999999
 30
0.0
 11
38.234735
 21
681.7452849999999
 31
0.0
  0
LINE
  5
BB
330
1E
100
AcDbEntity
  8
0
100
AcDbLine
 10
38.234735
 20
686.4812849999999
 30
0.0
 11
38.234735
 21
691.2172849999999
 31
0.0
  0
LINE
  5
BC
330
1E
100
AcDbEntity
  8
0
100
AcDbLine
 10
38.234735
 20
681.7452849999999
 30
0.0
 11
38.234735
 21
677.3052849999999
 31
0.0
  0
LINE
  5
BD
330
1E
100
AcDbEntity
  8
0
100
AcDbLine
 10
38.234735
 20
681.7452849999999
 30
0.0
 11
38.234735
 21
686.4812849999999
 31
0.0
  0
LINE
  5
BE
330
1E
100
AcDbEntity
  8
0
100
AcDbLine
 10
38.234735
 20
677.3052849999999
 30
0.0
 11
38.234735
 21
673.3832849999999
 31
0.0
  0
LINE
  5
BF
330
1E
100
AcDbEntity
  8
0
100
AcDbLine
 10
38.234735
 20
677.3052849999999
 30
0.0
 11
38.234735
 21
681.7452849999999
 31
0.0
  0
LINE
  5
C0
330
1E
100
AcDbEntity
  8
0
100
AcDbLine
 10
38.234735
 20
673.3832849999999
 30
0.0
 11
38.234735
 21
670.4232849999999
 31
0.0
  0
LINE
  5
C1
330
1E
100
AcDbEntity
  8
0
100
AcDbLine
 10
38.234735
 20
673.3832849999999
 30
0.0
 11
38.234735
 21
677.3052849999999
 31
0.0
  0
LINE
  5
C2
330
1E
100
AcDbEntity
  8
0
100
AcDbLine
 10
38.234735
 20
670.4232849999999
 30
0.0
 11
38.234735
 21
668.647285
 31
0.0
  0
LINE
  5
C3
330
1E
100
AcDbEntity
  8
0
100
AcDbLine
 10
38.234735
 20
670.4232849999999
 30
0.0
 11
38.234735
 21
673.3832849999999
 31
0.0
  0
LINE
  5
C4
330
1E
100
AcDbEntity
  8
0
100
AcDbLine
 10
38.234735
 20
668.647285
 30
0.0
 11
38.234735
 21
667.9812849999999
 31
0.0
  0
LINE
  5
C5
330
1E
100
AcDbEntity
  8
0
100
AcDbLine
 10
38.234735
 20
668.647285
 30
0.0
 11
38.234735
 21
670.4232849999999
 31
0.0
  0
LINE
  5
C6
330
1E
100
AcDbEntity
  8
0
100
AcDbLine
 10
37.773235
 20
669.091285
 30
0.0
 11
37.773235
 21
670.8672849999999
 31
0.0
  0
LINE
  5
C7
330
1E
100
AcDbEntity
  8
0
100
AcDbLine
 10
37.773235
 20
669.091285
 30
0.0
 11
37.773235
 21
668.4252849999999
 31
0.0
  0
LINE
  5
C8
330
1E
100
AcDbEntity
  8
0
100
AcDbLine
 10
37.773235
 20
668.4252849999999
 30
0.0
 11
37.773235
 21
669.091285
 31
0.0
  0
LINE
  5
C9
330
1E
100
AcDbEntity
  8
0
100
AcDbLine
 10
37.773235
 20
668.4252849999999
 30
0.0
 11
38.234735
 21
667.9812849999999
 31
0.0
  0
LINE
  5
CA
330
1E
100
AcDbEntity
  8
0
100
AcDbLine
 10
37.311735
 20
668.647285
 30
0.0
 11
37.311735
 21
667.9812849999999
 31
0.0
  0
LINE
  5
CB
330
1E
100
AcDbEntity
  8
0
100
AcDbLine
 10
37.311735
 20
668.647285
 30
0.0
 11
37.311735
 21
670.4232849999999
 31
0.0
  0
LINE
  5
CC
330
1E
100
AcDbEntity
  8
0
100
AcDbLine
 10
40.773235
 20
668.008965711894
 30
0.0
 11
40.773235
 21
320.4822849999999
 31
0.0
  0
LINE
  5
CD
330
1E
100
AcDbEntity
  8
0
100
AcDbLine
 10
62.773235
 20
667.9812849999999
 30
0.0
 11
62.773235
 21
320.4822849999999
 31
0.0
  0
LINE
  5
CE
330
1E
100
AcDbEntity
  8
0
100
AcDbLine
 10
62.773235
 20
667.9812849999999
 30
0.0
 11
99.31123499999999
 21
667.9812849999999
 31
0.0
  0
LINE
  5
CF
330
1E
100
AcDbEntity
  8
0
100
AcDbLine
 10
73.93783499999999
 20
654.3622849999999
 30
0.0
 11
74.1761354703669
 21
667.9812849999999
 31
0.0
  0
LINE
  5
D0
330
1E
100
AcDbEntity
  8
0
100
AcDbLine
 10
73.93783499999999
 20
654.3622849999999
 30
0.0
 11
74.00803499999999
 21
631.2562849999999
 31
0.0
  0
LINE
  5
D6
330
1E
100
AcDbEntity
  8
0
100
AcDbLine
 10
82.17753499999998
 20
4.393614999999959
 30
0.0
 11
83.2118890402509
 21
4.901174834964469
 31
0.0
  0
LINE
  5
D7
330
1E
100
AcDbEntity
  8
0
100
AcDbLine
 10
83.87189784741471
 20
5.22504262897229
 30
0.0
 11
85.086835
 21
5.821214999999959
 31
0.0
  0
LINE
  5
D8
330
1E
100
AcDbEntity
  8
0
100
AcDbLine
 10
83.415835
 20
5.00121499999996
 30
0.0
 11
86.214835
 21
6.374914999999959
 31
0.0
  0
LINE
  5
DD
330
1E
100
AcDbEntity
  8
0
100
AcDbLine
 10
0.298874999999993
 20
714.7212849999999
 30
0.0
 11
0.7386549999999929
 21
714.8812849999999
 31
0.0
  0
LINE
  5
DE
330
1E
100
AcDbEntity
  8
0
100
AcDbLine
 10
1.313744999999989
 20
715.090285
 30
0.0
 11
1.967774999999989
 21
715.3282849999999
 31
0.0
  0
LINE
  5
DF
330
1E
100
AcDbEntity
  8
0
100
AcDbLine
 10
1.967774999999989
 20
715.3282849999999
 30
0.0
 11
2.67818499999999
 21
715.5872849999999
 31
0.0
  0
LINE
  5
E0
330
1E
100
AcDbEntity
  8
0
100
AcDbLine
 10
0.7386549999999929
 20
714.8812849999999
 30
0.0
 11
1.313744999999989
 21
715.090285
 31
0.0
  0
LINE
  5
E1
330
1E
100
AcDbEntity
  8
0
100
AcDbLine
 10
0.0282449999999919
 20
714.6222849999999
 30
0.0
 11
0.298874999999993
 21
714.7212849999999
 31
0.0
  0
LINE
  5
E2
330
1E
100
AcDbEntity
  8
0
100
AcDbLine
 10
-0.0732350000000083
 20
714.5852849999999
 30
0.0
 11
0.0282449999999919
 21
714.6222849999999
 31
0.0
  0
LINE
  5
E3
330
1E
100
AcDbEntity
  8
0
100
AcDbLine
 10
-0.0732350000000083
 20
714.5852849999999
 30
0.0
 11
0.0643149999999927
 21
713.9972849999999
 31
0.0
  0
LINE
  5
E4
330
1E
100
AcDbEntity
  8
0
100
AcDbLine
 10
0.0643149999999927
 20
713.9972849999999
 30
0.0
 11
5.77323499999999
 21
698.3116843504119
 31
0.0
  0
LINE
  5
E5
330
1E
100
AcDbEntity
  8
0
100
AcDbLine
 10
0.0643149999999927
 20
713.9972849999999
 30
0.0
 11
5.77323499999999
 21
698.3116843504119
 31
0.0
  0
LINE
  5
E6
330
1E
100
AcDbEntity
  8
0
100
AcDbLine
 10
2.67818499999999
 20
715.5872849999999
 30
0.0
 11
3.38859499999999
 21
715.8452849999999
 31
0.0
  0
LINE
  5
E7
330
1E
100
AcDbEntity
  8
0
100
AcDbLine
 10
4.04261499999999
 20
716.0832849999999
 30
0.0
 11
4.61770499999999
 21
716.2932849999999
 31
0.0
  0
LINE
  5
E8
330
1E
100
AcDbEntity
  8
0
100
AcDbLine
 10
3.38859499999999
 20
715.8452849999999
 30
0.0
 11
4.04261499999999
 21
716.0832849999999
 31
0.0
  0
LINE
  5
E9
330
1E
100
AcDbEntity
  8
0
100
AcDbLine
 10
4.61770499999999
 20
716.2932849999999
 30
0.0
 11
5.05748499999999
 21
716.4532849999999
 31
0.0
  0
LINE
  5
EA
330
1E
100
AcDbEntity
  8
0
100
AcDbLine
 10
5.05748499999999
 20
716.4532849999999
 30
0.0
 11
5.32811499999999
 21
716.5512849999999
 31
0.0
  0
LINE
  5
EB
330
1E
100
AcDbEntity
  8
0
100
AcDbLine
 10
5.32811499999999
 20
716.5512849999999
 30
0.0
 11
5.42960499999999
 21
716.5882849999999
 31
0.0
  0
LINE
  5
EC
330
1E
100
AcDbEntity
  8
0
100
AcDbLine
 10
5.42960499999999
 20
716.5882849999999
 30
0.0
 11
5.70247499999999
 21
716.0492849999999
 31
0.0
  0
LINE
  5
ED
330
1E
100
AcDbEntity
  8
0
100
AcDbLine
 10
5.77323499999999
 20
698.3116843504119
 30
0.0
 11
5.77323499999999
 21
695.4352849999999
 31
0.0
  0
LINE
  5
EE
330
1E
100
AcDbEntity
  8
0
100
AcDbLine
 10
5.77323499999999
 20
695.4352849999999
 30
0.0
 11
5.77323499999999
 21
691.1432849999999
 31
0.0
  0
LINE
  5
EF
330
1E
100
AcDbEntity
  8
0
100
AcDbLine
 10
5.77323499999999
 20
695.4352849999999
 30
0.0
 11
5.77323499999999
 21
699.2092849999998
 31
0.0
  0
LINE
  5
F0
330
1E
100
AcDbEntity
  8
0
100
AcDbLine
 10
5.77323499999999
 20
695.4352849999999
 30
0.0
 11
5.77323499999999
 21
698.3116843504119
 31
0.0
  0
LINE
  5
F1
330
1E
100
AcDbEntity
  8
0
100
AcDbLine
 10
5.77323499999999
 20
699.2092849999998
 30
0.0
 11
5.77323499999999
 21
695.4352849999999
 31
0.0
  0
LINE
  5
F2
330
1E
100
AcDbEntity
  8
0
100
AcDbLine
 10
5.77323499999999
 20
699.2092849999998
 30
0.0
 11
5.77323499999999
 21
702.095285
 31
0.0
  0
LINE
  5
F3
330
1E
100
AcDbEntity
  8
0
100
AcDbLine
 10
6.23473499999999
 20
695.657285
 30
0.0
 11
6.23473499999999
 21
691.2172849999999
 31
0.0
  0
LINE
  5
F4
330
1E
100
AcDbEntity
  8
0
100
AcDbLine
 10
6.23473499999999
 20
695.657285
 30
0.0
 11
6.23473499999999
 21
699.5792849999999
 31
0.0
  0
LINE
  5
F5
330
1E
100
AcDbEntity
  8
0
100
AcDbLine
 10
5.77323499999999
 20
702.095285
 30
0.0
 11
5.77323499999999
 21
699.2092849999998
 31
0.0
  0
LINE
  5
F6
330
1E
100
AcDbEntity
  8
0
100
AcDbLine
 10
5.77323499999999
 20
702.095285
 30
0.0
 11
5.77323499999999
 21
703.8712849999999
 31
0.0
  0
LINE
  5
F7
330
1E
100
AcDbEntity
  8
0
100
AcDbLine
 10
6.23473499999999
 20
699.5792849999999
 30
0.0
 11
6.23473499999999
 21
695.657285
 31
0.0
  0
LINE
  5
F8
330
1E
100
AcDbEntity
  8
0
100
AcDbLine
 10
6.23473499999999
 20
699.5792849999999
 30
0.0
 11
6.23473499999999
 21
702.5392849999999
 31
0.0
  0
LINE
  5
F9
330
1E
100
AcDbEntity
  8
0
100
AcDbLine
 10
37.311735
 20
695.657285
 30
0.0
 11
37.311735
 21
699.5792849999999
 31
0.0
  0
LINE
  5
FA
330
1E
100
AcDbEntity
  8
0
100
AcDbLine
 10
37.311735
 20
695.657285
 30
0.0
 11
37.311735
 21
691.2172849999999
 31
0.0
  0
LINE
  5
FB
330
1E
100
AcDbEntity
  8
0
100
AcDbLine
 10
5.77323499999999
 20
703.8712849999999
 30
0.0
 11
5.77323499999999
 21
702.095285
 31
0.0
  0
LINE
  5
FC
330
1E
100
AcDbEntity
  8
0
100
AcDbLine
 10
6.23473499999999
 20
702.5392849999999
 30
0.0
 11
6.23473499999999
 21
699.5792849999999
 31
0.0
  0
LINE
  5
FD
330
1E
100
AcDbEntity
  8
0
100
AcDbLine
 10
6.23473499999999
 20
702.5392849999999
 30
0.0
 11
6.23473499999999
 21
704.315285
 31
0.0
  0
LINE
  5
FE
330
1E
100
AcDbEntity
  8
0
100
AcDbLine
 10
37.311735
 20
699.5792849999999
 30
0.0
 11
37.311735
 21
702.5392849999999
 31
0.0
  0
LINE
  5
FF
330
1E
100
AcDbEntity
  8
0
100
AcDbLine
 10
37.311735
 20
699.5792849999999
 30
0.0
 11
37.311735
 21
695.657285
 31
0.0
  0
LINE
  5
100
330
1E
100
AcDbEntity
  8
0
100
AcDbLine
 10
6.23473499999999
 20
704.315285
 30
0.0
 11
6.23473499999999
 21
702.5392849999999
 31
0.0
  0
LINE
  5
101
330
1E
100
AcDbEntity
  8
0
100
AcDbLine
 10
6.23473499999999
 20
704.315285
 30
0.0
 11
6.23473499999999
 21
704.464781090777
 31
0.0
  0
LINE
  5
102
330
1E
100
AcDbEntity
  8
0
100
AcDbLine
 10
37.773235
 20
695.4352849999999
 30
0.0
 11
37.773235
 21
699.2092849999998
 31
0.0
  0
LINE
  5
103
330
1E
100
AcDbEntity
  8
0
100
AcDbLine
 10
37.773235
 20
695.4352849999999
 30
0.0
 11
37.773235
 21
691.1432849999999
 31
0.0
  0
LINE
  5
104
330
1E
100
AcDbEntity
  8
0
100
AcDbLine
 10
37.773235
 20
699.2092849999998
 30
0.0
 11
37.773235
 21
702.095285
 31
0.0
  0
LINE
  5
105
330
1E
100
AcDbEntity
  8
0
100
AcDbLine
 10
37.773235
 20
699.2092849999998
 30
0.0
 11
37.773235
 21
695.4352849999999
 31
0.0
  0
LINE
  5
106
330
1E
100
AcDbEntity
  8
0
100
AcDbLine
 10
38.234735
 20
695.657285
 30
0.0
 11
38.234735
 21
691.2172849999999
 31
0.0
  0
LINE
  5
107
330
1E
100
AcDbEntity
  8
0
100
AcDbLine
 10
38.234735
 20
695.657285
 30
0.0
 11
38.234735
 21
699.5792849999999
 31
0.0
  0
LINE
  5
108
330
1E
100
AcDbEntity
  8
0
100
AcDbLine
 10
38.234735
 20
699.5792849999999
 30
0.0
 11
38.234735
 21
695.657285
 31
0.0
  0
LINE
  5
109
330
1E
100
AcDbEntity
  8
0
100
AcDbLine
 10
38.234735
 20
699.5792849999999
 30
0.0
 11
38.234735
 21
702.5392849999999
 31
0.0
  0
LINE
  5
10A
330
1E
100
AcDbEntity
  8
0
100
AcDbLine
 10
38.234735
 20
702.5392849999999
 30
0.0
 11
38.234735
 21
699.5792849999999
 31
0.0
  0
LINE
  5
10B
330
1E
100
AcDbEntity
  8
0
100
AcDbLine
 10
38.234735
 20
702.5392849999999
 30
0.0
 11
38.234735
 21
704.315285
 31
0.0
  0
LINE
  5
10C
330
1E
100
AcDbEntity
  8
0
100
AcDbLine
 10
37.773235
 20
702.095285
 30
0.0
 11
37.773235
 21
703.8712849999999
 31
0.0
  0
LINE
  5
10D
330
1E
100
AcDbEntity
  8
0
100
AcDbLine
 10
37.773235
 20
702.095285
 30
0.0
 11
37.773235
 21
699.2092849999998
 31
0.0
  0
LINE
  5
10E
330
1E
100
AcDbEntity
  8
0
100
AcDbLine
 10
38.234735
 20
704.315285
 30
0.0
 11
38.234735
 21
702.5392849999999
 31
0.0
  0
LINE
  5
10F
330
1E
100
AcDbEntity
  8
0
100
AcDbLine
 10
38.234735
 20
704.315285
 30
0.0
 11
38.234735
 21
704.9812849999999
 31
0.0
  0
LINE
  5
110
330
1E
100
AcDbEntity
  8
0
100
AcDbLine
 10
37.773235
 20
703.8712849999999
 30
0.0
 11
37.773235
 21
704.5372849999999
 31
0.0
  0
LINE
  5
111
330
1E
100
AcDbEntity
  8
0
100
AcDbLine
 10
37.773235
 20
703.8712849999999
 30
0.0
 11
37.773235
 21
702.095285
 31
0.0
  0
LINE
  5
112
330
1E
100
AcDbEntity
  8
0
100
AcDbLine
 10
37.311735
 20
702.5392849999999
 30
0.0
 11
37.311735
 21
704.315285
 31
0.0
  0
LINE
  5
113
330
1E
100
AcDbEntity
  8
0
100
AcDbLine
 10
37.311735
 20
702.5392849999999
 30
0.0
 11
37.311735
 21
699.5792849999999
 31
0.0
  0
LINE
  5
114
330
1E
100
AcDbEntity
  8
0
100
AcDbLine
 10
38.234735
 20
704.9812849999999
 30
0.0
 11
38.234735
 21
704.315285
 31
0.0
  0
LINE
  5
115
330
1E
100
AcDbEntity
  8
0
100
AcDbLine
 10
38.234735
 20
704.9812849999999
 30
0.0
 11
40.773235
 21
704.9812849999999
 31
0.0
  0
LINE
  5
116
330
1E
100
AcDbEntity
  8
0
100
AcDbLine
 10
38.234735
 20
704.9812849999999
 30
0.0
 11
40.773235
 21
704.9812849999999
 31
0.0
  0
LINE
  5
117
330
1E
100
AcDbEntity
  8
0
100
AcDbLine
 10
37.773235
 20
704.5372849999999
 30
0.0
 11
37.773235
 21
703.8712849999999
 31
0.0
  0
LINE
  5
118
330
1E
100
AcDbEntity
  8
0
100
AcDbLine
 10
37.773235
 20
704.5372849999999
 30
0.0
 11
38.234735
 21
704.9812849999999
 31
0.0
  0
LINE
  5
119
330
1E
100
AcDbEntity
  8
0
100
AcDbLine
 10
37.311735
 20
704.9812849999999
 30
0.0
 11
37.311735
 21
704.315285
 31
0.0
  0
LINE
  5
11A
330
1E
100
AcDbEntity
  8
0
100
AcDbLine
 10
37.311735
 20
704.9812849999999
 30
0.0
 11
37.773235
 21
704.5372849999999
 31
0.0
  0
LINE
  5
11B
330
1E
100
AcDbEntity
  8
0
100
AcDbLine
 10
9.68951361241525
 20
704.9812849999999
 30
0.0
 11
37.311735
 21
704.9812849999999
 31
0.0
  0
LINE
  5
11C
330
1E
100
AcDbEntity
  8
0
100
AcDbLine
 10
9.68951361241525
 20
704.9812849999999
 30
0.0
 11
37.311735
 21
704.9812849999999
 31
0.0
  0
LINE
  5
11D
330
1E
100
AcDbEntity
  8
0
100
AcDbLine
 10
6.23473499999999
 20
704.464781090777
 30
0.0
 11
6.23473499999999
 21
704.315285
 31
0.0
  0
LINE
  5
11E
330
1E
100
AcDbEntity
  8
0
100
AcDbLine
 10
37.311735
 20
704.315285
 30
0.0
 11
37.311735
 21
704.9812849999999
 31
0.0
  0
LINE
  5
11F
330
1E
100
AcDbEntity
  8
0
100
AcDbLine
 10
37.311735
 20
704.315285
 30
0.0
 11
37.311735
 21
702.5392849999999
 31
0.0
  0
LINE
  5
120
330
1E
100
AcDbEntity
  8
0
100
AcDbLine
 10
5.70247499999999
 20
716.0492849999999
 30
0.0
 11
9.730970944476599
 21
704.9812849999999
 31
0.0
  0
LINE
  5
12C
330
1E
100
AcDbEntity
  8
0
100
AcDbLine
 10
40.773235
 20
704.9812849999999
 30
0.0
 11
40.773235
 21
815.0654420680631
 31
0.0
  0
LINE
  5
12F
330
1E
100
AcDbEntity
  8
0
100
AcDbLine
 10
40.773235
 20
815.0654420680631
 30
0.0
 11
40.773235
 21
704.9812849999999
 31
0.0
  0
LINE
  5
1A8
330
1E
100
AcDbEntity
  8
0
100
AcDbLine
 10
40.773235
 20
833.7352843876299
 30
0.0
 11
40.773235
 21
884.480285
 31
0.0
  0
LINE
  5
1C3
330
1E
100
AcDbEntity
  8
0
100
AcDbLine
 10
62.773235
 20
704.9812849999999
 30
0.0
 11
62.773235
 21
796.3383191508141
 31
0.0
  0
LINE
  5
1C4
330
1E
100
AcDbEntity
  8
0
100
AcDbLine
 10
62.773235
 20
704.9812849999999
 30
0.0
 11
66.8188894533387
 21
704.9812849999999
 31
0.0
  0
LINE
  5
1C5
330
1E
100
AcDbEntity
  8
0
100
AcDbLine
 10
66.38483499999999
 20
722.7502849999999
 30
0.0
 11
66.60133499999999
 21
713.080285
 31
0.0
  0
LINE
  5
1C6
330
1E
100
AcDbEntity
  8
0
100
AcDbLine
 10
66.21783499999999
 20
732.206285
 30
0.0
 11
66.38483499999999
 21
722.7502849999999
 31
0.0
  0
LINE
  5
1C7
330
1E
100
AcDbEntity
  8
0
100
AcDbLine
 10
66.876535
 20
702.998285
 30
0.0
 11
66.91903499999999
 21
702.767285
 31
0.0
  0
LINE
  5
1C8
330
1E
100
AcDbEntity
  8
0
100
AcDbLine
 10
66.86643499999999
 20
703.2112849999999
 30
0.0
 11
66.876535
 21
702.998285
 31
0.0
  0
LINE
  5
1C9
330
1E
100
AcDbEntity
  8
0
100
AcDbLine
 10
66.60133499999999
 20
713.080285
 30
0.0
 11
66.86643499999999
 21
703.2112849999999
 31
0.0
  0
LINE
  5
1CA
330
1E
100
AcDbEntity
  8
0
100
AcDbLine
 10
66.07323499999999
 20
753.2612849999999
 30
0.0
 11
66.17943499999999
 21
764.504285
 31
0.0
  0
LINE
  5
1CB
330
1E
100
AcDbEntity
  8
0
100
AcDbLine
 10
66.283635
 20
769.8612849999999
 30
0.0
 11
66.41513499999999
 21
775.0192849999999
 31
0.0
  0
LINE
  5
1CC
330
1E
100
AcDbEntity
  8
0
100
AcDbLine
 10
66.60433499999999
 20
780.312285
 30
0.0
 11
66.894735
 21
785.6742849999999
 31
0.0
  0
LINE
  5
1CD
330
1E
100
AcDbEntity
  8
0
100
AcDbLine
 10
66.41513499999999
 20
775.0192849999999
 30
0.0
 11
66.60433499999999
 21
780.312285
 31
0.0
  0
LINE
  5
1CF
330
1E
100
AcDbEntity
  8
0
100
AcDbLine
 10
66.17943499999999
 20
764.504285
 30
0.0
 11
66.283635
 21
769.8612849999999
 31
0.0
  0
LINE
  5
1D0
330
1E
100
AcDbEntity
  8
0
100
AcDbLine
 10
66.007435
 20
741.4172849999999
 30
0.0
 11
66.21783499999999
 21
732.206285
 31
0.0
  0
LINE
  5
1D1
330
1E
100
AcDbEntity
  8
0
100
AcDbLine
 10
65.97303499999999
 20
747.4072849999999
 30
0.0
 11
66.07323499999999
 21
753.2612849999999
 31
0.0
  0
LINE
  5
1D2
330
1E
100
AcDbEntity
  8
0
100
AcDbLine
 10
65.97303499999999
 20
747.4072849999999
 30
0.0
 11
66.007435
 21
741.4172849999999
 31
0.0
  0
LINE
  5
20C
330
1E
100
AcDbEntity
  8
0
100
AcDbLine
 10
62.773235
 20
796.3383191508141
 30
0.0
 11
62.773235
 21
704.9812849999999
 31
0.0
  0
LINE
  5
2D6
330
1E
100
AcDbEntity
  8
0
100
AcDbLine
 10
70.552235
 20
697.7522849999999
 30
0.0
 11
72.192335
 21
696.8202849999999
 31
0.0
  0
LINE
  5
31B
330
1E
100
AcDbEntity
  8
0
100
AcDbLine
 10
74.06413499999999
 20
696.0822849999999
 30
0.0
 11
76.086635
 21
695.5602849999999
 31
0.0
  0
LINE
  5
37F
330
1E
100
AcDbEntity
  8
0
100
AcDbLine
 10
78.146535
 20
695.243285
 30
0.0
 11
80.100335
 21
695.0792849999999
 31
0.0
  0
LINE
  5
380
330
1E
100
AcDbEntity
  8
0
100
AcDbLine
 10
76.086635
 20
695.5602849999999
 30
0.0
 11
78.146535
 21
695.243285
 31
0.0
  0
LINE
  5
381
330
1E
100
AcDbEntity
  8
0
100
AcDbLine
 10
80.100335
 20
695.0792849999999
 30
0.0
 11
82.07323499999999
 21
695.0302849999999
 31
0.0
  0
LINE
  5
382
330
1E
100
AcDbEntity
  8
0
100
AcDbLine
 10
72.192335
 20
696.8202849999999
 30
0.0
 11
74.06413499999999
 21
696.0822849999999
 31
0.0
  0
LINE
  5
38E
330
1E
100
AcDbEntity
  8
0
100
AcDbLine
 10
62.773235
 20
849.8667012891209
 30
0.0
 11
62.773235
 21
884.480285
 31
0.0
  0
LINE
  5
3B8
330
1E
100
AcDbEntity
  8
0
100
AcDbLine
 10
40.773235
 20
885.481285
 30
0.0
 11
40.773235
 21
936.4812849999999
 31
0.0
  0
LINE
  5
3B9
330
1E
100
AcDbEntity
  8
0
100
AcDbLine
 10
40.773235
 20
885.481285
 30
0.0
 11
41.173235
 21
885.481285
 31
0.0
  0
LINE
  5
3BA
330
1E
100
AcDbEntity
  8
0
100
AcDbLine
 10
40.773235
 20
885.481285
 30
0.0
 11
41.273235
 21
884.9812849999999
 31
0.0
  0
LINE
  5
3BB
330
1E
100
AcDbEntity
  8
0
100
AcDbLine
 10
40.773235
 20
936.4812849999999
 30
0.0
 11
41.273235
 21
936.981285
 31
0.0
  0
LINE
  5
3BC
330
1E
100
AcDbEntity
  8
0
100
AcDbLine
 10
40.773235
 20
936.4812849999999
 30
0.0
 11
41.173235
 21
936.4812849999999
 31
0.0
  0
LINE
  5
3BD
330
1E
100
AcDbEntity
  8
0
100
AcDbLine
 10
40.773235
 20
936.4812849999999
 30
0.0
 11
40.773235
 21
885.481285
 31
0.0
  0
LINE
  5
3BE
330
1E
100
AcDbEntity
  8
0
100
AcDbLine
 10
51.77323499999999
 20
884.480285
 30
0.0
 11
54.573235
 21
884.480285
 31
0.0
  0
LINE
  5
3BF
330
1E
100
AcDbEntity
  8
0
100
AcDbLine
 10
54.573235
 20
884.480285
 30
0.0
 11
57.273235
 21
884.480285
 31
0.0
  0
LINE
  5
3C0
330
1E
100
AcDbEntity
  8
0
100
AcDbLine
 10
57.273235
 20
884.480285
 30
0.0
 11
59.573235
 21
884.480285
 31
0.0
  0
LINE
  5
3C1
330
1E
100
AcDbEntity
  8
0
100
AcDbLine
 10
59.573235
 20
884.480285
 30
0.0
 11
61.273235
 21
884.480285
 31
0.0
  0
LINE
  5
3C2
330
1E
100
AcDbEntity
  8
0
100
AcDbLine
 10
61.273235
 20
884.480285
 30
0.0
 11
62.373235
 21
884.480285
 31
0.0
  0
LINE
  5
3C3
330
1E
100
AcDbEntity
  8
0
100
AcDbLine
 10
62.373235
 20
884.480285
 30
0.0
 11
62.773235
 21
884.480285
 31
0.0
  0
LINE
  5
3C4
330
1E
100
AcDbEntity
  8
0
100
AcDbLine
 10
62.773235
 20
884.480285
 30
0.0
 11
62.773235
 21
849.8667012891209
 31
0.0
  0
LINE
  5
3C5
330
1E
100
AcDbEntity
  8
0
100
AcDbLine
 10
48.97323499999999
 20
884.480285
 30
0.0
 11
51.77323499999999
 21
884.480285
 31
0.0
  0
LINE
  5
3C6
330
1E
100
AcDbEntity
  8
0
100
AcDbLine
 10
46.273235
 20
884.480285
 30
0.0
 11
48.97323499999999
 21
884.480285
 31
0.0
  0
LINE
  5
3C7
330
1E
100
AcDbEntity
  8
0
100
AcDbLine
 10
43.97323499999999
 20
884.480285
 30
0.0
 11
46.273235
 21
884.480285
 31
0.0
  0
LINE
  5
3C8
330
1E
100
AcDbEntity
  8
0
100
AcDbLine
 10
42.27323499999999
 20
884.480285
 30
0.0
 11
43.97323499999999
 21
884.480285
 31
0.0
  0
LINE
  5
3C9
330
1E
100
AcDbEntity
  8
0
100
AcDbLine
 10
41.173235
 20
885.481285
 30
0.0
 11
42.27323499999999
 21
885.481285
 31
0.0
  0
LINE
  5
3CA
330
1E
100
AcDbEntity
  8
0
100
AcDbLine
 10
41.173235
 20
936.4812849999999
 30
0.0
 11
42.27323499999999
 21
936.4812849999999
 31
0.0
  0
LINE
  5
3CB
330
1E
100
AcDbEntity
  8
0
100
AcDbLine
 10
41.273235
 20
936.981285
 30
0.0
 11
41.673235
 21
936.981285
 31
0.0
  0
LINE
  5
3CC
330
1E
100
AcDbEntity
  8
0
100
AcDbLine
 10
51.77323499999999
 20
884.9812849999999
 30
0.0
 11
54.47323499999999
 21
884.9812849999999
 31
0.0
  0
LINE
  5
3CD
330
1E
100
AcDbEntity
  8
0
100
AcDbLine
 10
54.47323499999999
 20
884.9812849999999
 30
0.0
 11
56.97323499999999
 21
884.9812849999999
 31
0.0
  0
LINE
  5
3CE
330
1E
100
AcDbEntity
  8
0
100
AcDbLine
 10
56.97323499999999
 20
884.9812849999999
 30
0.0
 11
59.173235
 21
884.9812849999999
 31
0.0
  0
LINE
  5
3CF
330
1E
100
AcDbEntity
  8
0
100
AcDbLine
 10
59.173235
 20
884.9812849999999
 30
0.0
 11
60.873235
 21
884.9812849999999
 31
0.0
  0
LINE
  5
3D0
330
1E
100
AcDbEntity
  8
0
100
AcDbLine
 10
60.873235
 20
884.9812849999999
 30
0.0
 11
61.873235
 21
884.9812849999999
 31
0.0
  0
LINE
  5
3D1
330
1E
100
AcDbEntity
  8
0
100
AcDbLine
 10
61.873235
 20
884.9812849999999
 30
0.0
 11
62.273235
 21
884.9812849999999
 31
0.0
  0
LINE
  5
3D2
330
1E
100
AcDbEntity
  8
0
100
AcDbLine
 10
62.273235
 20
884.9812849999999
 30
0.0
 11
62.773235
 21
884.480285
 31
0.0
  0
LINE
  5
3D3
330
1E
100
AcDbEntity
  8
0
100
AcDbLine
 10
49.073235
 20
884.9812849999999
 30
0.0
 11
51.77323499999999
 21
884.9812849999999
 31
0.0
  0
LINE
  5
3D4
330
1E
100
AcDbEntity
  8
0
100
AcDbLine
 10
46.57323499999999
 20
884.9812849999999
 30
0.0
 11
49.073235
 21
884.9812849999999
 31
0.0
  0
LINE
  5
3D5
330
1E
100
AcDbEntity
  8
0
100
AcDbLine
 10
44.373235
 20
884.9812849999999
 30
0.0
 11
46.57323499999999
 21
884.9812849999999
 31
0.0
  0
LINE
  5
3D6
330
1E
100
AcDbEntity
  8
0
100
AcDbLine
 10
42.67323499999999
 20
884.9812849999999
 30
0.0
 11
44.373235
 21
884.9812849999999
 31
0.0
  0
LINE
  5
3D7
330
1E
100
AcDbEntity
  8
0
100
AcDbLine
 10
43.97323499999999
 20
885.481285
 30
0.0
 11
46.273235
 21
885.481285
 31
0.0
  0
LINE
  5
3D8
330
1E
100
AcDbEntity
  8
0
100
AcDbLine
 10
42.27323499999999
 20
885.481285
 30
0.0
 11
43.97323499999999
 21
885.481285
 31
0.0
  0
LINE
  5
3D9
330
1E
100
AcDbEntity
  8
0
100
AcDbLine
 10
43.97323499999999
 20
936.4812849999999
 30
0.0
 11
46.273235
 21
936.4812849999999
 31
0.0
  0
LINE
  5
3DA
330
1E
100
AcDbEntity
  8
0
100
AcDbLine
 10
42.27323499999999
 20
936.4812849999999
 30
0.0
 11
43.97323499999999
 21
936.4812849999999
 31
0.0
  0
LINE
  5
3DB
330
1E
100
AcDbEntity
  8
0
100
AcDbLine
 10
48.97323499999999
 20
885.481285
 30
0.0
 11
51.77323499999999
 21
885.481285
 31
0.0
  0
LINE
  5
3DC
330
1E
100
AcDbEntity
  8
0
100
AcDbLine
 10
46.273235
 20
885.481285
 30
0.0
 11
48.97323499999999
 21
885.481285
 31
0.0
  0
LINE
  5
3DD
330
1E
100
AcDbEntity
  8
0
100
AcDbLine
 10
48.97323499999999
 20
936.4812849999999
 30
0.0
 11
51.77323499999999
 21
936.4812849999999
 31
0.0
  0
LINE
  5
3DE
330
1E
100
AcDbEntity
  8
0
100
AcDbLine
 10
46.273235
 20
936.4812849999999
 30
0.0
 11
48.97323499999999
 21
936.4812849999999
 31
0.0
  0
LINE
  5
3DF
330
1E
100
AcDbEntity
  8
0
100
AcDbLine
 10
51.77323499999999
 20
885.481285
 30
0.0
 11
54.573235
 21
885.481285
 31
0.0
  0
LINE
  5
3E0
330
1E
100
AcDbEntity
  8
0
100
AcDbLine
 10
51.77323499999999
 20
936.4812849999999
 30
0.0
 11
54.573235
 21
936.4812849999999
 31
0.0
  0
LINE
  5
3E1
330
1E
100
AcDbEntity
  8
0
100
AcDbLine
 10
54.573235
 20
885.481285
 30
0.0
 11
57.273235
 21
885.481285
 31
0.0
  0
LINE
  5
3E2
330
1E
100
AcDbEntity
  8
0
100
AcDbLine
 10
54.573235
 20
936.4812849999999
 30
0.0
 11
57.273235
 21
936.4812849999999
 31
0.0
  0
LINE
  5
3E3
330
1E
100
AcDbEntity
  8
0
100
AcDbLine
 10
51.77323499999999
 20
936.981285
 30
0.0
 11
54.47323499999999
 21
936.981285
 31
0.0
  0
LINE
  5
3E4
330
1E
100
AcDbEntity
  8
0
100
AcDbLine
 10
54.47323499999999
 20
936.981285
 30
0.0
 11
56.97323499999999
 21
936.981285
 31
0.0
  0
LINE
  5
3E5
330
1E
100
AcDbEntity
  8
0
100
AcDbLine
 10
57.273235
 20
885.481285
 30
0.0
 11
59.573235
 21
885.481285
 31
0.0
  0
LINE
  5
3E6
330
1E
100
AcDbEntity
  8
0
100
AcDbLine
 10
59.573235
 20
885.481285
 30
0.0
 11
61.273235
 21
885.481285
 31
0.0
  0
LINE
  5
3E7
330
1E
100
AcDbEntity
  8
0
100
AcDbLine
 10
57.273235
 20
936.4812849999999
 30
0.0
 11
59.573235
 21
936.4812849999999
 31
0.0
  0
LINE
  5
3E8
330
1E
100
AcDbEntity
  8
0
100
AcDbLine
 10
59.573235
 20
936.4812849999999
 30
0.0
 11
61.273235
 21
936.4812849999999
 31
0.0
  0
LINE
  5
3E9
330
1E
100
AcDbEntity
  8
0
100
AcDbLine
 10
56.97323499999999
 20
936.981285
 30
0.0
 11
59.173235
 21
936.981285
 31
0.0
  0
LINE
  5
3EA
330
1E
100
AcDbEntity
  8
0
100
AcDbLine
 10
59.173235
 20
936.981285
 30
0.0
 11
60.873235
 21
936.981285
 31
0.0
  0
LINE
  5
3EB
330
1E
100
AcDbEntity
  8
0
100
AcDbLine
 10
61.273235
 20
885.481285
 30
0.0
 11
62.373235
 21
885.481285
 31
0.0
  0
LINE
  5
3EC
330
1E
100
AcDbEntity
  8
0
100
AcDbLine
 10
62.373235
 20
885.481285
 30
0.0
 11
62.773235
 21
885.481285
 31
0.0
  0
LINE
  5
3ED
330
1E
100
AcDbEntity
  8
0
100
AcDbLine
 10
61.273235
 20
936.4812849999999
 30
0.0
 11
62.373235
 21
936.4812849999999
 31
0.0
  0
LINE
  5
3EE
330
1E
100
AcDbEntity
  8
0
100
AcDbLine
 10
62.373235
 20
936.4812849999999
 30
0.0
 11
62.773235
 21
936.4812849999999
 31
0.0
  0
LINE
  5
3EF
330
1E
100
AcDbEntity
  8
0
100
AcDbLine
 10
62.273235
 20
936.981285
 30
0.0
 11
62.773235
 21
936.4812849999999
 31
0.0
  0
LINE
  5
3F0
330
1E
100
AcDbEntity
  8
0
100
AcDbLine
 10
60.873235
 20
936.981285
 30
0.0
 11
61.873235
 21
936.981285
 31
0.0
  0
LINE
  5
3F1
330
1E
100
AcDbEntity
  8
0
100
AcDbLine
 10
61.873235
 20
936.981285
 30
0.0
 11
62.273235
 21
936.981285
 31
0.0
  0
LINE
  5
3F2
330
1E
100
AcDbEntity
  8
0
100
AcDbLine
 10
49.073235
 20
936.981285
 30
0.0
 11
51.77323499999999
 21
936.981285
 31
0.0
  0
LINE
  5
3F3
330
1E
100
AcDbEntity
  8
0
100
AcDbLine
 10
46.57323499999999
 20
936.981285
 30
0.0
 11
49.073235
 21
936.981285
 31
0.0
  0
LINE
  5
3F4
330
1E
100
AcDbEntity
  8
0
100
AcDbLine
 10
44.373235
 20
936.981285
 30
0.0
 11
46.57323499999999
 21
936.981285
 31
0.0
  0
LINE
  5
3F5
330
1E
100
AcDbEntity
  8
0
100
AcDbLine
 10
42.67323499999999
 20
936.981285
 30
0.0
 11
44.373235
 21
936.981285
 31
0.0
  0
LINE
  5
3F6
330
1E
100
AcDbEntity
  8
0
100
AcDbLine
 10
41.673235
 20
936.981285
 30
0.0
 11
42.67323499999999
 21
936.981285
 31
0.0
  0
LINE
  5
3F7
330
1E
100
AcDbEntity
  8
0
100
AcDbLine
 10
41.673235
 20
884.9812849999999
 30
0.0
 11
42.67323499999999
 21
884.9812849999999
 31
0.0
  0
LINE
  5
3F8
330
1E
100
AcDbEntity
  8
0
100
AcDbLine
 10
41.273235
 20
884.9812849999999
 30
0.0
 11
41.673235
 21
884.9812849999999
 31
0.0
  0
LINE
  5
3F9
330
1E
100
AcDbEntity
  8
0
100
AcDbLine
 10
41.173235
 20
884.480285
 30
0.0
 11
42.27323499999999
 21
884.480285
 31
0.0
  0
LINE
  5
3FA
330
1E
100
AcDbEntity
  8
0
100
AcDbLine
 10
40.773235
 20
884.480285
 30
0.0
 11
41.173235
 21
884.480285
 31
0.0
  0
LINE
  5
3FB
330
1E
100
AcDbEntity
  8
0
100
AcDbLine
 10
40.773235
 20
884.480285
 30
0.0
 11
41.273235
 21
884.9812849999999
 31
0.0
  0
LINE
  5
3FC
330
1E
100
AcDbEntity
  8
0
100
AcDbLine
 10
40.773235
 20
884.480285
 30
0.0
 11
40.773235
 21
833.7352843876299
 31
0.0
  0
LINE
  5
3FF
330
1E
100
AcDbEntity
  8
0
100
AcDbLine
 10
82.07323499999999
 20
695.0302849999999
 30
0.0
 11
84.04613499999999
 21
695.0792849999999
 31
0.0
  0
LINE
  5
400
330
1E
100
AcDbEntity
  8
0
100
AcDbLine
 10
85.086835
 20
5.821214999999959
 30
0.0
 11
87.48283499999999
 21
6.997314999999959
 31
0.0
  0
LINE
  5
401
330
1E
100
AcDbEntity
  8
0
100
AcDbLine
 10
87.48283499999999
 20
6.997314999999959
 30
0.0
 11
88.917535
 21
7.701114999999959
 31
0.0
  0
LINE
  5
402
330
1E
100
AcDbEntity
  8
0
100
AcDbLine
 10
86.214835
 20
6.374914999999959
 30
0.0
 11
88.154135
 21
7.327014999999959
 31
0.0
  0
LINE
  5
403
330
1E
100
AcDbEntity
  8
0
100
AcDbLine
 10
85.999935
 20
695.243285
 30
0.0
 11
88.05983499999999
 21
695.5602849999999
 31
0.0
  0
LINE
  5
404
330
1E
100
AcDbEntity
  8
0
100
AcDbLine
 10
89.18423500000001
 20
7.83221499999999
 30
0.0
 11
90.14803499999999
 21
525.363285
 31
0.0
  0
LINE
  5
405
330
1E
100
AcDbEntity
  8
0
100
AcDbLine
 10
88.917535
 20
7.701114999999959
 30
0.0
 11
89.18423500000001
 21
7.832214999999959
 31
0.0
  0
LINE
  5
406
330
1E
100
AcDbEntity
  8
0
100
AcDbLine
 10
89.18423500000001
 20
7.832214999999959
 30
0.0
 11
90.14803499999999
 21
525.363285
 31
0.0
  0
LINE
  5
407
330
1E
100
AcDbEntity
  8
0
100
AcDbLine
 10
88.154135
 20
7.327014999999959
 30
0.0
 11
89.18423500000001
 21
7.832214999999959
 31
0.0
  0
LINE
  5
408
330
1E
100
AcDbEntity
  8
0
100
AcDbLine
 10
90.131835
 20
558.364285
 30
0.0
 11
90.14803499999999
 21
525.363285
 31
0.0
  0
LINE
  5
409
330
1E
100
AcDbEntity
  8
0
100
AcDbLine
 10
90.10283499999999
 20
581.3712849999999
 30
0.0
 11
90.131835
 21
558.364285
 31
0.0
  0
LINE
  5
40A
330
1E
100
AcDbEntity
  8
0
100
AcDbLine
 10
90.061835
 20
606.1682849999999
 30
0.0
 11
90.10283499999999
 21
581.3712849999999
 31
0.0
  0
LINE
  5
40B
330
1E
100
AcDbEntity
  8
0
100
AcDbLine
 10
90.006935
 20
631.2652849999999
 30
0.0
 11
90.061835
 21
606.1682849999999
 31
0.0
  0
LINE
  5
40C
330
1E
100
AcDbEntity
  8
0
100
AcDbLine
 10
99.31123499999999
 20
691.2172849999999
 30
0.0
 11
99.31123499999999
 21
695.657285
 31
0.0
  0
LINE
  5
40D
330
1E
100
AcDbEntity
  8
0
100
AcDbLine
 10
99.31123499999999
 20
691.2172849999999
 30
0.0
 11
99.31123499999999
 21
686.4812849999999
 31
0.0
  0
LINE
  5
40E
330
1E
100
AcDbEntity
  8
0
100
AcDbLine
 10
99.31123499999999
 20
695.657285
 30
0.0
 11
99.31123499999999
 21
699.5792849999999
 31
0.0
  0
LINE
  5
40F
330
1E
100
AcDbEntity
  8
0
100
AcDbLine
 10
99.31123499999999
 20
695.657285
 30
0.0
 11
99.31123499999999
 21
691.2172849999999
 31
0.0
  0
LINE
  5
410
330
1E
100
AcDbEntity
  8
0
100
AcDbLine
 10
99.31123499999999
 20
686.4812849999999
 30
0.0
 11
99.31123499999999
 21
681.7452849999999
 31
0.0
  0
LINE
  5
411
330
1E
100
AcDbEntity
  8
0
100
AcDbLine
 10
99.31123499999999
 20
686.4812849999999
 30
0.0
 11
99.31123499999999
 21
691.2172849999999
 31
0.0
  0
LINE
  5
412
330
1E
100
AcDbEntity
  8
0
100
AcDbLine
 10
99.31123499999999
 20
681.7452849999999
 30
0.0
 11
99.31123499999999
 21
677.3052849999999
 31
0.0
  0
LINE
  5
413
330
1E
100
AcDbEntity
  8
0
100
AcDbLine
 10
99.31123499999999
 20
681.7452849999999
 30
0.0
 11
99.31123499999999
 21
686.4812849999999
 31
0.0
  0
LINE
  5
414
330
1E
100
AcDbEntity
  8
0
100
AcDbLine
 10
99.31123499999999
 20
677.3052849999999
 30
0.0
 11
99.31123499999999
 21
673.3832849999999
 31
0.0
  0
LINE
  5
415
330
1E
100
AcDbEntity
  8
0
100
AcDbLine
 10
99.31123499999999
 20
677.3052849999999
 30
0.0
 11
99.31123499999999
 21
681.7452849999999
 31
0.0
  0
LINE
  5
416
330
1E
100
AcDbEntity
  8
0
100
AcDbLine
 10
99.31123499999999
 20
673.3832849999999
 30
0.0
 11
99.31123499999999
 21
670.4232849999999
 31
0.0
  0
LINE
  5
417
330
1E
100
AcDbEntity
  8
0
100
AcDbLine
 10
99.31123499999999
 20
673.3832849999999
 30
0.0
 11
99.31123499999999
 21
677.3052849999999
 31
0.0
  0
LINE
  5
418
330
1E
100
AcDbEntity
  8
0
100
AcDbLine
 10
99.31123499999999
 20
670.4232849999999
 30
0.0
 11
99.31123499999999
 21
668.647285
 31
0.0
  0
LINE
  5
419
330
1E
100
AcDbEntity
  8
0
100
AcDbLine
 10
99.31123499999999
 20
670.4232849999999
 30
0.0
 11
99.31123499999999
 21
673.3832849999999
 31
0.0
  0
LINE
  5
41A
330
1E
100
AcDbEntity
  8
0
100
AcDbLine
 10
99.31123499999999
 20
667.9812849999999
 30
0.0
 11
99.773235
 21
668.4252849999999
 31
0.0
  0
LINE
  5
41B
330
1E
100
AcDbEntity
  8
0
100
AcDbLine
 10
99.31123499999999
 20
667.9812849999999
 30
0.0
 11
99.31123499999999
 21
668.647285
 31
0.0
  0
LINE
  5
41C
330
1E
100
AcDbEntity
  8
0
100
AcDbLine
 10
99.773235
 20
691.1432849999999
 30
0.0
 11
99.773235
 21
695.4352849999999
 31
0.0
  0
LINE
  5
41D
330
1E
100
AcDbEntity
  8
0
100
AcDbLine
 10
99.773235
 20
691.1432849999999
 30
0.0
 11
99.773235
 21
686.4812849999999
 31
0.0
  0
LINE
  5
41E
330
1E
100
AcDbEntity
  8
0
100
AcDbLine
 10
99.773235
 20
695.4352849999999
 30
0.0
 11
99.773235
 21
699.2092849999998
 31
0.0
  0
LINE
  5
41F
330
1E
100
AcDbEntity
  8
0
100
AcDbLine
 10
99.773235
 20
695.4352849999999
 30
0.0
 11
99.773235
 21
691.1432849999999
 31
0.0
  0
LINE
  5
420
330
1E
100
AcDbEntity
  8
0
100
AcDbLine
 10
99.773235
 20
686.4812849999999
 30
0.0
 11
99.773235
 21
681.8192849999999
 31
0.0
  0
LINE
  5
421
330
1E
100
AcDbEntity
  8
0
100
AcDbLine
 10
99.773235
 20
686.4812849999999
 30
0.0
 11
99.773235
 21
691.1432849999999
 31
0.0
  0
LINE
  5
422
330
1E
100
AcDbEntity
  8
0
100
AcDbLine
 10
99.773235
 20
681.8192849999999
 30
0.0
 11
99.773235
 21
686.4812849999999
 31
0.0
  0
LINE
  5
423
330
1E
100
AcDbEntity
  8
0
100
AcDbLine
 10
99.773235
 20
681.8192849999999
 30
0.0
 11
99.773235
 21
677.527285
 31
0.0
  0
LINE
  5
424
330
1E
100
AcDbEntity
  8
0
100
AcDbLine
 10
99.773235
 20
677.527285
 30
0.0
 11
99.773235
 21
681.8192849999999
 31
0.0
  0
LINE
  5
425
330
1E
100
AcDbEntity
  8
0
100
AcDbLine
 10
99.773235
 20
677.527285
 30
0.0
 11
99.773235
 21
673.753285
 31
0.0
  0
LINE
  5
426
330
1E
100
AcDbEntity
  8
0
100
AcDbLine
 10
99.773235
 20
673.753285
 30
0.0
 11
99.773235
 21
677.527285
 31
0.0
  0
LINE
  5
427
330
1E
100
AcDbEntity
  8
0
100
AcDbLine
 10
99.773235
 20
673.753285
 30
0.0
 11
99.773235
 21
670.8672849999999
 31
0.0
  0
LINE
  5
428
330
1E
100
AcDbEntity
  8
0
100
AcDbLine
 10
99.773235
 20
670.8672849999999
 30
0.0
 11
99.773235
 21
673.753285
 31
0.0
  0
LINE
  5
429
330
1E
100
AcDbEntity
  8
0
100
AcDbLine
 10
99.773235
 20
670.8672849999999
 30
0.0
 11
99.773235
 21
669.091285
 31
0.0
  0
LINE
  5
42A
330
1E
100
AcDbEntity
  8
0
100
AcDbLine
 10
99.773235
 20
669.091285
 30
0.0
 11
99.773235
 21
670.8672849999999
 31
0.0
  0
LINE
  5
42B
330
1E
100
AcDbEntity
  8
0
100
AcDbLine
 10
99.773235
 20
669.091285
 30
0.0
 11
99.773235
 21
668.4252849999999
 31
0.0
  0
LINE
  5
42C
330
1E
100
AcDbEntity
  8
0
100
AcDbLine
 10
99.773235
 20
668.4252849999999
 30
0.0
 11
99.773235
 21
669.091285
 31
0.0
  0
LINE
  5
42D
330
1E
100
AcDbEntity
  8
0
100
AcDbLine
 10
99.31123499999999
 20
668.647285
 30
0.0
 11
99.31123499999999
 21
667.9812849999999
 31
0.0
  0
LINE
  5
42E
330
1E
100
AcDbEntity
  8
0
100
AcDbLine
 10
99.31123499999999
 20
668.647285
 30
0.0
 11
99.31123499999999
 21
670.4232849999999
 31
0.0
  0
LINE
  5
42F
330
1E
100
AcDbEntity
  8
0
100
AcDbLine
 10
89.937035
 20
654.3612849999999
 30
0.0
 11
90.17667160870741
 21
667.9812849999999
 31
0.0
  0
LINE
  5
430
330
1E
100
AcDbEntity
  8
0
100
AcDbLine
 10
89.937035
 20
654.3612849999999
 30
0.0
 11
90.006935
 21
631.2652849999999
 31
0.0
  0
LINE
  5
431
330
1E
100
AcDbEntity
  8
0
100
AcDbLine
 10
88.05983499999999
 20
695.5602849999999
 30
0.0
 11
90.08233500000001
 21
696.0822849999999
 31
0.0
  0
LINE
  5
4CC
330
1E
100
AcDbEntity
  8
0
100
AcDbLine
 10
99.31123499999999
 20
699.5792849999999
 30
0.0
 11
99.31123499999999
 21
702.5392849999999
 31
0.0
  0
LINE
  5
4CD
330
1E
100
AcDbEntity
  8
0
100
AcDbLine
 10
99.31123499999999
 20
699.5792849999999
 30
0.0
 11
99.31123499999999
 21
695.657285
 31
0.0
  0
LINE
  5
4CE
330
1E
100
AcDbEntity
  8
0
100
AcDbLine
 10
99.773235
 20
699.2092849999998
 30
0.0
 11
99.773235
 21
702.095285
 31
0.0
  0
LINE
  5
4CF
330
1E
100
AcDbEntity
  8
0
100
AcDbLine
 10
99.773235
 20
699.2092849999998
 30
0.0
 11
99.773235
 21
695.4352849999999
 31
0.0
  0
LINE
  5
4D0
330
1E
100
AcDbEntity
  8
0
100
AcDbLine
 10
99.773235
 20
702.095285
 30
0.0
 11
99.773235
 21
703.8712849999999
 31
0.0
  0
LINE
  5
4D1
330
1E
100
AcDbEntity
  8
0
100
AcDbLine
 10
99.773235
 20
702.095285
 30
0.0
 11
99.773235
 21
699.2092849999998
 31
0.0
  0
LINE
  5
4D2
330
1E
100
AcDbEntity
  8
0
100
AcDbLine
 10
99.31123499999999
 20
702.5392849999999
 30
0.0
 11
99.31123499999999
 21
704.315285
 31
0.0
  0
LINE
  5
4D3
330
1E
100
AcDbEntity
  8
0
100
AcDbLine
 10
99.31123499999999
 20
702.5392849999999
 30
0.0
 11
99.31123499999999
 21
699.5792849999999
 31
0.0
  0
LINE
  5
4D4
330
1E
100
AcDbEntity
  8
0
100
AcDbLine
 10
97.252235
 20
785.6742849999999
 30
0.0
 11
97.542235
 21
780.312285
 31
0.0
  0
LINE
  5
53E
330
1E
100
AcDbEntity
  8
0
100
AcDbLine
 10
97.32776261171352
 20
704.9812849999999
 30
0.0
 11
99.31123499999999
 21
704.9812849999999
 31
0.0
  0
LINE
  5
53F
330
1E
100
AcDbEntity
  8
0
100
AcDbLine
 10
97.32776261171341
 20
704.9812849999999
 30
0.0
 11
99.31123499999999
 21
704.9812849999999
 31
0.0
  0
LINE
  5
540
330
1E
100
AcDbEntity
  8
0
100
AcDbLine
 10
97.280235
 20
703.2112849999999
 30
0.0
 11
97.54523499999999
 21
713.080285
 31
0.0
  0
LINE
  5
541
330
1E
100
AcDbEntity
  8
0
100
AcDbLine
 10
97.54523499999999
 20
713.080285
 30
0.0
 11
97.761235
 21
722.7502849999999
 31
0.0
  0
LINE
  5
542
330
1E
100
AcDbEntity
  8
0
100
AcDbLine
 10
97.761235
 20
722.7502849999999
 30
0.0
 11
97.928235
 21
732.206285
 31
0.0
  0
LINE
  5
543
330
1E
100
AcDbEntity
  8
0
100
AcDbLine
 10
97.928235
 20
732.206285
 30
0.0
 11
98.13923500000001
 21
741.4172849999999
 31
0.0
  0
LINE
  5
544
330
1E
100
AcDbEntity
  8
0
100
AcDbLine
 10
99.31123499999999
 20
704.9812849999999
 30
0.0
 11
99.31123499999999
 21
704.315285
 31
0.0
  0
LINE
  5
545
330
1E
100
AcDbEntity
  8
0
100
AcDbLine
 10
99.31123499999999
 20
704.9812849999999
 30
0.0
 11
99.773235
 21
704.5372849999999
 31
0.0
  0
LINE
  5
546
330
1E
100
AcDbEntity
  8
0
100
AcDbLine
 10
99.773235
 20
704.5372849999999
 30
0.0
 11
99.773235
 21
703.8712849999999
 31
0.0
  0
LINE
  5
547
330
1E
100
AcDbEntity
  8
0
100
AcDbLine
 10
99.773235
 20
703.8712849999999
 30
0.0
 11
99.773235
 21
704.5372849999999
 31
0.0
  0
LINE
  5
548
330
1E
100
AcDbEntity
  8
0
100
AcDbLine
 10
99.773235
 20
703.8712849999999
 30
0.0
 11
99.773235
 21
702.095285
 31
0.0
  0
LINE
  5
549
330
1E
100
AcDbEntity
  8
0
100
AcDbLine
 10
99.31123499999999
 20
704.315285
 30
0.0
 11
99.31123499999999
 21
704.9812849999999
 31
0.0
  0
LINE
  5
54A
330
1E
100
AcDbEntity
  8
0
100
AcDbLine
 10
99.31123499999999
 20
704.315285
 30
0.0
 11
99.31123499999999
 21
702.5392849999999
 31
0.0
  0
LINE
  5
54B
330
1E
100
AcDbEntity
  8
0
100
AcDbLine
 10
98.13923500000001
 20
741.4172849999999
 30
0.0
 11
98.173235
 21
747.4072849999999
 31
0.0
  0
LINE
  5
54C
330
1E
100
AcDbEntity
  8
0
100
AcDbLine
 10
98.073235
 20
753.2612849999999
 30
0.0
 11
98.173235
 21
747.4072849999999
 31
0.0
  0
LINE
  5
54D
330
1E
100
AcDbEntity
  8
0
100
AcDbLine
 10
97.967235
 20
764.504285
 30
0.0
 11
98.073235
 21
753.2612849999999
 31
0.0
  0
LINE
  5
54E
330
1E
100
AcDbEntity
  8
0
100
AcDbLine
 10
97.86323500000001
 20
769.8612849999999
 30
0.0
 11
97.967235
 21
764.504285
 31
0.0
  0
LINE
  5
693
330
1E
100
AcDbEntity
  8
0
100
AcDbLine
 10
97.542235
 20
780.312285
 30
0.0
 11
97.731235
 21
775.0192849999999
 31
0.0
  0
LINE
  5
694
330
1E
100
AcDbEntity
  8
0
100
AcDbLine
 10
97.731235
 20
775.0192849999999
 30
0.0
 11
97.86323500000001
 21
769.8612849999999
 31
0.0
  0
LINE
  5
695
330
1E
100
AcDbEntity
  8
0
100
AcDbLine
 10
97.27023500000001
 20
702.998285
 30
0.0
 11
97.280235
 21
703.2112849999999
 31
0.0
  0
LINE
  5
696
330
1E
100
AcDbEntity
  8
0
100
AcDbLine
 10
97.227235
 20
702.767285
 30
0.0
 11
97.27023500000001
 21
702.998285
 31
0.0
  0
LINE
  5
697
330
1E
100
AcDbEntity
  8
0
100
AcDbLine
 10
91.95413499999999
 20
696.8202849999999
 30
0.0
 11
93.594235
 21
697.7522849999999
 31
0.0
  0
LINE
  5
698
330
1E
100
AcDbEntity
  8
0
100
AcDbLine
 10
90.08233500000001
 20
696.0822849999999
 30
0.0
 11
91.95413499999999
 21
696.8202849999999
 31
0.0
  0
LINE
  5
699
330
1E
100
AcDbEntity
  8
0
100
AcDbLine
 10
84.04613499999999
 20
695.0792849999999
 30
0.0
 11
85.999935
 21
695.243285
 31
0.0
  0
LINE
  5
69E
330
1E
100
AcDbEntity
  8
0
100
AcDbLine
 10
62.773235
 20
936.4812849999999
 30
0.0
 11
62.773235
 21
885.481285
 31
0.0
  0
LINE
  5
69F
330
1E
100
AcDbEntity
  8
0
100
AcDbLine
 10
62.773235
 20
885.481285
 30
0.0
 11
62.273235
 21
884.9812849999999
 31
0.0
  0
LINE
  5
6A0
330
1E
100
AcDbEntity
  8
0
100
AcDbLine
 10
66.91903499999999
 20
702.767285
 30
0.0
 11
68.12910191178253
 21
700.6155563990208
 31
0.0
  0
LINE
  5
6A1
330
1E
100
AcDbEntity
  8
0
100
AcDbLine
 10
68.12910191178253
 20
700.6155563990208
 30
0.0
 11
70.552235
 21
697.7522849999999
 31
0.0
  0
LINE
  5
6A2
330
1E
100
AcDbEntity
  8
0
100
AcDbLine
 10
93.594235
 20
697.7522849999999
 30
0.0
 11
95.87578134903287
 21
699.7426837870882
 31
0.0
  0
LINE
  5
6A3
330
1E
100
AcDbEntity
  8
0
100
AcDbLine
 10
95.87578134903287
 20
699.7426837870882
 30
0.0
 11
96.81634621341437
 21
701.6227169361516
 31
0.0
  0
LINE
  5
6A4
330
1E
100
AcDbEntity
  8
0
100
AcDbLine
 10
96.81634621341437
 20
701.6227169361516
 30
0.0
 11
97.227235
 21
702.767285
 31
0.0
  0
LINE
  5
9DA
330
1E
100
AcDbEntity
  8
0
100
AcDbLine
 10
82.07323499999999
 20
853.3744849999999
 30
0.0
 11
83.96623499999998
 21
853.3374849999999
 31
0.0
  0
LINE
  5
9DB
330
1E
100
AcDbEntity
  8
0
100
AcDbLine
 10
82.07323499999999
 20
843.740485
 30
0.0
 11
83.07423499999998
 21
843.758485
 31
0.0
  0
LINE
  5
9DC
330
1E
100
AcDbEntity
  8
0
100
AcDbLine
 10
82.07323499999999
 20
843.740485
 30
0.0
 11
83.07383499999998
 21
843.757485
 31
0.0
  0
LINE
  5
9DD
330
1E
100
AcDbEntity
  8
0
100
AcDbLine
 10
81.38433499999999
 20
823.446485
 30
0.0
 11
82.08243499999998
 21
823.6884849999999
 31
0.0
  0
LINE
  5
9DE
330
1E
100
AcDbEntity
  8
0
100
AcDbLine
 10
82.07323499999999
 20
830.164485
 30
0.0
 11
93.47623499999997
 21
829.2394849999999
 31
0.0
  0
LINE
  5
9DF
330
1E
100
AcDbEntity
  8
0
100
AcDbLine
 10
81.38433499999999
 20
822.319485
 30
0.0
 11
82.08243499999998
 21
822.0774849999999
 31
0.0
  0
LINE
  5
9E0
330
1E
100
AcDbEntity
  8
0
100
AcDbLine
 10
81.38433499999999
 20
792.5444849999998
 30
0.0
 11
82.08243499999998
 21
792.5344849999999
 31
0.0
  0
LINE
  5
9E1
330
1E
100
AcDbEntity
  8
0
100
AcDbLine
 10
81.38433499999999
 20
792.5914849999998
 30
0.0
 11
82.08243499999998
 21
792.6014849999999
 31
0.0
  0
LINE
  5
9E2
330
1E
100
AcDbEntity
  8
0
100
AcDbLine
 10
53.55263499999998
 20
845.8104849999999
 30
0.0
 11
57.34263499999997
 21
847.7534849999999
 31
0.0
  0
LINE
  5
9E3
330
1E
100
AcDbEntity
  8
0
100
AcDbLine
 10
54.08273499999999
 20
838.540485
 30
0.0
 11
57.96393499999999
 21
840.0404849999999
 31
0.0
  0
LINE
  5
9E4
330
1E
100
AcDbEntity
  8
0
100
AcDbLine
 10
54.08323499999998
 20
838.540485
 30
0.0
 11
57.96423499999997
 21
840.041485
 31
0.0
  0
LINE
  5
9E5
330
1E
100
AcDbEntity
  8
0
100
AcDbLine
 10
52.40623499999998
 20
822.6404849999999
 30
0.0
 11
55.32623499999997
 21
824.3954849999999
 31
0.0
  0
LINE
  5
9E6
330
1E
100
AcDbEntity
  8
0
100
AcDbLine
 10
55.08893499999999
 20
815.895485
 30
0.0
 11
55.65593499999997
 21
816.0204849999999
 31
0.0
  0
LINE
  5
9E7
330
1E
100
AcDbEntity
  8
0
100
AcDbLine
 10
54.95783499999999
 20
815.4144849999999
 30
0.0
 11
55.31643499999998
 21
814.868485
 31
0.0
  0
LINE
  5
9E8
330
1E
100
AcDbEntity
  8
0
100
AcDbLine
 10
52.51923499999998
 20
801.3654849999999
 30
0.0
 11
55.45923499999998
 21
799.6184849999999
 31
0.0
  0
LINE
  5
9E9
330
1E
100
AcDbEntity
  8
0
100
AcDbLine
 10
55.03223499999998
 20
799.652485
 30
0.0
 11
57.19295096485836
 21
798.6547444900038
 31
0.0
  0
LINE
  5
9EA
330
1E
100
AcDbEntity
  8
0
100
AcDbLine
 10
55.08893499999999
 20
800.327485
 30
0.0
 11
55.65593499999997
 21
799.972485
 31
0.0
  0
LINE
  5
9EB
330
1E
100
AcDbEntity
  8
0
100
AcDbLine
 10
54.95783499999999
 20
800.576485
 30
0.0
 11
55.31643499999998
 21
800.5824849999999
 31
0.0
  0
LINE
  5
9EC
330
1E
100
AcDbEntity
  8
0
100
AcDbLine
 10
41.11093499999998
 20
834.374485
 30
0.0
 11
41.90823499999999
 21
835.683485
 31
0.0
  0
LINE
  5
9ED
330
1E
100
AcDbEntity
  8
0
100
AcDbLine
 10
40.89323499999998
 20
828.1404849999999
 30
0.0
 11
42.48123499999997
 21
830.4664849999999
 31
0.0
  0
LINE
  5
9EE
330
1E
100
AcDbEntity
  8
0
100
AcDbLine
 10
41.58623499999999
 20
813.337485
 30
0.0
 11
42.80323499999997
 21
811.0414849999999
 31
0.0
  0
LINE
  5
9EF
330
1E
100
AcDbEntity
  8
0
100
AcDbLine
 10
39.94623499999997
 20
817.7744849999999
 30
0.0
 11
40.63123499999997
 21
815.3674849999999
 31
0.0
  0
LINE
  5
9F0
330
1E
100
AcDbEntity
  8
0
100
AcDbLine
 10
40.63123499999997
 20
815.3674849999999
 30
0.0
 11
41.58623499999999
 21
813.337485
 31
0.0
  0
LINE
  5
9F1
330
1E
100
AcDbEntity
  8
0
100
AcDbLine
 10
39.89783499999998
 20
831.9954849999998
 30
0.0
 11
40.53723499999998
 21
833.3504849999998
 31
0.0
  0
LINE
  5
9F2
330
1E
100
AcDbEntity
  8
0
100
AcDbLine
 10
39.75623499999997
 20
825.5074849999999
 30
0.0
 11
40.78923499999999
 21
827.9154849999999
 31
0.0
  0
LINE
  5
9F3
330
1E
100
AcDbEntity
  8
0
100
AcDbLine
 10
39.07323499999998
 20
827.847485
 30
0.0
 11
39.19163499999999
 21
823.0834849999999
 31
0.0
  0
LINE
  5
9F4
330
1E
100
AcDbEntity
  8
0
100
AcDbLine
 10
39.19163499999999
 20
823.0834849999999
 30
0.0
 11
39.30083499999998
 21
821.5634849999998
 31
0.0
  0
LINE
  5
9F5
330
1E
100
AcDbEntity
  8
0
100
AcDbLine
 10
39.41823499999998
 20
819.9584849999999
 30
0.0
 11
39.94623499999997
 21
817.7744849999999
 31
0.0
  0
LINE
  5
9F6
330
1E
100
AcDbEntity
  8
0
100
AcDbLine
 10
39.30083499999998
 20
821.5634849999998
 30
0.0
 11
39.35260432957088
 21
821.3384119167148
 31
0.0
  0
LINE
  5
9F7
330
1E
100
AcDbEntity
  8
0
100
AcDbLine
 10
39.30123499999999
 20
822.4184849999998
 30
0.0
 11
39.41823499999998
 21
819.9584849999999
 31
0.0
  0
LINE
  5
9F8
330
1E
100
AcDbEntity
  8
0
100
AcDbLine
 10
39.29523499999999
 20
823.056485
 30
0.0
 11
39.75623499999997
 21
825.5074849999999
 31
0.0
  0
LINE
  5
9F9
330
1E
100
AcDbEntity
  8
0
100
AcDbLine
 10
39.29523499999999
 20
823.056485
 30
0.0
 11
39.30123499999999
 21
822.4184849999998
 31
0.0
  0
LINE
  5
9FA
330
1E
100
AcDbEntity
  8
0
100
AcDbLine
 10
39.29523499999999
 20
823.056485
 30
0.0
 11
39.75623499999997
 21
825.5074849999999
 31
0.0
  0
LINE
  5
9FB
330
1E
100
AcDbEntity
  8
0
100
AcDbLine
 10
39.16533499999997
 20
829.2384849999999
 30
0.0
 11
39.44053499999998
 21
830.6224849999999
 31
0.0
  0
LINE
  5
9FC
330
1E
100
AcDbEntity
  8
0
100
AcDbLine
 10
39.16533499999997
 20
829.2384849999999
 30
0.0
 11
39.44053499999998
 21
830.6224849999999
 31
0.0
  0
LINE
  5
9FD
330
1E
100
AcDbEntity
  8
0
100
AcDbLine
 10
39.07323499999998
 20
827.847485
 30
0.0
 11
39.16533499999997
 21
829.2384849999999
 31
0.0
  0
LINE
  5
9FE
330
1E
100
AcDbEntity
  8
0
100
AcDbLine
 10
39.44053499999998
 20
830.6224849999999
 30
0.0
 11
39.89783499999998
 21
831.9954849999998
 31
0.0
  0
LINE
  5
9FF
330
1E
100
AcDbEntity
  8
0
100
AcDbLine
 10
40.53723499999998
 20
833.3504849999998
 30
0.0
 11
41.35373499999997
 21
834.682485
 31
0.0
  0
LINE
  5
A00
330
1E
100
AcDbEntity
  8
0
100
AcDbLine
 10
40.78023316413967
 20
833.746900866055
 30
0.0
 11
41.11093499999998
 21
834.374485
 31
0.0
  0
LINE
  5
A01
330
1E
100
AcDbEntity
  8
0
100
AcDbLine
 10
40.78023316413967
 20
833.746900866055
 30
0.0
 11
41.11093499999998
 21
834.374485
 31
0.0
  0
LINE
  5
A02
330
1E
100
AcDbEntity
  8
0
100
AcDbLine
 10
40.78923499999999
 20
827.9154849999999
 30
0.0
 11
40.89323499999998
 21
828.1404849999999
 31
0.0
  0
LINE
  5
A03
330
1E
100
AcDbEntity
  8
0
100
AcDbLine
 10
41.35373499999997
 20
834.682485
 30
0.0
 11
41.75643499999998
 21
835.372485
 31
0.0
  0
LINE
  5
A04
330
1E
100
AcDbEntity
  8
0
100
AcDbLine
 10
50.58003499999998
 20
836.827485
 30
0.0
 11
54.08273499999999
 21
838.540485
 31
0.0
  0
LINE
  5
A05
330
1E
100
AcDbEntity
  8
0
100
AcDbLine
 10
50.58023499999999
 20
836.827485
 30
0.0
 11
54.08323499999998
 21
838.540485
 31
0.0
  0
LINE
  5
A06
330
1E
100
AcDbEntity
  8
0
100
AcDbLine
 10
42.79353499999999
 20
836.916485
 30
0.0
 11
44.59843499999999
 21
839.0284849999998
 31
0.0
  0
LINE
  5
A07
330
1E
100
AcDbEntity
  8
0
100
AcDbLine
 10
47.23323499999998
 20
834.768485
 30
0.0
 11
50.33423499999997
 21
836.6854849999999
 31
0.0
  0
LINE
  5
A08
330
1E
100
AcDbEntity
  8
0
100
AcDbLine
 10
48.00723499999998
 20
818.6594849999998
 30
0.0
 11
49.95323499999997
 21
820.7184849999999
 31
0.0
  0
LINE
  5
A09
330
1E
100
AcDbEntity
  8
0
100
AcDbLine
 10
46.80023499999999
 20
805.9184849999999
 30
0.0
 11
49.20023499999999
 21
803.6284849999999
 31
0.0
  0
LINE
  5
A0A
330
1E
100
AcDbEntity
  8
0
100
AcDbLine
 10
48.07923499999998
 20
805.3354849999999
 30
0.0
 11
50.04723499999997
 21
803.2814849999999
 31
0.0
  0
LINE
  5
A0B
330
1E
100
AcDbEntity
  8
0
100
AcDbLine
 10
44.60323499999998
 20
832.685485
 30
0.0
 11
47.23323499999998
 21
834.768485
 31
0.0
  0
LINE
  5
A0C
330
1E
100
AcDbEntity
  8
0
100
AcDbLine
 10
44.05923499999997
 20
809.232485
 30
0.0
 11
45.75223499999998
 21
807.0914849999999
 31
0.0
  0
LINE
  5
A0D
330
1E
100
AcDbEntity
  8
0
100
AcDbLine
 10
42.80323499999997
 20
811.0414849999999
 30
0.0
 11
44.05923499999997
 21
809.232485
 31
0.0
  0
LINE
  5
A0E
330
1E
100
AcDbEntity
  8
0
100
AcDbLine
 10
42.48123499999997
 20
830.4664849999999
 30
0.0
 11
44.60323499999998
 21
832.685485
 31
0.0
  0
LINE
  5
A0F
330
1E
100
AcDbEntity
  8
0
100
AcDbLine
 10
41.90823499999999
 20
835.683485
 30
0.0
 11
42.79353499999999
 21
836.916485
 31
0.0
  0
LINE
  5
A10
330
1E
100
AcDbEntity
  8
0
100
AcDbLine
 10
46.59723499999998
 20
816.496485
 30
0.0
 11
48.00723499999998
 21
818.6594849999998
 31
0.0
  0
LINE
  5
A11
330
1E
100
AcDbEntity
  8
0
100
AcDbLine
 10
46.64623499999999
 20
807.4954849999999
 30
0.0
 11
48.07923499999998
 21
805.3354849999999
 31
0.0
  0
LINE
  5
A12
330
1E
100
AcDbEntity
  8
0
100
AcDbLine
 10
45.75223499999998
 20
807.0914849999999
 30
0.0
 11
46.80023499999999
 21
805.9184849999999
 31
0.0
  0
LINE
  5
A13
330
1E
100
AcDbEntity
  8
0
100
AcDbLine
 10
45.77323499999997
 20
809.7264849999998
 30
0.0
 11
46.64623499999999
 21
807.4954849999999
 31
0.0
  0
LINE
  5
A14
330
1E
100
AcDbEntity
  8
0
100
AcDbLine
 10
45.74923499999997
 20
814.262485
 30
0.0
 11
46.59723499999998
 21
816.496485
 31
0.0
  0
LINE
  5
A15
330
1E
100
AcDbEntity
  8
0
100
AcDbLine
 10
45.47223499999998
 20
811.9934849999999
 30
0.0
 11
45.77323499999997
 21
809.7264849999998
 31
0.0
  0
LINE
  5
A16
330
1E
100
AcDbEntity
  8
0
100
AcDbLine
 10
45.47223499999998
 20
811.9934849999999
 30
0.0
 11
45.74923499999997
 21
814.262485
 31
0.0
  0
LINE
  5
A17
330
1E
100
AcDbEntity
  8
0
100
AcDbLine
 10
49.95323499999997
 20
820.7184849999999
 30
0.0
 11
52.40623499999998
 21
822.6404849999999
 31
0.0
  0
LINE
  5
A18
330
1E
100
AcDbEntity
  8
0
100
AcDbLine
 10
51.75833499999999
 20
808.219485
 30
0.0
 11
52.34513499999997
 21
807.8004849999999
 31
0.0
  0
LINE
  5
A19
330
1E
100
AcDbEntity
  8
0
100
AcDbLine
 10
51.75833499999999
 20
807.2224849999999
 30
0.0
 11
52.34513499999997
 21
807.1014849999999
 31
0.0
  0
LINE
  5
A1A
330
1E
100
AcDbEntity
  8
0
100
AcDbLine
 10
51.73723499999997
 20
801.6614849999999
 30
0.0
 11
52.046235
 21
801.4274849999999
 31
0.0
  0
LINE
  5
A1B
330
1E
100
AcDbEntity
  8
0
100
AcDbLine
 10
50.04723499999997
 20
803.2814849999999
 30
0.0
 11
52.51923499999998
 21
801.3654849999999
 31
0.0
  0
LINE
  5
A1C
330
1E
100
AcDbEntity
  8
0
100
AcDbLine
 10
49.20023499999999
 20
803.6284849999999
 30
0.0
 11
51.73723499999997
 21
801.6614849999999
 31
0.0
  0
LINE
  5
A1D
330
1E
100
AcDbEntity
  8
0
100
AcDbLine
 10
50.91973499999998
 20
808.107485
 30
0.0
 11
51.17133499999997
 21
807.642485
 31
0.0
  0
LINE
  5
A1E
330
1E
100
AcDbEntity
  8
0
100
AcDbLine
 10
51.17133499999997
 20
807.642485
 30
0.0
 11
51.75833499999999
 21
807.2224849999999
 31
0.0
  0
LINE
  5
A1F
330
1E
100
AcDbEntity
  8
0
100
AcDbLine
 10
50.91973499999998
 20
808.107485
 30
0.0
 11
51.17133499999997
 21
808.3404849999999
 31
0.0
  0
LINE
  5
A20
330
1E
100
AcDbEntity
  8
0
100
AcDbLine
 10
51.17133499999997
 20
808.3404849999999
 30
0.0
 11
51.75833499999999
 21
808.219485
 31
0.0
  0
LINE
  5
A21
330
1E
100
AcDbEntity
  8
0
100
AcDbLine
 10
50.41180639324299
 20
836.7234356504619
 30
0.0
 11
50.58003499999998
 21
836.827485
 31
0.0
  0
LINE
  5
A22
330
1E
100
AcDbEntity
  8
0
100
AcDbLine
 10
50.41271124448678
 20
836.7238783354761
 30
0.0
 11
50.58023499999999
 21
836.827485
 31
0.0
  0
LINE
  5
A23
330
1E
100
AcDbEntity
  8
0
100
AcDbLine
 10
50.33423499999997
 20
836.6854849999999
 30
0.0
 11
50.58023499999999
 21
836.827485
 31
0.0
  0
LINE
  5
A24
330
1E
100
AcDbEntity
  8
0
100
AcDbLine
 10
53.04693499999999
 20
812.1254849999999
 30
0.0
 11
53.53643499999998
 21
811.6354849999998
 31
0.0
  0
LINE
  5
A25
330
1E
100
AcDbEntity
  8
0
100
AcDbLine
 10
53.17513499999998
 20
810.960485
 30
0.0
 11
53.59873499999998
 21
811.1494849999999
 31
0.0
  0
LINE
  5
A26
330
1E
100
AcDbEntity
  8
0
100
AcDbLine
 10
53.17513499999998
 20
803.9494849999998
 30
0.0
 11
53.59873499999998
 21
803.5294849999999
 31
0.0
  0
LINE
  5
A27
330
1E
100
AcDbEntity
  8
0
100
AcDbLine
 10
52.046235
 20
801.4274849999999
 30
0.0
 11
55.03223499999998
 21
799.652485
 31
0.0
  0
LINE
  5
A28
330
1E
100
AcDbEntity
  8
0
100
AcDbLine
 10
53.04693499999999
 20
803.3254849999998
 30
0.0
 11
53.53643499999998
 21
803.2754849999999
 31
0.0
  0
LINE
  5
A29
330
1E
100
AcDbEntity
  8
0
100
AcDbLine
 10
52.34513499999997
 20
807.8004849999999
 30
0.0
 11
52.59673499999999
 21
807.3344849999998
 31
0.0
  0
LINE
  5
A2A
330
1E
100
AcDbEntity
  8
0
100
AcDbLine
 10
52.40263499999997
 20
803.663485
 30
0.0
 11
53.04693499999999
 21
803.3254849999998
 31
0.0
  0
LINE
  5
A2B
330
1E
100
AcDbEntity
  8
0
100
AcDbLine
 10
52.53073499999999
 20
804.288485
 30
0.0
 11
53.17513499999998
 21
803.9494849999998
 31
0.0
  0
LINE
  5
A2C
330
1E
100
AcDbEntity
  8
0
100
AcDbLine
 10
52.34513499999997
 20
807.1014849999999
 30
0.0
 11
52.59673499999999
 21
807.3344849999998
 31
0.0
  0
LINE
  5
A2D
330
1E
100
AcDbEntity
  8
0
100
AcDbLine
 10
51.97903499999998
 20
804.0844849999999
 30
0.0
 11
52.04123499999997
 21
804.338485
 31
0.0
  0
LINE
  5
A2E
330
1E
100
AcDbEntity
  8
0
100
AcDbLine
 10
51.97903499999998
 20
804.0844849999999
 30
0.0
 11
52.40263499999997
 21
803.663485
 31
0.0
  0
LINE
  5
A2F
330
1E
100
AcDbEntity
  8
0
100
AcDbLine
 10
52.04123499999997
 20
804.338485
 30
0.0
 11
52.53073499999999
 21
804.288485
 31
0.0
  0
LINE
  5
A30
330
1E
100
AcDbEntity
  8
0
100
AcDbLine
 10
52.53073499999999
 20
811.162485
 30
0.0
 11
53.17513499999998
 21
810.960485
 31
0.0
  0
LINE
  5
A31
330
1E
100
AcDbEntity
  8
0
100
AcDbLine
 10
52.40263499999997
 20
812.3274849999999
 30
0.0
 11
53.04693499999999
 21
812.1254849999999
 31
0.0
  0
LINE
  5
A32
330
1E
100
AcDbEntity
  8
0
100
AcDbLine
 10
51.97903499999998
 20
812.1394849999999
 30
0.0
 11
52.04123499999997
 21
811.6534849999998
 31
0.0
  0
LINE
  5
A33
330
1E
100
AcDbEntity
  8
0
100
AcDbLine
 10
51.97903499999998
 20
812.1394849999999
 30
0.0
 11
52.40263499999997
 21
812.3274849999999
 31
0.0
  0
LINE
  5
A34
330
1E
100
AcDbEntity
  8
0
100
AcDbLine
 10
52.04123499999997
 20
811.6534849999998
 30
0.0
 11
52.53073499999999
 21
811.162485
 31
0.0
  0
LINE
  5
A35
330
1E
100
AcDbEntity
  8
0
100
AcDbLine
 10
53.53643499999998
 20
803.2754849999999
 30
0.0
 11
53.59873499999998
 21
803.5294849999999
 31
0.0
  0
LINE
  5
A36
330
1E
100
AcDbEntity
  8
0
100
AcDbLine
 10
54.95783499999999
 20
800.576485
 30
0.0
 11
55.08893499999999
 21
800.327485
 31
0.0
  0
LINE
  5
A37
330
1E
100
AcDbEntity
  8
0
100
AcDbLine
 10
53.53643499999998
 20
811.6354849999998
 30
0.0
 11
53.59873499999998
 21
811.1494849999999
 31
0.0
  0
LINE
  5
A38
330
1E
100
AcDbEntity
  8
0
100
AcDbLine
 10
54.95783499999999
 20
815.4144849999999
 30
0.0
 11
55.08893499999999
 21
815.895485
 31
0.0
  0
LINE
  5
A39
330
1E
100
AcDbEntity
  8
0
100
AcDbLine
 10
47.74103499999998
 20
841.9034849999999
 30
0.0
 11
49.87083499999997
 21
843.5554849999999
 31
0.0
  0
LINE
  5
A3A
330
1E
100
AcDbEntity
  8
0
100
AcDbLine
 10
44.59843499999999
 20
839.0284849999998
 30
0.0
 11
45.46253499999997
 21
839.962485
 31
0.0
  0
LINE
  5
A3B
330
1E
100
AcDbEntity
  8
0
100
AcDbLine
 10
45.46253499999997
 20
839.962485
 30
0.0
 11
47.74103499999998
 21
841.9034849999999
 31
0.0
  0
LINE
  5
A3C
330
1E
100
AcDbEntity
  8
0
100
AcDbLine
 10
49.87083499999997
 20
843.5554849999999
 30
0.0
 11
51.88723499999998
 21
844.8764849999999
 31
0.0
  0
LINE
  5
A3D
330
1E
100
AcDbEntity
  8
0
100
AcDbLine
 10
51.88723499999998
 20
844.8764849999999
 30
0.0
 11
53.55263499999998
 21
845.8104849999999
 31
0.0
  0
LINE
  5
A3E
330
1E
100
AcDbEntity
  8
0
100
AcDbLine
 10
66.39793499999999
 20
851.0624849999999
 30
0.0
 11
70.13443499999997
 21
852.012485
 31
0.0
  0
LINE
  5
A3F
330
1E
100
AcDbEntity
  8
0
100
AcDbLine
 10
68.43253499999997
 20
811.371485
 30
0.0
 11
69.13163499999999
 21
811.4634849999999
 31
0.0
  0
LINE
  5
A40
330
1E
100
AcDbEntity
  8
0
100
AcDbLine
 10
68.41193499999997
 20
810.5044849999998
 30
0.0
 11
69.10263499999999
 21
810.251485
 31
0.0
  0
LINE
  5
A41
330
1E
100
AcDbEntity
  8
0
100
AcDbLine
 10
68.43253499999997
 20
797.7434849999999
 30
0.0
 11
69.13163499999999
 21
797.547485
 31
0.0
  0
LINE
  5
A42
330
1E
100
AcDbEntity
  8
0
100
AcDbLine
 10
68.41193499999997
 20
798.2674849999999
 30
0.0
 11
69.10263499999999
 21
798.2804849999999
 31
0.0
  0
LINE
  5
A43
330
1E
100
AcDbEntity
  8
0
100
AcDbLine
 10
67.96578273389238
 20
794.8504743933309
 30
0.0
 11
73.35416859004178
 21
793.7145218817959
 31
0.0
  0
LINE
  5
A44
330
1E
100
AcDbEntity
  8
0
100
AcDbLine
 10
67.96578273389238
 20
794.8504743933309
 30
0.0
 11
73.35416859004178
 21
793.7145218817959
 31
0.0
  0
LINE
  5
A45
330
1E
100
AcDbEntity
  8
0
100
AcDbLine
 10
66.64683499999998
 20
842.3254849999999
 30
0.0
 11
71.33333499999998
 21
843.0794849999999
 31
0.0
  0
LINE
  5
A46
330
1E
100
AcDbEntity
  8
0
100
AcDbLine
 10
66.647235
 20
842.3254849999999
 30
0.0
 11
71.33323499999997
 21
843.0794849999999
 31
0.0
  0
LINE
  5
A47
330
1E
100
AcDbEntity
  8
0
100
AcDbLine
 10
66.40223499999999
 20
828.396485
 30
0.0
 11
70.67023499999999
 21
829.2394849999999
 31
0.0
  0
LINE
  5
A48
330
1E
100
AcDbEntity
  8
0
100
AcDbLine
 10
58.66923499999998
 20
825.9554849999998
 30
0.0
 11
62.37923499999997
 21
827.2964849999999
 31
0.0
  0
LINE
  5
A49
330
1E
100
AcDbEntity
  8
0
100
AcDbLine
 10
61.80233499999997
 20
813.201485
 30
0.0
 11
62.00953499999997
 21
813.6464849999999
 31
0.0
  0
LINE
  5
A4A
330
1E
100
AcDbEntity
  8
0
100
AcDbLine
 10
61.80233499999997
 20
813.201485
 30
0.0
 11
62.12843499999999
 21
812.6894849999999
 31
0.0
  0
LINE
  5
A4B
330
1E
100
AcDbEntity
  8
0
100
AcDbLine
 10
61.80233499999997
 20
798.538485
 30
0.0
 11
62.00953499999997
 21
798.2634849999999
 31
0.0
  0
LINE
  5
A4C
330
1E
100
AcDbEntity
  8
0
100
AcDbLine
 10
61.80233499999997
 20
798.538485
 30
0.0
 11
62.12843499999999
 21
798.6534849999999
 31
0.0
  0
LINE
  5
A4D
330
1E
100
AcDbEntity
  8
0
100
AcDbLine
 10
61.58218853552099
 20
796.7897972572799
 30
0.0
 11
65.11963499999999
 21
795.4504849999998
 31
0.0
  0
LINE
  5
A4E
330
1E
100
AcDbEntity
  8
0
100
AcDbLine
 10
61.58218853552099
 20
796.7897972572799
 30
0.0
 11
65.11963499999999
 21
795.4504849999998
 31
0.0
  0
LINE
  5
A4F
330
1E
100
AcDbEntity
  8
0
100
AcDbLine
 10
58.13883499999997
 20
798.0934849999998
 30
0.0
 11
59.7930053572286
 21
797.467199724078
 31
0.0
  0
LINE
  5
A50
330
1E
100
AcDbEntity
  8
0
100
AcDbLine
 10
60.03803499999998
 20
797.1004849999999
 30
0.0
 11
60.70943499999998
 21
796.826485
 31
0.0
  0
LINE
  5
A51
330
1E
100
AcDbEntity
  8
0
100
AcDbLine
 10
59.92563499999997
 20
797.3634849999999
 30
0.0
 11
60.55223499999996
 21
797.1954849999999
 31
0.0
  0
LINE
  5
A52
330
1E
100
AcDbEntity
  8
0
100
AcDbLine
 10
59.72213499999998
 20
797.320485
 30
0.0
 11
60.03803499999998
 21
797.1004849999999
 31
0.0
  0
LINE
  5
A53
330
1E
100
AcDbEntity
  8
0
100
AcDbLine
 10
59.72213499999998
 20
797.320485
 30
0.0
 11
59.92563499999997
 21
797.3634849999999
 31
0.0
  0
LINE
  5
A54
330
1E
100
AcDbEntity
  8
0
100
AcDbLine
 10
60.70943499999998
 20
796.826485
 30
0.0
 11
61.33603499999998
 21
796.6584849999999
 31
0.0
  0
LINE
  5
A55
330
1E
100
AcDbEntity
  8
0
100
AcDbLine
 10
60.55223499999996
 20
797.1954849999999
 30
0.0
 11
61.22363499999997
 21
796.921485
 31
0.0
  0
LINE
  5
A56
330
1E
100
AcDbEntity
  8
0
100
AcDbLine
 10
61.33603499999998
 20
796.6584849999999
 30
0.0
 11
61.53953499999997
 21
796.701485
 31
0.0
  0
LINE
  5
A57
330
1E
100
AcDbEntity
  8
0
100
AcDbLine
 10
61.22363499999997
 20
796.921485
 30
0.0
 11
61.53953499999997
 21
796.701485
 31
0.0
  0
LINE
  5
A58
330
1E
100
AcDbEntity
  8
0
100
AcDbLine
 10
58.04303499999997
 20
807.7524849999999
 30
0.0
 11
58.63923499999998
 21
807.3634849999999
 31
0.0
  0
LINE
  5
A59
330
1E
100
AcDbEntity
  8
0
100
AcDbLine
 10
58.45703499999999
 20
806.671485
 30
0.0
 11
58.82033499999997
 21
806.914485
 31
0.0
  0
LINE
  5
A5A
330
1E
100
AcDbEntity
  8
0
100
AcDbLine
 10
58.45703499999999
 20
804.2754849999999
 30
0.0
 11
58.82033499999997
 21
803.8624849999999
 31
0.0
  0
LINE
  5
A5B
330
1E
100
AcDbEntity
  8
0
100
AcDbLine
 10
58.04303499999997
 20
803.5914849999999
 30
0.0
 11
58.63923499999998
 21
803.5834849999998
 31
0.0
  0
LINE
  5
A5C
330
1E
100
AcDbEntity
  8
0
100
AcDbLine
 10
55.32623499999997
 20
824.3954849999999
 30
0.0
 11
58.66923499999998
 21
825.9554849999998
 31
0.0
  0
LINE
  5
A5D
330
1E
100
AcDbEntity
  8
0
100
AcDbLine
 10
56.44343499999999
 20
799.0994849999999
 30
0.0
 11
58.13883499999997
 21
798.0934849999998
 31
0.0
  0
LINE
  5
A5E
330
1E
100
AcDbEntity
  8
0
100
AcDbLine
 10
55.45923499999998
 20
799.6184849999999
 30
0.0
 11
56.08950987510619
 21
799.327459000807
 31
0.0
  0
LINE
  5
A5F
330
1E
100
AcDbEntity
  8
0
100
AcDbLine
 10
55.65593499999997
 20
799.972485
 30
0.0
 11
56.31373499999998
 21
799.7194849999999
 31
0.0
  0
LINE
  5
A60
330
1E
100
AcDbEntity
  8
0
100
AcDbLine
 10
55.97433499999997
 20
800.3294849999999
 30
0.0
 11
56.54123499999997
 21
799.9744849999999
 31
0.0
  0
LINE
  5
A61
330
1E
100
AcDbEntity
  8
0
100
AcDbLine
 10
55.31643499999998
 20
800.5824849999999
 30
0.0
 11
55.97433499999997
 21
800.3294849999999
 31
0.0
  0
LINE
  5
A62
330
1E
100
AcDbEntity
  8
0
100
AcDbLine
 10
56.54123499999997
 20
799.9744849999999
 30
0.0
 11
56.67243499999997
 21
799.7254849999999
 31
0.0
  0
LINE
  5
A63
330
1E
100
AcDbEntity
  8
0
100
AcDbLine
 10
56.31373499999998
 20
799.7194849999999
 30
0.0
 11
56.67243499999997
 21
799.7254849999999
 31
0.0
  0
LINE
  5
A64
330
1E
100
AcDbEntity
  8
0
100
AcDbLine
 10
55.65593499999997
 20
816.0204849999999
 30
0.0
 11
56.31373499999998
 21
815.732485
 31
0.0
  0
LINE
  5
A65
330
1E
100
AcDbEntity
  8
0
100
AcDbLine
 10
55.97433499999997
 20
814.5814849999998
 30
0.0
 11
56.54123499999997
 21
814.704485
 31
0.0
  0
LINE
  5
A66
330
1E
100
AcDbEntity
  8
0
100
AcDbLine
 10
55.65593499999997
 20
816.0204849999999
 30
0.0
 11
55.73137922650818
 21
816.0953483898628
 31
0.0
  0
LINE
  5
A67
330
1E
100
AcDbEntity
  8
0
100
AcDbLine
 10
55.31643499999998
 20
814.868485
 30
0.0
 11
55.97433499999997
 21
814.5814849999998
 31
0.0
  0
LINE
  5
A68
330
1E
100
AcDbEntity
  8
0
100
AcDbLine
 10
56.31373499999998
 20
815.732485
 30
0.0
 11
56.67243499999997
 21
815.1854849999999
 31
0.0
  0
LINE
  5
A69
330
1E
100
AcDbEntity
  8
0
100
AcDbLine
 10
56.54123499999997
 20
814.704485
 30
0.0
 11
56.67243499999997
 21
815.1854849999999
 31
0.0
  0
LINE
  5
A6A
330
1E
100
AcDbEntity
  8
0
100
AcDbLine
 10
57.36883499999999
 20
807.8434849999998
 30
0.0
 11
58.04303499999997
 21
807.7524849999999
 31
0.0
  0
LINE
  5
A6B
330
1E
100
AcDbEntity
  8
0
100
AcDbLine
 10
57.00553499999998
 20
807.600485
 30
0.0
 11
57.36883499999999
 21
807.8434849999998
 31
0.0
  0
LINE
  5
A6C
330
1E
100
AcDbEntity
  8
0
100
AcDbLine
 10
57.18663499999999
 20
807.1514849999999
 30
0.0
 11
57.78273499999997
 21
806.7624849999999
 31
0.0
  0
LINE
  5
A6D
330
1E
100
AcDbEntity
  8
0
100
AcDbLine
 10
57.36883499999999
 20
803.8964849999999
 30
0.0
 11
58.04303499999997
 21
803.5914849999999
 31
0.0
  0
LINE
  5
A6E
330
1E
100
AcDbEntity
  8
0
100
AcDbLine
 10
57.18663499999999
 20
804.588485
 30
0.0
 11
57.78273499999997
 21
804.5804849999999
 31
0.0
  0
LINE
  5
A6F
330
1E
100
AcDbEntity
  8
0
100
AcDbLine
 10
57.18663499999999
 20
804.588485
 30
0.0
 11
57.24377499013337
 21
804.687441305337
 31
0.0
  0
LINE
  5
A70
330
1E
100
AcDbEntity
  8
0
100
AcDbLine
 10
57.00553499999998
 20
807.600485
 30
0.0
 11
57.18663499999999
 21
807.1514849999999
 31
0.0
  0
LINE
  5
A71
330
1E
100
AcDbEntity
  8
0
100
AcDbLine
 10
57.00553499999998
 20
804.3094849999999
 30
0.0
 11
57.23010031460209
 21
804.6983922047099
 31
0.0
  0
LINE
  5
A72
330
1E
100
AcDbEntity
  8
0
100
AcDbLine
 10
57.00553499999998
 20
804.3094849999999
 30
0.0
 11
57.18663499999999
 21
804.588485
 31
0.0
  0
LINE
  5
A73
330
1E
100
AcDbEntity
  8
0
100
AcDbLine
 10
57.00553499999998
 20
804.3094849999999
 30
0.0
 11
57.36883499999999
 21
803.8964849999999
 31
0.0
  0
LINE
  5
A74
330
1E
100
AcDbEntity
  8
0
100
AcDbLine
 10
57.78273499999997
 20
806.7624849999999
 30
0.0
 11
58.45703499999999
 21
806.671485
 31
0.0
  0
LINE
  5
A75
330
1E
100
AcDbEntity
  8
0
100
AcDbLine
 10
57.78273499999997
 20
804.5804849999999
 30
0.0
 11
58.45703499999999
 21
804.2754849999999
 31
0.0
  0
LINE
  5
A76
330
1E
100
AcDbEntity
  8
0
100
AcDbLine
 10
59.93863499999998
 20
810.790485
 30
0.0
 11
60.41603499999999
 21
810.331485
 31
0.0
  0
LINE
  5
A77
330
1E
100
AcDbEntity
  8
0
100
AcDbLine
 10
59.88183499999999
 20
809.6864849999999
 30
0.0
 11
60.40263499999998
 21
809.871485
 31
0.0
  0
LINE
  5
A78
330
1E
100
AcDbEntity
  8
0
100
AcDbLine
 10
59.88183499999999
 20
801.2594849999999
 30
0.0
 11
60.40263499999998
 21
800.905485
 31
0.0
  0
LINE
  5
A79
330
1E
100
AcDbEntity
  8
0
100
AcDbLine
 10
59.93863499999998
 20
800.5524849999998
 30
0.0
 11
60.41603499999999
 21
800.6154849999999
 31
0.0
  0
LINE
  5
A7A
330
1E
100
AcDbEntity
  8
0
100
AcDbLine
 10
59.23233499999998
 20
800.7664849999999
 30
0.0
 11
59.93863499999998
 21
800.5524849999998
 31
0.0
  0
LINE
  5
A7B
330
1E
100
AcDbEntity
  8
0
100
AcDbLine
 10
59.17533499999999
 20
801.4744849999999
 30
0.0
 11
59.88183499999999
 21
801.2594849999999
 31
0.0
  0
LINE
  5
A7C
330
1E
100
AcDbEntity
  8
0
100
AcDbLine
 10
58.82033499999997
 20
806.914485
 30
0.0
 11
58.96177136971818
 21
807.1408480210539
 31
0.0
  0
LINE
  5
A7D
330
1E
100
AcDbEntity
  8
0
100
AcDbLine
 10
58.71143499999999
 20
801.1214849999999
 30
0.0
 11
59.23233499999998
 21
800.7664849999999
 31
0.0
  0
LINE
  5
A7E
330
1E
100
AcDbEntity
  8
0
100
AcDbLine
 10
58.69793499999997
 20
801.411485
 30
0.0
 11
58.71143499999999
 21
801.1214849999999
 31
0.0
  0
LINE
  5
A7F
330
1E
100
AcDbEntity
  8
0
100
AcDbLine
 10
58.69793499999997
 20
801.411485
 30
0.0
 11
59.17533499999999
 21
801.4744849999999
 31
0.0
  0
LINE
  5
A80
330
1E
100
AcDbEntity
  8
0
100
AcDbLine
 10
58.63923499999998
 20
807.3634849999999
 30
0.0
 11
58.82033499999997
 21
806.914485
 31
0.0
  0
LINE
  5
A81
330
1E
100
AcDbEntity
  8
0
100
AcDbLine
 10
58.63923499999998
 20
803.5834849999998
 30
0.0
 11
58.82033499999997
 21
803.8624849999999
 31
0.0
  0
LINE
  5
A82
330
1E
100
AcDbEntity
  8
0
100
AcDbLine
 10
59.23233499999998
 20
810.973485
 30
0.0
 11
59.93863499999998
 21
810.790485
 31
0.0
  0
LINE
  5
A83
330
1E
100
AcDbEntity
  8
0
100
AcDbLine
 10
59.17533499999999
 20
809.8694849999999
 30
0.0
 11
59.88183499999999
 21
809.6864849999999
 31
0.0
  0
LINE
  5
A84
330
1E
100
AcDbEntity
  8
0
100
AcDbLine
 10
58.71143499999999
 20
810.7884850000001
 30
0.0
 11
59.23233499999998
 21
810.973485
 31
0.0
  0
LINE
  5
A85
330
1E
100
AcDbEntity
  8
0
100
AcDbLine
 10
58.69793499999997
 20
810.3284849999999
 30
0.0
 11
58.71143499999999
 21
810.7884850000001
 31
0.0
  0
LINE
  5
A86
330
1E
100
AcDbEntity
  8
0
100
AcDbLine
 10
58.69793499999997
 20
810.3284849999999
 30
0.0
 11
59.17533499999999
 21
809.8694849999999
 31
0.0
  0
LINE
  5
A87
330
1E
100
AcDbEntity
  8
0
100
AcDbLine
 10
60.40263499999998
 20
800.905485
 30
0.0
 11
60.41603499999999
 21
800.6154849999999
 31
0.0
  0
LINE
  5
A88
330
1E
100
AcDbEntity
  8
0
100
AcDbLine
 10
60.40263499999998
 20
809.871485
 30
0.0
 11
60.41603499999999
 21
810.331485
 31
0.0
  0
LINE
  5
A89
330
1E
100
AcDbEntity
  8
0
100
AcDbLine
 10
60.03803499999998
 20
819.1234849999998
 30
0.0
 11
60.70943499999998
 21
819.1644849999999
 31
0.0
  0
LINE
  5
A8A
330
1E
100
AcDbEntity
  8
0
100
AcDbLine
 10
59.92563499999997
 20
818.087485
 30
0.0
 11
60.55223499999996
 21
817.7154849999999
 31
0.0
  0
LINE
  5
A8B
330
1E
100
AcDbEntity
  8
0
100
AcDbLine
 10
59.72213499999998
 20
818.6704849999998
 30
0.0
 11
60.03803499999998
 21
819.1234849999998
 31
0.0
  0
LINE
  5
A8C
330
1E
100
AcDbEntity
  8
0
100
AcDbLine
 10
59.72213499999998
 20
818.6704849999998
 30
0.0
 11
59.92563499999997
 21
818.087485
 31
0.0
  0
LINE
  5
A8D
330
1E
100
AcDbEntity
  8
0
100
AcDbLine
 10
60.70943499999998
 20
819.1644849999999
 30
0.0
 11
61.33603499999998
 21
818.7924849999999
 31
0.0
  0
LINE
  5
A8E
330
1E
100
AcDbEntity
  8
0
100
AcDbLine
 10
60.55223499999996
 20
817.7154849999999
 30
0.0
 11
61.22363499999997
 21
817.7574849999999
 31
0.0
  0
LINE
  5
A8F
330
1E
100
AcDbEntity
  8
0
100
AcDbLine
 10
61.33603499999998
 20
818.7924849999999
 30
0.0
 11
61.53953499999997
 21
818.2094849999998
 31
0.0
  0
LINE
  5
A90
330
1E
100
AcDbEntity
  8
0
100
AcDbLine
 10
61.22363499999997
 20
817.7574849999999
 30
0.0
 11
61.56187055176949
 21
818.119769511389
 31
0.0
  0
LINE
  5
A91
330
1E
100
AcDbEntity
  8
0
100
AcDbLine
 10
61.22363499999997
 20
817.7574849999999
 30
0.0
 11
61.53953499999997
 21
818.2094849999998
 31
0.0
  0
LINE
  5
A92
330
1E
100
AcDbEntity
  8
0
100
AcDbLine
 10
68.14433499999998
 20
798.0414849999999
 30
0.0
 11
68.43253499999997
 21
797.7434849999999
 31
0.0
  0
LINE
  5
A93
330
1E
100
AcDbEntity
  8
0
100
AcDbLine
 10
62.65223499999999
 20
797.984485
 30
0.0
 11
63.34263499999997
 21
797.8634849999999
 31
0.0
  0
LINE
  5
A94
330
1E
100
AcDbEntity
  8
0
100
AcDbLine
 10
63.34263499999997
 20
797.8634849999999
 30
0.0
 11
63.66883499999997
 21
797.9774849999999
 31
0.0
  0
LINE
  5
A95
330
1E
100
AcDbEntity
  8
0
100
AcDbLine
 10
65.11963499999999
 20
795.4504849999998
 30
0.0
 11
66.16883936703508
 21
795.2292969916308
 31
0.0
  0
LINE
  5
A96
330
1E
100
AcDbEntity
  8
0
100
AcDbLine
 10
65.11963499999999
 20
795.4504849999998
 30
0.0
 11
66.16883936703508
 21
795.2292969916308
 31
0.0
  0
LINE
  5
A97
330
1E
100
AcDbEntity
  8
0
100
AcDbLine
 10
66.45533499999999
 20
796.3064850000001
 30
0.0
 11
67.08263499999998
 21
796.271485
 31
0.0
  0
LINE
  5
A98
330
1E
100
AcDbEntity
  8
0
100
AcDbLine
 10
66.68923499999997
 20
795.922485
 30
0.0
 11
67.41033499999997
 21
795.7344849999999
 31
0.0
  0
LINE
  5
A99
330
1E
100
AcDbEntity
  8
0
100
AcDbLine
 10
66.61263499999998
 20
794.7544849999999
 30
0.0
 11
67.34293499999998
 21
794.5734849999999
 31
0.0
  0
LINE
  5
A9A
330
1E
100
AcDbEntity
  8
0
100
AcDbLine
 10
66.50453499999997
 20
794.6194849999999
 30
0.0
 11
67.23483499999997
 21
794.4384849999999
 31
0.0
  0
LINE
  5
A9B
330
1E
100
AcDbEntity
  8
0
100
AcDbLine
 10
66.894735
 20
785.6742849999999
 30
0.0
 11
67.13453499999997
 21
790.991485
 31
0.0
  0
LINE
  5
A9C
330
1E
100
AcDbEntity
  8
0
100
AcDbLine
 10
66.02563499999999
 20
794.7874849999999
 30
0.0
 11
66.32482019113488
 21
795.710526719316
 31
0.0
  0
LINE
  5
A9D
330
1E
100
AcDbEntity
  8
0
100
AcDbLine
 10
66.02563499999999
 20
794.7874849999999
 30
0.0
 11
66.50453499999997
 21
794.6194849999999
 31
0.0
  0
LINE
  5
A9E
330
1E
100
AcDbEntity
  8
0
100
AcDbLine
 10
66.06003499999997
 20
794.846485
 30
0.0
 11
66.33873225112399
 21
795.7064768880769
 31
0.0
  0
LINE
  5
A9F
330
1E
100
AcDbEntity
  8
0
100
AcDbLine
 10
66.06003499999997
 20
794.846485
 30
0.0
 11
66.61263499999998
 21
794.7544849999999
 31
0.0
  0
LINE
  5
AA0
330
1E
100
AcDbEntity
  8
0
100
AcDbLine
 10
66.02563499999999
 20
794.7874849999999
 30
0.0
 11
66.06003499999997
 21
794.846485
 31
0.0
  0
LINE
  5
AA1
330
1E
100
AcDbEntity
  8
0
100
AcDbLine
 10
66.30263499999998
 20
796.1594849999999
 30
0.0
 11
66.45533499999999
 21
796.3064850000001
 31
0.0
  0
LINE
  5
AA2
330
1E
100
AcDbEntity
  8
0
100
AcDbLine
 10
66.30263499999998
 20
796.1594849999999
 30
0.0
 11
66.68923499999997
 21
795.922485
 31
0.0
  0
LINE
  5
AA3
330
1E
100
AcDbEntity
  8
0
100
AcDbLine
 10
66.50453499999997
 20
794.6194849999999
 30
0.0
 11
66.52474411714379
 21
794.681882848266
 31
0.0
  0
LINE
  5
AA4
330
1E
100
AcDbEntity
  8
0
100
AcDbLine
 10
67.41033499999997
 20
795.7344849999999
 30
0.0
 11
68.03773499999997
 21
795.6994849999999
 31
0.0
  0
LINE
  5
AA5
330
1E
100
AcDbEntity
  8
0
100
AcDbLine
 10
67.34293499999998
 20
794.5734849999999
 30
0.0
 11
67.82163499999999
 21
794.405485
 31
0.0
  0
LINE
  5
AA6
330
1E
100
AcDbEntity
  8
0
100
AcDbLine
 10
67.78723499999998
 20
794.347485
 30
0.0
 11
67.80703790499217
 21
794.4086059824519
 31
0.0
  0
LINE
  5
AA7
330
1E
100
AcDbEntity
  8
0
100
AcDbLine
 10
67.78723499999998
 20
794.347485
 30
0.0
 11
67.82163499999999
 21
794.405485
 31
0.0
  0
LINE
  5
AA8
330
1E
100
AcDbEntity
  8
0
100
AcDbLine
 10
67.08263499999998
 20
796.271485
 30
0.0
 11
67.80363499999999
 21
796.0824849999998
 31
0.0
  0
LINE
  5
AA9
330
1E
100
AcDbEntity
  8
0
100
AcDbLine
 10
67.13453499999997
 20
790.991485
 30
0.0
 11
67.14263499999998
 21
793.5714849999999
 31
0.0
  0
LINE
  5
AAA
330
1E
100
AcDbEntity
  8
0
100
AcDbLine
 10
67.23483499999997
 20
794.4384849999999
 30
0.0
 11
67.25525190231238
 21
794.5014865915029
 31
0.0
  0
LINE
  5
AAB
330
1E
100
AcDbEntity
  8
0
100
AcDbLine
 10
67.23483499999997
 20
794.4384849999999
 30
0.0
 11
67.78723499999998
 21
794.347485
 31
0.0
  0
LINE
  5
AAC
330
1E
100
AcDbEntity
  8
0
100
AcDbLine
 10
67.09609906422278
 20
794.472869779372
 30
0.0
 11
67.14263499999998
 21
793.5714849999999
 31
0.0
  0
LINE
  5
AAD
330
1E
100
AcDbEntity
  8
0
100
AcDbLine
 10
67.80363499999999
 20
796.0824849999998
 30
0.0
 11
68.19023499999997
 21
795.846485
 31
0.0
  0
LINE
  5
AAE
330
1E
100
AcDbEntity
  8
0
100
AcDbLine
 10
68.03773499999997
 20
795.6994849999999
 30
0.0
 11
68.19023499999997
 21
795.846485
 31
0.0
  0
LINE
  5
AAF
330
1E
100
AcDbEntity
  8
0
100
AcDbLine
 10
67.82163499999999
 20
794.405485
 30
0.0
 11
68.08344746461398
 21
795.213709775021
 31
0.0
  0
LINE
  5
AB0
330
1E
100
AcDbEntity
  8
0
100
AcDbLine
 10
62.37923499999997
 20
827.2964849999999
 30
0.0
 11
66.40223499999999
 21
828.396485
 31
0.0
  0
LINE
  5
AB1
330
1E
100
AcDbEntity
  8
0
100
AcDbLine
 10
65.21663499999997
 20
806.881485
 30
0.0
 11
65.31643499999998
 21
806.455485
 31
0.0
  0
LINE
  5
AB2
330
1E
100
AcDbEntity
  8
0
100
AcDbLine
 10
64.85523499999996
 20
806.2064849999998
 30
0.0
 11
65.31643499999998
 21
806.455485
 31
0.0
  0
LINE
  5
AB3
330
1E
100
AcDbEntity
  8
0
100
AcDbLine
 10
65.21663499999997
 20
801.651485
 30
0.0
 11
65.31643499999998
 21
801.974485
 31
0.0
  0
LINE
  5
AB4
330
1E
100
AcDbEntity
  8
0
100
AcDbLine
 10
64.85523499999996
 20
802.3254849999998
 30
0.0
 11
65.31643499999998
 21
801.974485
 31
0.0
  0
LINE
  5
AB5
330
1E
100
AcDbEntity
  8
0
100
AcDbLine
 10
63.34263499999997
 20
813.480485
 30
0.0
 11
63.66883499999997
 21
812.9684849999998
 31
0.0
  0
LINE
  5
AB6
330
1E
100
AcDbEntity
  8
0
100
AcDbLine
 10
63.46173499999998
 20
812.522485
 30
0.0
 11
63.76166085091589
 21
813.0322253067758
 31
0.0
  0
LINE
  5
AB7
330
1E
100
AcDbEntity
  8
0
100
AcDbLine
 10
63.46173499999998
 20
812.522485
 30
0.0
 11
63.66883499999997
 21
812.9684849999998
 31
0.0
  0
LINE
  5
AB8
330
1E
100
AcDbEntity
  8
0
100
AcDbLine
 10
63.446135
 20
807.0484849999999
 30
0.0
 11
63.90743499999999
 21
807.2964849999999
 31
0.0
  0
LINE
  5
AB9
330
1E
100
AcDbEntity
  8
0
100
AcDbLine
 10
63.54613499999999
 20
806.6224849999999
 30
0.0
 11
64.12323499999999
 21
806.2704849999999
 31
0.0
  0
LINE
  5
ABA
330
1E
100
AcDbEntity
  8
0
100
AcDbLine
 10
63.54613499999999
 20
802.3894849999999
 30
0.0
 11
64.12323499999999
 21
802.5014849999999
 31
0.0
  0
LINE
  5
ABB
330
1E
100
AcDbEntity
  8
0
100
AcDbLine
 10
63.46173499999998
 20
798.2544849999999
 30
0.0
 11
63.66883499999997
 21
797.9774849999999
 31
0.0
  0
LINE
  5
ABC
330
1E
100
AcDbEntity
  8
0
100
AcDbLine
 10
63.446135
 20
802.0664850000001
 30
0.0
 11
63.90743499999999
 21
801.7154849999998
 31
0.0
  0
LINE
  5
ABD
330
1E
100
AcDbEntity
  8
0
100
AcDbLine
 10
62.12843499999999
 20
798.6534849999999
 30
0.0
 11
62.81893499999998
 21
798.5324849999999
 31
0.0
  0
LINE
  5
ABE
330
1E
100
AcDbEntity
  8
0
100
AcDbLine
 10
62.00953499999997
 20
798.2634849999999
 30
0.0
 11
62.65223499999999
 21
797.984485
 31
0.0
  0
LINE
  5
ABF
330
1E
100
AcDbEntity
  8
0
100
AcDbLine
 10
63.446135
 20
807.0484849999999
 30
0.0
 11
63.54613499999999
 21
806.6224849999999
 31
0.0
  0
LINE
  5
AC0
330
1E
100
AcDbEntity
  8
0
100
AcDbLine
 10
63.446135
 20
802.0664850000001
 30
0.0
 11
63.54613499999999
 21
802.3894849999999
 31
0.0
  0
LINE
  5
AC1
330
1E
100
AcDbEntity
  8
0
100
AcDbLine
 10
62.65223499999999
 20
813.7554849999999
 30
0.0
 11
63.34263499999997
 21
813.480485
 31
0.0
  0
LINE
  5
AC2
330
1E
100
AcDbEntity
  8
0
100
AcDbLine
 10
62.12843499999999
 20
812.6894849999999
 30
0.0
 11
62.81893499999998
 21
812.415485
 31
0.0
  0
LINE
  5
AC3
330
1E
100
AcDbEntity
  8
0
100
AcDbLine
 10
62.00953499999997
 20
813.6464849999999
 30
0.0
 11
62.65223499999999
 21
813.7554849999999
 31
0.0
  0
LINE
  5
AC4
330
1E
100
AcDbEntity
  8
0
100
AcDbLine
 10
62.81893499999998
 20
812.415485
 30
0.0
 11
63.46173499999998
 21
812.522485
 31
0.0
  0
LINE
  5
AC5
330
1E
100
AcDbEntity
  8
0
100
AcDbLine
 10
63.90743499999999
 20
807.2964849999999
 30
0.0
 11
64.63943499999999
 21
807.2324849999999
 31
0.0
  0
LINE
  5
AC6
330
1E
100
AcDbEntity
  8
0
100
AcDbLine
 10
64.12323499999999
 20
806.2704849999999
 30
0.0
 11
64.85523499999996
 21
806.2064849999998
 31
0.0
  0
LINE
  5
AC7
330
1E
100
AcDbEntity
  8
0
100
AcDbLine
 10
63.90743499999999
 20
801.7154849999998
 30
0.0
 11
64.63943499999999
 21
801.538485
 31
0.0
  0
LINE
  5
AC8
330
1E
100
AcDbEntity
  8
0
100
AcDbLine
 10
64.12323499999999
 20
802.5014849999999
 30
0.0
 11
64.85523499999996
 21
802.3254849999998
 31
0.0
  0
LINE
  5
AC9
330
1E
100
AcDbEntity
  8
0
100
AcDbLine
 10
64.63943499999999
 20
807.2324849999999
 30
0.0
 11
64.66847328844318
 21
807.3155681652469
 31
0.0
  0
LINE
  5
ACA
330
1E
100
AcDbEntity
  8
0
100
AcDbLine
 10
64.63943499999999
 20
807.2324849999999
 30
0.0
 11
65.21663499999997
 21
806.881485
 31
0.0
  0
LINE
  5
ACB
330
1E
100
AcDbEntity
  8
0
100
AcDbLine
 10
64.63943499999999
 20
801.538485
 30
0.0
 11
65.21663499999997
 21
801.651485
 31
0.0
  0
LINE
  5
ACC
330
1E
100
AcDbEntity
  8
0
100
AcDbLine
 10
66.45533499999999
 20
815.037485
 30
0.0
 11
67.08263499999998
 21
814.675485
 31
0.0
  0
LINE
  5
ACD
330
1E
100
AcDbEntity
  8
0
100
AcDbLine
 10
66.68923499999997
 20
815.9864849999999
 30
0.0
 11
67.41033499999997
 21
816.0054849999999
 31
0.0
  0
LINE
  5
ACE
330
1E
100
AcDbEntity
  8
0
100
AcDbLine
 10
66.30263499999998
 20
815.5804849999999
 30
0.0
 11
66.45533499999999
 21
815.037485
 31
0.0
  0
LINE
  5
ACF
330
1E
100
AcDbEntity
  8
0
100
AcDbLine
 10
66.30263499999998
 20
815.5804849999999
 30
0.0
 11
66.68923499999997
 21
815.9864849999999
 31
0.0
  0
LINE
  5
AD0
330
1E
100
AcDbEntity
  8
0
100
AcDbLine
 10
68.14433499999998
 20
798.0414849999999
 30
0.0
 11
68.41193499999997
 21
798.2674849999999
 31
0.0
  0
LINE
  5
AD1
330
1E
100
AcDbEntity
  8
0
100
AcDbLine
 10
67.41033499999997
 20
816.0054849999999
 30
0.0
 11
68.03773499999997
 21
815.6444849999999
 31
0.0
  0
LINE
  5
AD2
330
1E
100
AcDbEntity
  8
0
100
AcDbLine
 10
67.08263499999998
 20
814.675485
 30
0.0
 11
67.80363499999999
 21
814.694485
 31
0.0
  0
LINE
  5
AD3
330
1E
100
AcDbEntity
  8
0
100
AcDbLine
 10
67.80363499999999
 20
814.694485
 30
0.0
 11
68.19023499999997
 21
815.1004849999999
 31
0.0
  0
LINE
  5
AD4
330
1E
100
AcDbEntity
  8
0
100
AcDbLine
 10
68.03773499999997
 20
815.6444849999999
 30
0.0
 11
68.19023499999997
 21
815.1004849999999
 31
0.0
  0
LINE
  5
AD5
330
1E
100
AcDbEntity
  8
0
100
AcDbLine
 10
68.19023499999997
 20
815.1004849999999
 30
0.0
 11
68.25360439731409
 21
815.2312451624379
 31
0.0
  0
LINE
  5
AD6
330
1E
100
AcDbEntity
  8
0
100
AcDbLine
 10
68.14433499999998
 20
810.9704849999999
 30
0.0
 11
68.23705581217379
 21
811.3033921713689
 31
0.0
  0
LINE
  5
AD7
330
1E
100
AcDbEntity
  8
0
100
AcDbLine
 10
68.14433499999998
 20
810.9704849999999
 30
0.0
 11
68.43253499999997
 21
811.371485
 31
0.0
  0
LINE
  5
AD8
330
1E
100
AcDbEntity
  8
0
100
AcDbLine
 10
68.14433499999998
 20
810.9704849999999
 30
0.0
 11
68.41193499999997
 21
810.5044849999998
 31
0.0
  0
LINE
  5
AD9
330
1E
100
AcDbEntity
  8
0
100
AcDbLine
 10
66.61263499999998
 20
820.156485
 30
0.0
 11
67.34293499999998
 21
820.105485
 31
0.0
  0
LINE
  5
ADA
330
1E
100
AcDbEntity
  8
0
100
AcDbLine
 10
66.50453499999997
 20
821.6044849999999
 30
0.0
 11
67.23483499999997
 21
821.5534849999999
 31
0.0
  0
LINE
  5
ADB
330
1E
100
AcDbEntity
  8
0
100
AcDbLine
 10
66.02563499999999
 20
821.2044849999999
 30
0.0
 11
66.50453499999997
 21
821.6044849999999
 31
0.0
  0
LINE
  5
ADC
330
1E
100
AcDbEntity
  8
0
100
AcDbLine
 10
66.06003499999997
 20
820.6054849999999
 30
0.0
 11
66.61263499999998
 21
820.156485
 31
0.0
  0
LINE
  5
ADD
330
1E
100
AcDbEntity
  8
0
100
AcDbLine
 10
66.02563499999999
 20
821.2044849999999
 30
0.0
 11
66.06003499999997
 21
820.6054849999999
 31
0.0
  0
LINE
  5
ADE
330
1E
100
AcDbEntity
  8
0
100
AcDbLine
 10
67.34293499999998
 20
820.105485
 30
0.0
 11
67.82163499999999
 21
820.5054849999999
 31
0.0
  0
LINE
  5
ADF
330
1E
100
AcDbEntity
  8
0
100
AcDbLine
 10
67.78723499999998
 20
821.104485
 30
0.0
 11
67.82163499999999
 21
820.5054849999999
 31
0.0
  0
LINE
  5
AE0
330
1E
100
AcDbEntity
  8
0
100
AcDbLine
 10
67.23483499999997
 20
821.5534849999999
 30
0.0
 11
67.78723499999998
 21
821.104485
 31
0.0
  0
LINE
  5
AE1
330
1E
100
AcDbEntity
  8
0
100
AcDbLine
 10
60.93953499999997
 20
849.2404849999999
 30
0.0
 11
62.85983499999997
 21
849.896485
 31
0.0
  0
LINE
  5
AE2
330
1E
100
AcDbEntity
  8
0
100
AcDbLine
 10
57.96393499999999
 20
840.0404849999999
 30
0.0
 11
62.17183499999999
 21
841.308485
 31
0.0
  0
LINE
  5
AE3
330
1E
100
AcDbEntity
  8
0
100
AcDbLine
 10
57.96423499999997
 20
840.041485
 30
0.0
 11
62.17223499999997
 21
841.308485
 31
0.0
  0
LINE
  5
AE4
330
1E
100
AcDbEntity
  8
0
100
AcDbLine
 10
57.34263499999997
 20
847.7534849999999
 30
0.0
 11
60.93953499999997
 21
849.2404849999999
 31
0.0
  0
LINE
  5
AE5
330
1E
100
AcDbEntity
  8
0
100
AcDbLine
 10
62.85983499999997
 20
849.896485
 30
0.0
 11
66.39793499999999
 21
851.0624849999999
 31
0.0
  0
LINE
  5
AE6
330
1E
100
AcDbEntity
  8
0
100
AcDbLine
 10
62.17183499999999
 20
841.308485
 30
0.0
 11
66.64683499999998
 21
842.3254849999999
 31
0.0
  0
LINE
  5
AE7
330
1E
100
AcDbEntity
  8
0
100
AcDbLine
 10
62.17223499999997
 20
841.308485
 30
0.0
 11
66.647235
 21
842.3254849999999
 31
0.0
  0
LINE
  5
AE8
330
1E
100
AcDbEntity
  8
0
100
AcDbLine
 10
70.67023499999999
 20
829.2394849999999
 30
0.0
 11
82.07323499999999
 21
830.164485
 31
0.0
  0
LINE
  5
AE9
330
1E
100
AcDbEntity
  8
0
100
AcDbLine
 10
74.76013499999999
 20
809.0834849999998
 30
0.0
 11
75.41673499999999
 21
808.820485
 31
0.0
  0
LINE
  5
AEA
330
1E
100
AcDbEntity
  8
0
100
AcDbLine
 10
75.22453499999997
 20
808.009485
 30
0.0
 11
75.59863499999997
 21
808.3744849999998
 31
0.0
  0
LINE
  5
AEB
330
1E
100
AcDbEntity
  8
0
100
AcDbLine
 10
75.29995978423238
 20
793.5741081361939
 30
0.0
 11
81.08513499999999
 21
793.1747028718789
 31
0.0
  0
LINE
  5
AEC
330
1E
100
AcDbEntity
  8
0
100
AcDbLine
 10
69.80163499999997
 20
798.085485
 30
0.0
 11
70.08993499999999
 21
797.787485
 31
0.0
  0
LINE
  5
AED
330
1E
100
AcDbEntity
  8
0
100
AcDbLine
 10
71.86653499999997
 20
794.4494849999998
 30
0.0
 11
72.40633499999998
 21
794.2734849999999
 31
0.0
  0
LINE
  5
AEE
330
1E
100
AcDbEntity
  8
0
100
AcDbLine
 10
71.83523499999998
 20
794.6044849999999
 30
0.0
 11
72.35683499999999
 21
794.6444849999999
 31
0.0
  0
LINE
  5
AEF
330
1E
100
AcDbEntity
  8
0
100
AcDbLine
 10
69.13163499999999
 20
797.547485
 30
0.0
 11
69.82233499999998
 21
797.5624849999999
 31
0.0
  0
LINE
  5
AF0
330
1E
100
AcDbEntity
  8
0
100
AcDbLine
 10
69.82233499999998
 20
797.5624849999999
 30
0.0
 11
70.08993499999999
 21
797.787485
 31
0.0
  0
LINE
  5
AF1
330
1E
100
AcDbEntity
  8
0
100
AcDbLine
 10
71.83523499999998
 20
794.6044849999999
 30
0.0
 11
71.86653499999997
 21
794.4494849999998
 31
0.0
  0
LINE
  5
AF2
330
1E
100
AcDbEntity
  8
0
100
AcDbLine
 10
73.64673499999998
 20
794.3774849999999
 30
0.0
 11
73.67793499999999
 21
794.223485
 31
0.0
  0
LINE
  5
AF3
330
1E
100
AcDbEntity
  8
0
100
AcDbLine
 10
73.15633499999998
 20
794.182485
 30
0.0
 11
73.67793499999999
 21
794.223485
 31
0.0
  0
LINE
  5
AF4
330
1E
100
AcDbEntity
  8
0
100
AcDbLine
 10
73.40973499999998
 20
793.1604849999999
 30
0.0
 11
74.01903499999997
 21
793.0644849999999
 31
0.0
  0
LINE
  5
AF5
330
1E
100
AcDbEntity
  8
0
100
AcDbLine
 10
73.27263499999998
 20
793.212485
 30
0.0
 11
73.71353499999997
 21
793.1874849999999
 31
0.0
  0
LINE
  5
AF6
330
1E
100
AcDbEntity
  8
0
100
AcDbLine
 10
72.40633499999998
 20
794.2734849999999
 30
0.0
 11
73.15633499999998
 21
794.182485
 31
0.0
  0
LINE
  5
AF7
330
1E
100
AcDbEntity
  8
0
100
AcDbLine
 10
72.35683499999999
 20
794.6444849999999
 30
0.0
 11
73.10693499999999
 21
794.5534849999999
 31
0.0
  0
LINE
  5
AF8
330
1E
100
AcDbEntity
  8
0
100
AcDbLine
 10
73.10693499999999
 20
794.5534849999999
 30
0.0
 11
73.64673499999998
 21
794.3774849999999
 31
0.0
  0
LINE
  5
AF9
330
1E
100
AcDbEntity
  8
0
100
AcDbLine
 10
73.27263499999998
 20
793.212485
 30
0.0
 11
73.41358561379869
 21
794.0803776881839
 31
0.0
  0
LINE
  5
AFA
330
1E
100
AcDbEntity
  8
0
100
AcDbLine
 10
73.27263499999998
 20
793.212485
 30
0.0
 11
73.40973499999998
 21
793.1604849999999
 31
0.0
  0
LINE
  5
AFB
330
1E
100
AcDbEntity
  8
0
100
AcDbLine
 10
74.45303499999997
 20
793.1014849999999
 30
0.0
 11
75.06213499999998
 21
793.0064849999999
 31
0.0
  0
LINE
  5
AFC
330
1E
100
AcDbEntity
  8
0
100
AcDbLine
 10
74.01903499999997
 20
793.0644849999999
 30
0.0
 11
74.75833499999999
 21
792.9804849999999
 31
0.0
  0
LINE
  5
AFD
330
1E
100
AcDbEntity
  8
0
100
AcDbLine
 10
73.71353499999997
 20
793.1874849999999
 30
0.0
 11
74.45303499999997
 21
793.1014849999999
 31
0.0
  0
LINE
  5
AFE
330
1E
100
AcDbEntity
  8
0
100
AcDbLine
 10
75.06213499999998
 20
793.0064849999999
 30
0.0
 11
75.19923499999999
 21
792.954485
 31
0.0
  0
LINE
  5
AFF
330
1E
100
AcDbEntity
  8
0
100
AcDbLine
 10
75.19923499999999
 20
792.954485
 30
0.0
 11
75.33912862552276
 21
793.815060950998
 31
0.0
  0
LINE
  5
B00
330
1E
100
AcDbEntity
  8
0
100
AcDbLine
 10
74.75833499999999
 20
792.9804849999999
 30
0.0
 11
74.76703286683667
 21
793.0339911908409
 31
0.0
  0
LINE
  5
B01
330
1E
100
AcDbEntity
  8
0
100
AcDbLine
 10
74.75833499999999
 20
792.9804849999999
 30
0.0
 11
75.19923499999999
 21
792.954485
 31
0.0
  0
LINE
  5
B02
330
1E
100
AcDbEntity
  8
0
100
AcDbLine
 10
71.86653499999997
 20
817.289485
 30
0.0
 11
72.40633499999998
 21
817.6354849999999
 31
0.0
  0
LINE
  5
B03
330
1E
100
AcDbEntity
  8
0
100
AcDbLine
 10
71.83523499999998
 20
816.7394849999999
 30
0.0
 11
72.35683499999999
 21
816.3014849999999
 31
0.0
  0
LINE
  5
B04
330
1E
100
AcDbEntity
  8
0
100
AcDbLine
 10
71.74513499999997
 20
800.327485
 30
0.0
 11
72.47363499999997
 21
800.337485
 31
0.0
  0
LINE
  5
B05
330
1E
100
AcDbEntity
  8
0
100
AcDbLine
 10
71.57173499999998
 20
799.7494849999999
 30
0.0
 11
72.23083499999998
 21
799.5274849999999
 31
0.0
  0
LINE
  5
B06
330
1E
100
AcDbEntity
  8
0
100
AcDbLine
 10
69.84693499999997
 20
806.299485
 30
0.0
 11
70.38673499999998
 21
806.530485
 31
0.0
  0
LINE
  5
B07
330
1E
100
AcDbEntity
  8
0
100
AcDbLine
 10
69.85243499999999
 20
805.8854849999999
 30
0.0
 11
70.37433499999997
 21
805.5344849999999
 31
0.0
  0
LINE
  5
B08
330
1E
100
AcDbEntity
  8
0
100
AcDbLine
 10
70.06093499999997
 20
802.3664849999999
 30
0.0
 11
70.70463499999997
 21
802.4784849999999
 31
0.0
  0
LINE
  5
B09
330
1E
100
AcDbEntity
  8
0
100
AcDbLine
 10
69.80063499999997
 20
803.3554849999999
 30
0.0
 11
70.52243499999997
 21
803.1704849999998
 31
0.0
  0
LINE
  5
B0A
330
1E
100
AcDbEntity
  8
0
100
AcDbLine
 10
69.33913499999997
 20
802.551485
 30
0.0
 11
70.06093499999997
 21
802.3664849999999
 31
0.0
  0
LINE
  5
B0B
330
1E
100
AcDbEntity
  8
0
100
AcDbLine
 10
69.15683499999997
 20
803.2444849999999
 30
0.0
 11
69.80063499999997
 21
803.3554849999999
 31
0.0
  0
LINE
  5
B0C
330
1E
100
AcDbEntity
  8
0
100
AcDbLine
 10
69.10263499999999
 20
798.2804849999999
 30
0.0
 11
69.80163499999997
 21
798.085485
 31
0.0
  0
LINE
  5
B0D
330
1E
100
AcDbEntity
  8
0
100
AcDbLine
 10
68.95523499999999
 20
802.913485
 30
0.0
 11
69.00176414639227
 21
803.1191291381869
 31
0.0
  0
LINE
  5
B0E
330
1E
100
AcDbEntity
  8
0
100
AcDbLine
 10
68.95523499999999
 20
802.913485
 30
0.0
 11
69.15683499999997
 21
803.2444849999999
 31
0.0
  0
LINE
  5
B0F
330
1E
100
AcDbEntity
  8
0
100
AcDbLine
 10
68.95523499999999
 20
802.913485
 30
0.0
 11
69.33913499999997
 21
802.551485
 31
0.0
  0
LINE
  5
B10
330
1E
100
AcDbEntity
  8
0
100
AcDbLine
 10
69.84693499999997
 20
806.299485
 30
0.0
 11
69.85243499999999
 21
805.8854849999999
 31
0.0
  0
LINE
  5
B11
330
1E
100
AcDbEntity
  8
0
100
AcDbLine
 10
69.13163499999999
 20
811.4634849999999
 30
0.0
 11
69.82233499999998
 21
811.2094849999998
 31
0.0
  0
LINE
  5
B12
330
1E
100
AcDbEntity
  8
0
100
AcDbLine
 10
69.10263499999999
 20
810.251485
 30
0.0
 11
69.80163499999997
 21
810.3444849999998
 31
0.0
  0
LINE
  5
B13
330
1E
100
AcDbEntity
  8
0
100
AcDbLine
 10
69.82233499999998
 20
811.2094849999998
 30
0.0
 11
70.08993499999999
 21
810.7454849999999
 31
0.0
  0
LINE
  5
B14
330
1E
100
AcDbEntity
  8
0
100
AcDbLine
 10
69.80163499999997
 20
810.3444849999998
 30
0.0
 11
70.08993499999999
 21
810.7454849999999
 31
0.0
  0
LINE
  5
B15
330
1E
100
AcDbEntity
  8
0
100
AcDbLine
 10
71.13753499999998
 20
806.455485
 30
0.0
 11
71.65923499999999
 21
806.103485
 31
0.0
  0
LINE
  5
B16
330
1E
100
AcDbEntity
  8
0
100
AcDbLine
 10
71.12503499999999
 20
805.4594849999999
 30
0.0
 11
71.66483499999998
 21
805.6904849999998
 31
0.0
  0
LINE
  5
B17
330
1E
100
AcDbEntity
  8
0
100
AcDbLine
 10
70.38673499999998
 20
806.530485
 30
0.0
 11
71.13753499999998
 21
806.455485
 31
0.0
  0
LINE
  5
B18
330
1E
100
AcDbEntity
  8
0
100
AcDbLine
 10
70.37433499999997
 20
805.5344849999999
 30
0.0
 11
71.12503499999999
 21
805.4594849999999
 31
0.0
  0
LINE
  5
B19
330
1E
100
AcDbEntity
  8
0
100
AcDbLine
 10
70.70463499999997
 20
802.4784849999999
 30
0.0
 11
70.90623499999998
 21
802.809485
 31
0.0
  0
LINE
  5
B1A
330
1E
100
AcDbEntity
  8
0
100
AcDbLine
 10
70.52243499999997
 20
803.1704849999998
 30
0.0
 11
70.90623499999998
 21
802.809485
 31
0.0
  0
LINE
  5
B1B
330
1E
100
AcDbEntity
  8
0
100
AcDbLine
 10
71.65923499999999
 20
806.103485
 30
0.0
 11
71.66483499999998
 21
805.6904849999998
 31
0.0
  0
LINE
  5
B1C
330
1E
100
AcDbEntity
  8
0
100
AcDbLine
 10
71.380935
 20
800.0804849999999
 30
0.0
 11
71.57173499999998
 21
799.7494849999999
 31
0.0
  0
LINE
  5
B1D
330
1E
100
AcDbEntity
  8
0
100
AcDbLine
 10
71.380935
 20
800.0804849999999
 30
0.0
 11
71.74513499999997
 21
800.327485
 31
0.0
  0
LINE
  5
B1E
330
1E
100
AcDbEntity
  8
0
100
AcDbLine
 10
71.83523499999998
 20
816.7394849999999
 30
0.0
 11
71.86653499999997
 21
817.289485
 31
0.0
  0
LINE
  5
B1F
330
1E
100
AcDbEntity
  8
0
100
AcDbLine
 10
73.64673499999998
 20
816.5684849999999
 30
0.0
 11
73.70176608569187
 21
816.7398218894888
 31
0.0
  0
LINE
  5
B20
330
1E
100
AcDbEntity
  8
0
100
AcDbLine
 10
73.64673499999998
 20
816.5684849999999
 30
0.0
 11
73.67793499999999
 21
817.1204849999998
 31
0.0
  0
LINE
  5
B21
330
1E
100
AcDbEntity
  8
0
100
AcDbLine
 10
73.15633499999998
 20
817.557485
 30
0.0
 11
73.67793499999999
 21
817.1204849999998
 31
0.0
  0
LINE
  5
B22
330
1E
100
AcDbEntity
  8
0
100
AcDbLine
 10
73.65253499999997
 20
808.6584849999999
 30
0.0
 11
73.83443499999998
 21
808.2124849999999
 31
0.0
  0
LINE
  5
B23
330
1E
100
AcDbEntity
  8
0
100
AcDbLine
 10
73.65253499999997
 20
808.6584849999999
 30
0.0
 11
74.02663499999997
 21
809.022485
 31
0.0
  0
LINE
  5
B24
330
1E
100
AcDbEntity
  8
0
100
AcDbLine
 10
72.47363499999997
 20
800.337485
 30
0.0
 11
73.13283499999997
 21
800.1144849999999
 31
0.0
  0
LINE
  5
B25
330
1E
100
AcDbEntity
  8
0
100
AcDbLine
 10
72.23083499999998
 20
799.5274849999999
 30
0.0
 11
72.95933499999998
 21
799.5364849999999
 31
0.0
  0
LINE
  5
B26
330
1E
100
AcDbEntity
  8
0
100
AcDbLine
 10
72.95933499999998
 20
799.5364849999999
 30
0.0
 11
73.32363499999999
 21
799.7834849999999
 31
0.0
  0
LINE
  5
B27
330
1E
100
AcDbEntity
  8
0
100
AcDbLine
 10
73.13283499999997
 20
800.1144849999999
 30
0.0
 11
73.32363499999999
 21
799.7834849999999
 31
0.0
  0
LINE
  5
B28
330
1E
100
AcDbEntity
  8
0
100
AcDbLine
 10
72.35683499999999
 20
816.3014849999999
 30
0.0
 11
73.10693499999999
 21
816.223485
 31
0.0
  0
LINE
  5
B29
330
1E
100
AcDbEntity
  8
0
100
AcDbLine
 10
72.40633499999998
 20
817.6354849999999
 30
0.0
 11
73.15633499999998
 21
817.557485
 31
0.0
  0
LINE
  5
B2A
330
1E
100
AcDbEntity
  8
0
100
AcDbLine
 10
73.10693499999999
 20
816.223485
 30
0.0
 11
73.64673499999998
 21
816.5684849999999
 31
0.0
  0
LINE
  5
B2B
330
1E
100
AcDbEntity
  8
0
100
AcDbLine
 10
74.02663499999997
 20
809.022485
 30
0.0
 11
74.76013499999999
 21
809.0834849999998
 31
0.0
  0
LINE
  5
B2C
330
1E
100
AcDbEntity
  8
0
100
AcDbLine
 10
74.49103499999998
 20
807.9484849999998
 30
0.0
 11
75.22453499999997
 21
808.009485
 31
0.0
  0
LINE
  5
B2D
330
1E
100
AcDbEntity
  8
0
100
AcDbLine
 10
73.83443499999998
 20
808.2124849999999
 30
0.0
 11
74.49103499999998
 21
807.9484849999998
 31
0.0
  0
LINE
  5
B2E
330
1E
100
AcDbEntity
  8
0
100
AcDbLine
 10
73.40973499999998
 20
822.831485
 30
0.0
 11
74.01903499999997
 21
823.1584849999999
 31
0.0
  0
LINE
  5
B2F
330
1E
100
AcDbEntity
  8
0
100
AcDbLine
 10
73.27263499999998
 20
822.2384849999999
 30
0.0
 11
73.71353499999997
 21
821.723485
 31
0.0
  0
LINE
  5
B30
330
1E
100
AcDbEntity
  8
0
100
AcDbLine
 10
73.27263499999998
 20
822.2384849999999
 30
0.0
 11
73.40973499999998
 21
822.831485
 31
0.0
  0
LINE
  5
B31
330
1E
100
AcDbEntity
  8
0
100
AcDbLine
 10
74.45303499999997
 20
821.5764850000001
 30
0.0
 11
75.06213499999998
 21
821.9044849999999
 31
0.0
  0
LINE
  5
B32
330
1E
100
AcDbEntity
  8
0
100
AcDbLine
 10
74.01903499999997
 20
823.1584849999999
 30
0.0
 11
74.75833499999999
 21
823.0114849999999
 31
0.0
  0
LINE
  5
B33
330
1E
100
AcDbEntity
  8
0
100
AcDbLine
 10
73.71353499999997
 20
821.723485
 30
0.0
 11
74.45303499999997
 21
821.5764850000001
 31
0.0
  0
LINE
  5
B34
330
1E
100
AcDbEntity
  8
0
100
AcDbLine
 10
75.06213499999998
 20
821.9044849999999
 30
0.0
 11
75.19923499999999
 21
822.496485
 31
0.0
  0
LINE
  5
B35
330
1E
100
AcDbEntity
  8
0
100
AcDbLine
 10
74.75833499999999
 20
823.0114849999999
 30
0.0
 11
75.19923499999999
 21
822.496485
 31
0.0
  0
LINE
  5
B36
330
1E
100
AcDbEntity
  8
0
100
AcDbLine
 10
78.30383499999999
 20
798.1004849999999
 30
0.0
 11
78.31673499999997
 21
797.806485
 31
0.0
  0
LINE
  5
B37
330
1E
100
AcDbEntity
  8
0
100
AcDbLine
 10
76.48683499999998
 20
797.8934849999999
 30
0.0
 11
77.01873499999999
 21
797.6584849999999
 31
0.0
  0
LINE
  5
B38
330
1E
100
AcDbEntity
  8
0
100
AcDbLine
 10
78.29323499999998
 20
793.756485
 30
0.0
 11
79.02123499999999
 21
793.7624849999999
 31
0.0
  0
LINE
  5
B39
330
1E
100
AcDbEntity
  8
0
100
AcDbLine
 10
78.125935
 20
793.5184849999999
 30
0.0
 11
78.78223499999998
 21
793.421485
 31
0.0
  0
LINE
  5
B3A
330
1E
100
AcDbEntity
  8
0
100
AcDbLine
 10
76.84323499999999
 20
795.8384849999999
 30
0.0
 11
77.59273499999998
 21
795.836485
 31
0.0
  0
LINE
  5
B3B
330
1E
100
AcDbEntity
  8
0
100
AcDbLine
 10
77.01873499999999
 20
797.6584849999999
 30
0.0
 11
77.77673499999997
 21
797.627485
 31
0.0
  0
LINE
  5
B3C
330
1E
100
AcDbEntity
  8
0
100
AcDbLine
 10
76.49243499999997
 20
795.4224850000001
 30
0.0
 11
77.09153499999999
 21
795.2434849999999
 31
0.0
  0
LINE
  5
B3D
330
1E
100
AcDbEntity
  8
0
100
AcDbLine
 10
76.37883499999998
 20
795.6694849999998
 30
0.0
 11
76.84323499999999
 21
795.8384849999999
 31
0.0
  0
LINE
  5
B3E
330
1E
100
AcDbEntity
  8
0
100
AcDbLine
 10
76.37883499999998
 20
795.6694849999998
 30
0.0
 11
76.49243499999997
 21
795.4224850000001
 31
0.0
  0
LINE
  5
B3F
330
1E
100
AcDbEntity
  8
0
100
AcDbLine
 10
77.84103499999997
 20
795.2424849999999
 30
0.0
 11
78.30543499999999
 21
795.4114849999999
 31
0.0
  0
LINE
  5
B40
330
1E
100
AcDbEntity
  8
0
100
AcDbLine
 10
77.77673499999997
 20
797.627485
 30
0.0
 11
78.31673499999997
 21
797.806485
 31
0.0
  0
LINE
  5
B41
330
1E
100
AcDbEntity
  8
0
100
AcDbLine
 10
77.59273499999998
 20
795.836485
 30
0.0
 11
78.191835
 21
795.656485
 31
0.0
  0
LINE
  5
B42
330
1E
100
AcDbEntity
  8
0
100
AcDbLine
 10
77.09153499999999
 20
795.2434849999999
 30
0.0
 11
77.84103499999997
 21
795.2424849999999
 31
0.0
  0
LINE
  5
B43
330
1E
100
AcDbEntity
  8
0
100
AcDbLine
 10
78.191835
 20
795.656485
 30
0.0
 11
78.30543499999999
 21
795.4114849999999
 31
0.0
  0
LINE
  5
B44
330
1E
100
AcDbEntity
  8
0
100
AcDbLine
 10
78.30543499999999
 20
795.4114849999999
 30
0.0
 11
78.32909535129409
 21
795.7198907089589
 31
0.0
  0
LINE
  5
B45
330
1E
100
AcDbEntity
  8
0
100
AcDbLine
 10
77.91293499999998
 20
793.6564849999999
 30
0.0
 11
78.29323499999998
 21
793.756485
 31
0.0
  0
LINE
  5
B46
330
1E
100
AcDbEntity
  8
0
100
AcDbLine
 10
77.91293499999998
 20
793.6564849999999
 30
0.0
 11
78.125935
 21
793.5184849999999
 31
0.0
  0
LINE
  5
B47
330
1E
100
AcDbEntity
  8
0
100
AcDbLine
 10
79.51013499999999
 20
793.4264849999999
 30
0.0
 11
79.890435
 21
793.526485
 31
0.0
  0
LINE
  5
B48
330
1E
100
AcDbEntity
  8
0
100
AcDbLine
 10
79.02123499999999
 20
793.7624849999999
 30
0.0
 11
79.67743499999997
 21
793.665485
 31
0.0
  0
LINE
  5
B49
330
1E
100
AcDbEntity
  8
0
100
AcDbLine
 10
78.78223499999998
 20
793.421485
 30
0.0
 11
79.51013499999999
 21
793.4264849999999
 31
0.0
  0
LINE
  5
B4A
330
1E
100
AcDbEntity
  8
0
100
AcDbLine
 10
79.67743499999997
 20
793.665485
 30
0.0
 11
79.890435
 21
793.526485
 31
0.0
  0
LINE
  5
B4B
330
1E
100
AcDbEntity
  8
0
100
AcDbLine
 10
81.08513499999999
 20
792.568485
 30
0.0
 11
81.38433499999999
 21
792.5914849999998
 31
0.0
  0
LINE
  5
B4C
330
1E
100
AcDbEntity
  8
0
100
AcDbLine
 10
81.08513499999999
 20
792.568485
 30
0.0
 11
81.38433499999999
 21
792.5444849999998
 31
0.0
  0
LINE
  5
B4D
330
1E
100
AcDbEntity
  8
0
100
AcDbLine
 10
81.08513499999999
 20
792.568485
 30
0.0
 11
81.08513499999999
 21
793.3935729647769
 31
0.0
  0
LINE
  5
B4E
330
1E
100
AcDbEntity
  8
0
100
AcDbLine
 10
81.08513499999999
 20
793.3935729647769
 30
0.0
 11
81.08513499999999
 21
792.568485
 31
0.0
  0
LINE
  5
B4F
330
1E
100
AcDbEntity
  8
0
100
AcDbLine
 10
78.125935
 20
818.222485
 30
0.0
 11
78.78223499999998
 21
818.4884849999999
 31
0.0
  0
LINE
  5
B50
330
1E
100
AcDbEntity
  8
0
100
AcDbLine
 10
78.29323499999998
 20
817.1904849999998
 30
0.0
 11
79.02123499999999
 21
817.0144849999999
 31
0.0
  0
LINE
  5
B51
330
1E
100
AcDbEntity
  8
0
100
AcDbLine
 10
77.91293499999998
 20
817.6864849999999
 30
0.0
 11
78.125935
 21
818.222485
 31
0.0
  0
LINE
  5
B52
330
1E
100
AcDbEntity
  8
0
100
AcDbLine
 10
76.49243499999997
 20
813.588485
 30
0.0
 11
77.09153499999999
 21
813.8704849999999
 31
0.0
  0
LINE
  5
B53
330
1E
100
AcDbEntity
  8
0
100
AcDbLine
 10
76.84323499999999
 20
812.6944849999999
 30
0.0
 11
77.59273499999998
 21
812.5934849999998
 31
0.0
  0
LINE
  5
B54
330
1E
100
AcDbEntity
  8
0
100
AcDbLine
 10
77.01393499999998
 20
798.3674849999999
 30
0.0
 11
77.77183499999998
 21
798.3354849999999
 31
0.0
  0
LINE
  5
B55
330
1E
100
AcDbEntity
  8
0
100
AcDbLine
 10
76.47393499999998
 20
798.1884849999999
 30
0.0
 11
77.01393499999998
 21
798.3674849999999
 31
0.0
  0
LINE
  5
B56
330
1E
100
AcDbEntity
  8
0
100
AcDbLine
 10
76.47393499999998
 20
798.1884849999999
 30
0.0
 11
76.48683499999998
 21
797.8934849999999
 31
0.0
  0
LINE
  5
B57
330
1E
100
AcDbEntity
  8
0
100
AcDbLine
 10
75.41673499999999
 20
808.820485
 30
0.0
 11
75.59863499999997
 21
808.3744849999998
 31
0.0
  0
LINE
  5
B58
330
1E
100
AcDbEntity
  8
0
100
AcDbLine
 10
75.59863499999997
 20
808.3744849999998
 30
0.0
 11
75.6479832552366
 21
808.6923633779859
 31
0.0
  0
LINE
  5
B59
330
1E
100
AcDbEntity
  8
0
100
AcDbLine
 10
76.37883499999998
 20
813.1024849999999
 30
0.0
 11
76.84323499999999
 21
812.6944849999999
 31
0.0
  0
LINE
  5
B5A
330
1E
100
AcDbEntity
  8
0
100
AcDbLine
 10
76.37883499999998
 20
813.1024849999999
 30
0.0
 11
76.49243499999997
 21
813.588485
 31
0.0
  0
LINE
  5
B5B
330
1E
100
AcDbEntity
  8
0
100
AcDbLine
 10
77.77183499999998
 20
798.3354849999999
 30
0.0
 11
78.30383499999999
 21
798.1004849999999
 31
0.0
  0
LINE
  5
B5C
330
1E
100
AcDbEntity
  8
0
100
AcDbLine
 10
77.84103499999997
 20
813.7694849999999
 30
0.0
 11
78.30543499999999
 21
813.3604849999999
 31
0.0
  0
LINE
  5
B5D
330
1E
100
AcDbEntity
  8
0
100
AcDbLine
 10
77.59273499999998
 20
812.5934849999998
 30
0.0
 11
78.191835
 21
812.8754849999999
 31
0.0
  0
LINE
  5
B5E
330
1E
100
AcDbEntity
  8
0
100
AcDbLine
 10
77.09153499999999
 20
813.8704849999999
 30
0.0
 11
77.84103499999997
 21
813.7694849999999
 31
0.0
  0
LINE
  5
B5F
330
1E
100
AcDbEntity
  8
0
100
AcDbLine
 10
78.191835
 20
812.8754849999999
 30
0.0
 11
78.30543499999999
 21
813.3604849999999
 31
0.0
  0
LINE
  5
B60
330
1E
100
AcDbEntity
  8
0
100
AcDbLine
 10
77.91293499999998
 20
817.6864849999999
 30
0.0
 11
78.29323499999998
 21
817.1904849999998
 31
0.0
  0
LINE
  5
B61
330
1E
100
AcDbEntity
  8
0
100
AcDbLine
 10
79.67743499999997
 20
817.2814849999999
 30
0.0
 11
79.890435
 21
817.8164849999999
 31
0.0
  0
LINE
  5
B62
330
1E
100
AcDbEntity
  8
0
100
AcDbLine
 10
80.35543499999997
 20
810.331485
 30
0.0
 11
81.08613499999998
 21
810.195485
 31
0.0
  0
LINE
  5
B63
330
1E
100
AcDbEntity
  8
0
100
AcDbLine
 10
79.88163499999998
 20
809.2594849999999
 30
0.0
 11
80.61233499999998
 21
809.1224849999999
 31
0.0
  0
LINE
  5
B64
330
1E
100
AcDbEntity
  8
0
100
AcDbLine
 10
79.02123499999999
 20
817.0144849999999
 30
0.0
 11
79.67743499999997
 21
817.2814849999999
 31
0.0
  0
LINE
  5
B65
330
1E
100
AcDbEntity
  8
0
100
AcDbLine
 10
79.49513499999998
 20
809.6614849999999
 30
0.0
 11
79.88163499999998
 21
809.2594849999999
 31
0.0
  0
LINE
  5
B66
330
1E
100
AcDbEntity
  8
0
100
AcDbLine
 10
79.49513499999998
 20
809.6614849999999
 30
0.0
 11
79.70183499999999
 21
810.1044849999999
 31
0.0
  0
LINE
  5
B67
330
1E
100
AcDbEntity
  8
0
100
AcDbLine
 10
79.70183499999999
 20
810.1044849999999
 30
0.0
 11
80.35543499999997
 21
810.331485
 31
0.0
  0
LINE
  5
B68
330
1E
100
AcDbEntity
  8
0
100
AcDbLine
 10
81.08613499999998
 20
810.195485
 30
0.0
 11
81.47253499999996
 21
809.792485
 31
0.0
  0
LINE
  5
B69
330
1E
100
AcDbEntity
  8
0
100
AcDbLine
 10
80.61233499999998
 20
809.1224849999999
 30
0.0
 11
81.26583499999998
 21
809.3494849999999
 31
0.0
  0
LINE
  5
B6A
330
1E
100
AcDbEntity
  8
0
100
AcDbLine
 10
81.26583499999998
 20
809.3494849999999
 30
0.0
 11
81.47253499999996
 21
809.792485
 31
0.0
  0
LINE
  5
B6B
330
1E
100
AcDbEntity
  8
0
100
AcDbLine
 10
79.51013499999999
 20
818.3134849999998
 30
0.0
 11
79.890435
 21
817.8164849999999
 31
0.0
  0
LINE
  5
B6C
330
1E
100
AcDbEntity
  8
0
100
AcDbLine
 10
78.78223499999998
 20
818.4884849999999
 30
0.0
 11
79.51013499999999
 21
818.3134849999998
 31
0.0
  0
LINE
  5
B6D
330
1E
100
AcDbEntity
  8
0
100
AcDbLine
 10
81.08513499999999
 20
822.883485
 30
0.0
 11
81.38433499999999
 21
822.319485
 31
0.0
  0
LINE
  5
B6E
330
1E
100
AcDbEntity
  8
0
100
AcDbLine
 10
81.08513499999999
 20
822.883485
 30
0.0
 11
81.38433499999999
 21
823.446485
 31
0.0
  0
LINE
  5
B6F
330
1E
100
AcDbEntity
  8
0
100
AcDbLine
 10
74.58513499999998
 20
852.810485
 30
0.0
 11
76.00673499999999
 21
852.982485
 31
0.0
  0
LINE
  5
B70
330
1E
100
AcDbEntity
  8
0
100
AcDbLine
 10
71.33333499999998
 20
843.0794849999999
 30
0.0
 11
76.16353499999999
 21
843.5594849999999
 31
0.0
  0
LINE
  5
B71
330
1E
100
AcDbEntity
  8
0
100
AcDbLine
 10
71.33323499999997
 20
843.0794849999999
 30
0.0
 11
76.16323499999999
 21
843.5594849999999
 31
0.0
  0
LINE
  5
B72
330
1E
100
AcDbEntity
  8
0
100
AcDbLine
 10
70.13443499999997
 20
852.012485
 30
0.0
 11
74.020635
 21
852.7234849999999
 31
0.0
  0
LINE
  5
B73
330
1E
100
AcDbEntity
  8
0
100
AcDbLine
 10
74.020635
 20
852.7234849999999
 30
0.0
 11
74.58513499999998
 21
852.810485
 31
0.0
  0
LINE
  5
B74
330
1E
100
AcDbEntity
  8
0
100
AcDbLine
 10
78.29733499999997
 20
853.2284849999999
 30
0.0
 11
80.18023499999998
 21
853.3374849999999
 31
0.0
  0
LINE
  5
B75
330
1E
100
AcDbEntity
  8
0
100
AcDbLine
 10
76.16353499999999
 20
843.5594849999999
 30
0.0
 11
81.072635
 21
843.757485
 31
0.0
  0
LINE
  5
B76
330
1E
100
AcDbEntity
  8
0
100
AcDbLine
 10
76.16323499999999
 20
843.5594849999999
 30
0.0
 11
81.07223499999998
 21
843.758485
 31
0.0
  0
LINE
  5
B77
330
1E
100
AcDbEntity
  8
0
100
AcDbLine
 10
76.00673499999999
 20
852.982485
 30
0.0
 11
78.29733499999997
 21
853.2284849999999
 31
0.0
  0
LINE
  5
B78
330
1E
100
AcDbEntity
  8
0
100
AcDbLine
 10
80.18023499999998
 20
853.3374849999999
 30
0.0
 11
82.07323499999999
 21
853.3744849999999
 31
0.0
  0
LINE
  5
B79
330
1E
100
AcDbEntity
  8
0
100
AcDbLine
 10
81.072635
 20
843.757485
 30
0.0
 11
82.07323499999999
 21
843.740485
 31
0.0
  0
LINE
  5
B7A
330
1E
100
AcDbEntity
  8
0
100
AcDbLine
 10
81.07223499999998
 20
843.758485
 30
0.0
 11
82.07323499999999
 21
843.740485
 31
0.0
  0
LINE
  5
B7B
330
1E
100
AcDbEntity
  8
0
100
AcDbLine
 10
106.8038349999999
 20
847.7534849999999
 30
0.0
 11
110.5938349999999
 21
845.8104849999999
 31
0.0
  0
LINE
  5
B7C
330
1E
100
AcDbEntity
  8
0
100
AcDbLine
 10
108.8202349999999
 20
824.3954849999999
 30
0.0
 11
111.7402349999999
 21
822.6404849999999
 31
0.0
  0
LINE
  5
B7D
330
1E
100
AcDbEntity
  8
0
100
AcDbLine
 10
108.8300349999999
 20
814.868485
 30
0.0
 11
109.1886349999999
 21
815.4144849999999
 31
0.0
  0
LINE
  5
B7E
330
1E
100
AcDbEntity
  8
0
100
AcDbLine
 10
108.8300349999999
 20
800.5824849999999
 30
0.0
 11
109.1886349999999
 21
800.576485
 31
0.0
  0
LINE
  5
B7F
330
1E
100
AcDbEntity
  8
0
100
AcDbLine
 10
106.9535190351416
 20
798.6547444900038
 30
0.0
 11
109.1142349999999
 21
799.652485
 31
0.0
  0
LINE
  5
B80
330
1E
100
AcDbEntity
  8
0
100
AcDbLine
 10
108.6872349999999
 20
799.6184849999999
 30
0.0
 11
111.6272349999999
 21
801.3654849999999
 31
0.0
  0
LINE
  5
B81
330
1E
100
AcDbEntity
  8
0
100
AcDbLine
 10
108.4905349999999
 20
816.0204849999999
 30
0.0
 11
109.0575349999999
 21
815.895485
 31
0.0
  0
LINE
  5
B82
330
1E
100
AcDbEntity
  8
0
100
AcDbLine
 10
108.4905349999999
 20
799.972485
 30
0.0
 11
109.0575349999999
 21
800.327485
 31
0.0
  0
LINE
  5
B83
330
1E
100
AcDbEntity
  8
0
100
AcDbLine
 10
106.182535
 20
840.0404849999999
 30
0.0
 11
110.0637349999999
 21
838.540485
 31
0.0
  0
LINE
  5
B84
330
1E
100
AcDbEntity
  8
0
100
AcDbLine
 10
106.1822349999999
 20
840.041485
 30
0.0
 11
110.0632349999999
 21
838.540485
 31
0.0
  0
LINE
  5
B85
330
1E
100
AcDbEntity
  8
0
100
AcDbLine
 10
94.01203499999999
 20
852.012485
 30
0.0
 11
97.74853499999998
 21
851.0624849999999
 31
0.0
  0
LINE
  5
B86
330
1E
100
AcDbEntity
  8
0
100
AcDbLine
 10
92.81313499999999
 20
843.0794849999999
 30
0.0
 11
97.49963499999999
 21
842.3254849999999
 31
0.0
  0
LINE
  5
B87
330
1E
100
AcDbEntity
  8
0
100
AcDbLine
 10
93.47623499999997
 20
829.2394849999999
 30
0.0
 11
97.74423499999997
 21
828.396485
 31
0.0
  0
LINE
  5
B88
330
1E
100
AcDbEntity
  8
0
100
AcDbLine
 10
92.81323499999999
 20
843.0794849999999
 30
0.0
 11
97.49923499999997
 21
842.3254849999999
 31
0.0
  0
LINE
  5
B89
330
1E
100
AcDbEntity
  8
0
100
AcDbLine
 10
95.01483499999997
 20
797.547485
 30
0.0
 11
95.71393499999999
 21
797.7434849999999
 31
0.0
  0
LINE
  5
B8A
330
1E
100
AcDbEntity
  8
0
100
AcDbLine
 10
95.04383499999997
 20
798.2804849999999
 30
0.0
 11
95.73453499999997
 21
798.2674849999999
 31
0.0
  0
LINE
  5
B8B
330
1E
100
AcDbEntity
  8
0
100
AcDbLine
 10
95.04383499999997
 20
810.251485
 30
0.0
 11
95.73453499999997
 21
810.5044849999998
 31
0.0
  0
LINE
  5
B8C
330
1E
100
AcDbEntity
  8
0
100
AcDbLine
 10
95.01483499999997
 20
811.4634849999999
 30
0.0
 11
95.71393499999999
 21
811.371485
 31
0.0
  0
LINE
  5
B8D
330
1E
100
AcDbEntity
  8
0
100
AcDbLine
 10
90.79230140995818
 20
793.7145218817959
 30
0.0
 11
96.18068726610758
 21
794.8504743933309
 31
0.0
  0
LINE
  5
B8E
330
1E
100
AcDbEntity
  8
0
100
AcDbLine
 10
88.54783499999999
 20
798.7744849999999
 30
0.0
 11
88.92193499999999
 21
799.0694849999999
 31
0.0
  0
LINE
  5
B8F
330
1E
100
AcDbEntity
  8
0
100
AcDbLine
 10
88.72973499999998
 20
798.4924849999999
 30
0.0
 11
89.38633499999998
 21
798.3914849999999
 31
0.0
  0
LINE
  5
B90
330
1E
100
AcDbEntity
  8
0
100
AcDbLine
 10
83.07963499999997
 20
793.175966293654
 30
0.0
 11
88.84651021576758
 21
793.5741081361939
 31
0.0
  0
LINE
  5
B91
330
1E
100
AcDbEntity
  8
0
100
AcDbLine
 10
84.26483499999998
 20
797.8904849999999
 30
0.0
 11
84.65133499999998
 21
797.6494849999999
 31
0.0
  0
LINE
  5
B92
330
1E
100
AcDbEntity
  8
0
100
AcDbLine
 10
85.36423499999997
 20
793.421485
 30
0.0
 11
86.02053499999996
 21
793.5184849999999
 31
0.0
  0
LINE
  5
B93
330
1E
100
AcDbEntity
  8
0
100
AcDbLine
 10
85.12523499999998
 20
793.7624849999999
 30
0.0
 11
85.85323499999999
 21
793.756485
 31
0.0
  0
LINE
  5
B94
330
1E
100
AcDbEntity
  8
0
100
AcDbLine
 10
83.06033499999998
 20
797.279485
 30
0.0
 11
83.79103499999999
 21
797.2134849999999
 31
0.0
  0
LINE
  5
B95
330
1E
100
AcDbEntity
  8
0
100
AcDbLine
 10
82.78053499999998
 20
792.5914849999998
 30
0.0
 11
83.07963499999997
 21
792.568485
 31
0.0
  0
LINE
  5
B96
330
1E
100
AcDbEntity
  8
0
100
AcDbLine
 10
82.78053499999998
 20
792.5444849999998
 30
0.0
 11
83.07963499999997
 21
792.568485
 31
0.0
  0
LINE
  5
B97
330
1E
100
AcDbEntity
  8
0
100
AcDbLine
 10
82.673935
 20
797.5194849999999
 30
0.0
 11
83.06033499999998
 21
797.279485
 31
0.0
  0
LINE
  5
B98
330
1E
100
AcDbEntity
  8
0
100
AcDbLine
 10
82.673935
 20
797.5194849999999
 30
0.0
 11
82.88063499999998
 21
797.798485
 31
0.0
  0
LINE
  5
B99
330
1E
100
AcDbEntity
  8
0
100
AcDbLine
 10
82.08243499999998
 20
792.6014849999999
 30
0.0
 11
82.08243499999998
 21
792.5344849999999
 31
0.0
  0
LINE
  5
B9A
330
1E
100
AcDbEntity
  8
0
100
AcDbLine
 10
82.08243499999998
 20
792.6014849999999
 30
0.0
 11
82.78053499999998
 21
792.5914849999998
 31
0.0
  0
LINE
  5
B9B
330
1E
100
AcDbEntity
  8
0
100
AcDbLine
 10
82.08243499999998
 20
792.5344849999999
 30
0.0
 11
82.08243499999998
 21
792.6014849999999
 31
0.0
  0
LINE
  5
B9C
330
1E
100
AcDbEntity
  8
0
100
AcDbLine
 10
82.08243499999998
 20
792.5344849999999
 30
0.0
 11
82.78053499999998
 21
792.5444849999998
 31
0.0
  0
LINE
  5
B9D
330
1E
100
AcDbEntity
  8
0
100
AcDbLine
 10
83.07963499999997
 20
793.3943154096259
 30
0.0
 11
83.07963499999997
 21
792.568485
 31
0.0
  0
LINE
  5
B9E
330
1E
100
AcDbEntity
  8
0
100
AcDbLine
 10
83.07963499999997
 20
792.568485
 30
0.0
 11
83.07963499999997
 21
793.3943154096259
 31
0.0
  0
LINE
  5
B9F
330
1E
100
AcDbEntity
  8
0
100
AcDbLine
 10
84.46903499999999
 20
793.665485
 30
0.0
 11
85.12523499999998
 21
793.7624849999999
 31
0.0
  0
LINE
  5
BA0
330
1E
100
AcDbEntity
  8
0
100
AcDbLine
 10
84.25603499999997
 20
793.526485
 30
0.0
 11
84.63633499999998
 21
793.4264849999999
 31
0.0
  0
LINE
  5
BA1
330
1E
100
AcDbEntity
  8
0
100
AcDbLine
 10
84.44463499999997
 20
797.3704849999998
 30
0.0
 11
84.65133499999998
 21
797.6494849999999
 31
0.0
  0
LINE
  5
BA2
330
1E
100
AcDbEntity
  8
0
100
AcDbLine
 10
84.25603499999997
 20
793.526485
 30
0.0
 11
84.46903499999999
 21
793.665485
 31
0.0
  0
LINE
  5
BA3
330
1E
100
AcDbEntity
  8
0
100
AcDbLine
 10
83.79103499999999
 20
797.2134849999999
 30
0.0
 11
84.44463499999997
 21
797.3704849999998
 31
0.0
  0
LINE
  5
BA4
330
1E
100
AcDbEntity
  8
0
100
AcDbLine
 10
84.63633499999998
 20
793.4264849999999
 30
0.0
 11
85.36423499999997
 21
793.421485
 31
0.0
  0
LINE
  5
BA5
330
1E
100
AcDbEntity
  8
0
100
AcDbLine
 10
87.05493499999997
 20
795.2434849999999
 30
0.0
 11
87.65403499999999
 21
795.4224850000001
 31
0.0
  0
LINE
  5
BA6
330
1E
100
AcDbEntity
  8
0
100
AcDbLine
 10
86.55373499999999
 20
795.836485
 30
0.0
 11
87.30323499999997
 21
795.8384849999999
 31
0.0
  0
LINE
  5
BA7
330
1E
100
AcDbEntity
  8
0
100
AcDbLine
 10
85.95463499999997
 20
795.656485
 30
0.0
 11
86.55373499999999
 21
795.836485
 31
0.0
  0
LINE
  5
BA8
330
1E
100
AcDbEntity
  8
0
100
AcDbLine
 10
85.84103499999997
 20
795.4114849999999
 30
0.0
 11
86.30543499999999
 21
795.2424849999999
 31
0.0
  0
LINE
  5
BA9
330
1E
100
AcDbEntity
  8
0
100
AcDbLine
 10
86.02053499999996
 20
793.5184849999999
 30
0.0
 11
86.23353499999998
 21
793.6564849999999
 31
0.0
  0
LINE
  5
BAA
330
1E
100
AcDbEntity
  8
0
100
AcDbLine
 10
85.85323499999999
 20
793.756485
 30
0.0
 11
86.23353499999998
 21
793.6564849999999
 31
0.0
  0
LINE
  5
BAB
330
1E
100
AcDbEntity
  8
0
100
AcDbLine
 10
85.84103499999997
 20
795.4114849999999
 30
0.0
 11
85.95463499999997
 21
795.656485
 31
0.0
  0
LINE
  5
BAC
330
1E
100
AcDbEntity
  8
0
100
AcDbLine
 10
85.81737464870588
 20
795.7198907089589
 30
0.0
 11
85.84103499999997
 21
795.4114849999999
 31
0.0
  0
LINE
  5
BAD
330
1E
100
AcDbEntity
  8
0
100
AcDbLine
 10
86.30543499999999
 20
795.2424849999999
 30
0.0
 11
87.05493499999997
 21
795.2434849999999
 31
0.0
  0
LINE
  5
BAE
330
1E
100
AcDbEntity
  8
0
100
AcDbLine
 10
87.65403499999999
 20
795.4224850000001
 30
0.0
 11
87.76763499999999
 21
795.6694849999998
 31
0.0
  0
LINE
  5
BAF
330
1E
100
AcDbEntity
  8
0
100
AcDbLine
 10
87.30323499999997
 20
795.8384849999999
 30
0.0
 11
87.76763499999999
 21
795.6694849999998
 31
0.0
  0
LINE
  5
BB0
330
1E
100
AcDbEntity
  8
0
100
AcDbLine
 10
85.36423499999997
 20
818.4884849999999
 30
0.0
 11
86.02053499999996
 21
818.222485
 31
0.0
  0
LINE
  5
BB1
330
1E
100
AcDbEntity
  8
0
100
AcDbLine
 10
85.12523499999998
 20
817.0144849999999
 30
0.0
 11
85.85323499999999
 21
817.1904849999998
 31
0.0
  0
LINE
  5
BB2
330
1E
100
AcDbEntity
  8
0
100
AcDbLine
 10
84.25603499999997
 20
817.8164849999999
 30
0.0
 11
84.46903499999999
 21
817.2814849999999
 31
0.0
  0
LINE
  5
BB3
330
1E
100
AcDbEntity
  8
0
100
AcDbLine
 10
84.46903499999999
 20
817.2814849999999
 30
0.0
 11
85.12523499999998
 21
817.0144849999999
 31
0.0
  0
LINE
  5
BB4
330
1E
100
AcDbEntity
  8
0
100
AcDbLine
 10
82.78053499999998
 20
822.319485
 30
0.0
 11
83.07963499999997
 21
822.883485
 31
0.0
  0
LINE
  5
BB5
330
1E
100
AcDbEntity
  8
0
100
AcDbLine
 10
82.78053499999998
 20
823.446485
 30
0.0
 11
83.07963499999997
 21
822.883485
 31
0.0
  0
LINE
  5
BB6
330
1E
100
AcDbEntity
  8
0
100
AcDbLine
 10
82.08243499999998
 20
822.0774849999999
 30
0.0
 11
82.78053499999998
 21
822.319485
 31
0.0
  0
LINE
  5
BB7
330
1E
100
AcDbEntity
  8
0
100
AcDbLine
 10
82.08243499999998
 20
823.6884849999999
 30
0.0
 11
82.78053499999998
 21
823.446485
 31
0.0
  0
LINE
  5
BB8
330
1E
100
AcDbEntity
  8
0
100
AcDbLine
 10
84.25603499999997
 20
817.8164849999999
 30
0.0
 11
84.63633499999998
 21
818.3134849999998
 31
0.0
  0
LINE
  5
BB9
330
1E
100
AcDbEntity
  8
0
100
AcDbLine
 10
84.63633499999998
 20
818.3134849999998
 30
0.0
 11
85.36423499999997
 21
818.4884849999999
 31
0.0
  0
LINE
  5
BBA
330
1E
100
AcDbEntity
  8
0
100
AcDbLine
 10
86.02053499999996
 20
818.222485
 30
0.0
 11
86.23353499999998
 21
817.6864849999999
 31
0.0
  0
LINE
  5
BBB
330
1E
100
AcDbEntity
  8
0
100
AcDbLine
 10
87.05493499999997
 20
813.8704849999999
 30
0.0
 11
87.65403499999999
 21
813.588485
 31
0.0
  0
LINE
  5
BBC
330
1E
100
AcDbEntity
  8
0
100
AcDbLine
 10
86.55373499999999
 20
812.5934849999998
 30
0.0
 11
87.30323499999997
 21
812.6944849999999
 31
0.0
  0
LINE
  5
BBD
330
1E
100
AcDbEntity
  8
0
100
AcDbLine
 10
86.37463499999999
 20
808.7434849999999
 30
0.0
 11
87.13253499999998
 21
808.7814849999999
 31
0.0
  0
LINE
  5
BBE
330
1E
100
AcDbEntity
  8
0
100
AcDbLine
 10
86.36973499999999
 20
809.847485
 30
0.0
 11
87.12773499999997
 21
809.8854849999998
 31
0.0
  0
LINE
  5
BBF
330
1E
100
AcDbEntity
  8
0
100
AcDbLine
 10
85.95463499999997
 20
812.8754849999999
 30
0.0
 11
86.55373499999999
 21
812.5934849999998
 31
0.0
  0
LINE
  5
BC0
330
1E
100
AcDbEntity
  8
0
100
AcDbLine
 10
85.84103499999997
 20
813.3604849999999
 30
0.0
 11
86.30543499999999
 21
813.7694849999999
 31
0.0
  0
LINE
  5
BC1
330
1E
100
AcDbEntity
  8
0
100
AcDbLine
 10
85.84263499999996
 20
809.0484850000001
 30
0.0
 11
86.37463499999999
 21
808.7434849999999
 31
0.0
  0
LINE
  5
BC2
330
1E
100
AcDbEntity
  8
0
100
AcDbLine
 10
85.82973499999999
 20
809.5054849999998
 30
0.0
 11
86.36973499999999
 21
809.847485
 31
0.0
  0
LINE
  5
BC3
330
1E
100
AcDbEntity
  8
0
100
AcDbLine
 10
85.84103499999997
 20
813.3604849999999
 30
0.0
 11
85.95463499999997
 21
812.8754849999999
 31
0.0
  0
LINE
  5
BC4
330
1E
100
AcDbEntity
  8
0
100
AcDbLine
 10
85.85323499999999
 20
817.1904849999998
 30
0.0
 11
86.23353499999998
 21
817.6864849999999
 31
0.0
  0
LINE
  5
BC5
330
1E
100
AcDbEntity
  8
0
100
AcDbLine
 10
85.82973499999999
 20
809.5054849999998
 30
0.0
 11
85.84263499999996
 21
809.0484850000001
 31
0.0
  0
LINE
  5
BC6
330
1E
100
AcDbEntity
  8
0
100
AcDbLine
 10
85.80947952126066
 20
809.3826986068588
 30
0.0
 11
85.84263499999996
 21
809.0484850000001
 31
0.0
  0
LINE
  5
BC7
330
1E
100
AcDbEntity
  8
0
100
AcDbLine
 10
86.30543499999999
 20
813.7694849999999
 30
0.0
 11
87.05493499999997
 21
813.8704849999999
 31
0.0
  0
LINE
  5
BC8
330
1E
100
AcDbEntity
  8
0
100
AcDbLine
 10
88.54783499999999
 20
798.7744849999999
 30
0.0
 11
88.72973499999998
 21
798.4924849999999
 31
0.0
  0
LINE
  5
BC9
330
1E
100
AcDbEntity
  8
0
100
AcDbLine
 10
87.65403499999999
 20
813.588485
 30
0.0
 11
87.76763499999999
 21
813.1024849999999
 31
0.0
  0
LINE
  5
BCA
330
1E
100
AcDbEntity
  8
0
100
AcDbLine
 10
87.30323499999997
 20
812.6944849999999
 30
0.0
 11
87.76763499999999
 21
813.1024849999999
 31
0.0
  0
LINE
  5
BCB
330
1E
100
AcDbEntity
  8
0
100
AcDbLine
 10
87.65963499999998
 20
809.580485
 30
0.0
 11
87.67253499999998
 21
809.1244849999998
 31
0.0
  0
LINE
  5
BCC
330
1E
100
AcDbEntity
  8
0
100
AcDbLine
 10
87.12773499999997
 20
809.8854849999998
 30
0.0
 11
87.65963499999998
 21
809.580485
 31
0.0
  0
LINE
  5
BCD
330
1E
100
AcDbEntity
  8
0
100
AcDbLine
 10
87.13253499999998
 20
808.7814849999999
 30
0.0
 11
87.67253499999998
 21
809.1244849999998
 31
0.0
  0
LINE
  5
BCE
330
1E
100
AcDbEntity
  8
0
100
AcDbLine
 10
94.05653499999997
 20
797.787485
 30
0.0
 11
94.34483499999998
 21
798.085485
 31
0.0
  0
LINE
  5
BCF
330
1E
100
AcDbEntity
  8
0
100
AcDbLine
 10
91.78963499999998
 20
794.6444849999999
 30
0.0
 11
92.31113499999997
 21
794.6044849999999
 31
0.0
  0
LINE
  5
BD0
330
1E
100
AcDbEntity
  8
0
100
AcDbLine
 10
91.74013499999999
 20
794.2734849999999
 30
0.0
 11
92.279935
 21
794.4494849999998
 31
0.0
  0
LINE
  5
BD1
330
1E
100
AcDbEntity
  8
0
100
AcDbLine
 10
90.46853499999997
 20
794.223485
 30
0.0
 11
90.99013499999998
 21
794.182485
 31
0.0
  0
LINE
  5
BD2
330
1E
100
AcDbEntity
  8
0
100
AcDbLine
 10
90.46853499999997
 20
794.223485
 30
0.0
 11
90.49973499999998
 21
794.3774849999999
 31
0.0
  0
LINE
  5
BD3
330
1E
100
AcDbEntity
  8
0
100
AcDbLine
 10
90.12743499999999
 20
793.0644849999999
 30
0.0
 11
90.73673499999998
 21
793.1604849999999
 31
0.0
  0
LINE
  5
BD4
330
1E
100
AcDbEntity
  8
0
100
AcDbLine
 10
90.43293499999998
 20
793.1874849999999
 30
0.0
 11
90.87383499999999
 21
793.212485
 31
0.0
  0
LINE
  5
BD5
330
1E
100
AcDbEntity
  8
0
100
AcDbLine
 10
89.08433499999999
 20
793.0064849999999
 30
0.0
 11
89.69343499999999
 21
793.1014849999999
 31
0.0
  0
LINE
  5
BD6
330
1E
100
AcDbEntity
  8
0
100
AcDbLine
 10
89.38813499999998
 20
792.9804849999999
 30
0.0
 11
90.12743499999999
 21
793.0644849999999
 31
0.0
  0
LINE
  5
BD7
330
1E
100
AcDbEntity
  8
0
100
AcDbLine
 10
89.37943713316329
 20
793.0339911908409
 30
0.0
 11
89.38813499999998
 21
792.9804849999999
 31
0.0
  0
LINE
  5
BD8
330
1E
100
AcDbEntity
  8
0
100
AcDbLine
 10
88.94723499999997
 20
792.954485
 30
0.0
 11
89.38813499999998
 21
792.9804849999999
 31
0.0
  0
LINE
  5
BD9
330
1E
100
AcDbEntity
  8
0
100
AcDbLine
 10
88.94723499999997
 20
792.954485
 30
0.0
 11
89.08433499999999
 21
793.0064849999999
 31
0.0
  0
LINE
  5
BDA
330
1E
100
AcDbEntity
  8
0
100
AcDbLine
 10
88.80734137447721
 20
793.815060950998
 30
0.0
 11
88.94723499999997
 21
792.954485
 31
0.0
  0
LINE
  5
BDB
330
1E
100
AcDbEntity
  8
0
100
AcDbLine
 10
89.69343499999999
 20
793.1014849999999
 30
0.0
 11
90.43293499999998
 21
793.1874849999999
 31
0.0
  0
LINE
  5
BDC
330
1E
100
AcDbEntity
  8
0
100
AcDbLine
 10
91.03953499999997
 20
794.5534849999999
 30
0.0
 11
91.78963499999998
 21
794.6444849999999
 31
0.0
  0
LINE
  5
BDD
330
1E
100
AcDbEntity
  8
0
100
AcDbLine
 10
90.99013499999998
 20
794.182485
 30
0.0
 11
91.74013499999999
 21
794.2734849999999
 31
0.0
  0
LINE
  5
BDE
330
1E
100
AcDbEntity
  8
0
100
AcDbLine
 10
90.49973499999998
 20
794.3774849999999
 30
0.0
 11
91.03953499999997
 21
794.5534849999999
 31
0.0
  0
LINE
  5
BDF
330
1E
100
AcDbEntity
  8
0
100
AcDbLine
 10
90.73673499999998
 20
793.1604849999999
 30
0.0
 11
90.87383499999999
 21
793.212485
 31
0.0
  0
LINE
  5
BE0
330
1E
100
AcDbEntity
  8
0
100
AcDbLine
 10
90.73288438620128
 20
794.0803776881839
 30
0.0
 11
90.87383499999999
 21
793.212485
 31
0.0
  0
LINE
  5
BE1
330
1E
100
AcDbEntity
  8
0
100
AcDbLine
 10
92.279935
 20
794.4494849999998
 30
0.0
 11
92.31113499999997
 21
794.6044849999999
 31
0.0
  0
LINE
  5
BE2
330
1E
100
AcDbEntity
  8
0
100
AcDbLine
 10
94.32413499999999
 20
797.5624849999999
 30
0.0
 11
95.01483499999997
 21
797.547485
 31
0.0
  0
LINE
  5
BE3
330
1E
100
AcDbEntity
  8
0
100
AcDbLine
 10
94.05653499999997
 20
797.787485
 30
0.0
 11
94.32413499999999
 21
797.5624849999999
 31
0.0
  0
LINE
  5
BE4
330
1E
100
AcDbEntity
  8
0
100
AcDbLine
 10
91.74013499999999
 20
817.6354849999999
 30
0.0
 11
92.279935
 21
817.289485
 31
0.0
  0
LINE
  5
BE5
330
1E
100
AcDbEntity
  8
0
100
AcDbLine
 10
91.78963499999998
 20
816.3014849999999
 30
0.0
 11
92.31113499999997
 21
816.7394849999999
 31
0.0
  0
LINE
  5
BE6
330
1E
100
AcDbEntity
  8
0
100
AcDbLine
 10
91.91563499999999
 20
807.9484849999998
 30
0.0
 11
92.57473499999997
 21
807.7954849999999
 31
0.0
  0
LINE
  5
BE7
330
1E
100
AcDbEntity
  8
0
100
AcDbLine
 10
91.67283499999999
 20
806.8114849999998
 30
0.0
 11
92.40133499999998
 21
806.9844849999999
 31
0.0
  0
LINE
  5
BE8
330
1E
100
AcDbEntity
  8
0
100
AcDbLine
 10
90.46853499999997
 20
817.1204849999998
 30
0.0
 11
90.99013499999998
 21
817.557485
 31
0.0
  0
LINE
  5
BE9
330
1E
100
AcDbEntity
  8
0
100
AcDbLine
 10
90.46853499999997
 20
817.1204849999998
 30
0.0
 11
90.49973499999998
 21
816.5684849999999
 31
0.0
  0
LINE
  5
BEA
330
1E
100
AcDbEntity
  8
0
100
AcDbLine
 10
90.44107245770968
 20
816.7511282715109
 30
0.0
 11
90.49973499999998
 21
816.5684849999999
 31
0.0
  0
LINE
  5
BEB
330
1E
100
AcDbEntity
  8
0
100
AcDbLine
 10
90.31203499999998
 20
799.098485
 30
0.0
 11
90.49393499999998
 21
798.816485
 31
0.0
  0
LINE
  5
BEC
330
1E
100
AcDbEntity
  8
0
100
AcDbLine
 10
90.11983499999999
 20
798.521485
 30
0.0
 11
90.49393499999998
 21
798.816485
 31
0.0
  0
LINE
  5
BED
330
1E
100
AcDbEntity
  8
0
100
AcDbLine
 10
88.92193499999999
 20
799.0694849999999
 30
0.0
 11
89.65543499999998
 21
799.1994849999998
 31
0.0
  0
LINE
  5
BEE
330
1E
100
AcDbEntity
  8
0
100
AcDbLine
 10
89.38633499999998
 20
798.3914849999999
 30
0.0
 11
90.11983499999999
 21
798.521485
 31
0.0
  0
LINE
  5
BEF
330
1E
100
AcDbEntity
  8
0
100
AcDbLine
 10
89.65543499999998
 20
799.1994849999998
 30
0.0
 11
90.31203499999998
 21
799.098485
 31
0.0
  0
LINE
  5
BF0
330
1E
100
AcDbEntity
  8
0
100
AcDbLine
 10
91.18713499999998
 20
807.7744849999998
 30
0.0
 11
91.91563499999999
 21
807.9484849999998
 31
0.0
  0
LINE
  5
BF1
330
1E
100
AcDbEntity
  8
0
100
AcDbLine
 10
91.01363499999999
 20
806.9634849999999
 30
0.0
 11
91.67283499999999
 21
806.8114849999998
 31
0.0
  0
LINE
  5
BF2
330
1E
100
AcDbEntity
  8
0
100
AcDbLine
 10
90.82283499999997
 20
807.3654849999998
 30
0.0
 11
91.01363499999999
 21
806.9634849999999
 31
0.0
  0
LINE
  5
BF3
330
1E
100
AcDbEntity
  8
0
100
AcDbLine
 10
90.82283499999997
 20
807.3654849999998
 30
0.0
 11
91.18713499999998
 21
807.7744849999998
 31
0.0
  0
LINE
  5
BF4
330
1E
100
AcDbEntity
  8
0
100
AcDbLine
 10
91.03953499999997
 20
816.223485
 30
0.0
 11
91.78963499999998
 21
816.3014849999999
 31
0.0
  0
LINE
  5
BF5
330
1E
100
AcDbEntity
  8
0
100
AcDbLine
 10
90.99013499999998
 20
817.557485
 30
0.0
 11
91.74013499999999
 21
817.6354849999999
 31
0.0
  0
LINE
  5
BF6
330
1E
100
AcDbEntity
  8
0
100
AcDbLine
 10
90.49973499999998
 20
816.5684849999999
 30
0.0
 11
91.03953499999997
 21
816.223485
 31
0.0
  0
LINE
  5
BF7
330
1E
100
AcDbEntity
  8
0
100
AcDbLine
 10
90.12743499999999
 20
823.1584849999999
 30
0.0
 11
90.73673499999998
 21
822.831485
 31
0.0
  0
LINE
  5
BF8
330
1E
100
AcDbEntity
  8
0
100
AcDbLine
 10
90.43293499999998
 20
821.723485
 30
0.0
 11
90.87383499999999
 21
822.2384849999999
 31
0.0
  0
LINE
  5
BF9
330
1E
100
AcDbEntity
  8
0
100
AcDbLine
 10
89.08433499999999
 20
821.9044849999999
 30
0.0
 11
89.69343499999999
 21
821.5764850000001
 31
0.0
  0
LINE
  5
BFA
330
1E
100
AcDbEntity
  8
0
100
AcDbLine
 10
89.38813499999998
 20
823.0114849999999
 30
0.0
 11
90.12743499999999
 21
823.1584849999999
 31
0.0
  0
LINE
  5
BFB
330
1E
100
AcDbEntity
  8
0
100
AcDbLine
 10
88.94723499999997
 20
822.496485
 30
0.0
 11
89.38813499999998
 21
823.0114849999999
 31
0.0
  0
LINE
  5
BFC
330
1E
100
AcDbEntity
  8
0
100
AcDbLine
 10
88.94723499999997
 20
822.496485
 30
0.0
 11
89.08433499999999
 21
821.9044849999999
 31
0.0
  0
LINE
  5
BFD
330
1E
100
AcDbEntity
  8
0
100
AcDbLine
 10
89.69343499999999
 20
821.5764850000001
 30
0.0
 11
90.43293499999998
 21
821.723485
 31
0.0
  0
LINE
  5
BFE
330
1E
100
AcDbEntity
  8
0
100
AcDbLine
 10
90.73673499999998
 20
822.831485
 30
0.0
 11
90.87383499999999
 21
822.2384849999999
 31
0.0
  0
LINE
  5
BFF
330
1E
100
AcDbEntity
  8
0
100
AcDbLine
 10
93.44183499999999
 20
804.6694849999999
 30
0.0
 11
94.085535
 21
804.944485
 31
0.0
  0
LINE
  5
C00
330
1E
100
AcDbEntity
  8
0
100
AcDbLine
 10
93.62403499999999
 20
803.9774849999998
 30
0.0
 11
94.345835
 21
803.9564849999999
 31
0.0
  0
LINE
  5
C01
330
1E
100
AcDbEntity
  8
0
100
AcDbLine
 10
93.75973499999998
 20
800.9444849999999
 30
0.0
 11
94.29953499999999
 21
801.2454849999999
 31
0.0
  0
LINE
  5
C02
330
1E
100
AcDbEntity
  8
0
100
AcDbLine
 10
93.77213499999999
 20
801.777485
 30
0.0
 11
94.29403499999997
 21
801.589485
 31
0.0
  0
LINE
  5
C03
330
1E
100
AcDbEntity
  8
0
100
AcDbLine
 10
92.57473499999997
 20
807.7954849999999
 30
0.0
 11
92.76553499999996
 21
807.3934849999998
 31
0.0
  0
LINE
  5
C04
330
1E
100
AcDbEntity
  8
0
100
AcDbLine
 10
92.48723499999996
 20
801.0444849999998
 30
0.0
 11
93.00893499999999
 21
800.8554849999999
 31
0.0
  0
LINE
  5
C05
330
1E
100
AcDbEntity
  8
0
100
AcDbLine
 10
92.48163499999998
 20
801.3894849999999
 30
0.0
 11
93.02143499999997
 21
801.6894849999998
 31
0.0
  0
LINE
  5
C06
330
1E
100
AcDbEntity
  8
0
100
AcDbLine
 10
92.40133499999998
 20
806.9844849999999
 30
0.0
 11
92.76553499999996
 21
807.3934849999998
 31
0.0
  0
LINE
  5
C07
330
1E
100
AcDbEntity
  8
0
100
AcDbLine
 10
92.48163499999998
 20
801.3894849999999
 30
0.0
 11
92.48723499999996
 21
801.0444849999998
 31
0.0
  0
LINE
  5
C08
330
1E
100
AcDbEntity
  8
0
100
AcDbLine
 10
93.24023499999999
 20
804.2704849999999
 30
0.0
 11
93.62403499999999
 21
803.9774849999998
 31
0.0
  0
LINE
  5
C09
330
1E
100
AcDbEntity
  8
0
100
AcDbLine
 10
93.24023499999999
 20
804.2704849999999
 30
0.0
 11
93.44183499999999
 21
804.6694849999999
 31
0.0
  0
LINE
  5
C0A
330
1E
100
AcDbEntity
  8
0
100
AcDbLine
 10
93.00893499999999
 20
800.8554849999999
 30
0.0
 11
93.75973499999998
 21
800.9444849999999
 31
0.0
  0
LINE
  5
C0B
330
1E
100
AcDbEntity
  8
0
100
AcDbLine
 10
93.02143499999997
 20
801.6894849999998
 30
0.0
 11
93.77213499999999
 21
801.777485
 31
0.0
  0
LINE
  5
C0C
330
1E
100
AcDbEntity
  8
0
100
AcDbLine
 10
92.279935
 20
817.289485
 30
0.0
 11
92.31113499999997
 21
816.7394849999999
 31
0.0
  0
LINE
  5
C0D
330
1E
100
AcDbEntity
  8
0
100
AcDbLine
 10
94.34483499999998
 20
798.085485
 30
0.0
 11
95.04383499999997
 21
798.2804849999999
 31
0.0
  0
LINE
  5
C0E
330
1E
100
AcDbEntity
  8
0
100
AcDbLine
 10
94.345835
 20
803.9564849999999
 30
0.0
 11
94.989635
 21
804.231485
 31
0.0
  0
LINE
  5
C0F
330
1E
100
AcDbEntity
  8
0
100
AcDbLine
 10
94.085535
 20
804.944485
 30
0.0
 11
94.80733499999999
 21
804.9234850000001
 31
0.0
  0
LINE
  5
C10
330
1E
100
AcDbEntity
  8
0
100
AcDbLine
 10
94.29403499999997
 20
801.589485
 30
0.0
 11
94.29953499999999
 21
801.2454849999999
 31
0.0
  0
LINE
  5
C11
330
1E
100
AcDbEntity
  8
0
100
AcDbLine
 10
95.0223957217462
 20
798.3789726741049
 30
0.0
 11
95.04383499999997
 21
798.2804849999999
 31
0.0
  0
LINE
  5
C12
330
1E
100
AcDbEntity
  8
0
100
AcDbLine
 10
94.80733499999999
 20
804.9234850000001
 30
0.0
 11
95.19123499999997
 21
804.6304849999998
 31
0.0
  0
LINE
  5
C13
330
1E
100
AcDbEntity
  8
0
100
AcDbLine
 10
94.989635
 20
804.231485
 30
0.0
 11
95.19123499999997
 21
804.6304849999998
 31
0.0
  0
LINE
  5
C14
330
1E
100
AcDbEntity
  8
0
100
AcDbLine
 10
94.32413499999999
 20
811.2094849999998
 30
0.0
 11
95.01483499999997
 21
811.4634849999999
 31
0.0
  0
LINE
  5
C15
330
1E
100
AcDbEntity
  8
0
100
AcDbLine
 10
94.34483499999998
 20
810.3444849999998
 30
0.0
 11
95.04383499999997
 21
810.251485
 31
0.0
  0
LINE
  5
C16
330
1E
100
AcDbEntity
  8
0
100
AcDbLine
 10
94.05653499999997
 20
810.7454849999999
 30
0.0
 11
94.34483499999998
 21
810.3444849999998
 31
0.0
  0
LINE
  5
C17
330
1E
100
AcDbEntity
  8
0
100
AcDbLine
 10
94.05653499999997
 20
810.7454849999999
 30
0.0
 11
94.32413499999999
 21
811.2094849999998
 31
0.0
  0
LINE
  5
C18
330
1E
100
AcDbEntity
  8
0
100
AcDbLine
 10
88.13973499999997
 20
852.982485
 30
0.0
 11
89.56133499999998
 21
852.810485
 31
0.0
  0
LINE
  5
C19
330
1E
100
AcDbEntity
  8
0
100
AcDbLine
 10
87.98293499999997
 20
843.5594849999999
 30
0.0
 11
92.81313499999999
 21
843.0794849999999
 31
0.0
  0
LINE
  5
C1A
330
1E
100
AcDbEntity
  8
0
100
AcDbLine
 10
87.98323499999998
 20
843.5594849999999
 30
0.0
 11
92.81323499999999
 21
843.0794849999999
 31
0.0
  0
LINE
  5
C1B
330
1E
100
AcDbEntity
  8
0
100
AcDbLine
 10
83.96623499999998
 20
853.3374849999999
 30
0.0
 11
85.84913499999998
 21
853.2284849999999
 31
0.0
  0
LINE
  5
C1C
330
1E
100
AcDbEntity
  8
0
100
AcDbLine
 10
83.07383499999998
 20
843.757485
 30
0.0
 11
87.98293499999997
 21
843.5594849999999
 31
0.0
  0
LINE
  5
C1D
330
1E
100
AcDbEntity
  8
0
100
AcDbLine
 10
83.07423499999998
 20
843.758485
 30
0.0
 11
87.98323499999998
 21
843.5594849999999
 31
0.0
  0
LINE
  5
C1E
330
1E
100
AcDbEntity
  8
0
100
AcDbLine
 10
85.84913499999998
 20
853.2284849999999
 30
0.0
 11
88.13973499999997
 21
852.982485
 31
0.0
  0
LINE
  5
C1F
330
1E
100
AcDbEntity
  8
0
100
AcDbLine
 10
90.12583499999996
 20
852.7234849999999
 30
0.0
 11
94.01203499999999
 21
852.012485
 31
0.0
  0
LINE
  5
C20
330
1E
100
AcDbEntity
  8
0
100
AcDbLine
 10
89.56133499999998
 20
852.810485
 30
0.0
 11
90.12583499999996
 21
852.7234849999999
 31
0.0
  0
LINE
  5
C21
330
1E
100
AcDbEntity
  8
0
100
AcDbLine
 10
101.7672349999999
 20
827.2964849999999
 30
0.0
 11
105.4772349999999
 21
825.9554849999998
 31
0.0
  0
LINE
  5
C22
330
1E
100
AcDbEntity
  8
0
100
AcDbLine
 10
102.0180349999999
 20
812.6894849999999
 30
0.0
 11
102.3441349999999
 21
813.201485
 31
0.0
  0
LINE
  5
C23
330
1E
100
AcDbEntity
  8
0
100
AcDbLine
 10
102.1369349999999
 20
813.6464849999999
 30
0.0
 11
102.3441349999999
 21
813.201485
 31
0.0
  0
LINE
  5
C24
330
1E
100
AcDbEntity
  8
0
100
AcDbLine
 10
102.0180349999999
 20
798.6534849999999
 30
0.0
 11
102.3441349999999
 21
798.538485
 31
0.0
  0
LINE
  5
C25
330
1E
100
AcDbEntity
  8
0
100
AcDbLine
 10
102.1369349999999
 20
798.2634849999999
 30
0.0
 11
102.3441349999999
 21
798.538485
 31
0.0
  0
LINE
  5
C26
330
1E
100
AcDbEntity
  8
0
100
AcDbLine
 10
99.02683499999998
 20
795.4504849999998
 30
0.0
 11
102.5642814644789
 21
796.7897972572799
 31
0.0
  0
LINE
  5
C27
330
1E
100
AcDbEntity
  8
0
100
AcDbLine
 10
100.8038349999999
 20
797.8634849999999
 30
0.0
 11
101.4942349999999
 21
797.984485
 31
0.0
  0
LINE
  5
C28
330
1E
100
AcDbEntity
  8
0
100
AcDbLine
 10
100.4776349999999
 20
797.9774849999999
 30
0.0
 11
100.8038349999999
 21
797.8634849999999
 31
0.0
  0
LINE
  5
C29
330
1E
100
AcDbEntity
  8
0
100
AcDbLine
 10
95.71393499999999
 20
797.7434849999999
 30
0.0
 11
96.00213499999998
 21
798.0414849999999
 31
0.0
  0
LINE
  5
C2A
330
1E
100
AcDbEntity
  8
0
100
AcDbLine
 10
97.97763063296489
 20
795.2292969916308
 30
0.0
 11
99.02683499999998
 21
795.4504849999998
 31
0.0
  0
LINE
  5
C2B
330
1E
100
AcDbEntity
  8
0
100
AcDbLine
 10
97.06383499999999
 20
796.271485
 30
0.0
 11
97.69113499999997
 21
796.3064850000001
 31
0.0
  0
LINE
  5
C2C
330
1E
100
AcDbEntity
  8
0
100
AcDbLine
 10
96.911635
 20
794.4384849999999
 30
0.0
 11
97.64193499999999
 21
794.6194849999999
 31
0.0
  0
LINE
  5
C2D
330
1E
100
AcDbEntity
  8
0
100
AcDbLine
 10
97.01193499999996
 20
790.991485
 30
0.0
 11
97.25173499999996
 21
785.6742849999999
 31
0.0
  0
LINE
  5
C2E
330
1E
100
AcDbEntity
  8
0
100
AcDbLine
 10
96.736135
 20
795.7344849999999
 30
0.0
 11
97.45723499999996
 21
795.922485
 31
0.0
  0
LINE
  5
C2F
330
1E
100
AcDbEntity
  8
0
100
AcDbLine
 10
96.80353499999998
 20
794.5734849999999
 30
0.0
 11
97.53383499999998
 21
794.7544849999999
 31
0.0
  0
LINE
  5
C30
330
1E
100
AcDbEntity
  8
0
100
AcDbLine
 10
96.34283499999998
 20
796.0824849999998
 30
0.0
 11
97.06383499999999
 21
796.271485
 31
0.0
  0
LINE
  5
C31
330
1E
100
AcDbEntity
  8
0
100
AcDbLine
 10
96.32483499999999
 20
794.405485
 30
0.0
 11
96.35923499999998
 21
794.347485
 31
0.0
  0
LINE
  5
C32
330
1E
100
AcDbEntity
  8
0
100
AcDbLine
 10
96.32483499999999
 20
794.405485
 30
0.0
 11
96.80353499999998
 21
794.5734849999999
 31
0.0
  0
LINE
  5
C33
330
1E
100
AcDbEntity
  8
0
100
AcDbLine
 10
96.33943209500769
 20
794.4086059824519
 30
0.0
 11
96.35923499999998
 21
794.347485
 31
0.0
  0
LINE
  5
C34
330
1E
100
AcDbEntity
  8
0
100
AcDbLine
 10
96.108735
 20
795.6994849999999
 30
0.0
 11
96.736135
 21
795.7344849999999
 31
0.0
  0
LINE
  5
C35
330
1E
100
AcDbEntity
  8
0
100
AcDbLine
 10
96.06302253538599
 20
795.213709775021
 30
0.0
 11
96.32483499999999
 21
794.405485
 31
0.0
  0
LINE
  5
C36
330
1E
100
AcDbEntity
  8
0
100
AcDbLine
 10
95.956235
 20
795.846485
 30
0.0
 11
96.108735
 21
795.6994849999999
 31
0.0
  0
LINE
  5
C37
330
1E
100
AcDbEntity
  8
0
100
AcDbLine
 10
95.956235
 20
795.846485
 30
0.0
 11
96.34283499999998
 21
796.0824849999998
 31
0.0
  0
LINE
  5
C38
330
1E
100
AcDbEntity
  8
0
100
AcDbLine
 10
97.00383499999999
 20
793.5714849999999
 30
0.0
 11
97.01193499999996
 21
790.991485
 31
0.0
  0
LINE
  5
C39
330
1E
100
AcDbEntity
  8
0
100
AcDbLine
 10
97.00383499999999
 20
793.5714849999999
 30
0.0
 11
97.05037093577718
 21
794.472869779372
 31
0.0
  0
LINE
  5
C3A
330
1E
100
AcDbEntity
  8
0
100
AcDbLine
 10
96.89121809768758
 20
794.5014865915029
 30
0.0
 11
96.911635
 21
794.4384849999999
 31
0.0
  0
LINE
  5
C3B
330
1E
100
AcDbEntity
  8
0
100
AcDbLine
 10
96.35923499999998
 20
794.347485
 30
0.0
 11
96.911635
 21
794.4384849999999
 31
0.0
  0
LINE
  5
C3C
330
1E
100
AcDbEntity
  8
0
100
AcDbLine
 10
97.64193499999999
 20
794.6194849999999
 30
0.0
 11
98.12083499999998
 21
794.7874849999999
 31
0.0
  0
LINE
  5
C3D
330
1E
100
AcDbEntity
  8
0
100
AcDbLine
 10
97.53383499999998
 20
794.7544849999999
 30
0.0
 11
98.08643499999996
 21
794.846485
 31
0.0
  0
LINE
  5
C3E
330
1E
100
AcDbEntity
  8
0
100
AcDbLine
 10
97.69113499999997
 20
796.3064850000001
 30
0.0
 11
97.84383499999998
 21
796.1594849999999
 31
0.0
  0
LINE
  5
C3F
330
1E
100
AcDbEntity
  8
0
100
AcDbLine
 10
97.6217258828562
 20
794.681882848266
 30
0.0
 11
97.64193499999999
 21
794.6194849999999
 31
0.0
  0
LINE
  5
C40
330
1E
100
AcDbEntity
  8
0
100
AcDbLine
 10
97.45723499999996
 20
795.922485
 30
0.0
 11
97.84383499999998
 21
796.1594849999999
 31
0.0
  0
LINE
  5
C41
330
1E
100
AcDbEntity
  8
0
100
AcDbLine
 10
98.08643499999996
 20
794.846485
 30
0.0
 11
98.12083499999998
 21
794.7874849999999
 31
0.0
  0
LINE
  5
C42
330
1E
100
AcDbEntity
  8
0
100
AcDbLine
 10
97.74423499999997
 20
828.396485
 30
0.0
 11
101.7672349999999
 21
827.2964849999999
 31
0.0
  0
LINE
  5
C43
330
1E
100
AcDbEntity
  8
0
100
AcDbLine
 10
98.83003499999999
 20
801.974485
 30
0.0
 11
99.29123500000001
 21
802.3254849999998
 31
0.0
  0
LINE
  5
C44
330
1E
100
AcDbEntity
  8
0
100
AcDbLine
 10
98.83003499999999
 20
801.974485
 30
0.0
 11
98.92983499999999
 21
801.651485
 31
0.0
  0
LINE
  5
C45
330
1E
100
AcDbEntity
  8
0
100
AcDbLine
 10
98.83003499999999
 20
806.455485
 30
0.0
 11
99.29123500000001
 21
806.2064849999998
 31
0.0
  0
LINE
  5
C46
330
1E
100
AcDbEntity
  8
0
100
AcDbLine
 10
97.06383499999999
 20
814.675485
 30
0.0
 11
97.69113499999997
 21
815.037485
 31
0.0
  0
LINE
  5
C47
330
1E
100
AcDbEntity
  8
0
100
AcDbLine
 10
96.736135
 20
816.0054849999999
 30
0.0
 11
97.45723499999996
 21
815.9864849999999
 31
0.0
  0
LINE
  5
C48
330
1E
100
AcDbEntity
  8
0
100
AcDbLine
 10
95.73453499999997
 20
798.2674849999999
 30
0.0
 11
96.00213499999998
 21
798.0414849999999
 31
0.0
  0
LINE
  5
C49
330
1E
100
AcDbEntity
  8
0
100
AcDbLine
 10
96.34283499999998
 20
814.694485
 30
0.0
 11
97.06383499999999
 21
814.675485
 31
0.0
  0
LINE
  5
C4A
330
1E
100
AcDbEntity
  8
0
100
AcDbLine
 10
96.108735
 20
815.6444849999999
 30
0.0
 11
96.736135
 21
816.0054849999999
 31
0.0
  0
LINE
  5
C4B
330
1E
100
AcDbEntity
  8
0
100
AcDbLine
 10
95.956235
 20
815.1004849999999
 30
0.0
 11
96.108735
 21
815.6444849999999
 31
0.0
  0
LINE
  5
C4C
330
1E
100
AcDbEntity
  8
0
100
AcDbLine
 10
95.956235
 20
815.1004849999999
 30
0.0
 11
96.34283499999998
 21
814.694485
 31
0.0
  0
LINE
  5
C4D
330
1E
100
AcDbEntity
  8
0
100
AcDbLine
 10
95.88733912440488
 20
815.24264882459
 30
0.0
 11
95.956235
 21
815.1004849999999
 31
0.0
  0
LINE
  5
C4E
330
1E
100
AcDbEntity
  8
0
100
AcDbLine
 10
95.73453499999997
 20
810.5044849999998
 30
0.0
 11
96.00213499999998
 21
810.9704849999999
 31
0.0
  0
LINE
  5
C4F
330
1E
100
AcDbEntity
  8
0
100
AcDbLine
 10
97.69113499999997
 20
815.037485
 30
0.0
 11
97.84383499999998
 21
815.5804849999999
 31
0.0
  0
LINE
  5
C50
330
1E
100
AcDbEntity
  8
0
100
AcDbLine
 10
97.45723499999996
 20
815.9864849999999
 30
0.0
 11
97.84383499999998
 21
815.5804849999999
 31
0.0
  0
LINE
  5
C51
330
1E
100
AcDbEntity
  8
0
100
AcDbLine
 10
96.911635
 20
821.5534849999999
 30
0.0
 11
97.64193499999999
 21
821.6044849999999
 31
0.0
  0
LINE
  5
C52
330
1E
100
AcDbEntity
  8
0
100
AcDbLine
 10
96.80353499999998
 20
820.105485
 30
0.0
 11
97.53383499999998
 21
820.156485
 31
0.0
  0
LINE
  5
C53
330
1E
100
AcDbEntity
  8
0
100
AcDbLine
 10
96.32483499999999
 20
820.5054849999999
 30
0.0
 11
96.35923499999998
 21
821.104485
 31
0.0
  0
LINE
  5
C54
330
1E
100
AcDbEntity
  8
0
100
AcDbLine
 10
96.32483499999999
 20
820.5054849999999
 30
0.0
 11
96.80353499999998
 21
820.105485
 31
0.0
  0
LINE
  5
C55
330
1E
100
AcDbEntity
  8
0
100
AcDbLine
 10
96.35923499999998
 20
821.104485
 30
0.0
 11
96.911635
 21
821.5534849999999
 31
0.0
  0
LINE
  5
C56
330
1E
100
AcDbEntity
  8
0
100
AcDbLine
 10
97.64193499999999
 20
821.6044849999999
 30
0.0
 11
98.12083499999998
 21
821.2044849999999
 31
0.0
  0
LINE
  5
C57
330
1E
100
AcDbEntity
  8
0
100
AcDbLine
 10
97.53383499999998
 20
820.156485
 30
0.0
 11
98.08643499999996
 21
820.6054849999999
 31
0.0
  0
LINE
  5
C58
330
1E
100
AcDbEntity
  8
0
100
AcDbLine
 10
98.08643499999996
 20
820.6054849999999
 30
0.0
 11
98.12083499999998
 21
821.2044849999999
 31
0.0
  0
LINE
  5
C59
330
1E
100
AcDbEntity
  8
0
100
AcDbLine
 10
100.2390349999999
 20
801.7154849999998
 30
0.0
 11
100.7003349999999
 21
802.0664850000001
 31
0.0
  0
LINE
  5
C5A
330
1E
100
AcDbEntity
  8
0
100
AcDbLine
 10
100.0232349999999
 20
802.5014849999999
 30
0.0
 11
100.6003349999999
 21
802.3894849999999
 31
0.0
  0
LINE
  5
C5B
330
1E
100
AcDbEntity
  8
0
100
AcDbLine
 10
100.4776349999999
 20
812.9684849999998
 30
0.0
 11
100.6847349999999
 21
812.522485
 31
0.0
  0
LINE
  5
C5C
330
1E
100
AcDbEntity
  8
0
100
AcDbLine
 10
100.4776349999999
 20
812.9684849999998
 30
0.0
 11
100.8038349999999
 21
813.480485
 31
0.0
  0
LINE
  5
C5D
330
1E
100
AcDbEntity
  8
0
100
AcDbLine
 10
100.4597240212627
 20
812.9049034043468
 30
0.0
 11
100.6847349999999
 21
812.522485
 31
0.0
  0
LINE
  5
C5E
330
1E
100
AcDbEntity
  8
0
100
AcDbLine
 10
100.4597240212627
 20
812.9049034043468
 30
0.0
 11
100.6847349999999
 21
812.522485
 31
0.0
  0
LINE
  5
C5F
330
1E
100
AcDbEntity
  8
0
100
AcDbLine
 10
100.2390349999999
 20
807.2964849999999
 30
0.0
 11
100.7003349999999
 21
807.0484849999999
 31
0.0
  0
LINE
  5
C60
330
1E
100
AcDbEntity
  8
0
100
AcDbLine
 10
100.0232349999999
 20
806.2704849999999
 30
0.0
 11
100.6003349999999
 21
806.6224849999999
 31
0.0
  0
LINE
  5
C61
330
1E
100
AcDbEntity
  8
0
100
AcDbLine
 10
100.4776349999999
 20
797.9774849999999
 30
0.0
 11
100.6847349999999
 21
798.2544849999999
 31
0.0
  0
LINE
  5
C62
330
1E
100
AcDbEntity
  8
0
100
AcDbLine
 10
99.29123500000001
 20
802.3254849999998
 30
0.0
 11
100.0232349999999
 21
802.5014849999999
 31
0.0
  0
LINE
  5
C63
330
1E
100
AcDbEntity
  8
0
100
AcDbLine
 10
99.50703499999997
 20
807.2324849999999
 30
0.0
 11
100.2390349999999
 21
807.2964849999999
 31
0.0
  0
LINE
  5
C64
330
1E
100
AcDbEntity
  8
0
100
AcDbLine
 10
99.29123500000001
 20
806.2064849999998
 30
0.0
 11
100.0232349999999
 21
806.2704849999999
 31
0.0
  0
LINE
  5
C65
330
1E
100
AcDbEntity
  8
0
100
AcDbLine
 10
99.50703499999997
 20
801.538485
 30
0.0
 11
100.2390349999999
 21
801.7154849999998
 31
0.0
  0
LINE
  5
C66
330
1E
100
AcDbEntity
  8
0
100
AcDbLine
 10
99.47799671155678
 20
807.3155681652469
 30
0.0
 11
99.50703499999997
 21
807.2324849999999
 31
0.0
  0
LINE
  5
C67
330
1E
100
AcDbEntity
  8
0
100
AcDbLine
 10
98.92983499999999
 20
801.651485
 30
0.0
 11
99.50703499999997
 21
801.538485
 31
0.0
  0
LINE
  5
C68
330
1E
100
AcDbEntity
  8
0
100
AcDbLine
 10
101.3275349999999
 20
798.5324849999999
 30
0.0
 11
102.0180349999999
 21
798.6534849999999
 31
0.0
  0
LINE
  5
C69
330
1E
100
AcDbEntity
  8
0
100
AcDbLine
 10
100.6003349999999
 20
802.3894849999999
 30
0.0
 11
100.7003349999999
 21
802.0664850000001
 31
0.0
  0
LINE
  5
C6A
330
1E
100
AcDbEntity
  8
0
100
AcDbLine
 10
100.6003349999999
 20
806.6224849999999
 30
0.0
 11
100.7003349999999
 21
807.0484849999999
 31
0.0
  0
LINE
  5
C6B
330
1E
100
AcDbEntity
  8
0
100
AcDbLine
 10
100.6847349999999
 20
798.2544849999999
 30
0.0
 11
101.3275349999999
 21
798.5324849999999
 31
0.0
  0
LINE
  5
C6C
330
1E
100
AcDbEntity
  8
0
100
AcDbLine
 10
101.4942349999999
 20
797.984485
 30
0.0
 11
102.1369349999999
 21
798.2634849999999
 31
0.0
  0
LINE
  5
C6D
330
1E
100
AcDbEntity
  8
0
100
AcDbLine
 10
101.3275349999999
 20
812.415485
 30
0.0
 11
102.0180349999999
 21
812.6894849999999
 31
0.0
  0
LINE
  5
C6E
330
1E
100
AcDbEntity
  8
0
100
AcDbLine
 10
100.8038349999999
 20
813.480485
 30
0.0
 11
101.4942349999999
 21
813.7554849999999
 31
0.0
  0
LINE
  5
C6F
330
1E
100
AcDbEntity
  8
0
100
AcDbLine
 10
100.6847349999999
 20
812.522485
 30
0.0
 11
101.3275349999999
 21
812.415485
 31
0.0
  0
LINE
  5
C70
330
1E
100
AcDbEntity
  8
0
100
AcDbLine
 10
101.4942349999999
 20
813.7554849999999
 30
0.0
 11
102.1369349999999
 21
813.6464849999999
 31
0.0
  0
LINE
  5
C71
330
1E
100
AcDbEntity
  8
0
100
AcDbLine
 10
104.3534646427713
 20
797.467199724078
 30
0.0
 11
106.0076349999999
 21
798.0934849999998
 31
0.0
  0
LINE
  5
C72
330
1E
100
AcDbEntity
  8
0
100
AcDbLine
 10
103.4370349999999
 20
796.826485
 30
0.0
 11
104.1084349999999
 21
797.1004849999999
 31
0.0
  0
LINE
  5
C73
330
1E
100
AcDbEntity
  8
0
100
AcDbLine
 10
103.594235
 20
797.1954849999999
 30
0.0
 11
104.2208349999999
 21
797.3634849999999
 31
0.0
  0
LINE
  5
C74
330
1E
100
AcDbEntity
  8
0
100
AcDbLine
 10
102.9228349999999
 20
796.921485
 30
0.0
 11
103.594235
 21
797.1954849999999
 31
0.0
  0
LINE
  5
C75
330
1E
100
AcDbEntity
  8
0
100
AcDbLine
 10
102.8104349999999
 20
796.6584849999999
 30
0.0
 11
103.4370349999999
 21
796.826485
 31
0.0
  0
LINE
  5
C76
330
1E
100
AcDbEntity
  8
0
100
AcDbLine
 10
102.6069349999999
 20
796.701485
 30
0.0
 11
102.9228349999999
 21
796.921485
 31
0.0
  0
LINE
  5
C77
330
1E
100
AcDbEntity
  8
0
100
AcDbLine
 10
102.6069349999999
 20
796.701485
 30
0.0
 11
102.8104349999999
 21
796.6584849999999
 31
0.0
  0
LINE
  5
C78
330
1E
100
AcDbEntity
  8
0
100
AcDbLine
 10
104.2208349999999
 20
797.3634849999999
 30
0.0
 11
104.4243349999999
 21
797.320485
 31
0.0
  0
LINE
  5
C79
330
1E
100
AcDbEntity
  8
0
100
AcDbLine
 10
104.1084349999999
 20
797.1004849999999
 30
0.0
 11
104.4243349999999
 21
797.320485
 31
0.0
  0
LINE
  5
C7A
330
1E
100
AcDbEntity
  8
0
100
AcDbLine
 10
105.4772349999999
 20
825.9554849999998
 30
0.0
 11
108.8202349999999
 21
824.3954849999999
 31
0.0
  0
LINE
  5
C7B
330
1E
100
AcDbEntity
  8
0
100
AcDbLine
 10
105.5072349999999
 20
807.3634849999999
 30
0.0
 11
106.1034349999999
 21
807.7524849999999
 31
0.0
  0
LINE
  5
C7C
330
1E
100
AcDbEntity
  8
0
100
AcDbLine
 10
105.5072349999999
 20
803.5834849999998
 30
0.0
 11
106.1034349999999
 21
803.5914849999999
 31
0.0
  0
LINE
  5
C7D
330
1E
100
AcDbEntity
  8
0
100
AcDbLine
 10
105.3261349999999
 20
803.8624849999999
 30
0.0
 11
105.6894349999999
 21
804.2754849999999
 31
0.0
  0
LINE
  5
C7E
330
1E
100
AcDbEntity
  8
0
100
AcDbLine
 10
105.3261349999999
 20
806.914485
 30
0.0
 11
105.6894349999999
 21
806.671485
 31
0.0
  0
LINE
  5
C7F
330
1E
100
AcDbEntity
  8
0
100
AcDbLine
 10
103.7304349999999
 20
810.331485
 30
0.0
 11
104.2078349999999
 21
810.790485
 31
0.0
  0
LINE
  5
C80
330
1E
100
AcDbEntity
  8
0
100
AcDbLine
 10
103.7438349999999
 20
809.871485
 30
0.0
 11
104.2646349999999
 21
809.6864849999999
 31
0.0
  0
LINE
  5
C81
330
1E
100
AcDbEntity
  8
0
100
AcDbLine
 10
103.7304349999999
 20
800.6154849999999
 30
0.0
 11
104.2078349999999
 21
800.5524849999998
 31
0.0
  0
LINE
  5
C82
330
1E
100
AcDbEntity
  8
0
100
AcDbLine
 10
103.7438349999999
 20
800.905485
 30
0.0
 11
104.2646349999999
 21
801.2594849999999
 31
0.0
  0
LINE
  5
C83
330
1E
100
AcDbEntity
  8
0
100
AcDbLine
 10
103.7304349999999
 20
800.6154849999999
 30
0.0
 11
103.7438349999999
 21
800.905485
 31
0.0
  0
LINE
  5
C84
330
1E
100
AcDbEntity
  8
0
100
AcDbLine
 10
103.7304349999999
 20
810.331485
 30
0.0
 11
103.7438349999999
 21
809.871485
 31
0.0
  0
LINE
  5
C85
330
1E
100
AcDbEntity
  8
0
100
AcDbLine
 10
103.5394231791883
 20
810.194666848427
 30
0.0
 11
103.7438349999999
 21
809.871485
 31
0.0
  0
LINE
  5
C86
330
1E
100
AcDbEntity
  8
0
100
AcDbLine
 10
104.2078349999999
 20
800.5524849999998
 30
0.0
 11
104.9141349999999
 21
800.7664849999999
 31
0.0
  0
LINE
  5
C87
330
1E
100
AcDbEntity
  8
0
100
AcDbLine
 10
104.2646349999999
 20
801.2594849999999
 30
0.0
 11
104.9711349999999
 21
801.4744849999999
 31
0.0
  0
LINE
  5
C88
330
1E
100
AcDbEntity
  8
0
100
AcDbLine
 10
105.3261349999999
 20
803.8624849999999
 30
0.0
 11
105.5072349999999
 21
803.5834849999998
 31
0.0
  0
LINE
  5
C89
330
1E
100
AcDbEntity
  8
0
100
AcDbLine
 10
105.3261349999999
 20
806.914485
 30
0.0
 11
105.5072349999999
 21
807.3634849999999
 31
0.0
  0
LINE
  5
C8A
330
1E
100
AcDbEntity
  8
0
100
AcDbLine
 10
104.9141349999999
 20
800.7664849999999
 30
0.0
 11
105.4350349999999
 21
801.1214849999999
 31
0.0
  0
LINE
  5
C8B
330
1E
100
AcDbEntity
  8
0
100
AcDbLine
 10
104.9711349999999
 20
801.4744849999999
 30
0.0
 11
105.4485349999999
 21
801.411485
 31
0.0
  0
LINE
  5
C8C
330
1E
100
AcDbEntity
  8
0
100
AcDbLine
 10
105.4350349999999
 20
801.1214849999999
 30
0.0
 11
105.4485349999999
 21
801.411485
 31
0.0
  0
LINE
  5
C8D
330
1E
100
AcDbEntity
  8
0
100
AcDbLine
 10
104.2078349999999
 20
810.790485
 30
0.0
 11
104.9141349999999
 21
810.973485
 31
0.0
  0
LINE
  5
C8E
330
1E
100
AcDbEntity
  8
0
100
AcDbLine
 10
104.2646349999999
 20
809.6864849999999
 30
0.0
 11
104.9711349999999
 21
809.8694849999999
 31
0.0
  0
LINE
  5
C8F
330
1E
100
AcDbEntity
  8
0
100
AcDbLine
 10
105.4350349999999
 20
810.7884850000001
 30
0.0
 11
105.4485349999999
 21
810.3284849999999
 31
0.0
  0
LINE
  5
C90
330
1E
100
AcDbEntity
  8
0
100
AcDbLine
 10
104.9141349999999
 20
810.973485
 30
0.0
 11
105.4350349999999
 21
810.7884850000001
 31
0.0
  0
LINE
  5
C91
330
1E
100
AcDbEntity
  8
0
100
AcDbLine
 10
104.9711349999999
 20
809.8694849999999
 30
0.0
 11
105.4485349999999
 21
810.3284849999999
 31
0.0
  0
LINE
  5
C92
330
1E
100
AcDbEntity
  8
0
100
AcDbLine
 10
103.4370349999999
 20
819.1644849999999
 30
0.0
 11
104.1084349999999
 21
819.1234849999998
 31
0.0
  0
LINE
  5
C93
330
1E
100
AcDbEntity
  8
0
100
AcDbLine
 10
103.594235
 20
817.7154849999999
 30
0.0
 11
104.2208349999999
 21
818.087485
 31
0.0
  0
LINE
  5
C94
330
1E
100
AcDbEntity
  8
0
100
AcDbLine
 10
102.8104349999999
 20
818.7924849999999
 30
0.0
 11
103.4370349999999
 21
819.1644849999999
 31
0.0
  0
LINE
  5
C95
330
1E
100
AcDbEntity
  8
0
100
AcDbLine
 10
102.9228349999999
 20
817.7574849999999
 30
0.0
 11
103.594235
 21
817.7154849999999
 31
0.0
  0
LINE
  5
C96
330
1E
100
AcDbEntity
  8
0
100
AcDbLine
 10
102.6069349999999
 20
818.2094849999998
 30
0.0
 11
102.9228349999999
 21
817.7574849999999
 31
0.0
  0
LINE
  5
C97
330
1E
100
AcDbEntity
  8
0
100
AcDbLine
 10
102.6069349999999
 20
818.2094849999998
 30
0.0
 11
102.8104349999999
 21
818.7924849999999
 31
0.0
  0
LINE
  5
C98
330
1E
100
AcDbEntity
  8
0
100
AcDbLine
 10
102.5845994482304
 20
818.119769511389
 30
0.0
 11
102.9228349999999
 21
817.7574849999999
 31
0.0
  0
LINE
  5
C99
330
1E
100
AcDbEntity
  8
0
100
AcDbLine
 10
104.2208349999999
 20
818.087485
 30
0.0
 11
104.4243349999999
 21
818.6704849999998
 31
0.0
  0
LINE
  5
C9A
330
1E
100
AcDbEntity
  8
0
100
AcDbLine
 10
104.1084349999999
 20
819.1234849999998
 30
0.0
 11
104.4243349999999
 21
818.6704849999998
 31
0.0
  0
LINE
  5
C9B
330
1E
100
AcDbEntity
  8
0
100
AcDbLine
 10
106.0076349999999
 20
798.0934849999998
 30
0.0
 11
107.7030349999999
 21
799.0994849999999
 31
0.0
  0
LINE
  5
C9C
330
1E
100
AcDbEntity
  8
0
100
AcDbLine
 10
106.7775349999999
 20
807.8434849999998
 30
0.0
 11
107.1409349999999
 21
807.600485
 31
0.0
  0
LINE
  5
C9D
330
1E
100
AcDbEntity
  8
0
100
AcDbLine
 10
106.1034349999999
 20
807.7524849999999
 30
0.0
 11
106.7775349999999
 21
807.8434849999998
 31
0.0
  0
LINE
  5
C9E
330
1E
100
AcDbEntity
  8
0
100
AcDbLine
 10
106.363735
 20
804.5804849999999
 30
0.0
 11
106.9598349999999
 21
804.588485
 31
0.0
  0
LINE
  5
C9F
330
1E
100
AcDbEntity
  8
0
100
AcDbLine
 10
106.363735
 20
806.7624849999999
 30
0.0
 11
106.9598349999999
 21
807.1514849999999
 31
0.0
  0
LINE
  5
CA0
330
1E
100
AcDbEntity
  8
0
100
AcDbLine
 10
106.1034349999999
 20
803.5914849999999
 30
0.0
 11
106.7775349999999
 21
803.8964849999999
 31
0.0
  0
LINE
  5
CA1
330
1E
100
AcDbEntity
  8
0
100
AcDbLine
 10
105.6894349999999
 20
804.2754849999999
 30
0.0
 11
106.363735
 21
804.5804849999999
 31
0.0
  0
LINE
  5
CA2
330
1E
100
AcDbEntity
  8
0
100
AcDbLine
 10
105.6894349999999
 20
806.671485
 30
0.0
 11
106.363735
 21
806.7624849999999
 31
0.0
  0
LINE
  5
CA3
330
1E
100
AcDbEntity
  8
0
100
AcDbLine
 10
106.9598349999999
 20
804.588485
 30
0.0
 11
107.1409349999999
 21
804.3094849999999
 31
0.0
  0
LINE
  5
CA4
330
1E
100
AcDbEntity
  8
0
100
AcDbLine
 10
106.9598349999999
 20
807.1514849999999
 30
0.0
 11
107.1409349999999
 21
807.600485
 31
0.0
  0
LINE
  5
CA5
330
1E
100
AcDbEntity
  8
0
100
AcDbLine
 10
106.9163892402581
 20
804.6984078645559
 30
0.0
 11
107.1409349999999
 21
804.3094849999999
 31
0.0
  0
LINE
  5
CA6
330
1E
100
AcDbEntity
  8
0
100
AcDbLine
 10
106.9026950098665
 20
804.687441305337
 30
0.0
 11
106.9598349999999
 21
804.588485
 31
0.0
  0
LINE
  5
CA7
330
1E
100
AcDbEntity
  8
0
100
AcDbLine
 10
106.7775349999999
 20
803.8964849999999
 30
0.0
 11
107.1409349999999
 21
804.3094849999999
 31
0.0
  0
LINE
  5
CA8
330
1E
100
AcDbEntity
  8
0
100
AcDbLine
 10
108.0569601248937
 20
799.327459000807
 30
0.0
 11
108.6872349999999
 21
799.6184849999999
 31
0.0
  0
LINE
  5
CA9
330
1E
100
AcDbEntity
  8
0
100
AcDbLine
 10
107.8327349999999
 20
799.7194849999999
 30
0.0
 11
108.4905349999999
 21
799.972485
 31
0.0
  0
LINE
  5
CAA
330
1E
100
AcDbEntity
  8
0
100
AcDbLine
 10
107.6052349999999
 20
799.9744849999999
 30
0.0
 11
108.172135
 21
800.3294849999999
 31
0.0
  0
LINE
  5
CAB
330
1E
100
AcDbEntity
  8
0
100
AcDbLine
 10
107.4740349999999
 20
799.7254849999999
 30
0.0
 11
107.6052349999999
 21
799.9744849999999
 31
0.0
  0
LINE
  5
CAC
330
1E
100
AcDbEntity
  8
0
100
AcDbLine
 10
107.4740349999999
 20
799.7254849999999
 30
0.0
 11
107.8327349999999
 21
799.7194849999999
 31
0.0
  0
LINE
  5
CAD
330
1E
100
AcDbEntity
  8
0
100
AcDbLine
 10
108.172135
 20
800.3294849999999
 30
0.0
 11
108.8300349999999
 21
800.5824849999999
 31
0.0
  0
LINE
  5
CAE
330
1E
100
AcDbEntity
  8
0
100
AcDbLine
 10
107.8327349999999
 20
815.732485
 30
0.0
 11
108.4905349999999
 21
816.0204849999999
 31
0.0
  0
LINE
  5
CAF
330
1E
100
AcDbEntity
  8
0
100
AcDbLine
 10
107.6052349999999
 20
814.704485
 30
0.0
 11
108.172135
 21
814.5814849999998
 31
0.0
  0
LINE
  5
CB0
330
1E
100
AcDbEntity
  8
0
100
AcDbLine
 10
107.4740349999999
 20
815.1854849999999
 30
0.0
 11
107.6052349999999
 21
814.704485
 31
0.0
  0
LINE
  5
CB1
330
1E
100
AcDbEntity
  8
0
100
AcDbLine
 10
107.4740349999999
 20
815.1854849999999
 30
0.0
 11
107.8327349999999
 21
815.732485
 31
0.0
  0
LINE
  5
CB2
330
1E
100
AcDbEntity
  8
0
100
AcDbLine
 10
107.4133981551736
 20
815.2457198469239
 30
0.0
 11
107.4740349999999
 21
815.1854849999999
 31
0.0
  0
LINE
  5
CB3
330
1E
100
AcDbEntity
  8
0
100
AcDbLine
 10
108.4150907734917
 20
816.0953483898628
 30
0.0
 11
108.4905349999999
 21
816.0204849999999
 31
0.0
  0
LINE
  5
CB4
330
1E
100
AcDbEntity
  8
0
100
AcDbLine
 10
108.172135
 20
814.5814849999998
 30
0.0
 11
108.8300349999999
 21
814.868485
 31
0.0
  0
LINE
  5
CB5
330
1E
100
AcDbEntity
  8
0
100
AcDbLine
 10
101.2866349999999
 20
849.896485
 30
0.0
 11
103.2069349999999
 21
849.2404849999999
 31
0.0
  0
LINE
  5
CB6
330
1E
100
AcDbEntity
  8
0
100
AcDbLine
 10
101.9746349999999
 20
841.308485
 30
0.0
 11
106.182535
 21
840.0404849999999
 31
0.0
  0
LINE
  5
CB7
330
1E
100
AcDbEntity
  8
0
100
AcDbLine
 10
101.974235
 20
841.308485
 30
0.0
 11
106.1822349999999
 21
840.041485
 31
0.0
  0
LINE
  5
CB8
330
1E
100
AcDbEntity
  8
0
100
AcDbLine
 10
97.74853499999998
 20
851.0624849999999
 30
0.0
 11
101.2866349999999
 21
849.896485
 31
0.0
  0
LINE
  5
CB9
330
1E
100
AcDbEntity
  8
0
100
AcDbLine
 10
97.49963499999999
 20
842.3254849999999
 30
0.0
 11
101.9746349999999
 21
841.308485
 31
0.0
  0
LINE
  5
CBA
330
1E
100
AcDbEntity
  8
0
100
AcDbLine
 10
97.49923499999997
 20
842.3254849999999
 30
0.0
 11
101.974235
 21
841.308485
 31
0.0
  0
LINE
  5
CBB
330
1E
100
AcDbEntity
  8
0
100
AcDbLine
 10
103.2069349999999
 20
849.2404849999999
 30
0.0
 11
106.8038349999999
 21
847.7534849999999
 31
0.0
  0
LINE
  5
CBC
330
1E
100
AcDbEntity
  8
0
100
AcDbLine
 10
122.2382349999999
 20
835.683485
 30
0.0
 11
123.0355349999999
 21
834.374485
 31
0.0
  0
LINE
  5
CBD
330
1E
100
AcDbEntity
  8
0
100
AcDbLine
 10
121.6652349999999
 20
830.4664849999999
 30
0.0
 11
123.2532349999999
 21
828.1404849999999
 31
0.0
  0
LINE
  5
CBE
330
1E
100
AcDbEntity
  8
0
100
AcDbLine
 10
121.3432349999999
 20
811.0414849999999
 30
0.0
 11
122.560235
 21
813.337485
 31
0.0
  0
LINE
  5
CBF
330
1E
100
AcDbEntity
  8
0
100
AcDbLine
 10
119.5480349999999
 20
839.0284849999998
 30
0.0
 11
121.3529349999999
 21
836.916485
 31
0.0
  0
LINE
  5
CC0
330
1E
100
AcDbEntity
  8
0
100
AcDbLine
 10
110.0637349999999
 20
838.540485
 30
0.0
 11
113.5664349999999
 21
836.827485
 31
0.0
  0
LINE
  5
CC1
330
1E
100
AcDbEntity
  8
0
100
AcDbLine
 10
110.0632349999999
 20
838.540485
 30
0.0
 11
113.5662349999999
 21
836.827485
 31
0.0
  0
LINE
  5
CC2
330
1E
100
AcDbEntity
  8
0
100
AcDbLine
 10
114.9462349999999
 20
803.6284849999999
 30
0.0
 11
117.3462349999999
 21
805.9184849999999
 31
0.0
  0
LINE
  5
CC3
330
1E
100
AcDbEntity
  8
0
100
AcDbLine
 10
114.0992349999999
 20
803.2814849999999
 30
0.0
 11
116.0672349999999
 21
805.3354849999999
 31
0.0
  0
LINE
  5
CC4
330
1E
100
AcDbEntity
  8
0
100
AcDbLine
 10
114.1942349999999
 20
820.7184849999999
 30
0.0
 11
116.1392349999999
 21
818.6594849999998
 31
0.0
  0
LINE
  5
CC5
330
1E
100
AcDbEntity
  8
0
100
AcDbLine
 10
113.8122349999999
 20
836.6854849999999
 30
0.0
 11
116.9132349999999
 21
834.768485
 31
0.0
  0
LINE
  5
CC6
330
1E
100
AcDbEntity
  8
0
100
AcDbLine
 10
111.7402349999999
 20
822.6404849999999
 30
0.0
 11
114.1942349999999
 21
820.7184849999999
 31
0.0
  0
LINE
  5
CC7
330
1E
100
AcDbEntity
  8
0
100
AcDbLine
 10
112.1002349999999
 20
801.4274849999999
 30
0.0
 11
112.4092349999999
 21
801.6614849999999
 31
0.0
  0
LINE
  5
CC8
330
1E
100
AcDbEntity
  8
0
100
AcDbLine
 10
111.8013349999999
 20
807.8004849999999
 30
0.0
 11
112.3881349999999
 21
808.219485
 31
0.0
  0
LINE
  5
CC9
330
1E
100
AcDbEntity
  8
0
100
AcDbLine
 10
111.8013349999999
 20
807.1014849999999
 30
0.0
 11
112.3881349999999
 21
807.2224849999999
 31
0.0
  0
LINE
  5
CCA
330
1E
100
AcDbEntity
  8
0
100
AcDbLine
 10
111.6272349999999
 20
801.3654849999999
 30
0.0
 11
114.0992349999999
 21
803.2814849999999
 31
0.0
  0
LINE
  5
CCB
330
1E
100
AcDbEntity
  8
0
100
AcDbLine
 10
109.1142349999999
 20
799.652485
 30
0.0
 11
112.1002349999999
 21
801.4274849999999
 31
0.0
  0
LINE
  5
CCC
330
1E
100
AcDbEntity
  8
0
100
AcDbLine
 10
110.6100349999999
 20
803.2754849999999
 30
0.0
 11
111.0995349999999
 21
803.3254849999998
 31
0.0
  0
LINE
  5
CCD
330
1E
100
AcDbEntity
  8
0
100
AcDbLine
 10
110.5477349999999
 20
803.5294849999999
 30
0.0
 11
110.9713349999999
 21
803.9494849999998
 31
0.0
  0
LINE
  5
CCE
330
1E
100
AcDbEntity
  8
0
100
AcDbLine
 10
110.6100349999999
 20
811.6354849999998
 30
0.0
 11
111.0995349999999
 21
812.1254849999999
 31
0.0
  0
LINE
  5
CCF
330
1E
100
AcDbEntity
  8
0
100
AcDbLine
 10
110.5477349999999
 20
811.1494849999999
 30
0.0
 11
110.9713349999999
 21
810.960485
 31
0.0
  0
LINE
  5
CD0
330
1E
100
AcDbEntity
  8
0
100
AcDbLine
 10
109.0575349999999
 20
800.327485
 30
0.0
 11
109.1886349999999
 21
800.576485
 31
0.0
  0
LINE
  5
CD1
330
1E
100
AcDbEntity
  8
0
100
AcDbLine
 10
110.5477349999999
 20
803.5294849999999
 30
0.0
 11
110.6100349999999
 21
803.2754849999999
 31
0.0
  0
LINE
  5
CD2
330
1E
100
AcDbEntity
  8
0
100
AcDbLine
 10
109.0575349999999
 20
815.895485
 30
0.0
 11
109.1886349999999
 21
815.4144849999999
 31
0.0
  0
LINE
  5
CD3
330
1E
100
AcDbEntity
  8
0
100
AcDbLine
 10
110.5477349999999
 20
811.1494849999999
 30
0.0
 11
110.6100349999999
 21
811.6354849999998
 31
0.0
  0
LINE
  5
CD4
330
1E
100
AcDbEntity
  8
0
100
AcDbLine
 10
111.5497349999999
 20
807.3344849999998
 30
0.0
 11
111.8013349999999
 21
807.8004849999999
 31
0.0
  0
LINE
  5
CD5
330
1E
100
AcDbEntity
  8
0
100
AcDbLine
 10
111.0995349999999
 20
803.3254849999998
 30
0.0
 11
111.7438349999999
 21
803.663485
 31
0.0
  0
LINE
  5
CD6
330
1E
100
AcDbEntity
  8
0
100
AcDbLine
 10
110.9713349999999
 20
803.9494849999998
 30
0.0
 11
111.6158349999999
 21
804.288485
 31
0.0
  0
LINE
  5
CD7
330
1E
100
AcDbEntity
  8
0
100
AcDbLine
 10
111.7438349999999
 20
803.663485
 30
0.0
 11
112.1675349999999
 21
804.0844849999999
 31
0.0
  0
LINE
  5
CD8
330
1E
100
AcDbEntity
  8
0
100
AcDbLine
 10
112.1052349999999
 20
804.338485
 30
0.0
 11
112.1675349999999
 21
804.0844849999999
 31
0.0
  0
LINE
  5
CD9
330
1E
100
AcDbEntity
  8
0
100
AcDbLine
 10
111.6158349999999
 20
804.288485
 30
0.0
 11
112.1052349999999
 21
804.338485
 31
0.0
  0
LINE
  5
CDA
330
1E
100
AcDbEntity
  8
0
100
AcDbLine
 10
111.5497349999999
 20
807.3344849999998
 30
0.0
 11
111.8013349999999
 21
807.1014849999999
 31
0.0
  0
LINE
  5
CDB
330
1E
100
AcDbEntity
  8
0
100
AcDbLine
 10
111.0995349999999
 20
812.1254849999999
 30
0.0
 11
111.7438349999999
 21
812.3274849999999
 31
0.0
  0
LINE
  5
CDC
330
1E
100
AcDbEntity
  8
0
100
AcDbLine
 10
110.9713349999999
 20
810.960485
 30
0.0
 11
111.6158349999999
 21
811.162485
 31
0.0
  0
LINE
  5
CDD
330
1E
100
AcDbEntity
  8
0
100
AcDbLine
 10
112.1052349999999
 20
811.6534849999998
 30
0.0
 11
112.1675349999999
 21
812.1394849999999
 31
0.0
  0
LINE
  5
CDE
330
1E
100
AcDbEntity
  8
0
100
AcDbLine
 10
111.7438349999999
 20
812.3274849999999
 30
0.0
 11
112.1675349999999
 21
812.1394849999999
 31
0.0
  0
LINE
  5
CDF
330
1E
100
AcDbEntity
  8
0
100
AcDbLine
 10
111.6158349999999
 20
811.162485
 30
0.0
 11
112.1052349999999
 21
811.6534849999998
 31
0.0
  0
LINE
  5
CE0
330
1E
100
AcDbEntity
  8
0
100
AcDbLine
 10
112.4092349999999
 20
801.6614849999999
 30
0.0
 11
114.9462349999999
 21
803.6284849999999
 31
0.0
  0
LINE
  5
CE1
330
1E
100
AcDbEntity
  8
0
100
AcDbLine
 10
112.975135
 20
807.642485
 30
0.0
 11
113.226735
 21
808.107485
 31
0.0
  0
LINE
  5
CE2
330
1E
100
AcDbEntity
  8
0
100
AcDbLine
 10
112.3881349999999
 20
807.2224849999999
 30
0.0
 11
112.975135
 21
807.642485
 31
0.0
  0
LINE
  5
CE3
330
1E
100
AcDbEntity
  8
0
100
AcDbLine
 10
112.975135
 20
808.3404849999999
 30
0.0
 11
113.226735
 21
808.107485
 31
0.0
  0
LINE
  5
CE4
330
1E
100
AcDbEntity
  8
0
100
AcDbLine
 10
112.3881349999999
 20
808.219485
 30
0.0
 11
112.975135
 21
808.3404849999999
 31
0.0
  0
LINE
  5
CE5
330
1E
100
AcDbEntity
  8
0
100
AcDbLine
 10
113.5664349999999
 20
836.827485
 30
0.0
 11
113.7346636067571
 21
836.7234356504619
 31
0.0
  0
LINE
  5
CE6
330
1E
100
AcDbEntity
  8
0
100
AcDbLine
 10
113.5662349999999
 20
836.827485
 30
0.0
 11
113.7337587555131
 21
836.7238783354761
 31
0.0
  0
LINE
  5
CE7
330
1E
100
AcDbEntity
  8
0
100
AcDbLine
 10
113.5662349999999
 20
836.827485
 30
0.0
 11
113.8122349999999
 21
836.6854849999999
 31
0.0
  0
LINE
  5
CE8
330
1E
100
AcDbEntity
  8
0
100
AcDbLine
 10
118.3942349999999
 20
807.0914849999999
 30
0.0
 11
120.087235
 21
809.232485
 31
0.0
  0
LINE
  5
CE9
330
1E
100
AcDbEntity
  8
0
100
AcDbLine
 10
116.9132349999999
 20
834.768485
 30
0.0
 11
119.5432349999999
 21
832.685485
 31
0.0
  0
LINE
  5
CEA
330
1E
100
AcDbEntity
  8
0
100
AcDbLine
 10
116.1392349999999
 20
818.6594849999998
 30
0.0
 11
117.5482349999999
 21
816.496485
 31
0.0
  0
LINE
  5
CEB
330
1E
100
AcDbEntity
  8
0
100
AcDbLine
 10
116.0672349999999
 20
805.3354849999999
 30
0.0
 11
117.5002349999999
 21
807.4954849999999
 31
0.0
  0
LINE
  5
CEC
330
1E
100
AcDbEntity
  8
0
100
AcDbLine
 10
117.3462349999999
 20
805.9184849999999
 30
0.0
 11
118.3942349999999
 21
807.0914849999999
 31
0.0
  0
LINE
  5
CED
330
1E
100
AcDbEntity
  8
0
100
AcDbLine
 10
117.5002349999999
 20
807.4954849999999
 30
0.0
 11
118.3732349999999
 21
809.7264849999998
 31
0.0
  0
LINE
  5
CEE
330
1E
100
AcDbEntity
  8
0
100
AcDbLine
 10
117.5482349999999
 20
816.496485
 30
0.0
 11
118.3972349999999
 21
814.262485
 31
0.0
  0
LINE
  5
CEF
330
1E
100
AcDbEntity
  8
0
100
AcDbLine
 10
118.3972349999999
 20
814.262485
 30
0.0
 11
118.6742349999999
 21
811.9934849999999
 31
0.0
  0
LINE
  5
CF0
330
1E
100
AcDbEntity
  8
0
100
AcDbLine
 10
118.3732349999999
 20
809.7264849999998
 30
0.0
 11
118.6742349999999
 21
811.9934849999999
 31
0.0
  0
LINE
  5
CF1
330
1E
100
AcDbEntity
  8
0
100
AcDbLine
 10
120.087235
 20
809.232485
 30
0.0
 11
121.3432349999999
 21
811.0414849999999
 31
0.0
  0
LINE
  5
CF2
330
1E
100
AcDbEntity
  8
0
100
AcDbLine
 10
119.5432349999999
 20
832.685485
 30
0.0
 11
121.6652349999999
 21
830.4664849999999
 31
0.0
  0
LINE
  5
CF3
330
1E
100
AcDbEntity
  8
0
100
AcDbLine
 10
121.3529349999999
 20
836.916485
 30
0.0
 11
122.2382349999999
 21
835.683485
 31
0.0
  0
LINE
  5
CF4
330
1E
100
AcDbEntity
  8
0
100
AcDbLine
 10
114.2756349999999
 20
843.5554849999999
 30
0.0
 11
116.4054349999999
 21
841.9034849999999
 31
0.0
  0
LINE
  5
CF5
330
1E
100
AcDbEntity
  8
0
100
AcDbLine
 10
112.2592349999999
 20
844.8764849999999
 30
0.0
 11
114.2756349999999
 21
843.5554849999999
 31
0.0
  0
LINE
  5
CF6
330
1E
100
AcDbEntity
  8
0
100
AcDbLine
 10
110.5938349999999
 20
845.8104849999999
 30
0.0
 11
112.2592349999999
 21
844.8764849999999
 31
0.0
  0
LINE
  5
CF7
330
1E
100
AcDbEntity
  8
0
100
AcDbLine
 10
118.6839349999999
 20
839.962485
 30
0.0
 11
119.5480349999999
 21
839.0284849999998
 31
0.0
  0
LINE
  5
CF8
330
1E
100
AcDbEntity
  8
0
100
AcDbLine
 10
116.4054349999999
 20
841.9034849999999
 30
0.0
 11
118.6839349999999
 21
839.962485
 31
0.0
  0
LINE
  5
CF9
330
1E
100
AcDbEntity
  8
0
100
AcDbLine
 10
123.5152349999999
 20
815.3674849999999
 30
0.0
 11
124.2002349999999
 21
817.7744849999999
 31
0.0
  0
LINE
  5
CFA
330
1E
100
AcDbEntity
  8
0
100
AcDbLine
 10
122.560235
 20
813.337485
 30
0.0
 11
123.5152349999999
 21
815.3674849999999
 31
0.0
  0
LINE
  5
CFB
330
1E
100
AcDbEntity
  8
0
100
AcDbLine
 10
123.6092349999999
 20
833.3504849999998
 30
0.0
 11
124.2486349999999
 21
831.9954849999998
 31
0.0
  0
LINE
  5
CFC
330
1E
100
AcDbEntity
  8
0
100
AcDbLine
 10
123.3572349999999
 20
827.9154849999999
 30
0.0
 11
124.3902349999999
 21
825.5074849999999
 31
0.0
  0
LINE
  5
CFD
330
1E
100
AcDbEntity
  8
0
100
AcDbLine
 10
123.0355349999999
 20
834.374485
 30
0.0
 11
123.3662368358602
 21
833.746900866055
 31
0.0
  0
LINE
  5
CFE
330
1E
100
AcDbEntity
  8
0
100
AcDbLine
 10
122.7927349999999
 20
834.682485
 30
0.0
 11
123.6092349999999
 21
833.3504849999998
 31
0.0
  0
LINE
  5
CFF
330
1E
100
AcDbEntity
  8
0
100
AcDbLine
 10
122.3900349999999
 20
835.372485
 30
0.0
 11
122.7927349999999
 21
834.682485
 31
0.0
  0
LINE
  5
D00
330
1E
100
AcDbEntity
  8
0
100
AcDbLine
 10
123.2532349999999
 20
828.1404849999999
 30
0.0
 11
123.3572349999999
 21
827.9154849999999
 31
0.0
  0
LINE
  5
D01
330
1E
100
AcDbEntity
  8
0
100
AcDbLine
 10
124.9548349999999
 20
823.0834849999999
 30
0.0
 11
125.0732349999999
 21
827.847485
 31
0.0
  0
LINE
  5
D02
330
1E
100
AcDbEntity
  8
0
100
AcDbLine
 10
124.8456349999999
 20
821.5634849999998
 30
0.0
 11
124.9548349999999
 21
823.0834849999999
 31
0.0
  0
LINE
  5
D03
330
1E
100
AcDbEntity
  8
0
100
AcDbLine
 10
124.3902349999999
 20
825.5074849999999
 30
0.0
 11
124.8512349999999
 21
823.056485
 31
0.0
  0
LINE
  5
D04
330
1E
100
AcDbEntity
  8
0
100
AcDbLine
 10
124.793865670429
 20
821.3384119167148
 30
0.0
 11
124.8456349999999
 21
821.5634849999998
 31
0.0
  0
LINE
  5
D05
330
1E
100
AcDbEntity
  8
0
100
AcDbLine
 10
124.8452349999999
 20
822.4184849999998
 30
0.0
 11
124.8512349999999
 21
823.056485
 31
0.0
  0
LINE
  5
D06
330
1E
100
AcDbEntity
  8
0
100
AcDbLine
 10
124.2002349999999
 20
817.7744849999999
 30
0.0
 11
124.7282349999999
 21
819.9584849999999
 31
0.0
  0
LINE
  5
D07
330
1E
100
AcDbEntity
  8
0
100
AcDbLine
 10
124.7282349999999
 20
819.9584849999999
 30
0.0
 11
124.8452349999999
 21
822.4184849999998
 31
0.0
  0
LINE
  5
D08
330
1E
100
AcDbEntity
  8
0
100
AcDbLine
 10
124.7059349999999
 20
830.6224849999999
 30
0.0
 11
124.9811349999999
 21
829.2384849999999
 31
0.0
  0
LINE
  5
D09
330
1E
100
AcDbEntity
  8
0
100
AcDbLine
 10
124.2486349999999
 20
831.9954849999998
 30
0.0
 11
124.7059349999999
 21
830.6224849999999
 31
0.0
  0
LINE
  5
D0A
330
1E
100
AcDbEntity
  8
0
100
AcDbLine
 10
124.9811349999999
 20
829.2384849999999
 30
0.0
 11
125.0732349999999
 21
827.847485
 31
0.0
  0
ENDSEC
  0
SECTION
  2
OBJECTS
  0
DICTIONARY
  5
C
330
0
100
AcDbDictionary
281
     1
  3
ACAD_GROUP
350
D
  3
ACAD_LAYOUT
350
19
  3
ACAD_MLINESTYLE
350
16
  3
ACAD_PLOTSETTINGS
350
18
  3
ACAD_PLOTSTYLENAME
350
E
  3
AcDbVariableDictionary
350
D0C
  0
DICTIONARY
  5
D
102
{ACAD_REACTORS
330
C
102
}
330
C
100
AcDbDictionary
281
     1
  0
DICTIONARY
  5
19
102
{ACAD_REACTORS
330
C
102
}
330
C
100
AcDbDictionary
281
     1
  3
Layout1
350
1D
  3
Model
350
21
  0
DICTIONARY
  5
16
102
{ACAD_REACTORS
330
C
102
}
330
C
100
AcDbDictionary
281
     1
  3
Standard
350
17
  0
DICTIONARY
  5
18
102
{ACAD_REACTORS
330
C
102
}
330
C
100
AcDbDictionary
281
     1
  0
ACDBDICTIONARYWDFLT
  5
E
102
{ACAD_REACTORS
330
C
102
}
330
C
100
AcDbDictionary
281
     1
  3
Normal
350
F
100
AcDbDictionaryWithDefault
340
F
  0
DICTIONARY
  5
D0C
102
{ACAD_REACTORS
330
C
102
}
330
C
100
AcDbDictionary
281
     1
  3
DIMASSOC
350
D0D
  0
LAYOUT
  5
1D
102
{ACAD_REACTORS
330
19
102
}
330
19
100
AcDbPlotSettings
  1

  2
C:\Programme\AutoCAD LT 2002 Deu\plotters\DWF ePlot (optimized for plotting).pc3
  4

  6

 40
0.0
 41
0.0
 42
0.0
 43
0.0
 44
0.0
 45
0.0
 46
0.0
 47
0.0
 48
0.0
 49
0.0
140
0.0
141
0.0
142
1.0
143
1.0
 70
   688
 72
     0
 73
     0
 74
     5
  7

 75
    16
147
1.0
148
0.0
149
0.0
100
AcDbLayout
  1
Layout1
 70
     1
 71
     1
 10
0.0
 20
0.0
 11
12.0
 21
9.0
 12
0.0
 22
0.0
 32
0.0
 14
1.000000000000000E+20
 24
1.000000000000000E+20
 34
1.000000000000000E+20
 15
-1.000000000000000E+20
 25
-1.000000000000000E+20
 35
-1.000000000000000E+20
146
0.0
 13
0.0
 23
0.0
 33
0.0
 16
1.0
 26
0.0
 36
0.0
 17
0.0
 27
1.0
 37
0.0
 76
     0
330
1A
  0
LAYOUT
  5
21
102
{ACAD_REACTORS
330
19
102
}
330
19
100
AcDbPlotSettings
  1

  2
C:\Programme\AutoCAD LT 2002 Deu\plotters\DWF ePlot (optimized for plotting).pc3
  4

  6

 40
0.0
 41
0.0
 42
0.0
 43
0.0
 44
0.0
 45
0.0
 46
0.0
 47
0.0
 48
0.0
 49
0.0
140
0.0
141
0.0
142
1.0
143
1.0
 70
  1712
 72
     0
 73
     0
 74
     0
  7

 75
     0
147
1.0
148
0.0
149
0.0
100
AcDbLayout
  1
Model
 70
     1
 71
     0
 10
0.0
 20
0.0
 11
12.0
 21
9.0
 12
0.0
 22
0.0
 32
0.0
 14
0.0
 24
0.0
 34
0.0
 15
0.0
 25
0.0
 35
0.0
146
0.0
 13
0.0
 23
0.0
 33
0.0
 16
1.0
 26
0.0
 36
0.0
 17
0.0
 27
1.0
 37
0.0
 76
     0
330
1E
  0
MLINESTYLE
  5
17
102
{ACAD_REACTORS
330
16
102
}
330
16
100
AcDbMlineStyle
  2
STANDARD
 70
     0
  3

 62
   256
 51
90.0
 52
90.0
 71
     2
 49
0.5
 62
   256
  6
BYLAYER
 49
-0.5
 62
   256
  6
BYLAYER
  0
ACDBPLACEHOLDER
  5
F
102
{ACAD_REACTORS
330
E
102
}
330
E
  0
DICTIONARYVAR
  5
D0D
102
{ACAD_REACTORS
330
D0C
102
}
330
D0C
100
DictionaryVariables
280
     0
  1
1
  0
ENDSEC
  0
EOF
