  0
SECTION
  2
HEADER
  9
$ACADVER
  1
AC1015
  9
$ACADMAINTVER
 70
    13
  9
$DWGCODEPAGE
  3
ANSI_1252
  9
$INSBASE
 10
0.0
 20
0.0
 30
0.0
  9
$EXTMIN
 10
-0.103999999999983
 20
0.0000010000000145
 30
0.0
  9
$EXTMAX
 10
285.104
 20
351.999999
 30
0.0
  9
$LIMMIN
 10
0.0
 20
0.0
  9
$LIMMAX
 10
12.0
 20
9.0
  9
$ORTHOMODE
 70
     0
  9
$REGENMODE
 70
     1
  9
$FILLMODE
 70
     1
  9
$QTEXTMODE
 70
     0
  9
$MIRRTEXT
 70
     1
  9
$LTSCALE
 40
1.0
  9
$ATTMODE
 70
     1
  9
$TEXTSIZE
 40
0.2
  9
$TRACEWID
 40
0.05
  9
$TEXTSTYLE
  7
Standard
  9
$CLAYER
  8
0
  9
$CELTYPE
  6
Continuous
  9
$CECOLOR
 62
   256
  9
$CELTSCALE
 40
1.0
  9
$DISPSILH
 70
     0
  9
$DIMSCALE
 40
1.0
  9
$DIMASZ
 40
0.18
  9
$DIMEXO
 40
0.0625
  9
$DIMDLI
 40
0.38
  9
$DIMRND
 40
0.0
  9
$DIMDLE
 40
0.0
  9
$DIMEXE
 40
0.18
  9
$DIMTP
 40
0.0
  9
$DIMTM
 40
0.0
  9
$DIMTXT
 40
0.18
  9
$DIMCEN
 40
0.09
  9
$DIMTSZ
 40
0.0
  9
$DIMTOL
 70
     0
  9
$DIMLIM
 70
     0
  9
$DIMTIH
 70
     1
  9
$DIMTOH
 70
     1
  9
$DIMSE1
 70
     0
  9
$DIMSE2
 70
     0
  9
$DIMTAD
 70
     0
  9
$DIMZIN
 70
     0
  9
$DIMBLK
  1

  9
$DIMASO
 70
     1
  9
$DIMSHO
 70
     1
  9
$DIMPOST
  1

  9
$DIMAPOST
  1

  9
$DIMALT
 70
     0
  9
$DIMALTD
 70
     2
  9
$DIMALTF
 40
25.4
  9
$DIMLFAC
 40
1.0
  9
$DIMTOFL
 70
     0
  9
$DIMTVP
 40
0.0
  9
$DIMTIX
 70
     0
  9
$DIMSOXD
 70
     0
  9
$DIMSAH
 70
     0
  9
$DIMBLK1
  1

  9
$DIMBLK2
  1

  9
$DIMSTYLE
  2
Standard
  9
$DIMCLRD
 70
     0
  9
$DIMCLRE
 70
     0
  9
$DIMCLRT
 70
     0
  9
$DIMTFAC
 40
1.0
  9
$DIMGAP
 40
0.09
  9
$DIMJUST
 70
     0
  9
$DIMSD1
 70
     0
  9
$DIMSD2
 70
     0
  9
$DIMTOLJ
 70
     1
  9
$DIMTZIN
 70
     0
  9
$DIMALTZ
 70
     0
  9
$DIMALTTZ
 70
     0
  9
$DIMUPT
 70
     0
  9
$DIMDEC
 70
     4
  9
$DIMTDEC
 70
     4
  9
$DIMALTU
 70
     2
  9
$DIMALTTD
 70
     2
  9
$DIMTXSTY
  7
Standard
  9
$DIMAUNIT
 70
     0
  9
$DIMADEC
 70
     0
  9
$DIMALTRND
 40
0.0
  9
$DIMAZIN
 70
     0
  9
$DIMDSEP
 70
    46
  9
$DIMATFIT
 70
     3
  9
$DIMFRAC
 70
     0
  9
$DIMLDRBLK
  1

  9
$DIMLUNIT
 70
     2
  9
$DIMLWD
 70
    -2
  9
$DIMLWE
 70
    -2
  9
$DIMTMOVE
 70
     0
  9
$LUNITS
 70
     2
  9
$LUPREC
 70
     4
  9
$SKETCHINC
 40
0.1
  9
$FILLETRAD
 40
0.0
  9
$AUNITS
 70
     0
  9
$AUPREC
 70
     0
  9
$MENU
  1
.
  9
$ELEVATION
 40
0.0
  9
$PELEVATION
 40
0.0
  9
$THICKNESS
 40
0.0
  9
$LIMCHECK
 70
     0
  9
$CHAMFERA
 40
0.0
  9
$CHAMFERB
 40
0.0
  9
$CHAMFERC
 40
0.0
  9
$CHAMFERD
 40
0.0
  9
$SKPOLY
 70
     0
  9
$TDCREATE
 40
2455656.888573796
  9
$TDUCREATE
 40
2455656.805240463
  9
$TDUPDATE
 40
2455656.890535601
  9
$TDUUPDATE
 40
2455656.807202268
  9
$TDINDWG
 40
0.0019619907
  9
$TDUSRTIMER
 40
0.0019619907
  9
$USRTIMER
 70
     1
  9
$ANGBASE
 50
0.0
  9
$ANGDIR
 70
     0
  9
$PDMODE
 70
     0
  9
$PDSIZE
 40
0.0
  9
$PLINEWID
 40
0.0
  9
$SPLFRAME
 70
     0
  9
$SPLINETYPE
 70
     6
  9
$SPLINESEGS
 70
     8
  9
$HANDSEED
  5
500
  9
$SURFTAB1
 70
     6
  9
$SURFTAB2
 70
     6
  9
$SURFTYPE
 70
     6
  9
$SURFU
 70
     6
  9
$SURFV
 70
     6
  9
$UCSBASE
  2

  9
$UCSNAME
  2

  9
$UCSORG
 10
0.0
 20
0.0
 30
0.0
  9
$UCSXDIR
 10
1.0
 20
0.0
 30
0.0
  9
$UCSYDIR
 10
0.0
 20
1.0
 30
0.0
  9
$UCSORTHOREF
  2

  9
$UCSORTHOVIEW
 70
     1
  9
$UCSORGTOP
 10
0.0
 20
0.0
 30
0.0
  9
$UCSORGBOTTOM
 10
0.0
 20
0.0
 30
0.0
  9
$UCSORGLEFT
 10
0.0
 20
0.0
 30
0.0
  9
$UCSORGRIGHT
 10
0.0
 20
0.0
 30
0.0
  9
$UCSORGFRONT
 10
0.0
 20
0.0
 30
0.0
  9
$UCSORGBACK
 10
0.0
 20
0.0
 30
0.0
  9
$PUCSBASE
  2

  9
$PUCSNAME
  2

  9
$PUCSORG
 10
0.0
 20
0.0
 30
0.0
  9
$PUCSXDIR
 10
1.0
 20
0.0
 30
0.0
  9
$PUCSYDIR
 10
0.0
 20
1.0
 30
0.0
  9
$PUCSORTHOREF
  2

  9
$PUCSORTHOVIEW
 70
     0
  9
$PUCSORGTOP
 10
0.0
 20
0.0
 30
0.0
  9
$PUCSORGBOTTOM
 10
0.0
 20
0.0
 30
0.0
  9
$PUCSORGLEFT
 10
0.0
 20
0.0
 30
0.0
  9
$PUCSORGRIGHT
 10
0.0
 20
0.0
 30
0.0
  9
$PUCSORGFRONT
 10
0.0
 20
0.0
 30
0.0
  9
$PUCSORGBACK
 10
0.0
 20
0.0
 30
0.0
  9
$USERI1
 70
     0
  9
$USERI2
 70
     0
  9
$USERI3
 70
     0
  9
$USERI4
 70
     0
  9
$USERI5
 70
     0
  9
$USERR1
 40
0.0
  9
$USERR2
 40
0.0
  9
$USERR3
 40
0.0
  9
$USERR4
 40
0.0
  9
$USERR5
 40
0.0
  9
$WORLDVIEW
 70
     1
  9
$SHADEDGE
 70
     3
  9
$SHADEDIF
 70
    70
  9
$TILEMODE
 70
     1
  9
$MAXACTVP
 70
    64
  9
$PINSBASE
 10
0.0
 20
0.0
 30
0.0
  9
$PLIMCHECK
 70
     0
  9
$PEXTMIN
 10
1.000000000000000E+20
 20
1.000000000000000E+20
 30
1.000000000000000E+20
  9
$PEXTMAX
 10
-1.000000000000000E+20
 20
-1.000000000000000E+20
 30
-1.000000000000000E+20
  9
$PLIMMIN
 10
0.0
 20
0.0
  9
$PLIMMAX
 10
12.0
 20
9.0
  9
$UNITMODE
 70
     0
  9
$VISRETAIN
 70
     1
  9
$PLINEGEN
 70
     0
  9
$PSLTSCALE
 70
     1
  9
$TREEDEPTH
 70
  3020
  9
$CMLSTYLE
  2
Standard
  9
$CMLJUST
 70
     0
  9
$CMLSCALE
 40
1.0
  9
$PROXYGRAPHICS
 70
     1
  9
$MEASUREMENT
 70
     0
  9
$CELWEIGHT
370
    -1
  9
$ENDCAPS
280
     0
  9
$JOINSTYLE
280
     0
  9
$LWDISPLAY
290
     0
  9
$INSUNITS
 70
     0
  9
$HYPERLINKBASE
  1

  9
$STYLESHEET
  1

  9
$XEDIT
290
     1
  9
$CEPSNTYPE
380
     0
  9
$PSTYLEMODE
290
     1
  9
$FINGERPRINTGUID
  2
{097022BE-CDCE-47A8-B2C8-9AC37A20AE3B}
  9
$VERSIONGUID
  2
{48566A12-4C4A-4EFB-B771-AE31D76E5D8F}
  9
$EXTNAMES
290
     1
  9
$PSVPSCALE
 40
0.0
  9
$OLESTARTUP
290
     0
  0
ENDSEC
  0
SECTION
  2
CLASSES
  0
CLASS
  1
ACDBDICTIONARYWDFLT
  2
AcDbDictionaryWithDefault
  3
AutoCAD 2000
 90
        0
280
     0
281
     0
  0
CLASS
  1
ACDBPLACEHOLDER
  2
AcDbPlaceHolder
  3
AutoCAD 2000
 90
        0
280
     0
281
     0
  0
CLASS
  1
LAYOUT
  2
AcDbLayout
  3
AutoCAD 2000
 90
        0
280
     0
281
     0
  0
CLASS
  1
DICTIONARYVAR
  2
AcDbDictionaryVar
  3
AutoCAD 2000
 90
        0
280
     0
281
     0
  0
ENDSEC
  0
SECTION
  2
TABLES
  0
TABLE
  2
VPORT
  5
8
330
0
100
AcDbSymbolTable
 70
     3
  0
VPORT
  5
4FF
330
8
100
AcDbSymbolTableRecord
100
AcDbViewportTableRecord
  2
*Active
 70
     0
 10
0.0
 20
0.0
 11
1.0
 21
1.0
 12
142.5
 22
176.0
 13
0.0
 23
0.0
 14
1.0
 24
1.0
 15
0.0
 25
0.0
 16
0.0
 26
0.0
 36
1.0
 17
0.0
 27
0.0
 37
0.0
 40
354.3810577384442
 41
2.073363431151241
 42
50.0
 43
0.0
 44
0.0
 50
0.0
 51
0.0
 71
     0
 72
   100
 73
     1
 74
     3
 75
     0
 76
     0
 77
     0
 78
     0
281
     0
 65
     1
110
0.0
120
0.0
130
0.0
111
1.0
121
0.0
131
0.0
112
0.0
122
1.0
132
0.0
 79
     1
146
0.0
  0
ENDTAB
  0
TABLE
  2
LTYPE
  5
5
330
0
100
AcDbSymbolTable
 70
     1
  0
LTYPE
  5
13
330
5
100
AcDbSymbolTableRecord
100
AcDbLinetypeTableRecord
  2
ByBlock
 70
     0
  3

 72
    65
 73
     0
 40
0.0
  0
LTYPE
  5
14
330
5
100
AcDbSymbolTableRecord
100
AcDbLinetypeTableRecord
  2
ByLayer
 70
     0
  3

 72
    65
 73
     0
 40
0.0
  0
LTYPE
  5
15
330
5
100
AcDbSymbolTableRecord
100
AcDbLinetypeTableRecord
  2
Continuous
 70
     0
  3
Solid line
 72
    65
 73
     0
 40
0.0
  0
ENDTAB
  0
TABLE
  2
LAYER
  5
2
330
0
100
AcDbSymbolTable
 70
     1
  0
LAYER
  5
10
330
2
100
AcDbSymbolTableRecord
100
AcDbLayerTableRecord
  2
0
 70
     0
 62
     7
  6
Continuous
370
    -3
390
F
  0
ENDTAB
  0
TABLE
  2
STYLE
  5
3
330
0
100
AcDbSymbolTable
 70
     1
  0
STYLE
  5
11
330
3
100
AcDbSymbolTableRecord
100
AcDbTextStyleTableRecord
  2
Standard
 70
     0
 40
0.0
 41
1.0
 50
0.0
 71
     0
 42
0.2
  3
txt
  4

  0
ENDTAB
  0
TABLE
  2
VIEW
  5
6
330
0
100
AcDbSymbolTable
 70
     0
  0
ENDTAB
  0
TABLE
  2
UCS
  5
7
330
0
100
AcDbSymbolTable
 70
     0
  0
ENDTAB
  0
TABLE
  2
APPID
  5
9
330
0
100
AcDbSymbolTable
 70
     1
  0
APPID
  5
12
330
9
100
AcDbSymbolTableRecord
100
AcDbRegAppTableRecord
  2
ACAD
 70
     0
  0
ENDTAB
  0
TABLE
  2
DIMSTYLE
  5
A
330
0
100
AcDbSymbolTable
 70
     1
100
AcDbDimStyleTable
 71
     0
  0
DIMSTYLE
105
4F8
330
A
100
AcDbSymbolTableRecord
100
AcDbDimStyleTableRecord
  2
Standard
 70
     0
340
11
  0
ENDTAB
  0
TABLE
  2
BLOCK_RECORD
  5
1
330
0
100
AcDbSymbolTable
 70
     0
  0
BLOCK_RECORD
  5
1E
330
1
100
AcDbSymbolTableRecord
100
AcDbBlockTableRecord
  2
*Model_Space
340
21
  0
BLOCK_RECORD
  5
1A
330
1
100
AcDbSymbolTableRecord
100
AcDbBlockTableRecord
  2
*Paper_Space
340
1D
  0
ENDTAB
  0
ENDSEC
  0
SECTION
  2
BLOCKS
  0
BLOCK
  5
1F
330
1E
100
AcDbEntity
  8
0
100
AcDbBlockBegin
  2
*Model_Space
 70
     0
 10
0.0
 20
0.0
 30
0.0
  3
*Model_Space
  1

  0
ENDBLK
  5
20
330
1E
100
AcDbEntity
  8
0
100
AcDbBlockEnd
  0
BLOCK
  5
1B
330
1A
100
AcDbEntity
 67
     1
  8
0
100
AcDbBlockBegin
  2
*Paper_Space
 70
     0
 10
0.0
 20
0.0
 30
0.0
  3
*Paper_Space
  1

  0
ENDBLK
  5
1C
330
1A
100
AcDbEntity
 67
     1
  8
0
100
AcDbBlockEnd
  0
ENDSEC
  0
SECTION
  2
ENTITIES
  0
LINE
  5
22
330
1E
100
AcDbEntity
  8
0
100
AcDbLine
 10
29.69599999999999
 20
69.164799
 30
0.0
 11
31.796
 21
59.579999
 31
0.0
  0
LINE
  5
23
330
1E
100
AcDbEntity
  8
0
100
AcDbLine
 10
35.09599999999999
 20
50.182999
 30
0.0
 11
39.596
 21
41.53789899999999
 31
0.0
  0
LINE
  5
24
330
1E
100
AcDbEntity
  8
0
100
AcDbLine
 10
45.496
 20
33.268599
 30
0.0
 11
52.396
 21
25.84499899999999
 31
0.0
  0
LINE
  5
25
330
1E
100
AcDbEntity
  8
0
100
AcDbLine
 10
46.296
 20
34.174399
 30
0.0
 11
53.096
 21
26.84479899999999
 31
0.0
  0
LINE
  5
26
330
1E
100
AcDbEntity
  8
0
100
AcDbLine
 10
45.496
 20
29.506299
 30
0.0
 11
52.396
 21
22.08279899999999
 31
0.0
  0
LINE
  5
27
330
1E
100
AcDbEntity
  8
0
100
AcDbLine
 10
36.09599999999999
 20
50.900899
 30
0.0
 11
40.496
 21
42.349699
 31
0.0
  0
LINE
  5
28
330
1E
100
AcDbEntity
  8
0
100
AcDbLine
 10
40.496
 20
42.349699
 30
0.0
 11
46.296
 21
34.174399
 31
0.0
  0
LINE
  5
29
330
1E
100
AcDbEntity
  8
0
100
AcDbLine
 10
39.596
 20
41.53789899999999
 30
0.0
 11
45.496
 21
33.268599
 31
0.0
  0
LINE
  5
2A
330
1E
100
AcDbEntity
  8
0
100
AcDbLine
 10
39.596
 20
37.77559899999999
 30
0.0
 11
45.496
 21
29.506299
 31
0.0
  0
LINE
  5
2B
330
1E
100
AcDbEntity
  8
0
100
AcDbLine
 10
35.09599999999999
 20
46.420799
 30
0.0
 11
39.596
 21
37.77559899999999
 31
0.0
  0
LINE
  5
2C
330
1E
100
AcDbEntity
  8
0
100
AcDbLine
 10
30.69599999999999
 20
69.600799
 30
0.0
 11
32.696
 21
60.109899
 31
0.0
  0
LINE
  5
2D
330
1E
100
AcDbEntity
  8
0
100
AcDbLine
 10
32.696
 20
60.109899
 30
0.0
 11
36.09599999999999
 21
50.900899
 31
0.0
  0
LINE
  5
2E
330
1E
100
AcDbEntity
  8
0
100
AcDbLine
 10
31.796
 20
59.579999
 30
0.0
 11
35.09599999999999
 21
50.182999
 31
0.0
  0
LINE
  5
2F
330
1E
100
AcDbEntity
  8
0
100
AcDbLine
 10
31.796
 20
55.817699
 30
0.0
 11
35.09599999999999
 21
46.420799
 31
0.0
  0
LINE
  5
30
330
1E
100
AcDbEntity
  8
0
100
AcDbLine
 10
29.69599999999999
 20
65.40259899999999
 30
0.0
 11
31.796
 21
55.817699
 31
0.0
  0
LINE
  5
31
330
1E
100
AcDbEntity
  8
0
100
AcDbLine
 10
21.7195
 20
263.999999
 30
0.0
 11
25.3195
 21
263.999999
 31
0.0
  0
LINE
  5
32
330
1E
100
AcDbEntity
  8
0
100
AcDbLine
 10
25.3195
 20
263.999999
 30
0.0
 11
29.4489
 21
263.999999
 31
0.0
  0
LINE
  5
33
330
1E
100
AcDbEntity
  8
0
100
AcDbLine
 10
19.0195
 20
263.999999
 30
0.0
 11
21.7195
 21
263.999999
 31
0.0
  0
LINE
  5
34
330
1E
100
AcDbEntity
  8
0
100
AcDbLine
 10
17.3254
 20
263.999999
 30
0.0
 11
19.0195
 21
263.999999
 31
0.0
  0
LINE
  5
35
330
1E
100
AcDbEntity
  8
0
100
AcDbLine
 10
18.54309999999999
 20
264.384999
 30
0.0
 11
21.34889999999999
 21
264.384999
 31
0.0
  0
LINE
  5
36
330
1E
100
AcDbEntity
  8
0
100
AcDbLine
 10
16.79599999999999
 20
264.384999
 30
0.0
 11
18.54309999999999
 21
264.384999
 31
0.0
  0
LINE
  5
37
330
1E
100
AcDbEntity
  8
0
100
AcDbLine
 10
21.34889999999999
 20
264.384999
 30
0.0
 11
25.0548
 21
264.384999
 31
0.0
  0
LINE
  5
38
330
1E
100
AcDbEntity
  8
0
100
AcDbLine
 10
25.0548
 20
264.384999
 30
0.0
 11
29.34309999999999
 21
264.384999
 31
0.0
  0
LINE
  5
39
330
1E
100
AcDbEntity
  8
0
100
AcDbLine
 10
16.6901
 20
263.999999
 30
0.0
 11
17.3254
 21
263.999999
 31
0.0
  0
LINE
  5
3A
330
1E
100
AcDbEntity
  8
0
100
AcDbLine
 10
16.16069999999999
 20
264.384999
 30
0.0
 11
16.6901
 21
263.999999
 31
0.0
  0
LINE
  5
3B
330
1E
100
AcDbEntity
  8
0
100
AcDbLine
 10
16.16069999999999
 20
264.384999
 30
0.0
 11
16.79599999999999
 21
264.384999
 31
0.0
  0
LINE
  5
3C
330
1E
100
AcDbEntity
  8
0
100
AcDbLine
 10
15.89599999999999
 20
265.1539989999999
 30
0.0
 11
15.89599999999999
 21
303.999999
 31
0.0
  0
LINE
  5
3D
330
1E
100
AcDbEntity
  8
0
100
AcDbLine
 10
15.89599999999999
 20
265.1539989999999
 30
0.0
 11
16.16069999999999
 21
264.384999
 31
0.0
  0
LINE
  5
3E
330
1E
100
AcDbEntity
  8
0
100
AcDbLine
 10
29.34309999999999
 20
264.384999
 30
0.0
 11
33.896
 21
264.384999
 31
0.0
  0
LINE
  5
3F
330
1E
100
AcDbEntity
  8
0
100
AcDbLine
 10
29.4489
 20
263.999999
 30
0.0
 11
33.896
 21
263.999999
 31
0.0
  0
LINE
  5
40
330
1E
100
AcDbEntity
  8
0
100
AcDbLine
 10
30.69599999999999
 20
88.95849899999999
 30
0.0
 11
32.696
 21
98.44939899999999
 31
0.0
  0
LINE
  5
41
330
1E
100
AcDbEntity
  8
0
100
AcDbLine
 10
36.09599999999999
 20
107.657999
 30
0.0
 11
40.496
 21
116.2099989999999
 31
0.0
  0
LINE
  5
42
330
1E
100
AcDbEntity
  8
0
100
AcDbLine
 10
32.696
 20
98.44939899999999
 30
0.0
 11
36.09599999999999
 21
107.657999
 31
0.0
  0
LINE
  5
43
330
1E
100
AcDbEntity
  8
0
100
AcDbLine
 10
33.896
 20
263.999999
 30
0.0
 11
97.896
 21
263.999999
 31
0.0
  0
LINE
  5
44
330
1E
100
AcDbEntity
  8
0
100
AcDbLine
 10
33.896
 20
264.384999
 30
0.0
 11
97.896
 21
264.384999
 31
0.0
  0
LINE
  5
45
330
1E
100
AcDbEntity
  8
0
100
AcDbLine
 10
33.896
 20
264.384999
 30
0.0
 11
97.896
 21
264.384999
 31
0.0
  0
LINE
  5
46
330
1E
100
AcDbEntity
  8
0
100
AcDbLine
 10
33.896
 20
263.999999
 30
0.0
 11
83.89599999999999
 21
263.999999
 31
0.0
  0
LINE
  5
47
330
1E
100
AcDbEntity
  8
0
100
AcDbLine
 10
33.896
 20
263.999999
 30
0.0
 11
97.896
 21
263.999999
 31
0.0
  0
LINE
  5
48
330
1E
100
AcDbEntity
  8
0
100
AcDbLine
 10
40.496
 20
116.2099989999999
 30
0.0
 11
46.296
 21
124.3849989999999
 31
0.0
  0
LINE
  5
49
330
1E
100
AcDbEntity
  8
0
100
AcDbLine
 10
39.596
 20
116.336999
 30
0.0
 11
45.496
 21
124.606999
 31
0.0
  0
LINE
  5
4A
330
1E
100
AcDbEntity
  8
0
100
AcDbLine
 10
35.09599999999999
 20
107.6919989999999
 30
0.0
 11
39.596
 21
116.336999
 31
0.0
  0
LINE
  5
4B
330
1E
100
AcDbEntity
  8
0
100
AcDbLine
 10
31.796
 20
98.295299
 30
0.0
 11
35.09599999999999
 21
107.6919989999999
 31
0.0
  0
LINE
  5
4C
330
1E
100
AcDbEntity
  8
0
100
AcDbLine
 10
29.69599999999999
 20
88.71039899999999
 30
0.0
 11
31.796
 21
98.295299
 31
0.0
  0
LINE
  5
4D
330
1E
100
AcDbEntity
  8
0
100
AcDbLine
 10
46.296
 20
124.3849989999999
 30
0.0
 11
53.096
 21
131.714999
 31
0.0
  0
LINE
  5
4E
330
1E
100
AcDbEntity
  8
0
100
AcDbLine
 10
45.496
 20
124.606999
 30
0.0
 11
52.396
 21
132.029999
 31
0.0
  0
LINE
  5
4F
330
1E
100
AcDbEntity
  8
0
100
AcDbLine
 10
29.896
 20
79.27969899999999
 30
0.0
 11
30.69599999999999
 21
69.600799
 31
0.0
  0
LINE
  5
50
330
1E
100
AcDbEntity
  8
0
100
AcDbLine
 10
29.896
 20
79.27969899999999
 30
0.0
 11
30.69599999999999
 21
88.95849899999999
 31
0.0
  0
LINE
  5
51
330
1E
100
AcDbEntity
  8
0
100
AcDbLine
 10
28.896
 20
78.937599
 30
0.0
 11
28.896
 21
75.175399
 31
0.0
  0
LINE
  5
52
330
1E
100
AcDbEntity
  8
0
100
AcDbLine
 10
28.896
 20
78.937599
 30
0.0
 11
29.69599999999999
 21
69.164799
 31
0.0
  0
LINE
  5
53
330
1E
100
AcDbEntity
  8
0
100
AcDbLine
 10
28.896
 20
78.937599
 30
0.0
 11
29.69599999999999
 21
88.71039899999999
 31
0.0
  0
LINE
  5
54
330
1E
100
AcDbEntity
  8
0
100
AcDbLine
 10
28.896
 20
75.175399
 30
0.0
 11
29.69599999999999
 21
65.40259899999999
 31
0.0
  0
LINE
  5
55
330
1E
100
AcDbEntity
  8
0
100
AcDbLine
 10
28.896
 20
75.175399
 30
0.0
 11
28.896
 21
78.937599
 31
0.0
  0
LINE
  5
56
330
1E
100
AcDbEntity
  8
0
100
AcDbLine
 10
52.396
 20
132.029999
 30
0.0
 11
60.29600000000001
 21
138.513999
 31
0.0
  0
LINE
  5
57
330
1E
100
AcDbEntity
  8
0
100
AcDbLine
 10
53.096
 20
131.714999
 30
0.0
 11
60.896
 21
138.1039989999999
 31
0.0
  0
LINE
  5
58
330
1E
100
AcDbEntity
  8
0
100
AcDbLine
 10
53.096
 20
26.84479899999999
 30
0.0
 11
60.896
 21
20.45489899999999
 31
0.0
  0
LINE
  5
59
330
1E
100
AcDbEntity
  8
0
100
AcDbLine
 10
52.396
 20
25.84499899999999
 30
0.0
 11
60.29600000000001
 21
19.36109899999999
 31
0.0
  0
LINE
  5
5A
330
1E
100
AcDbEntity
  8
0
100
AcDbLine
 10
52.396
 20
22.08279899999999
 30
0.0
 11
60.29600000000001
 21
15.59889899999999
 31
0.0
  0
LINE
  5
5B
330
1E
100
AcDbEntity
  8
0
100
AcDbLine
 10
47.7464
 20
277.576999
 30
0.0
 11
49.6064
 21
276.1369989999999
 31
0.0
  0
LINE
  5
5C
330
1E
100
AcDbEntity
  8
0
100
AcDbLine
 10
49.6064
 20
276.1369989999999
 30
0.0
 11
51.76639999999999
 21
275.236999
 31
0.0
  0
LINE
  5
5D
330
1E
100
AcDbEntity
  8
0
100
AcDbLine
 10
58.6064
 20
276.1369989999999
 30
0.0
 11
58.896
 21
276.361205451613
 31
0.0
  0
LINE
  5
5E
330
1E
100
AcDbEntity
  8
0
100
AcDbLine
 10
56.44639999999999
 20
275.236999
 30
0.0
 11
58.6064
 21
276.1369989999999
 31
0.0
  0
LINE
  5
5F
330
1E
100
AcDbEntity
  8
0
100
AcDbLine
 10
54.1064
 20
274.936999
 30
0.0
 11
56.44639999999999
 21
275.236999
 31
0.0
  0
LINE
  5
60
330
1E
100
AcDbEntity
  8
0
100
AcDbLine
 10
51.76639999999999
 20
275.236999
 30
0.0
 11
54.1064
 21
274.936999
 31
0.0
  0
LINE
  5
61
330
1E
100
AcDbEntity
  8
0
100
AcDbLine
 10
58.896
 20
273.078999
 30
0.0
 11
58.896
 21
274.785999
 31
0.0
  0
LINE
  5
62
330
1E
100
AcDbEntity
  8
0
100
AcDbLine
 10
58.896
 20
273.078999
 30
0.0
 11
58.896
 21
272.486999
 31
0.0
  0
LINE
  5
63
330
1E
100
AcDbEntity
  8
0
100
AcDbLine
 10
58.896
 20
273.082999
 30
0.0
 11
58.896
 21
272.486999
 31
0.0
  0
LINE
  5
64
330
1E
100
AcDbEntity
  8
0
100
AcDbLine
 10
58.896
 20
273.082999
 30
0.0
 11
58.896
 21
274.858999
 31
0.0
  0
LINE
  5
65
330
1E
100
AcDbEntity
  8
0
100
AcDbLine
 10
58.896
 20
272.486999
 30
0.0
 11
59.6498
 21
272.004999
 31
0.0
  0
LINE
  5
66
330
1E
100
AcDbEntity
  8
0
100
AcDbLine
 10
58.896
 20
272.486999
 30
0.0
 11
58.896
 21
273.078999
 31
0.0
  0
LINE
  5
67
330
1E
100
AcDbEntity
  8
0
100
AcDbLine
 10
58.896
 20
272.486999
 30
0.0
 11
58.896
 21
273.082999
 31
0.0
  0
LINE
  5
68
330
1E
100
AcDbEntity
  8
0
100
AcDbLine
 10
58.896
 20
274.858999
 30
0.0
 11
58.896
 21
273.082999
 31
0.0
  0
LINE
  5
69
330
1E
100
AcDbEntity
  8
0
100
AcDbLine
 10
58.896
 20
274.858999
 30
0.0
 11
58.896
 21
277.611999
 31
0.0
  0
LINE
  5
6A
330
1E
100
AcDbEntity
  8
0
100
AcDbLine
 10
58.896
 20
277.611999
 30
0.0
 11
58.896
 21
274.858999
 31
0.0
  0
LINE
  5
6B
330
1E
100
AcDbEntity
  8
0
100
AcDbLine
 10
58.896
 20
277.611999
 30
0.0
 11
58.896
 21
281.2159989999999
 31
0.0
  0
LINE
  5
6C
330
1E
100
AcDbEntity
  8
0
100
AcDbLine
 10
58.896
 20
274.785999
 30
0.0
 11
58.896
 21
277.6149989999999
 31
0.0
  0
LINE
  5
6D
330
1E
100
AcDbEntity
  8
0
100
AcDbLine
 10
58.896
 20
274.785999
 30
0.0
 11
58.896
 21
273.078999
 31
0.0
  0
LINE
  5
6E
330
1E
100
AcDbEntity
  8
0
100
AcDbLine
 10
45.1064
 20
283.936999
 30
0.0
 11
45.40639999999999
 21
281.596999
 31
0.0
  0
LINE
  5
6F
330
1E
100
AcDbEntity
  8
0
100
AcDbLine
 10
45.1064
 20
283.936999
 30
0.0
 11
45.40639999999999
 21
286.276999
 31
0.0
  0
LINE
  5
70
330
1E
100
AcDbEntity
  8
0
100
AcDbLine
 10
45.40639999999999
 20
281.596999
 30
0.0
 11
46.30639999999999
 21
279.436999
 31
0.0
  0
LINE
  5
71
330
1E
100
AcDbEntity
  8
0
100
AcDbLine
 10
46.30639999999999
 20
279.436999
 30
0.0
 11
47.7464
 21
277.576999
 31
0.0
  0
LINE
  5
72
330
1E
100
AcDbEntity
  8
0
100
AcDbLine
 10
58.896
 20
281.2159989999999
 30
0.0
 11
58.896
 21
277.611999
 31
0.0
  0
LINE
  5
73
330
1E
100
AcDbEntity
  8
0
100
AcDbLine
 10
58.896
 20
281.2159989999999
 30
0.0
 11
58.896
 21
285.467999
 31
0.0
  0
LINE
  5
74
330
1E
100
AcDbEntity
  8
0
100
AcDbLine
 10
58.896
 20
277.6149989999999
 30
0.0
 11
58.896
 21
281.198999
 31
0.0
  0
LINE
  5
75
330
1E
100
AcDbEntity
  8
0
100
AcDbLine
 10
58.896
 20
277.6149989999999
 30
0.0
 11
58.896
 21
274.785999
 31
0.0
  0
LINE
  5
76
330
1E
100
AcDbEntity
  8
0
100
AcDbLine
 10
58.896
 20
281.198999
 30
0.0
 11
58.896
 21
285.466999
 31
0.0
  0
LINE
  5
77
330
1E
100
AcDbEntity
  8
0
100
AcDbLine
 10
58.896
 20
281.198999
 30
0.0
 11
58.896
 21
277.6149989999999
 31
0.0
  0
LINE
  5
78
330
1E
100
AcDbEntity
  8
0
100
AcDbLine
 10
45.40639999999999
 20
286.276999
 30
0.0
 11
46.30639999999999
 21
288.436999
 31
0.0
  0
LINE
  5
79
330
1E
100
AcDbEntity
  8
0
100
AcDbLine
 10
46.30639999999999
 20
288.436999
 30
0.0
 11
47.7464
 21
290.296999
 31
0.0
  0
LINE
  5
7A
330
1E
100
AcDbEntity
  8
0
100
AcDbLine
 10
55.0905
 20
287.1799989999999
 30
0.0
 11
55.2845
 21
287.107999
 31
0.0
  0
LINE
  5
7B
330
1E
100
AcDbEntity
  8
0
100
AcDbLine
 10
55.0905
 20
287.1799989999999
 30
0.0
 11
55.8009
 21
287.0719989999999
 31
0.0
  0
LINE
  5
7C
330
1E
100
AcDbEntity
  8
0
100
AcDbLine
 10
54.4365
 20
287.467999
 30
0.0
 11
55.0905
 21
287.1799989999999
 31
0.0
  0
LINE
  5
7D
330
1E
100
AcDbEntity
  8
0
100
AcDbLine
 10
53.86140000000001
 20
287.935999
 30
0.0
 11
54.4365
 21
287.467999
 31
0.0
  0
LINE
  5
7E
330
1E
100
AcDbEntity
  8
0
100
AcDbLine
 10
53.42159999999999
 20
288.5479989999999
 30
0.0
 11
53.86140000000001
 21
287.935999
 31
0.0
  0
LINE
  5
7F
330
1E
100
AcDbEntity
  8
0
100
AcDbLine
 10
53.15100000000001
 20
289.243999
 30
0.0
 11
53.42159999999999
 21
288.5479989999999
 31
0.0
  0
LINE
  5
80
330
1E
100
AcDbEntity
  8
0
100
AcDbLine
 10
55.2845
 20
287.107999
 30
0.0
 11
56.0062
 21
286.999999
 31
0.0
  0
LINE
  5
81
330
1E
100
AcDbEntity
  8
0
100
AcDbLine
 10
47.7464
 20
290.296999
 30
0.0
 11
49.6064
 21
291.736999
 31
0.0
  0
LINE
  5
82
330
1E
100
AcDbEntity
  8
0
100
AcDbLine
 10
49.6064
 20
291.736999
 30
0.0
 11
51.76639999999999
 21
292.6369989999999
 31
0.0
  0
LINE
  5
83
330
1E
100
AcDbEntity
  8
0
100
AcDbLine
 10
51.76639999999999
 20
292.6369989999999
 30
0.0
 11
54.1064
 21
292.936999
 31
0.0
  0
LINE
  5
84
330
1E
100
AcDbEntity
  8
0
100
AcDbLine
 10
54.4365
 20
292.531999
 30
0.0
 11
55.0905
 21
292.8199989999999
 31
0.0
  0
LINE
  5
85
330
1E
100
AcDbEntity
  8
0
100
AcDbLine
 10
55.0905
 20
292.8199989999999
 30
0.0
 11
55.2845
 21
292.891999
 31
0.0
  0
LINE
  5
86
330
1E
100
AcDbEntity
  8
0
100
AcDbLine
 10
55.0905
 20
292.8199989999999
 30
0.0
 11
55.8009
 21
292.9279989999999
 31
0.0
  0
LINE
  5
87
330
1E
100
AcDbEntity
  8
0
100
AcDbLine
 10
53.86140000000001
 20
292.063999
 30
0.0
 11
54.4365
 21
292.531999
 31
0.0
  0
LINE
  5
88
330
1E
100
AcDbEntity
  8
0
100
AcDbLine
 10
53.42159999999999
 20
291.451999
 30
0.0
 11
53.86140000000001
 21
292.063999
 31
0.0
  0
LINE
  5
89
330
1E
100
AcDbEntity
  8
0
100
AcDbLine
 10
53.15100000000001
 20
290.755999
 30
0.0
 11
53.42159999999999
 21
291.451999
 31
0.0
  0
LINE
  5
8A
330
1E
100
AcDbEntity
  8
0
100
AcDbLine
 10
53.0495
 20
289.9999989999999
 30
0.0
 11
53.15100000000001
 21
290.755999
 31
0.0
  0
LINE
  5
8B
330
1E
100
AcDbEntity
  8
0
100
AcDbLine
 10
53.0495
 20
289.9999989999999
 30
0.0
 11
53.15100000000001
 21
289.243999
 31
0.0
  0
LINE
  5
8C
330
1E
100
AcDbEntity
  8
0
100
AcDbLine
 10
55.8009
 20
287.0719989999999
 30
0.0
 11
56.5114
 21
287.1799989999999
 31
0.0
  0
LINE
  5
8D
330
1E
100
AcDbEntity
  8
0
100
AcDbLine
 10
56.0062
 20
286.999999
 30
0.0
 11
59.6498
 21
286.999999
 31
0.0
  0
LINE
  5
8E
330
1E
100
AcDbEntity
  8
0
100
AcDbLine
 10
55.2845
 20
292.891999
 30
0.0
 11
56.0062
 21
292.999999
 31
0.0
  0
LINE
  5
8F
330
1E
100
AcDbEntity
  8
0
100
AcDbLine
 10
54.1064
 20
292.936999
 30
0.0
 11
55.07437774100121
 21
292.8128992896149
 31
0.0
  0
LINE
  5
90
330
1E
100
AcDbEntity
  8
0
100
AcDbLine
 10
55.8009
 20
292.9279989999999
 30
0.0
 11
56.5114
 21
292.8199989999999
 31
0.0
  0
LINE
  5
91
330
1E
100
AcDbEntity
  8
0
100
AcDbLine
 10
56.5114
 20
287.1799989999999
 30
0.0
 11
57.1654
 21
287.467999
 31
0.0
  0
LINE
  5
92
330
1E
100
AcDbEntity
  8
0
100
AcDbLine
 10
57.1654
 20
287.467999
 30
0.0
 11
57.74049999999999
 21
287.935999
 31
0.0
  0
LINE
  5
93
330
1E
100
AcDbEntity
  8
0
100
AcDbLine
 10
57.74049999999999
 20
287.935999
 30
0.0
 11
58.1802
 21
288.5479989999999
 31
0.0
  0
LINE
  5
94
330
1E
100
AcDbEntity
  8
0
100
AcDbLine
 10
58.1802
 20
288.5479989999999
 30
0.0
 11
58.45089999999999
 21
289.243999
 31
0.0
  0
LINE
  5
95
330
1E
100
AcDbEntity
  8
0
100
AcDbLine
 10
58.45089999999999
 20
289.243999
 30
0.0
 11
58.5524
 21
289.9999989999999
 31
0.0
  0
LINE
  5
96
330
1E
100
AcDbEntity
  8
0
100
AcDbLine
 10
56.5114
 20
292.8199989999999
 30
0.0
 11
57.1654
 21
292.531999
 31
0.0
  0
LINE
  5
97
330
1E
100
AcDbEntity
  8
0
100
AcDbLine
 10
57.1654
 20
292.531999
 30
0.0
 11
57.74049999999999
 21
292.063999
 31
0.0
  0
LINE
  5
98
330
1E
100
AcDbEntity
  8
0
100
AcDbLine
 10
57.74049999999999
 20
292.063999
 30
0.0
 11
58.1802
 21
291.451999
 31
0.0
  0
LINE
  5
99
330
1E
100
AcDbEntity
  8
0
100
AcDbLine
 10
58.1802
 20
291.451999
 30
0.0
 11
58.45089999999999
 21
290.755999
 31
0.0
  0
LINE
  5
9A
330
1E
100
AcDbEntity
  8
0
100
AcDbLine
 10
58.45089999999999
 20
290.755999
 30
0.0
 11
58.5524
 21
289.9999989999999
 31
0.0
  0
LINE
  5
9B
330
1E
100
AcDbEntity
  8
0
100
AcDbLine
 10
56.0062
 20
292.999999
 30
0.0
 11
59.6498
 21
292.999999
 31
0.0
  0
LINE
  5
9C
330
1E
100
AcDbEntity
  8
0
100
AcDbLine
 10
58.896
 20
285.467999
 30
0.0
 11
58.896
 21
281.2159989999999
 31
0.0
  0
LINE
  5
9D
330
1E
100
AcDbEntity
  8
0
100
AcDbLine
 10
58.896
 20
285.467999
 30
0.0
 11
58.896
 21
286.999999
 31
0.0
  0
LINE
  5
9E
330
1E
100
AcDbEntity
  8
0
100
AcDbLine
 10
58.896
 20
286.999999
 30
0.0
 11
58.896
 21
285.466999
 31
0.0
  0
LINE
  5
9F
330
1E
100
AcDbEntity
  8
0
100
AcDbLine
 10
58.896
 20
286.999999
 30
0.0
 11
58.896
 21
285.467999
 31
0.0
  0
LINE
  5
A0
330
1E
100
AcDbEntity
  8
0
100
AcDbLine
 10
58.896
 20
285.466999
 30
0.0
 11
58.896
 21
286.999999
 31
0.0
  0
LINE
  5
A1
330
1E
100
AcDbEntity
  8
0
100
AcDbLine
 10
58.896
 20
285.466999
 30
0.0
 11
58.896
 21
281.198999
 31
0.0
  0
LINE
  5
A2
330
1E
100
AcDbEntity
  8
0
100
AcDbLine
 10
78.29600000000001
 20
9.588319000000009
 30
0.0
 11
88.29600000000001
 21
6.487329000000019
 31
0.0
  0
LINE
  5
A3
330
1E
100
AcDbEntity
  8
0
100
AcDbLine
 10
60.29600000000001
 20
138.513999
 30
0.0
 11
69.09600000000001
 21
144.0579989999999
 31
0.0
  0
LINE
  5
A4
330
1E
100
AcDbEntity
  8
0
100
AcDbLine
 10
60.29600000000001
 20
19.36109899999999
 30
0.0
 11
69.09600000000001
 21
13.816899
 31
0.0
  0
LINE
  5
A5
330
1E
100
AcDbEntity
  8
0
100
AcDbLine
 10
60.896
 20
138.1039989999999
 30
0.0
 11
69.596
 21
143.554999
 31
0.0
  0
LINE
  5
A6
330
1E
100
AcDbEntity
  8
0
100
AcDbLine
 10
69.596
 20
143.554999
 30
0.0
 11
78.696
 21
147.6889989999999
 31
0.0
  0
LINE
  5
A7
330
1E
100
AcDbEntity
  8
0
100
AcDbLine
 10
69.09600000000001
 20
144.0579989999999
 30
0.0
 11
78.29600000000001
 21
148.286999
 31
0.0
  0
LINE
  5
A8
330
1E
100
AcDbEntity
  8
0
100
AcDbLine
 10
60.896
 20
20.45489899999999
 30
0.0
 11
69.596
 21
15.00469899999999
 31
0.0
  0
LINE
  5
A9
330
1E
100
AcDbEntity
  8
0
100
AcDbLine
 10
78.29600000000001
 20
148.286999
 30
0.0
 11
88.29600000000001
 21
151.387999
 31
0.0
  0
LINE
  5
AA
330
1E
100
AcDbEntity
  8
0
100
AcDbLine
 10
69.596
 20
15.00469899999999
 30
0.0
 11
78.696
 21
10.869999
 31
0.0
  0
LINE
  5
AB
330
1E
100
AcDbEntity
  8
0
100
AcDbLine
 10
69.09600000000001
 20
13.816899
 30
0.0
 11
78.29600000000001
 21
9.588319000000009
 31
0.0
  0
LINE
  5
AC
330
1E
100
AcDbEntity
  8
0
100
AcDbLine
 10
60.29600000000001
 20
15.59889899999999
 30
0.0
 11
69.09600000000001
 21
10.054699
 31
0.0
  0
LINE
  5
AD
330
1E
100
AcDbEntity
  8
0
100
AcDbLine
 10
69.09600000000001
 20
10.054699
 30
0.0
 11
78.29600000000001
 21
5.826099000000009
 31
0.0
  0
LINE
  5
AE
330
1E
100
AcDbEntity
  8
0
100
AcDbLine
 10
78.696
 20
147.6889989999999
 30
0.0
 11
88.496
 21
150.883999
 31
0.0
  0
LINE
  5
AF
330
1E
100
AcDbEntity
  8
0
100
AcDbLine
 10
83.396
 20
246.299999
 30
0.0
 11
84.296
 21
244.499999
 31
0.0
  0
LINE
  5
B0
330
1E
100
AcDbEntity
  8
0
100
AcDbLine
 10
83.396
 20
246.299999
 30
0.0
 11
84.396
 21
247.299999
 31
0.0
  0
LINE
  5
B1
330
1E
100
AcDbEntity
  8
0
100
AcDbLine
 10
83.396
 20
246.299999
 30
0.0
 11
83.396
 21
213.299999
 31
0.0
  0
LINE
  5
B2
330
1E
100
AcDbEntity
  8
0
100
AcDbLine
 10
83.396
 20
213.299999
 30
0.0
 11
83.89599999999999
 21
211.799999
 31
0.0
  0
LINE
  5
B3
330
1E
100
AcDbEntity
  8
0
100
AcDbLine
 10
83.396
 20
213.299999
 30
0.0
 11
83.396
 21
246.299999
 31
0.0
  0
LINE
  5
B4
330
1E
100
AcDbEntity
  8
0
100
AcDbLine
 10
83.89599999999999
 20
211.799999
 30
0.0
 11
84.79600000000001
 21
211.799999
 31
0.0
  0
LINE
  5
B5
330
1E
100
AcDbEntity
  8
0
100
AcDbLine
 10
83.89599999999999
 20
211.799999
 30
0.0
 11
85.396
 21
211.299999
 31
0.0
  0
LINE
  5
B6
330
1E
100
AcDbEntity
  8
0
100
AcDbLine
 10
83.89599999999999
 20
263.999999
 30
0.0
 11
83.89599999999999
 21
249.864999
 31
0.0
  0
LINE
  5
B7
330
1E
100
AcDbEntity
  8
0
100
AcDbLine
 10
84.89600000000001
 20
246.299999
 30
0.0
 11
85.396
 21
246.299999
 31
0.0
  0
LINE
  5
B8
330
1E
100
AcDbEntity
  8
0
100
AcDbLine
 10
84.396
 20
247.299999
 30
0.0
 11
85.296
 21
245.499999
 31
0.0
  0
LINE
  5
B9
330
1E
100
AcDbEntity
  8
0
100
AcDbLine
 10
84.396
 20
247.299999
 30
0.0
 11
85.296
 21
247.299999
 31
0.0
  0
LINE
  5
BA
330
1E
100
AcDbEntity
  8
0
100
AcDbLine
 10
84.296
 20
244.499999
 30
0.0
 11
86.796
 21
242.7999989999999
 31
0.0
  0
LINE
  5
BB
330
1E
100
AcDbEntity
  8
0
100
AcDbLine
 10
84.79600000000001
 20
211.799999
 30
0.0
 11
87.29600000000001
 21
211.799999
 31
0.0
  0
LINE
  5
BC
330
1E
100
AcDbEntity
  8
0
100
AcDbLine
 10
85.396
 20
211.299999
 30
0.0
 11
86.29600000000001
 21
211.299999
 31
0.0
  0
LINE
  5
BD
330
1E
100
AcDbEntity
  8
0
100
AcDbLine
 10
85.296
 20
247.299999
 30
0.0
 11
85.396
 21
247.299999
 31
0.0
  0
LINE
  5
BE
330
1E
100
AcDbEntity
  8
0
100
AcDbLine
 10
85.296
 20
245.499999
 30
0.0
 11
87.696
 21
243.899999
 31
0.0
  0
LINE
  5
BF
330
1E
100
AcDbEntity
  8
0
100
AcDbLine
 10
86.29600000000001
 20
211.299999
 30
0.0
 11
88.496
 21
211.299999
 31
0.0
  0
LINE
  5
C0
330
1E
100
AcDbEntity
  8
0
100
AcDbLine
 10
86.796
 20
242.7999989999999
 30
0.0
 11
90.896
 21
241.299999
 31
0.0
  0
LINE
  5
C1
330
1E
100
AcDbEntity
  8
0
100
AcDbLine
 10
87.29600000000001
 20
211.799999
 30
0.0
 11
91.196
 21
211.799999
 31
0.0
  0
LINE
  5
C2
330
1E
100
AcDbEntity
  8
0
100
AcDbLine
 10
85.396
 20
246.299999
 30
0.0
 11
85.55849999999999
 21
245.324999
 31
0.0
  0
LINE
  5
C3
330
1E
100
AcDbEntity
  8
0
100
AcDbLine
 10
85.396
 20
246.299999
 30
0.0
 11
85.396
 21
248.999999
 31
0.0
  0
LINE
  5
C4
330
1E
100
AcDbEntity
  8
0
100
AcDbLine
 10
85.396
 20
248.999999
 30
0.0
 11
85.396
 21
246.299999
 31
0.0
  0
LINE
  5
C5
330
1E
100
AcDbEntity
  8
0
100
AcDbLine
 10
87.696
 20
243.899999
 30
0.0
 11
91.59600000000001
 21
242.499999
 31
0.0
  0
LINE
  5
C6
330
1E
100
AcDbEntity
  8
0
100
AcDbLine
 10
87.572
 20
249.287999
 30
0.0
 11
91.47
 21
249.287999
 31
0.0
  0
LINE
  5
C7
330
1E
100
AcDbEntity
  8
0
100
AcDbLine
 10
85.14599999999999
 20
249.287999
 30
0.0
 11
87.572
 21
249.287999
 31
0.0
  0
LINE
  5
C8
330
1E
100
AcDbEntity
  8
0
100
AcDbLine
 10
84.999
 20
248.999999
 30
0.0
 11
85.396
 21
248.999999
 31
0.0
  0
LINE
  5
C9
330
1E
100
AcDbEntity
  8
0
100
AcDbLine
 10
84.26399999999999
 20
249.287999
 30
0.0
 11
84.999
 21
248.999999
 31
0.0
  0
LINE
  5
CA
330
1E
100
AcDbEntity
  8
0
100
AcDbLine
 10
84.26399999999999
 20
249.287999
 30
0.0
 11
85.14599999999999
 21
249.287999
 31
0.0
  0
LINE
  5
CB
330
1E
100
AcDbEntity
  8
0
100
AcDbLine
 10
83.89599999999999
 20
249.864999
 30
0.0
 11
83.89599999999999
 21
263.999999
 31
0.0
  0
LINE
  5
CC
330
1E
100
AcDbEntity
  8
0
100
AcDbLine
 10
83.89599999999999
 20
249.864999
 30
0.0
 11
84.26399999999999
 21
249.287999
 31
0.0
  0
LINE
  5
CD
330
1E
100
AcDbEntity
  8
0
100
AcDbLine
 10
88.29600000000001
 20
151.387999
 30
0.0
 11
97.896
 21
153.244940176471
 31
0.0
  0
LINE
  5
CE
330
1E
100
AcDbEntity
  8
0
100
AcDbLine
 10
78.696
 20
10.869999
 30
0.0
 11
88.496
 21
7.675079000000009
 31
0.0
  0
LINE
  5
CF
330
1E
100
AcDbEntity
  8
0
100
AcDbLine
 10
88.496
 20
211.299999
 30
0.0
 11
92.29600000000001
 21
211.299999
 31
0.0
  0
LINE
  5
D0
330
1E
100
AcDbEntity
  8
0
100
AcDbLine
 10
88.496
 20
150.883999
 30
0.0
 11
97.896
 21
152.6337019702969
 31
0.0
  0
LINE
  5
D1
330
1E
100
AcDbEntity
  8
0
100
AcDbLine
 10
88.496
 20
7.675079000000009
 30
0.0
 11
98.596
 21
5.795689000000018
 31
0.0
  0
LINE
  5
D2
330
1E
100
AcDbEntity
  8
0
100
AcDbLine
 10
88.29600000000001
 20
6.487329000000019
 30
0.0
 11
98.49600000000002
 21
4.513979000000009
 31
0.0
  0
LINE
  5
D3
330
1E
100
AcDbEntity
  8
0
100
AcDbLine
 10
88.29600000000001
 20
2.725109000000009
 30
0.0
 11
98.49600000000002
 21
0.7517550000000151
 31
0.0
  0
LINE
  5
D4
330
1E
100
AcDbEntity
  8
0
100
AcDbLine
 10
78.29600000000001
 20
5.826099000000009
 30
0.0
 11
88.29600000000001
 21
2.725109000000009
 31
0.0
  0
LINE
  5
D5
330
1E
100
AcDbEntity
  8
0
100
AcDbLine
 10
78.29600000000001
 20
5.826099000000009
 30
0.0
 11
88.29600000000001
 21
2.725109000000009
 31
0.0
  0
LINE
  5
D6
330
1E
100
AcDbEntity
  8
0
100
AcDbLine
 10
88.29600000000001
 20
2.725109000000009
 30
0.0
 11
98.49600000000002
 21
0.7517550000000151
 31
0.0
  0
LINE
  5
D7
330
1E
100
AcDbEntity
  8
0
100
AcDbLine
 10
90.80899999999999
 20
272.004999
 30
0.0
 11
91.56299999999999
 21
272.486999
 31
0.0
  0
LINE
  5
D8
330
1E
100
AcDbEntity
  8
0
100
AcDbLine
 10
59.6498
 20
272.004999
 30
0.0
 11
90.80899999999999
 21
272.004999
 31
0.0
  0
LINE
  5
D9
330
1E
100
AcDbEntity
  8
0
100
AcDbLine
 10
58.896
 20
292.999999
 30
0.0
 11
58.896
 21
294.531999
 31
0.0
  0
LINE
  5
DA
330
1E
100
AcDbEntity
  8
0
100
AcDbLine
 10
58.896
 20
292.999999
 30
0.0
 11
58.896
 21
294.532999
 31
0.0
  0
LINE
  5
DB
330
1E
100
AcDbEntity
  8
0
100
AcDbLine
 10
58.896
 20
302.384999
 30
0.0
 11
58.896
 21
298.800999
 31
0.0
  0
LINE
  5
DC
330
1E
100
AcDbEntity
  8
0
100
AcDbLine
 10
58.896
 20
302.384999
 30
0.0
 11
58.896
 21
305.213999
 31
0.0
  0
LINE
  5
DD
330
1E
100
AcDbEntity
  8
0
100
AcDbLine
 10
58.896
 20
298.800999
 30
0.0
 11
58.896
 21
294.532999
 31
0.0
  0
LINE
  5
DE
330
1E
100
AcDbEntity
  8
0
100
AcDbLine
 10
58.896
 20
298.800999
 30
0.0
 11
58.896
 21
302.384999
 31
0.0
  0
LINE
  5
DF
330
1E
100
AcDbEntity
  8
0
100
AcDbLine
 10
58.896
 20
294.532999
 30
0.0
 11
58.896
 21
292.999999
 31
0.0
  0
LINE
  5
E0
330
1E
100
AcDbEntity
  8
0
100
AcDbLine
 10
58.896
 20
294.532999
 30
0.0
 11
58.896
 21
298.800999
 31
0.0
  0
LINE
  5
E1
330
1E
100
AcDbEntity
  8
0
100
AcDbLine
 10
19.896
 20
303.999999
 30
0.0
 11
19.896
 21
311.999999
 31
0.0
  0
LINE
  5
E2
330
1E
100
AcDbEntity
  8
0
100
AcDbLine
 10
18.33129999999999
 20
303.999999
 30
0.0
 11
21.1901
 21
303.999999
 31
0.0
  0
LINE
  5
E3
330
1E
100
AcDbEntity
  8
0
100
AcDbLine
 10
16.5313
 20
303.999999
 30
0.0
 11
18.33129999999999
 21
303.999999
 31
0.0
  0
LINE
  5
E4
330
1E
100
AcDbEntity
  8
0
100
AcDbLine
 10
15.89599999999999
 20
303.999999
 30
0.0
 11
16.5313
 21
303.999999
 31
0.0
  0
LINE
  5
E5
330
1E
100
AcDbEntity
  8
0
100
AcDbLine
 10
15.89599999999999
 20
303.999999
 30
0.0
 11
15.89599999999999
 21
265.1539989999999
 31
0.0
  0
LINE
  5
E6
330
1E
100
AcDbEntity
  8
0
100
AcDbLine
 10
21.1901
 20
303.999999
 30
0.0
 11
24.94889999999999
 21
303.999999
 31
0.0
  0
LINE
  5
E7
330
1E
100
AcDbEntity
  8
0
100
AcDbLine
 10
33.896
 20
303.999999
 30
0.0
 11
58.896
 21
303.999999
 31
0.0
  0
LINE
  5
E8
330
1E
100
AcDbEntity
  8
0
100
AcDbLine
 10
33.896
 20
303.999999
 30
0.0
 11
58.896
 21
303.999999
 31
0.0
  0
LINE
  5
E9
330
1E
100
AcDbEntity
  8
0
100
AcDbLine
 10
47.896
 20
303.999999
 30
0.0
 11
47.896
 21
311.999999
 31
0.0
  0
LINE
  5
EA
330
1E
100
AcDbEntity
  8
0
100
AcDbLine
 10
24.94889999999999
 20
303.999999
 30
0.0
 11
29.29009999999999
 21
303.999999
 31
0.0
  0
LINE
  5
EB
330
1E
100
AcDbEntity
  8
0
100
AcDbLine
 10
29.29009999999999
 20
303.999999
 30
0.0
 11
33.896
 21
303.999999
 31
0.0
  0
LINE
  5
EC
330
1E
100
AcDbEntity
  8
0
100
AcDbLine
 10
58.896
 20
305.213999
 30
0.0
 11
58.896
 21
306.920999
 31
0.0
  0
LINE
  5
ED
330
1E
100
AcDbEntity
  8
0
100
AcDbLine
 10
58.896
 20
305.213999
 30
0.0
 11
58.896
 21
302.384999
 31
0.0
  0
LINE
  5
EE
330
1E
100
AcDbEntity
  8
0
100
AcDbLine
 10
58.896
 20
306.920999
 30
0.0
 11
58.896
 21
305.213999
 31
0.0
  0
LINE
  5
EF
330
1E
100
AcDbEntity
  8
0
100
AcDbLine
 10
58.896
 20
306.920999
 30
0.0
 11
58.896
 21
307.512999
 31
0.0
  0
LINE
  5
F0
330
1E
100
AcDbEntity
  8
0
100
AcDbLine
 10
58.896
 20
306.916999
 30
0.0
 11
58.896
 21
307.512999
 31
0.0
  0
LINE
  5
F1
330
1E
100
AcDbEntity
  8
0
100
AcDbLine
 10
58.896
 20
306.916999
 30
0.0
 11
58.896
 21
305.140999
 31
0.0
  0
LINE
  5
F2
330
1E
100
AcDbEntity
  8
0
100
AcDbLine
 10
17.896
 20
313.999999
 30
0.0
 11
17.896
 21
323.999999
 31
0.0
  0
LINE
  5
F3
330
1E
100
AcDbEntity
  8
0
100
AcDbLine
 10
17.896
 20
313.999999
 30
0.0
 11
17.896
 21
312.9999989999999
 31
0.0
  0
LINE
  5
F4
330
1E
100
AcDbEntity
  8
0
100
AcDbLine
 10
17.896
 20
323.999999
 30
0.0
 11
17.896
 21
324.999999
 31
0.0
  0
LINE
  5
F5
330
1E
100
AcDbEntity
  8
0
100
AcDbLine
 10
17.896
 20
323.999999
 30
0.0
 11
17.896
 21
313.999999
 31
0.0
  0
LINE
  5
F8
330
1E
100
AcDbEntity
  8
0
100
AcDbLine
 10
17.896
 20
323.999999
 30
0.0
 11
19.2673
 21
324.999999
 31
0.0
  0
LINE
  5
F9
330
1E
100
AcDbEntity
  8
0
100
AcDbLine
 10
17.896
 20
312.9999989999999
 30
0.0
 11
17.896
 21
313.999999
 31
0.0
  0
LINE
  5
FA
330
1E
100
AcDbEntity
  8
0
100
AcDbLine
 10
17.896
 20
312.9999989999999
 30
0.0
 11
18.2328
 21
312.9999989999999
 31
0.0
  0
LINE
  5
FB
330
1E
100
AcDbEntity
  8
0
100
AcDbLine
 10
17.896
 20
312.9999989999999
 30
0.0
 11
17.896
 21
312.239999
 31
0.0
  0
LINE
  5
FC
330
1E
100
AcDbEntity
  8
0
100
AcDbLine
 10
17.896
 20
324.999999
 30
0.0
 11
17.896
 21
325.759999
 31
0.0
  0
LINE
  5
FE
330
1E
100
AcDbEntity
  8
0
100
AcDbLine
 10
17.896
 20
324.999999
 30
0.0
 11
17.896
 21
323.999999
 31
0.0
  0
LINE
  5
FF
330
1E
100
AcDbEntity
  8
0
100
AcDbLine
 10
17.896
 20
312.239999
 30
0.0
 11
17.896
 21
312.9999989999999
 31
0.0
  0
LINE
  5
100
330
1E
100
AcDbEntity
  8
0
100
AcDbLine
 10
17.896
 20
312.239999
 30
0.0
 11
17.896
 21
312.099999
 31
0.0
  0
LINE
  5
101
330
1E
100
AcDbEntity
  8
0
100
AcDbLine
 10
10.89599999999999
 20
325.999999
 30
0.0
 11
17.69599999999999
 21
325.999999
 31
0.0
  0
LINE
  5
102
330
1E
100
AcDbEntity
  8
0
100
AcDbLine
 10
17.69599999999999
 20
325.999999
 30
0.0
 11
18.3171
 21
325.999999
 31
0.0
  0
LINE
  5
103
330
1E
100
AcDbEntity
  8
0
100
AcDbLine
 10
5.796000000000009
 20
325.999999
 30
0.0
 11
10.89599999999999
 21
325.999999
 31
0.0
  0
LINE
  5
104
330
1E
100
AcDbEntity
  8
0
100
AcDbLine
 10
2.596000000000029
 20
325.999999
 30
0.0
 11
5.796000000000009
 21
325.999999
 31
0.0
  0
LINE
  5
105
330
1E
100
AcDbEntity
  8
0
100
AcDbLine
 10
1.59600000000002
 20
326.499999
 30
0.0
 11
4.896000000000019
 21
326.499999
 31
0.0
  0
LINE
  5
106
330
1E
100
AcDbEntity
  8
0
100
AcDbLine
 10
4.896000000000019
 20
326.499999
 30
0.0
 11
10.196
 21
326.499999
 31
0.0
  0
LINE
  5
107
330
1E
100
AcDbEntity
  8
0
100
AcDbLine
 10
4.496000000000019
 20
351.999999
 30
0.0
 11
9.896000000000018
 21
351.999999
 31
0.0
  0
LINE
  5
108
330
1E
100
AcDbEntity
  8
0
100
AcDbLine
 10
1.09600000000002
 20
351.999999
 30
0.0
 11
4.496000000000019
 21
351.999999
 31
0.0
  0
LINE
  5
109
330
1E
100
AcDbEntity
  8
0
100
AcDbLine
 10
10.196
 20
326.499999
 30
0.0
 11
17.19599999999999
 21
326.499999
 31
0.0
  0
LINE
  5
10A
330
1E
100
AcDbEntity
  8
0
100
AcDbLine
 10
17.19599999999999
 20
326.499999
 30
0.0
 11
25.296
 21
326.499999
 31
0.0
  0
LINE
  5
10B
330
1E
100
AcDbEntity
  8
0
100
AcDbLine
 10
9.896000000000018
 20
351.999999
 30
0.0
 11
16.996
 21
351.999999
 31
0.0
  0
LINE
  5
10C
330
1E
100
AcDbEntity
  8
0
100
AcDbLine
 10
16.996
 20
351.999999
 30
0.0
 11
25.196
 21
351.999999
 31
0.0
  0
LINE
  5
10D
330
1E
100
AcDbEntity
  8
0
100
AcDbLine
 10
0.396000000000019
 20
326.499999
 30
0.0
 11
1.396000000000019
 21
325.999999
 31
0.0
  0
LINE
  5
10E
330
1E
100
AcDbEntity
  8
0
100
AcDbLine
 10
0.396000000000019
 20
326.499999
 30
0.0
 11
1.59600000000002
 21
326.499999
 31
0.0
  0
LINE
  5
10F
330
1E
100
AcDbEntity
  8
0
100
AcDbLine
 10
1.396000000000019
 20
325.999999
 30
0.0
 11
2.596000000000029
 21
325.999999
 31
0.0
  0
LINE
  5
110
330
1E
100
AcDbEntity
  8
0
100
AcDbLine
 10
-0.103999999999983
 20
327.4999989999999
 30
0.0
 11
0.396000000000019
 21
326.499999
 31
0.0
  0
LINE
  5
111
330
1E
100
AcDbEntity
  8
0
100
AcDbLine
 10
-0.103999999999983
 20
327.4999989999999
 30
0.0
 11
-0.103999999999983
 21
351.999999
 31
0.0
  0
LINE
  5
112
330
1E
100
AcDbEntity
  8
0
100
AcDbLine
 10
-0.103999999999983
 20
351.999999
 30
0.0
 11
-0.103999999999983
 21
327.4999989999999
 31
0.0
  0
LINE
  5
113
330
1E
100
AcDbEntity
  8
0
100
AcDbLine
 10
-0.103999999999983
 20
351.999999
 30
0.0
 11
1.09600000000002
 21
351.999999
 31
0.0
  0
LINE
  5
114
330
1E
100
AcDbEntity
  8
0
100
AcDbLine
 10
17.896
 20
325.899999
 30
0.0
 11
17.896
 21
325.759999
 31
0.0
  0
LINE
  5
115
330
1E
100
AcDbEntity
  8
0
100
AcDbLine
 10
17.896
 20
325.899999
 30
0.0
 11
18.3171
 21
325.999999
 31
0.0
  0
LINE
  5
116
330
1E
100
AcDbEntity
  8
0
100
AcDbLine
 10
17.896
 20
325.759999
 30
0.0
 11
17.896
 21
325.899999
 31
0.0
  0
LINE
  5
11A
330
1E
100
AcDbEntity
  8
0
100
AcDbLine
 10
17.896
 20
325.759999
 30
0.0
 11
17.896
 21
324.999999
 31
0.0
  0
LINE
  5
11B
330
1E
100
AcDbEntity
  8
0
100
AcDbLine
 10
18.3171
 20
311.999999
 30
0.0
 11
18.9065
 21
311.999999
 31
0.0
  0
LINE
  5
11C
330
1E
100
AcDbEntity
  8
0
100
AcDbLine
 10
19.896
 20
311.999999
 30
0.0
 11
19.896
 21
303.999999
 31
0.0
  0
LINE
  5
11D
330
1E
100
AcDbEntity
  8
0
100
AcDbLine
 10
18.9065
 20
311.999999
 30
0.0
 11
19.896
 21
311.999999
 31
0.0
  0
LINE
  5
122
330
1E
100
AcDbEntity
  8
0
100
AcDbLine
 10
18.2328
 20
312.9999989999999
 30
0.0
 11
19.2673
 21
312.9999989999999
 31
0.0
  0
LINE
  5
123
330
1E
100
AcDbEntity
  8
0
100
AcDbLine
 10
21.9381
 20
312.363999
 30
0.0
 11
25.7515
 21
312.201999
 31
0.0
  0
LINE
  5
124
330
1E
100
AcDbEntity
  8
0
100
AcDbLine
 10
18.9065
 20
325.999999
 30
0.0
 11
20.42229999999999
 21
325.999999
 31
0.0
  0
LINE
  5
125
330
1E
100
AcDbEntity
  8
0
100
AcDbLine
 10
20.42229999999999
 20
325.999999
 30
0.0
 11
22.8644
 21
325.999999
 31
0.0
  0
LINE
  5
128
330
1E
100
AcDbEntity
  8
0
100
AcDbLine
 10
22.8644
 20
325.999999
 30
0.0
 11
26.1486
 21
325.999999
 31
0.0
  0
LINE
  5
12A
330
1E
100
AcDbEntity
  8
0
100
AcDbLine
 10
21.9381
 20
325.635999
 30
0.0
 11
25.7515
 21
325.7979989999999
 31
0.0
  0
LINE
  5
12C
330
1E
100
AcDbEntity
  8
0
100
AcDbLine
 10
19.2673
 20
324.999999
 30
0.0
 11
21.9381
 21
325.635999
 31
0.0
  0
LINE
  5
12D
330
1E
100
AcDbEntity
  8
0
100
AcDbLine
 10
19.2673
 20
312.9999989999999
 30
0.0
 11
21.9381
 21
312.363999
 31
0.0
  0
LINE
  5
131
330
1E
100
AcDbEntity
  8
0
100
AcDbLine
 10
25.7515
 20
312.201999
 30
0.0
 11
29.5441
 21
312.418999
 31
0.0
  0
LINE
  5
133
330
1E
100
AcDbEntity
  8
0
100
AcDbLine
 10
29.5441
 20
312.418999
 30
0.0
 11
31.9185
 21
312.9999989999999
 31
0.0
  0
LINE
  5
135
330
1E
100
AcDbEntity
  8
0
100
AcDbLine
 10
25.7515
 20
325.7979989999999
 30
0.0
 11
29.5441
 21
325.580999
 31
0.0
  0
LINE
  5
136
330
1E
100
AcDbEntity
  8
0
100
AcDbLine
 10
26.1486
 20
325.999999
 30
0.0
 11
29.8539
 21
325.999999
 31
0.0
  0
LINE
  5
138
330
1E
100
AcDbEntity
  8
0
100
AcDbLine
 10
19.896
 20
311.999999
 30
0.0
 11
48.8855
 21
311.999999
 31
0.0
  0
LINE
  5
139
330
1E
100
AcDbEntity
  8
0
100
AcDbLine
 10
47.896
 20
311.999999
 30
0.0
 11
47.896
 21
303.999999
 31
0.0
  0
LINE
  5
13A
330
1E
100
AcDbEntity
  8
0
100
AcDbLine
 10
49.475
 20
311.999999
 30
0.0
 11
49.896
 21
312.099999
 31
0.0
  0
LINE
  5
13B
330
1E
100
AcDbEntity
  8
0
100
AcDbLine
 10
48.8855
 20
311.999999
 30
0.0
 11
49.475
 21
311.999999
 31
0.0
  0
LINE
  5
13C
330
1E
100
AcDbEntity
  8
0
100
AcDbLine
 10
49.896
 20
312.099999
 30
0.0
 11
49.896
 21
312.239999
 31
0.0
  0
LINE
  5
143
330
1E
100
AcDbEntity
  8
0
100
AcDbLine
 10
49.896
 20
312.239999
 30
0.0
 11
49.896
 21
312.099999
 31
0.0
  0
LINE
  5
144
330
1E
100
AcDbEntity
  8
0
100
AcDbLine
 10
49.896
 20
312.239999
 30
0.0
 11
49.896
 21
312.9999989999999
 31
0.0
  0
LINE
  5
145
330
1E
100
AcDbEntity
  8
0
100
AcDbLine
 10
42.0405
 20
312.201999
 30
0.0
 11
45.8539
 21
312.363999
 31
0.0
  0
LINE
  5
148
330
1E
100
AcDbEntity
  8
0
100
AcDbLine
 10
31.9185
 20
324.999999
 30
0.0
 11
33.896
 21
324.999999
 31
0.0
  0
LINE
  5
149
330
1E
100
AcDbEntity
  8
0
100
AcDbLine
 10
29.8539
 20
325.999999
 30
0.0
 11
33.896
 21
325.999999
 31
0.0
  0
LINE
  5
14A
330
1E
100
AcDbEntity
  8
0
100
AcDbLine
 10
33.896
 20
312.9999989999999
 30
0.0
 11
35.8735
 21
312.9999989999999
 31
0.0
  0
LINE
  5
14C
330
1E
100
AcDbEntity
  8
0
100
AcDbLine
 10
35.8735
 20
324.999999
 30
0.0
 11
38.2479
 21
325.580999
 31
0.0
  0
LINE
  5
14D
330
1E
100
AcDbEntity
  8
0
100
AcDbLine
 10
35.8735
 20
312.9999989999999
 30
0.0
 11
38.2479
 21
312.418999
 31
0.0
  0
LINE
  5
14E
330
1E
100
AcDbEntity
  8
0
100
AcDbLine
 10
48.5247
 20
312.9999989999999
 30
0.0
 11
49.55919999999999
 21
312.9999989999999
 31
0.0
  0
LINE
  5
14F
330
1E
100
AcDbEntity
  8
0
100
AcDbLine
 10
38.2479
 20
312.418999
 30
0.0
 11
42.0405
 21
312.201999
 31
0.0
  0
LINE
  5
150
330
1E
100
AcDbEntity
  8
0
100
AcDbLine
 10
45.8539
 20
312.363999
 30
0.0
 11
48.5247
 21
312.9999989999999
 31
0.0
  0
LINE
  5
151
330
1E
100
AcDbEntity
  8
0
100
AcDbLine
 10
49.55919999999999
 20
312.9999989999999
 30
0.0
 11
49.896
 21
312.9999989999999
 31
0.0
  0
LINE
  5
155
330
1E
100
AcDbEntity
  8
0
100
AcDbLine
 10
49.896
 20
324.999999
 30
0.0
 11
49.896
 21
323.999999
 31
0.0
  0
LINE
  5
156
330
1E
100
AcDbEntity
  8
0
100
AcDbLine
 10
49.896
 20
324.999999
 30
0.0
 11
49.896
 21
325.759999
 31
0.0
  0
LINE
  5
157
330
1E
100
AcDbEntity
  8
0
100
AcDbLine
 10
49.896
 20
323.999999
 30
0.0
 11
49.896
 21
313.999999
 31
0.0
  0
LINE
  5
158
330
1E
100
AcDbEntity
  8
0
100
AcDbLine
 10
49.896
 20
323.999999
 30
0.0
 11
49.896
 21
324.999999
 31
0.0
  0
LINE
  5
159
330
1E
100
AcDbEntity
  8
0
100
AcDbLine
 10
49.896
 20
313.999999
 30
0.0
 11
49.896
 21
312.9999989999999
 31
0.0
  0
LINE
  5
15A
330
1E
100
AcDbEntity
  8
0
100
AcDbLine
 10
49.896
 20
313.999999
 30
0.0
 11
49.896
 21
323.999999
 31
0.0
  0
LINE
  5
15B
330
1E
100
AcDbEntity
  8
0
100
AcDbLine
 10
49.896
 20
312.9999989999999
 30
0.0
 11
49.896
 21
312.239999
 31
0.0
  0
LINE
  5
15C
330
1E
100
AcDbEntity
  8
0
100
AcDbLine
 10
49.896
 20
312.9999989999999
 30
0.0
 11
49.896
 21
313.999999
 31
0.0
  0
LINE
  5
15F
330
1E
100
AcDbEntity
  8
0
100
AcDbLine
 10
48.5247
 20
324.999999
 30
0.0
 11
49.896
 21
323.999999
 31
0.0
  0
LINE
  5
160
330
1E
100
AcDbEntity
  8
0
100
AcDbLine
 10
33.896
 20
325.999999
 30
0.0
 11
37.9381
 21
325.999999
 31
0.0
  0
LINE
  5
162
330
1E
100
AcDbEntity
  8
0
100
AcDbLine
 10
38.2479
 20
325.580999
 30
0.0
 11
42.0405
 21
325.7979989999999
 31
0.0
  0
LINE
  5
164
330
1E
100
AcDbEntity
  8
0
100
AcDbLine
 10
41.6433
 20
325.999999
 30
0.0
 11
44.9275
 21
325.999999
 31
0.0
  0
LINE
  5
167
330
1E
100
AcDbEntity
  8
0
100
AcDbLine
 10
37.9381
 20
325.999999
 30
0.0
 11
41.6433
 21
325.999999
 31
0.0
  0
LINE
  5
16A
330
1E
100
AcDbEntity
  8
0
100
AcDbLine
 10
49.896
 20
325.759999
 30
0.0
 11
49.896
 21
324.999999
 31
0.0
  0
LINE
  5
16B
330
1E
100
AcDbEntity
  8
0
100
AcDbLine
 10
56.896
 20
325.999999
 30
0.0
 11
61.996
 21
325.999999
 31
0.0
  0
LINE
  5
16C
330
1E
100
AcDbEntity
  8
0
100
AcDbLine
 10
50.096
 20
325.999999
 30
0.0
 11
56.896
 21
325.999999
 31
0.0
  0
LINE
  5
16D
330
1E
100
AcDbEntity
  8
0
100
AcDbLine
 10
49.475
 20
325.999999
 30
0.0
 11
50.096
 21
325.999999
 31
0.0
  0
LINE
  5
16E
330
1E
100
AcDbEntity
  8
0
100
AcDbLine
 10
49.475
 20
325.999999
 30
0.0
 11
49.896
 21
325.899999
 31
0.0
  0
LINE
  5
170
330
1E
100
AcDbEntity
  8
0
100
AcDbLine
 10
48.8855
 20
325.999999
 30
0.0
 11
49.475
 21
325.999999
 31
0.0
  0
LINE
  5
171
330
1E
100
AcDbEntity
  8
0
100
AcDbLine
 10
49.896
 20
325.899999
 30
0.0
 11
49.896
 21
325.759999
 31
0.0
  0
LINE
  5
172
330
1E
100
AcDbEntity
  8
0
100
AcDbLine
 10
44.9275
 20
325.999999
 30
0.0
 11
47.3697
 21
325.999999
 31
0.0
  0
LINE
  5
174
330
1E
100
AcDbEntity
  8
0
100
AcDbLine
 10
47.3697
 20
325.999999
 30
0.0
 11
48.8855
 21
325.999999
 31
0.0
  0
LINE
  5
177
330
1E
100
AcDbEntity
  8
0
100
AcDbLine
 10
42.0405
 20
325.7979989999999
 30
0.0
 11
45.8539
 21
325.635999
 31
0.0
  0
LINE
  5
179
330
1E
100
AcDbEntity
  8
0
100
AcDbLine
 10
45.8539
 20
325.635999
 30
0.0
 11
48.5247
 21
324.999999
 31
0.0
  0
LINE
  5
181
330
1E
100
AcDbEntity
  8
0
100
AcDbLine
 10
33.896
 20
324.999999
 30
0.0
 11
35.8735
 21
324.999999
 31
0.0
  0
LINE
  5
182
330
1E
100
AcDbEntity
  8
0
100
AcDbLine
 10
31.9185
 20
312.9999989999999
 30
0.0
 11
33.896
 21
312.9999989999999
 31
0.0
  0
LINE
  5
187
330
1E
100
AcDbEntity
  8
0
100
AcDbLine
 10
29.5441
 20
325.580999
 30
0.0
 11
31.9185
 21
324.999999
 31
0.0
  0
LINE
  5
18A
330
1E
100
AcDbEntity
  8
0
100
AcDbLine
 10
25.296
 20
326.499999
 30
0.0
 11
33.896
 21
326.499999
 31
0.0
  0
LINE
  5
18B
330
1E
100
AcDbEntity
  8
0
100
AcDbLine
 10
25.196
 20
351.999999
 30
0.0
 11
33.896
 21
351.999999
 31
0.0
  0
LINE
  5
18C
330
1E
100
AcDbEntity
  8
0
100
AcDbLine
 10
33.896
 20
326.499999
 30
0.0
 11
42.496
 21
326.499999
 31
0.0
  0
LINE
  5
18D
330
1E
100
AcDbEntity
  8
0
100
AcDbLine
 10
50.596
 20
326.499999
 30
0.0
 11
57.596
 21
326.499999
 31
0.0
  0
LINE
  5
18E
330
1E
100
AcDbEntity
  8
0
100
AcDbLine
 10
42.496
 20
326.499999
 30
0.0
 11
50.596
 21
326.499999
 31
0.0
  0
LINE
  5
18F
330
1E
100
AcDbEntity
  8
0
100
AcDbLine
 10
57.596
 20
326.499999
 30
0.0
 11
62.896
 21
326.499999
 31
0.0
  0
LINE
  5
190
330
1E
100
AcDbEntity
  8
0
100
AcDbLine
 10
57.896
 20
351.999999
 30
0.0
 11
63.29600000000001
 21
351.999999
 31
0.0
  0
LINE
  5
191
330
1E
100
AcDbEntity
  8
0
100
AcDbLine
 10
50.79600000000001
 20
351.999999
 30
0.0
 11
57.896
 21
351.999999
 31
0.0
  0
LINE
  5
192
330
1E
100
AcDbEntity
  8
0
100
AcDbLine
 10
42.596
 20
351.999999
 30
0.0
 11
50.79600000000001
 21
351.999999
 31
0.0
  0
LINE
  5
193
330
1E
100
AcDbEntity
  8
0
100
AcDbLine
 10
33.896
 20
351.999999
 30
0.0
 11
42.596
 21
351.999999
 31
0.0
  0
LINE
  5
194
330
1E
100
AcDbEntity
  8
0
100
AcDbLine
 10
18.3171
 20
325.999999
 30
0.0
 11
18.9065
 21
325.999999
 31
0.0
  0
LINE
  5
195
330
1E
100
AcDbEntity
  8
0
100
AcDbLine
 10
17.896
 20
312.099999
 30
0.0
 11
17.896
 21
312.239999
 31
0.0
  0
LINE
  5
196
330
1E
100
AcDbEntity
  8
0
100
AcDbLine
 10
17.896
 20
312.099999
 30
0.0
 11
18.3171
 21
311.999999
 31
0.0
  0
LINE
  5
197
330
1E
100
AcDbEntity
  8
0
100
AcDbLine
 10
58.896
 20
307.512999
 30
0.0
 11
59.6498
 21
307.994999
 31
0.0
  0
LINE
  5
198
330
1E
100
AcDbEntity
  8
0
100
AcDbLine
 10
58.896
 20
307.512999
 30
0.0
 11
58.896
 21
306.920999
 31
0.0
  0
LINE
  5
199
330
1E
100
AcDbEntity
  8
0
100
AcDbLine
 10
58.896
 20
307.512999
 30
0.0
 11
58.896
 21
306.916999
 31
0.0
  0
LINE
  5
19A
330
1E
100
AcDbEntity
  8
0
100
AcDbLine
 10
58.896
 20
305.140999
 30
0.0
 11
58.896
 21
306.916999
 31
0.0
  0
LINE
  5
19B
330
1E
100
AcDbEntity
  8
0
100
AcDbLine
 10
58.896
 20
305.140999
 30
0.0
 11
58.896
 21
302.387999
 31
0.0
  0
LINE
  5
19C
330
1E
100
AcDbEntity
  8
0
100
AcDbLine
 10
58.896
 20
302.387999
 30
0.0
 11
58.896
 21
305.140999
 31
0.0
  0
LINE
  5
19D
330
1E
100
AcDbEntity
  8
0
100
AcDbLine
 10
58.896
 20
302.387999
 30
0.0
 11
58.896
 21
298.7839989999999
 31
0.0
  0
LINE
  5
19E
330
1E
100
AcDbEntity
  8
0
100
AcDbLine
 10
61.996
 20
325.999999
 30
0.0
 11
65.196
 21
325.999999
 31
0.0
  0
LINE
  5
19F
330
1E
100
AcDbEntity
  8
0
100
AcDbLine
 10
62.896
 20
326.499999
 30
0.0
 11
66.196
 21
326.499999
 31
0.0
  0
LINE
  5
1A0
330
1E
100
AcDbEntity
  8
0
100
AcDbLine
 10
66.196
 20
326.499999
 30
0.0
 11
67.396
 21
326.499999
 31
0.0
  0
LINE
  5
1A1
330
1E
100
AcDbEntity
  8
0
100
AcDbLine
 10
65.196
 20
325.999999
 30
0.0
 11
66.396
 21
325.999999
 31
0.0
  0
LINE
  5
1A2
330
1E
100
AcDbEntity
  8
0
100
AcDbLine
 10
66.396
 20
325.999999
 30
0.0
 11
67.396
 21
326.499999
 31
0.0
  0
LINE
  5
1A3
330
1E
100
AcDbEntity
  8
0
100
AcDbLine
 10
67.396
 20
326.499999
 30
0.0
 11
67.896
 21
327.4999989999999
 31
0.0
  0
LINE
  5
1A4
330
1E
100
AcDbEntity
  8
0
100
AcDbLine
 10
67.896
 20
327.4999989999999
 30
0.0
 11
67.896
 21
351.999999
 31
0.0
  0
LINE
  5
1A5
330
1E
100
AcDbEntity
  8
0
100
AcDbLine
 10
63.29600000000001
 20
351.999999
 30
0.0
 11
66.69599999999999
 21
351.999999
 31
0.0
  0
LINE
  5
1A6
330
1E
100
AcDbEntity
  8
0
100
AcDbLine
 10
67.896
 20
351.999999
 30
0.0
 11
67.896
 21
327.4999989999999
 31
0.0
  0
LINE
  5
1A7
330
1E
100
AcDbEntity
  8
0
100
AcDbLine
 10
66.69599999999999
 20
351.999999
 30
0.0
 11
67.896
 21
351.999999
 31
0.0
  0
LINE
  5
1A8
330
1E
100
AcDbEntity
  8
0
100
AcDbLine
 10
78.896
 20
342.599999
 30
0.0
 11
79.616
 21
341.9999989999999
 31
0.0
  0
LINE
  5
1A9
330
1E
100
AcDbEntity
  8
0
100
AcDbLine
 10
78.896
 20
342.599999
 30
0.0
 11
78.896
 21
351.999999
 31
0.0
  0
LINE
  5
1AA
330
1E
100
AcDbEntity
  8
0
100
AcDbLine
 10
78.896
 20
342.599999
 30
0.0
 11
79.976
 21
342.599999
 31
0.0
  0
LINE
  5
1AB
330
1E
100
AcDbEntity
  8
0
100
AcDbLine
 10
88.25599999999999
 20
341.9999989999999
 30
0.0
 11
94.37600000000001
 21
341.9999989999999
 31
0.0
  0
LINE
  5
1AC
330
1E
100
AcDbEntity
  8
0
100
AcDbLine
 10
83.57600000000001
 20
341.9999989999999
 30
0.0
 11
88.25599999999999
 21
341.9999989999999
 31
0.0
  0
LINE
  5
1AD
330
1E
100
AcDbEntity
  8
0
100
AcDbLine
 10
80.69599999999999
 20
341.9999989999999
 30
0.0
 11
83.57600000000001
 21
341.9999989999999
 31
0.0
  0
LINE
  5
1AE
330
1E
100
AcDbEntity
  8
0
100
AcDbLine
 10
79.976
 20
342.599999
 30
0.0
 11
82.856
 21
342.599999
 31
0.0
  0
LINE
  5
1AF
330
1E
100
AcDbEntity
  8
0
100
AcDbLine
 10
87.656
 20
342.599999
 30
0.0
 11
94.016
 21
342.599999
 31
0.0
  0
LINE
  5
1B0
330
1E
100
AcDbEntity
  8
0
100
AcDbLine
 10
82.856
 20
342.599999
 30
0.0
 11
87.656
 21
342.599999
 31
0.0
  0
LINE
  5
1B1
330
1E
100
AcDbEntity
  8
0
100
AcDbLine
 10
87.656
 20
351.999999
 30
0.0
 11
94.016
 21
351.999999
 31
0.0
  0
LINE
  5
1B2
330
1E
100
AcDbEntity
  8
0
100
AcDbLine
 10
82.856
 20
351.999999
 30
0.0
 11
87.656
 21
351.999999
 31
0.0
  0
LINE
  5
1B3
330
1E
100
AcDbEntity
  8
0
100
AcDbLine
 10
79.976
 20
351.999999
 30
0.0
 11
82.856
 21
351.999999
 31
0.0
  0
LINE
  5
1B4
330
1E
100
AcDbEntity
  8
0
100
AcDbLine
 10
79.616
 20
341.9999989999999
 30
0.0
 11
80.69599999999999
 21
341.9999989999999
 31
0.0
  0
LINE
  5
1B5
330
1E
100
AcDbEntity
  8
0
100
AcDbLine
 10
78.896
 20
351.999999
 30
0.0
 11
78.896
 21
342.599999
 31
0.0
  0
LINE
  5
1B6
330
1E
100
AcDbEntity
  8
0
100
AcDbLine
 10
78.896
 20
351.999999
 30
0.0
 11
79.976
 21
351.999999
 31
0.0
  0
LINE
  5
1B7
330
1E
100
AcDbEntity
  8
0
100
AcDbLine
 10
59.6498
 20
307.994999
 30
0.0
 11
90.80899999999999
 21
307.994999
 31
0.0
  0
LINE
  5
1B8
330
1E
100
AcDbEntity
  8
0
100
AcDbLine
 10
58.896
 20
298.7839989999999
 30
0.0
 11
58.896
 21
294.531999
 31
0.0
  0
LINE
  5
1B9
330
1E
100
AcDbEntity
  8
0
100
AcDbLine
 10
58.896
 20
298.7839989999999
 30
0.0
 11
58.896
 21
302.387999
 31
0.0
  0
LINE
  5
1BA
330
1E
100
AcDbEntity
  8
0
100
AcDbLine
 10
58.896
 20
294.531999
 30
0.0
 11
58.896
 21
298.7839989999999
 31
0.0
  0
LINE
  5
1BB
330
1E
100
AcDbEntity
  8
0
100
AcDbLine
 10
58.896
 20
294.531999
 30
0.0
 11
58.896
 21
292.999999
 31
0.0
  0
LINE
  5
1BC
330
1E
100
AcDbEntity
  8
0
100
AcDbLine
 10
90.896
 20
241.299999
 30
0.0
 11
96.1960000000001
 21
240.199999
 31
0.0
  0
LINE
  5
1BD
330
1E
100
AcDbEntity
  8
0
100
AcDbLine
 10
91.196
 20
211.799999
 30
0.0
 11
96.49600000000001
 21
211.799999
 31
0.0
  0
LINE
  5
1BE
330
1E
100
AcDbEntity
  8
0
100
AcDbLine
 10
91.47
 20
249.287999
 30
0.0
 11
96.61700000000001
 21
249.287999
 31
0.0
  0
LINE
  5
1BF
330
1E
100
AcDbEntity
  8
0
100
AcDbLine
 10
91.56299999999999
 20
272.486999
 30
0.0
 11
91.56299999999999
 21
273.082999
 31
0.0
  0
LINE
  5
1C0
330
1E
100
AcDbEntity
  8
0
100
AcDbLine
 10
91.56299999999999
 20
272.486999
 30
0.0
 11
92.31700000000001
 21
272.004999
 31
0.0
  0
LINE
  5
1C1
330
1E
100
AcDbEntity
  8
0
100
AcDbLine
 10
91.56299999999999
 20
273.082999
 30
0.0
 11
91.56299999999999
 21
274.858999
 31
0.0
  0
LINE
  5
1C2
330
1E
100
AcDbEntity
  8
0
100
AcDbLine
 10
91.56299999999999
 20
273.082999
 30
0.0
 11
91.56299999999999
 21
272.486999
 31
0.0
  0
LINE
  5
1C3
330
1E
100
AcDbEntity
  8
0
100
AcDbLine
 10
91.56299999999999
 20
274.858999
 30
0.0
 11
91.56299999999999
 21
277.611999
 31
0.0
  0
LINE
  5
1C4
330
1E
100
AcDbEntity
  8
0
100
AcDbLine
 10
91.56299999999999
 20
274.858999
 30
0.0
 11
91.56299999999999
 21
273.082999
 31
0.0
  0
LINE
  5
1C5
330
1E
100
AcDbEntity
  8
0
100
AcDbLine
 10
91.56299999999999
 20
302.384999
 30
0.0
 11
91.56299999999999
 21
305.213999
 31
0.0
  0
LINE
  5
1C6
330
1E
100
AcDbEntity
  8
0
100
AcDbLine
 10
91.56299999999999
 20
302.384999
 30
0.0
 11
91.56299999999999
 21
298.800999
 31
0.0
  0
LINE
  5
1C7
330
1E
100
AcDbEntity
  8
0
100
AcDbLine
 10
91.56299999999999
 20
298.800999
 30
0.0
 11
91.56299999999999
 21
302.384999
 31
0.0
  0
LINE
  5
1C8
330
1E
100
AcDbEntity
  8
0
100
AcDbLine
 10
91.56299999999999
 20
298.800999
 30
0.0
 11
91.56299999999999
 21
294.532999
 31
0.0
  0
LINE
  5
1C9
330
1E
100
AcDbEntity
  8
0
100
AcDbLine
 10
91.56299999999999
 20
294.532999
 30
0.0
 11
91.56299999999999
 21
298.800999
 31
0.0
  0
LINE
  5
1CA
330
1E
100
AcDbEntity
  8
0
100
AcDbLine
 10
91.56299999999999
 20
294.532999
 30
0.0
 11
91.56299999999999
 21
289.948999
 31
0.0
  0
LINE
  5
1CB
330
1E
100
AcDbEntity
  8
0
100
AcDbLine
 10
91.56299999999999
 20
289.948999
 30
0.0
 11
91.56299999999999
 21
294.532999
 31
0.0
  0
LINE
  5
1CC
330
1E
100
AcDbEntity
  8
0
100
AcDbLine
 10
91.56299999999999
 20
289.948999
 30
0.0
 11
91.56299999999999
 21
285.467999
 31
0.0
  0
LINE
  5
1CD
330
1E
100
AcDbEntity
  8
0
100
AcDbLine
 10
91.56299999999999
 20
285.467999
 30
0.0
 11
91.56299999999999
 21
289.948999
 31
0.0
  0
LINE
  5
1CE
330
1E
100
AcDbEntity
  8
0
100
AcDbLine
 10
91.56299999999999
 20
285.467999
 30
0.0
 11
91.56299999999999
 21
281.2159989999999
 31
0.0
  0
LINE
  5
1CF
330
1E
100
AcDbEntity
  8
0
100
AcDbLine
 10
91.56299999999999
 20
281.2159989999999
 30
0.0
 11
91.56299999999999
 21
285.467999
 31
0.0
  0
LINE
  5
1D0
330
1E
100
AcDbEntity
  8
0
100
AcDbLine
 10
91.56299999999999
 20
281.2159989999999
 30
0.0
 11
91.56299999999999
 21
277.611999
 31
0.0
  0
LINE
  5
1D1
330
1E
100
AcDbEntity
  8
0
100
AcDbLine
 10
91.56299999999999
 20
277.611999
 30
0.0
 11
91.56299999999999
 21
281.2159989999999
 31
0.0
  0
LINE
  5
1D2
330
1E
100
AcDbEntity
  8
0
100
AcDbLine
 10
91.56299999999999
 20
277.611999
 30
0.0
 11
91.56299999999999
 21
274.858999
 31
0.0
  0
LINE
  5
1D3
330
1E
100
AcDbEntity
  8
0
100
AcDbLine
 10
92.29600000000001
 20
211.299999
 30
0.0
 11
97.19599999999999
 21
211.299999
 31
0.0
  0
LINE
  5
1D4
330
1E
100
AcDbEntity
  8
0
100
AcDbLine
 10
91.59600000000001
 20
242.499999
 30
0.0
 11
96.69600000000009
 21
241.499999
 31
0.0
  0
LINE
  5
1D5
330
1E
100
AcDbEntity
  8
0
100
AcDbLine
 10
108.8959999999999
 20
0.0000010000000145
 30
0.0
 11
119.296
 21
0.7517550000000151
 31
0.0
  0
LINE
  5
1D6
330
1E
100
AcDbEntity
  8
0
100
AcDbLine
 10
119.296
 20
0.7517550000000151
 30
0.0
 11
129.496
 21
2.725109000000009
 31
0.0
  0
LINE
  5
1D7
330
1E
100
AcDbEntity
  8
0
100
AcDbLine
 10
108.8959999999999
 20
0.0000010000000145
 30
0.0
 11
119.296
 21
0.7517550000000151
 31
0.0
  0
LINE
  5
1D8
330
1E
100
AcDbEntity
  8
0
100
AcDbLine
 10
94.89600000000001
 20
79.27969899999999
 30
0.0
 11
94.89600000000001
 21
80.177499
 31
0.0
  0
LINE
  5
1D9
330
1E
100
AcDbEntity
  8
0
100
AcDbLine
 10
94.89600000000001
 20
79.27969899999999
 30
0.0
 11
95.4
 21
75.911799
 31
0.0
  0
LINE
  5
1DC
330
1E
100
AcDbEntity
  8
0
100
AcDbLine
 10
95.4
 20
75.911799
 30
0.0
 11
96.744
 21
72.75439899999999
 31
0.0
  0
LINE
  5
1DF
330
1E
100
AcDbEntity
  8
0
100
AcDbLine
 10
94.89600000000001
 20
80.177499
 30
0.0
 11
95.4
 21
83.54529900000001
 31
0.0
  0
LINE
  5
1E0
330
1E
100
AcDbEntity
  8
0
100
AcDbLine
 10
94.89600000000001
 20
80.177499
 30
0.0
 11
94.89600000000001
 21
79.27969899999999
 31
0.0
  0
LINE
  5
1E2
330
1E
100
AcDbEntity
  8
0
100
AcDbLine
 10
95.896
 20
80.452299
 30
0.0
 11
96.364
 21
77.324999
 31
0.0
  0
LINE
  5
1E3
330
1E
100
AcDbEntity
  8
0
100
AcDbLine
 10
95.896
 20
80.452299
 30
0.0
 11
95.896
 21
82.89529899999999
 31
0.0
  0
LINE
  5
1E4
330
1E
100
AcDbEntity
  8
0
100
AcDbLine
 10
95.896
 20
82.89529899999999
 30
0.0
 11
95.91793866913951
 21
83.041899
 31
0.0
  0
LINE
  5
1E5
330
1E
100
AcDbEntity
  8
0
100
AcDbLine
 10
95.896
 20
82.89529899999999
 30
0.0
 11
95.896
 21
80.452299
 31
0.0
  0
LINE
  5
1E6
330
1E
100
AcDbEntity
  8
0
100
AcDbLine
 10
95.896
 20
82.89529899999999
 30
0.0
 11
96.364
 21
79.767999
 31
0.0
  0
LINE
  5
1E8
330
1E
100
AcDbEntity
  8
0
100
AcDbLine
 10
95.4
 20
83.54529900000001
 30
0.0
 11
95.896
 21
84.710529952381
 31
0.0
  0
LINE
  5
1E9
330
1E
100
AcDbEntity
  8
0
100
AcDbLine
 10
95.896
 20
83.188499
 30
0.0
 11
96.364
 21
80.06119899999999
 31
0.0
  0
LINE
  5
1EA
330
1E
100
AcDbEntity
  8
0
100
AcDbLine
 10
95.896
 20
83.188499
 30
0.0
 11
95.896
 21
84.947399
 31
0.0
  0
LINE
  5
1EB
330
1E
100
AcDbEntity
  8
0
100
AcDbLine
 10
96.364
 20
79.767999
 30
0.0
 11
97.61200000000002
 21
76.836099
 31
0.0
  0
LINE
  5
1EC
330
1E
100
AcDbEntity
  8
0
100
AcDbLine
 10
96.364
 20
77.324999
 30
0.0
 11
97.61200000000002
 21
74.393199
 31
0.0
  0
LINE
  5
1EF
330
1E
100
AcDbEntity
  8
0
100
AcDbLine
 10
96.744
 20
72.75439899999999
 30
0.0
 11
98.98400000000009
 21
69.96539900000001
 31
0.0
  0
LINE
  5
1F1
330
1E
100
AcDbEntity
  8
0
100
AcDbLine
 10
96.364
 20
80.06119899999999
 30
0.0
 11
97.61200000000002
 21
77.129299
 31
0.0
  0
LINE
  5
1F4
330
1E
100
AcDbEntity
  8
0
100
AcDbLine
 10
95.896
 20
84.947399
 30
0.0
 11
96.364
 21
88.07469899999999
 31
0.0
  0
LINE
  5
1F5
330
1E
100
AcDbEntity
  8
0
100
AcDbLine
 10
95.896
 20
84.947399
 30
0.0
 11
95.896
 21
83.188499
 31
0.0
  0
LINE
  5
1F8
330
1E
100
AcDbEntity
  8
0
100
AcDbLine
 10
96.364
 20
88.07469899999999
 30
0.0
 11
96.896
 21
89.3244727179487
 31
0.0
  0
LINE
  5
1F9
330
1E
100
AcDbEntity
  8
0
100
AcDbLine
 10
96.896
 20
86.593599
 30
0.0
 11
97.32799999999999
 21
83.706899
 31
0.0
  0
LINE
  5
1FA
330
1E
100
AcDbEntity
  8
0
100
AcDbLine
 10
96.896
 20
86.593599
 30
0.0
 11
96.896
 21
89.75069899999999
 31
0.0
  0
LINE
  5
1FC
330
1E
100
AcDbEntity
  8
0
100
AcDbLine
 10
97.61200000000002
 20
74.393199
 30
0.0
 11
99.692
 21
71.80339899999999
 31
0.0
  0
LINE
  5
1FD
330
1E
100
AcDbEntity
  8
0
100
AcDbLine
 10
97.61200000000002
 20
76.836099
 30
0.0
 11
99.692
 21
74.24639899999999
 31
0.0
  0
LINE
  5
1FE
330
1E
100
AcDbEntity
  8
0
100
AcDbLine
 10
97.61200000000002
 20
77.129299
 30
0.0
 11
99.692
 21
74.53949899999999
 31
0.0
  0
LINE
  5
202
330
1E
100
AcDbEntity
  8
0
100
AcDbLine
 10
98.292
 20
87.45139899999999
 30
0.0
 11
99.34800000000009
 21
84.97059899999999
 31
0.0
  0
LINE
  5
204
330
1E
100
AcDbEntity
  8
0
100
AcDbLine
 10
97.32799999999999
 20
83.706899
 30
0.0
 11
98.48
 21
81.00059899999999
 31
0.0
  0
LINE
  5
205
330
1E
100
AcDbEntity
  8
0
100
AcDbLine
 10
98.48
 20
81.00059899999999
 30
0.0
 11
100.4
 21
78.609999
 31
0.0
  0
LINE
  5
207
330
1E
100
AcDbEntity
  8
0
100
AcDbLine
 10
97.896
 20
90.097499
 30
0.0
 11
97.896
 21
104.9879989999999
 31
0.0
  0
LINE
  5
208
330
1E
100
AcDbEntity
  8
0
100
AcDbLine
 10
97.896
 20
90.097499
 30
0.0
 11
98.292
 21
87.45139899999999
 31
0.0
  0
LINE
  5
20B
330
1E
100
AcDbEntity
  8
0
100
AcDbLine
 10
96.896
 20
89.75069899999999
 30
0.0
 11
97.32799999999999
 21
92.637499
 31
0.0
  0
LINE
  5
20C
330
1E
100
AcDbEntity
  8
0
100
AcDbLine
 10
96.896
 20
89.75069899999999
 30
0.0
 11
96.896
 21
86.593599
 31
0.0
  0
LINE
  5
20E
330
1E
100
AcDbEntity
  8
0
100
AcDbLine
 10
96.1960000000001
 20
240.199999
 30
0.0
 11
97.896
 21
240.032785885246
 31
0.0
  0
LINE
  5
20F
330
1E
100
AcDbEntity
  8
0
100
AcDbLine
 10
97.19599999999999
 20
211.299999
 30
0.0
 11
97.896
 21
211.299999
 31
0.0
  0
LINE
  5
210
330
1E
100
AcDbEntity
  8
0
100
AcDbLine
 10
96.69600000000009
 20
241.499999
 30
0.0
 11
97.896
 21
241.3576261186439
 31
0.0
  0
LINE
  5
211
330
1E
100
AcDbEntity
  8
0
100
AcDbLine
 10
96.49600000000001
 20
211.799999
 30
0.0
 11
97.896
 21
211.799999
 31
0.0
  0
LINE
  5
212
330
1E
100
AcDbEntity
  8
0
100
AcDbLine
 10
96.61700000000001
 20
249.287999
 30
0.0
 11
97.896
 21
249.287999
 31
0.0
  0
LINE
  5
213
330
1E
100
AcDbEntity
  8
0
100
AcDbLine
 10
97.896
 20
104.9879989999999
 30
0.0
 11
97.896
 21
107.8849989999999
 31
0.0
  0
LINE
  5
214
330
1E
100
AcDbEntity
  8
0
100
AcDbLine
 10
97.896
 20
104.9879989999999
 30
0.0
 11
97.896
 21
90.097499
 31
0.0
  0
LINE
  5
215
330
1E
100
AcDbEntity
  8
0
100
AcDbLine
 10
97.896
 20
107.8849989999999
 30
0.0
 11
97.896
 21
112.493999
 31
0.0
  0
LINE
  5
216
330
1E
100
AcDbEntity
  8
0
100
AcDbLine
 10
97.896
 20
107.8849989999999
 30
0.0
 11
97.896
 21
104.9879989999999
 31
0.0
  0
LINE
  5
217
330
1E
100
AcDbEntity
  8
0
100
AcDbLine
 10
97.896
 20
112.493999
 30
0.0
 11
97.896
 21
118.499999
 31
0.0
  0
LINE
  5
218
330
1E
100
AcDbEntity
  8
0
100
AcDbLine
 10
97.896
 20
112.493999
 30
0.0
 11
97.896
 21
107.8849989999999
 31
0.0
  0
LINE
  5
219
330
1E
100
AcDbEntity
  8
0
100
AcDbLine
 10
97.896
 20
118.499999
 30
0.0
 11
97.896
 21
112.493999
 31
0.0
  0
LINE
  5
21A
330
1E
100
AcDbEntity
  8
0
100
AcDbLine
 10
97.896
 20
118.499999
 30
0.0
 11
97.896
 21
125.493999
 31
0.0
  0
LINE
  5
21B
330
1E
100
AcDbEntity
  8
0
100
AcDbLine
 10
97.896
 20
125.493999
 30
0.0
 11
97.896
 21
118.499999
 31
0.0
  0
LINE
  5
21C
330
1E
100
AcDbEntity
  8
0
100
AcDbLine
 10
97.896
 20
125.493999
 30
0.0
 11
97.896
 21
132.999999
 31
0.0
  0
LINE
  5
21D
330
1E
100
AcDbEntity
  8
0
100
AcDbLine
 10
97.896
 20
132.999999
 30
0.0
 11
97.896
 21
140.5059989999999
 31
0.0
  0
LINE
  5
21E
330
1E
100
AcDbEntity
  8
0
100
AcDbLine
 10
97.896
 20
132.999999
 30
0.0
 11
97.896
 21
125.493999
 31
0.0
  0
LINE
  5
21F
330
1E
100
AcDbEntity
  8
0
100
AcDbLine
 10
97.896
 20
140.5059989999999
 30
0.0
 11
97.896
 21
275.4999989999999
 31
0.0
  0
LINE
  5
220
330
1E
100
AcDbEntity
  8
0
100
AcDbLine
 10
97.896
 20
140.5059989999999
 30
0.0
 11
97.896
 21
132.999999
 31
0.0
  0
LINE
  5
222
330
1E
100
AcDbEntity
  8
0
100
AcDbLine
 10
97.32799999999999
 20
92.637499
 30
0.0
 11
97.896
 21
93.97185525000001
 31
0.0
  0
LINE
  5
223
330
1E
100
AcDbEntity
  8
0
100
AcDbLine
 10
119.1959999999999
 20
5.795689000000018
 30
0.0
 11
129.2959999999999
 21
7.675079000000009
 31
0.0
  0
LINE
  5
224
330
1E
100
AcDbEntity
  8
0
100
AcDbLine
 10
108.8959999999999
 20
5.043939000000019
 30
0.0
 11
119.1959999999999
 21
5.795689000000018
 31
0.0
  0
LINE
  5
225
330
1E
100
AcDbEntity
  8
0
100
AcDbLine
 10
119.296
 20
4.513979000000009
 30
0.0
 11
129.496
 21
6.487329000000019
 31
0.0
  0
LINE
  5
226
330
1E
100
AcDbEntity
  8
0
100
AcDbLine
 10
108.8959999999999
 20
3.76221900000002
 30
0.0
 11
119.296
 21
4.513979000000009
 31
0.0
  0
LINE
  5
227
330
1E
100
AcDbEntity
  8
0
100
AcDbLine
 10
119.296
 20
0.7517550000000151
 30
0.0
 11
129.496
 21
2.725109000000009
 31
0.0
  0
LINE
  5
228
330
1E
100
AcDbEntity
  8
0
100
AcDbLine
 10
105.312
 20
66.597599
 30
0.0
 11
108.8959999999999
 21
66.12399899999999
 31
0.0
  0
LINE
  5
229
330
1E
100
AcDbEntity
  8
0
100
AcDbLine
 10
101.952
 20
67.860499
 30
0.0
 11
105.312
 21
66.597599
 31
0.0
  0
LINE
  5
22E
330
1E
100
AcDbEntity
  8
0
100
AcDbLine
 10
108.8959999999999
 20
66.12399899999999
 30
0.0
 11
112.48
 21
66.597599
 31
0.0
  0
LINE
  5
232
330
1E
100
AcDbEntity
  8
0
100
AcDbLine
 10
98.98400000000009
 20
69.96539900000001
 30
0.0
 11
101.952
 21
67.860499
 31
0.0
  0
LINE
  5
233
330
1E
100
AcDbEntity
  8
0
100
AcDbLine
 10
102.448
 20
69.848799
 30
0.0
 11
105.5679999999999
 21
68.67609899999999
 31
0.0
  0
LINE
  5
234
330
1E
100
AcDbEntity
  8
0
100
AcDbLine
 10
105.5679999999999
 20
68.67609899999999
 30
0.0
 11
108.8959999999999
 21
68.236299
 31
0.0
  0
LINE
  5
235
330
1E
100
AcDbEntity
  8
0
100
AcDbLine
 10
108.8959999999999
 20
68.236299
 30
0.0
 11
112.2239999999999
 21
68.67609899999999
 31
0.0
  0
LINE
  5
236
330
1E
100
AcDbEntity
  8
0
100
AcDbLine
 10
108.8959999999999
 20
70.679299
 30
0.0
 11
112.2239999999999
 21
71.119099
 31
0.0
  0
LINE
  5
238
330
1E
100
AcDbEntity
  8
0
100
AcDbLine
 10
105.5679999999999
 20
71.119099
 30
0.0
 11
108.8959999999999
 21
70.679299
 31
0.0
  0
LINE
  5
239
330
1E
100
AcDbEntity
  8
0
100
AcDbLine
 10
99.692
 20
71.80339899999999
 30
0.0
 11
102.448
 21
69.848799
 31
0.0
  0
LINE
  5
23A
330
1E
100
AcDbEntity
  8
0
100
AcDbLine
 10
102.448
 20
72.291799
 30
0.0
 11
105.5679999999999
 21
71.119099
 31
0.0
  0
LINE
  5
23B
330
1E
100
AcDbEntity
  8
0
100
AcDbLine
 10
99.692
 20
74.24639899999999
 30
0.0
 11
102.448
 21
72.291799
 31
0.0
  0
LINE
  5
23C
330
1E
100
AcDbEntity
  8
0
100
AcDbLine
 10
99.692
 20
74.53949899999999
 30
0.0
 11
102.448
 21
72.584999
 31
0.0
  0
LINE
  5
23D
330
1E
100
AcDbEntity
  8
0
100
AcDbLine
 10
102.448
 20
72.584999
 30
0.0
 11
105.5679999999999
 21
71.412199
 31
0.0
  0
LINE
  5
240
330
1E
100
AcDbEntity
  8
0
100
AcDbLine
 10
105.5679999999999
 20
71.412199
 30
0.0
 11
108.8959999999999
 21
70.972499
 31
0.0
  0
LINE
  5
241
330
1E
100
AcDbEntity
  8
0
100
AcDbLine
 10
106.0359999999999
 20
75.170799
 30
0.0
 11
108.8959999999999
 21
74.75739899999999
 31
0.0
  0
LINE
  5
242
330
1E
100
AcDbEntity
  8
0
100
AcDbLine
 10
108.8959999999999
 20
74.75739899999999
 30
0.0
 11
111.756
 21
75.170799
 31
0.0
  0
LINE
  5
246
330
1E
100
AcDbEntity
  8
0
100
AcDbLine
 10
108.8959999999999
 20
70.972499
 30
0.0
 11
112.2239999999999
 21
71.412199
 31
0.0
  0
LINE
  5
24A
330
1E
100
AcDbEntity
  8
0
100
AcDbLine
 10
99.32600000000009
 20
79.92569899999999
 30
0.0
 11
101.086
 21
77.75499899999999
 31
0.0
  0
LINE
  5
24B
330
1E
100
AcDbEntity
  8
0
100
AcDbLine
 10
99.34800000000009
 20
84.97059899999999
 30
0.0
 11
101.1079999999999
 21
82.779199
 31
0.0
  0
LINE
  5
24D
330
1E
100
AcDbEntity
  8
0
100
AcDbLine
 10
100.4
 20
78.609999
 30
0.0
 11
102.944
 21
76.80579899999999
 31
0.0
  0
LINE
  5
24E
330
1E
100
AcDbEntity
  8
0
100
AcDbLine
 10
101.086
 20
77.75499899999999
 30
0.0
 11
103.3959999999999
 21
76.10109900000001
 31
0.0
  0
LINE
  5
24F
330
1E
100
AcDbEntity
  8
0
100
AcDbLine
 10
101.1079999999999
 20
82.779199
 30
0.0
 11
103.4399999999999
 21
81.12539899999999
 31
0.0
  0
LINE
  5
252
330
1E
100
AcDbEntity
  8
0
100
AcDbLine
 10
102.944
 20
76.80579899999999
 30
0.0
 11
105.824
 21
75.72329899999999
 31
0.0
  0
LINE
  5
253
330
1E
100
AcDbEntity
  8
0
100
AcDbLine
 10
103.3959999999999
 20
76.10109900000001
 30
0.0
 11
106.0359999999999
 21
75.170799
 31
0.0
  0
LINE
  5
254
330
1E
100
AcDbEntity
  8
0
100
AcDbLine
 10
103.4399999999999
 20
81.12539899999999
 30
0.0
 11
106.0799999999999
 21
80.13299899999999
 31
0.0
  0
LINE
  5
257
330
1E
100
AcDbEntity
  8
0
100
AcDbLine
 10
105.824
 20
75.72329899999999
 30
0.0
 11
108.8959999999999
 21
75.31729900000001
 31
0.0
  0
LINE
  5
258
330
1E
100
AcDbEntity
  8
0
100
AcDbLine
 10
108.8959999999999
 20
79.76089899999999
 30
0.0
 11
111.712
 21
80.13299899999999
 31
0.0
  0
LINE
  5
259
330
1E
100
AcDbEntity
  8
0
100
AcDbLine
 10
106.0799999999999
 20
80.13299899999999
 30
0.0
 11
108.8959999999999
 21
79.76089899999999
 31
0.0
  0
LINE
  5
25D
330
1E
100
AcDbEntity
  8
0
100
AcDbLine
 10
108.8959999999999
 20
75.31729900000001
 30
0.0
 11
111.968
 21
75.72329899999999
 31
0.0
  0
LINE
  5
25E
330
1E
100
AcDbEntity
  8
0
100
AcDbLine
 10
111.756
 20
75.170799
 30
0.0
 11
114.396
 21
76.10109900000001
 31
0.0
  0
LINE
  5
25F
330
1E
100
AcDbEntity
  8
0
100
AcDbLine
 10
112.2239999999999
 20
68.67609899999999
 30
0.0
 11
115.344
 21
69.848799
 31
0.0
  0
LINE
  5
260
330
1E
100
AcDbEntity
  8
0
100
AcDbLine
 10
112.2239999999999
 20
71.119099
 30
0.0
 11
115.344
 21
72.291799
 31
0.0
  0
LINE
  5
262
330
1E
100
AcDbEntity
  8
0
100
AcDbLine
 10
112.2239999999999
 20
71.412199
 30
0.0
 11
115.344
 21
72.584999
 31
0.0
  0
LINE
  5
265
330
1E
100
AcDbEntity
  8
0
100
AcDbLine
 10
112.48
 20
66.597599
 30
0.0
 11
115.84
 21
67.860499
 31
0.0
  0
LINE
  5
266
330
1E
100
AcDbEntity
  8
0
100
AcDbLine
 10
115.344
 20
69.848799
 30
0.0
 11
118.1
 21
71.80339899999999
 31
0.0
  0
LINE
  5
267
330
1E
100
AcDbEntity
  8
0
100
AcDbLine
 10
115.344
 20
72.291799
 30
0.0
 11
118.1
 21
74.24639899999999
 31
0.0
  0
LINE
  5
26A
330
1E
100
AcDbEntity
  8
0
100
AcDbLine
 10
115.84
 20
67.860499
 30
0.0
 11
118.808
 21
69.96539900000001
 31
0.0
  0
LINE
  5
26D
330
1E
100
AcDbEntity
  8
0
100
AcDbLine
 10
118.808
 20
69.96539900000001
 30
0.0
 11
121.048
 21
72.75439899999999
 31
0.0
  0
LINE
  5
26E
330
1E
100
AcDbEntity
  8
0
100
AcDbLine
 10
118.1
 20
71.80339899999999
 30
0.0
 11
120.18
 21
74.393199
 31
0.0
  0
LINE
  5
26F
330
1E
100
AcDbEntity
  8
0
100
AcDbLine
 10
118.1
 20
74.24639899999999
 30
0.0
 11
120.18
 21
76.836099
 31
0.0
  0
LINE
  5
270
330
1E
100
AcDbEntity
  8
0
100
AcDbLine
 10
115.344
 20
72.584999
 30
0.0
 11
118.1
 21
74.53949899999999
 31
0.0
  0
LINE
  5
271
330
1E
100
AcDbEntity
  8
0
100
AcDbLine
 10
114.396
 20
76.10109900000001
 30
0.0
 11
116.7059999999999
 21
77.75499899999999
 31
0.0
  0
LINE
  5
274
330
1E
100
AcDbEntity
  8
0
100
AcDbLine
 10
118.1
 20
74.53949899999999
 30
0.0
 11
120.18
 21
77.129299
 31
0.0
  0
LINE
  5
278
330
1E
100
AcDbEntity
  8
0
100
AcDbLine
 10
116.7059999999999
 20
77.75499899999999
 30
0.0
 11
118.466
 21
79.92569899999999
 31
0.0
  0
LINE
  5
279
330
1E
100
AcDbEntity
  8
0
100
AcDbLine
 10
117.392
 20
78.609999
 30
0.0
 11
119.312
 21
81.00059899999999
 31
0.0
  0
LINE
  5
27A
330
1E
100
AcDbEntity
  8
0
100
AcDbLine
 10
114.8479999999999
 20
76.80579899999999
 30
0.0
 11
117.392
 21
78.609999
 31
0.0
  0
LINE
  5
27B
330
1E
100
AcDbEntity
  8
0
100
AcDbLine
 10
111.968
 20
75.72329899999999
 30
0.0
 11
114.8479999999999
 21
76.80579899999999
 31
0.0
  0
LINE
  5
27C
330
1E
100
AcDbEntity
  8
0
100
AcDbLine
 10
114.352
 20
81.12539899999999
 30
0.0
 11
116.684
 21
82.779199
 31
0.0
  0
LINE
  5
27D
330
1E
100
AcDbEntity
  8
0
100
AcDbLine
 10
111.712
 20
80.13299899999999
 30
0.0
 11
114.352
 21
81.12539899999999
 31
0.0
  0
LINE
  5
281
330
1E
100
AcDbEntity
  8
0
100
AcDbLine
 10
119.312
 20
81.00059899999999
 30
0.0
 11
120.4639999999999
 21
83.706899
 31
0.0
  0
LINE
  5
282
330
1E
100
AcDbEntity
  8
0
100
AcDbLine
 10
118.444
 20
84.97059899999999
 30
0.0
 11
119.5
 21
87.45139899999999
 31
0.0
  0
LINE
  5
283
330
1E
100
AcDbEntity
  8
0
100
AcDbLine
 10
116.684
 20
82.779199
 30
0.0
 11
118.444
 21
84.97059899999999
 31
0.0
  0
LINE
  5
286
330
1E
100
AcDbEntity
  8
0
100
AcDbLine
 10
119.896
 20
90.097499
 30
0.0
 11
119.896
 21
104.9879989999999
 31
0.0
  0
LINE
  5
287
330
1E
100
AcDbEntity
  8
0
100
AcDbLine
 10
119.5
 20
87.45139899999999
 30
0.0
 11
119.896
 21
90.097499
 31
0.0
  0
LINE
  5
28D
330
1E
100
AcDbEntity
  8
0
100
AcDbLine
 10
119.896
 20
112.493999
 30
0.0
 11
119.896
 21
107.8849989999999
 31
0.0
  0
LINE
  5
28E
330
1E
100
AcDbEntity
  8
0
100
AcDbLine
 10
119.896
 20
112.493999
 30
0.0
 11
119.896
 21
118.499999
 31
0.0
  0
LINE
  5
28F
330
1E
100
AcDbEntity
  8
0
100
AcDbLine
 10
119.896
 20
107.8849989999999
 30
0.0
 11
119.896
 21
104.9879989999999
 31
0.0
  0
LINE
  5
290
330
1E
100
AcDbEntity
  8
0
100
AcDbLine
 10
119.896
 20
107.8849989999999
 30
0.0
 11
119.896
 21
112.493999
 31
0.0
  0
LINE
  5
291
330
1E
100
AcDbEntity
  8
0
100
AcDbLine
 10
119.896
 20
132.999999
 30
0.0
 11
119.896
 21
140.5059989999999
 31
0.0
  0
LINE
  5
292
330
1E
100
AcDbEntity
  8
0
100
AcDbLine
 10
119.896
 20
132.999999
 30
0.0
 11
119.896
 21
125.493999
 31
0.0
  0
LINE
  5
293
330
1E
100
AcDbEntity
  8
0
100
AcDbLine
 10
119.896
 20
125.493999
 30
0.0
 11
119.896
 21
118.499999
 31
0.0
  0
LINE
  5
294
330
1E
100
AcDbEntity
  8
0
100
AcDbLine
 10
119.896
 20
125.493999
 30
0.0
 11
119.896
 21
132.999999
 31
0.0
  0
LINE
  5
295
330
1E
100
AcDbEntity
  8
0
100
AcDbLine
 10
119.896
 20
118.499999
 30
0.0
 11
119.896
 21
112.493999
 31
0.0
  0
LINE
  5
296
330
1E
100
AcDbEntity
  8
0
100
AcDbLine
 10
119.896
 20
118.499999
 30
0.0
 11
119.896
 21
125.493999
 31
0.0
  0
LINE
  5
297
330
1E
100
AcDbEntity
  8
0
100
AcDbLine
 10
119.896
 20
104.9879989999999
 30
0.0
 11
119.896
 21
90.097499
 31
0.0
  0
LINE
  5
298
330
1E
100
AcDbEntity
  8
0
100
AcDbLine
 10
119.896
 20
104.9879989999999
 30
0.0
 11
119.896
 21
107.8849989999999
 31
0.0
  0
LINE
  5
299
330
1E
100
AcDbEntity
  8
0
100
AcDbLine
 10
119.896
 20
140.5059989999999
 30
0.0
 11
119.896
 21
275.4999989999999
 31
0.0
  0
LINE
  5
29A
330
1E
100
AcDbEntity
  8
0
100
AcDbLine
 10
119.896
 20
140.5059989999999
 30
0.0
 11
119.896
 21
132.999999
 31
0.0
  0
LINE
  5
29B
330
1E
100
AcDbEntity
  8
0
100
AcDbLine
 10
119.896
 20
93.97185525000001
 30
0.0
 11
120.4639999999999
 21
92.637499
 31
0.0
  0
LINE
  5
29D
330
1E
100
AcDbEntity
  8
0
100
AcDbLine
 10
119.896
 20
241.3576261186439
 30
0.0
 11
121.096
 21
241.499999
 31
0.0
  0
LINE
  5
29E
330
1E
100
AcDbEntity
  8
0
100
AcDbLine
 10
119.896
 20
240.032785885246
 30
0.0
 11
121.596
 21
240.199999
 31
0.0
  0
LINE
  5
29F
330
1E
100
AcDbEntity
  8
0
100
AcDbLine
 10
119.896
 20
211.799999
 30
0.0
 11
121.296
 21
211.799999
 31
0.0
  0
LINE
  5
2A0
330
1E
100
AcDbEntity
  8
0
100
AcDbLine
 10
119.896
 20
211.299999
 30
0.0
 11
120.596
 21
211.299999
 31
0.0
  0
LINE
  5
2A1
330
1E
100
AcDbEntity
  8
0
100
AcDbLine
 10
119.896
 20
249.287999
 30
0.0
 11
121.175
 21
249.287999
 31
0.0
  0
LINE
  5
2A2
330
1E
100
AcDbEntity
  8
0
100
AcDbLine
 10
119.896
 20
264.384999
 30
0.0
 11
128.896
 21
264.384999
 31
0.0
  0
LINE
  5
2A3
330
1E
100
AcDbEntity
  8
0
100
AcDbLine
 10
119.896
 20
263.999999
 30
0.0
 11
128.896
 21
263.999999
 31
0.0
  0
LINE
  5
2A4
330
1E
100
AcDbEntity
  8
0
100
AcDbLine
 10
119.896
 20
160.1413132946809
 30
0.0
 11
122.066
 21
161.7419989999999
 31
0.0
  0
LINE
  5
2A5
330
1E
100
AcDbEntity
  8
0
100
AcDbLine
 10
119.896
 20
161.140242697479
 30
0.0
 11
122.2917734745609
 21
161.96265737341
 31
0.0
  0
LINE
  5
2A6
330
1E
100
AcDbEntity
  8
0
100
AcDbLine
 10
119.896
 20
152.6337019702969
 30
0.0
 11
129.2959999999999
 21
150.883999
 31
0.0
  0
LINE
  5
2A7
330
1E
100
AcDbEntity
  8
0
100
AcDbLine
 10
120.18
 20
76.836099
 30
0.0
 11
121.428
 21
79.767999
 31
0.0
  0
LINE
  5
2A8
330
1E
100
AcDbEntity
  8
0
100
AcDbLine
 10
120.18
 20
74.393199
 30
0.0
 11
121.428
 21
77.324999
 31
0.0
  0
LINE
  5
2AA
330
1E
100
AcDbEntity
  8
0
100
AcDbLine
 10
120.18
 20
77.129299
 30
0.0
 11
121.428
 21
80.06119899999999
 31
0.0
  0
LINE
  5
2AD
330
1E
100
AcDbEntity
  8
0
100
AcDbLine
 10
120.4639999999999
 20
83.706899
 30
0.0
 11
120.896
 21
86.593599
 31
0.0
  0
LINE
  5
2B0
330
1E
100
AcDbEntity
  8
0
100
AcDbLine
 10
121.048
 20
72.75439899999999
 30
0.0
 11
122.392
 21
75.911799
 31
0.0
  0
LINE
  5
2B1
330
1E
100
AcDbEntity
  8
0
100
AcDbLine
 10
121.428
 20
79.767999
 30
0.0
 11
121.896
 21
82.89529899999999
 31
0.0
  0
LINE
  5
2B2
330
1E
100
AcDbEntity
  8
0
100
AcDbLine
 10
121.428
 20
77.324999
 30
0.0
 11
121.896
 21
80.452299
 31
0.0
  0
LINE
  5
2B3
330
1E
100
AcDbEntity
  8
0
100
AcDbLine
 10
121.896
 20
80.452299
 30
0.0
 11
121.896
 21
82.89529899999999
 31
0.0
  0
LINE
  5
2B4
330
1E
100
AcDbEntity
  8
0
100
AcDbLine
 10
121.896
 20
82.89529899999999
 30
0.0
 11
121.896
 21
80.452299
 31
0.0
  0
LINE
  5
2B5
330
1E
100
AcDbEntity
  8
0
100
AcDbLine
 10
121.896
 20
84.710529952381
 30
0.0
 11
122.392
 21
83.54529900000001
 31
0.0
  0
LINE
  5
2B7
330
1E
100
AcDbEntity
  8
0
100
AcDbLine
 10
121.874061330861
 20
83.041899
 30
0.0
 11
121.896
 21
82.89529899999999
 31
0.0
  0
LINE
  5
2B8
330
1E
100
AcDbEntity
  8
0
100
AcDbLine
 10
121.874061330861
 20
83.041899
 30
0.0
 11
121.896
 21
82.89529899999999
 31
0.0
  0
LINE
  5
2BB
330
1E
100
AcDbEntity
  8
0
100
AcDbLine
 10
121.896
 20
84.947399
 30
0.0
 11
121.896
 21
83.188499
 31
0.0
  0
LINE
  5
2BC
330
1E
100
AcDbEntity
  8
0
100
AcDbLine
 10
121.428
 20
80.06119899999999
 30
0.0
 11
121.896
 21
83.188499
 31
0.0
  0
LINE
  5
2BF
330
1E
100
AcDbEntity
  8
0
100
AcDbLine
 10
122.392
 20
75.911799
 30
0.0
 11
122.896
 21
79.27969899999999
 31
0.0
  0
LINE
  5
2C0
330
1E
100
AcDbEntity
  8
0
100
AcDbLine
 10
122.896
 20
79.27969899999999
 30
0.0
 11
122.896
 21
80.177499
 31
0.0
  0
LINE
  5
2C1
330
1E
100
AcDbEntity
  8
0
100
AcDbLine
 10
122.896
 20
80.177499
 30
0.0
 11
122.896
 21
79.27969899999999
 31
0.0
  0
LINE
  5
2C2
330
1E
100
AcDbEntity
  8
0
100
AcDbLine
 10
122.392
 20
83.54529900000001
 30
0.0
 11
122.896
 21
80.177499
 31
0.0
  0
LINE
  5
2C4
330
1E
100
AcDbEntity
  8
0
100
AcDbLine
 10
121.896
 20
83.188499
 30
0.0
 11
121.896
 21
84.947399
 31
0.0
  0
LINE
  5
2C5
330
1E
100
AcDbEntity
  8
0
100
AcDbLine
 10
120.896
 20
89.3244727179487
 30
0.0
 11
121.428
 21
88.07469899999999
 31
0.0
  0
LINE
  5
2C7
330
1E
100
AcDbEntity
  8
0
100
AcDbLine
 10
121.428
 20
88.07469899999999
 30
0.0
 11
121.896
 21
84.947399
 31
0.0
  0
LINE
  5
2C9
330
1E
100
AcDbEntity
  8
0
100
AcDbLine
 10
120.896
 20
89.75069899999999
 30
0.0
 11
120.896
 21
86.593599
 31
0.0
  0
LINE
  5
2CA
330
1E
100
AcDbEntity
  8
0
100
AcDbLine
 10
120.896
 20
86.593599
 30
0.0
 11
120.896
 21
89.75069899999999
 31
0.0
  0
LINE
  5
2CB
330
1E
100
AcDbEntity
  8
0
100
AcDbLine
 10
120.4639999999999
 20
92.637499
 30
0.0
 11
120.896
 21
89.75069899999999
 31
0.0
  0
LINE
  5
2CC
330
1E
100
AcDbEntity
  8
0
100
AcDbLine
 10
121.096
 20
241.499999
 30
0.0
 11
126.1959999999999
 21
242.499999
 31
0.0
  0
LINE
  5
2CD
330
1E
100
AcDbEntity
  8
0
100
AcDbLine
 10
120.596
 20
211.299999
 30
0.0
 11
125.496
 21
211.299999
 31
0.0
  0
LINE
  5
2CE
330
1E
100
AcDbEntity
  8
0
100
AcDbLine
 10
121.596
 20
240.199999
 30
0.0
 11
126.896
 21
241.299999
 31
0.0
  0
LINE
  5
2CF
330
1E
100
AcDbEntity
  8
0
100
AcDbLine
 10
121.296
 20
211.799999
 30
0.0
 11
126.5959999999999
 21
211.799999
 31
0.0
  0
LINE
  5
2D0
330
1E
100
AcDbEntity
  8
0
100
AcDbLine
 10
126.1959999999999
 20
242.499999
 30
0.0
 11
130.096
 21
243.899999
 31
0.0
  0
LINE
  5
2D1
330
1E
100
AcDbEntity
  8
0
100
AcDbLine
 10
125.496
 20
211.299999
 30
0.0
 11
129.2959999999999
 21
211.299999
 31
0.0
  0
LINE
  5
2D2
330
1E
100
AcDbEntity
  8
0
100
AcDbLine
 10
126.322
 20
249.287999
 30
0.0
 11
130.22
 21
249.287999
 31
0.0
  0
LINE
  5
2D3
330
1E
100
AcDbEntity
  8
0
100
AcDbLine
 10
121.175
 20
249.287999
 30
0.0
 11
126.322
 21
249.287999
 31
0.0
  0
LINE
  5
2D4
330
1E
100
AcDbEntity
  8
0
100
AcDbLine
 10
122.066
 20
161.7419989999999
 30
0.0
 11
126.524
 21
166.098999
 31
0.0
  0
LINE
  5
2D5
330
1E
100
AcDbEntity
  8
0
100
AcDbLine
 10
126.896
 20
241.299999
 30
0.0
 11
130.896
 21
242.7634136341459
 31
0.0
  0
LINE
  5
2D6
330
1E
100
AcDbEntity
  8
0
100
AcDbLine
 10
126.5959999999999
 20
211.799999
 30
0.0
 11
130.496
 21
211.799999
 31
0.0
  0
LINE
  5
2D7
330
1E
100
AcDbEntity
  8
0
100
AcDbLine
 10
126.524
 20
166.098999
 30
0.0
 11
129.1529999999999
 21
170.173999
 31
0.0
  0
LINE
  5
2D9
330
1E
100
AcDbEntity
  8
0
100
AcDbLine
 10
119.896
 20
153.244940176471
 30
0.0
 11
129.496
 21
151.387999
 31
0.0
  0
LINE
  5
2DA
330
1E
100
AcDbEntity
  8
0
100
AcDbLine
 10
98.596
 20
5.795689000000018
 30
0.0
 11
108.8959999999999
 21
5.043939000000019
 31
0.0
  0
LINE
  5
2DB
330
1E
100
AcDbEntity
  8
0
100
AcDbLine
 10
98.49600000000002
 20
4.513979000000009
 30
0.0
 11
108.8959999999999
 21
3.76221900000002
 31
0.0
  0
LINE
  5
2DC
330
1E
100
AcDbEntity
  8
0
100
AcDbLine
 10
98.49600000000002
 20
0.7517550000000151
 30
0.0
 11
108.8959999999999
 21
0.0000010000000145
 31
0.0
  0
LINE
  5
2DD
330
1E
100
AcDbEntity
  8
0
100
AcDbLine
 10
98.49600000000002
 20
0.7517550000000151
 30
0.0
 11
108.8959999999999
 21
0.0000010000000145
 31
0.0
  0
LINE
  5
2DE
330
1E
100
AcDbEntity
  8
0
100
AcDbLine
 10
128.896
 20
257.999999
 30
0.0
 11
129.4
 21
254.944999
 31
0.0
  0
LINE
  5
2DF
330
1E
100
AcDbEntity
  8
0
100
AcDbLine
 10
128.896
 20
257.999999
 30
0.0
 11
128.896
 21
279.9999989999999
 31
0.0
  0
LINE
  5
2E0
330
1E
100
AcDbEntity
  8
0
100
AcDbLine
 10
128.896
 20
257.999999
 30
0.0
 11
129.4
 21
261.0549989999999
 31
0.0
  0
LINE
  5
2E1
330
1E
100
AcDbEntity
  8
0
100
AcDbLine
 10
119.896
 20
272.004999
 30
0.0
 11
128.896
 21
272.004999
 31
0.0
  0
LINE
  5
2E2
330
1E
100
AcDbEntity
  8
0
100
AcDbLine
 10
92.31700000000001
 20
272.004999
 30
0.0
 11
97.896
 21
272.004999
 31
0.0
  0
LINE
  5
2E3
330
1E
100
AcDbEntity
  8
0
100
AcDbLine
 10
128.896
 20
272.004999
 30
0.0
 11
128.896
 21
272.590999
 31
0.0
  0
LINE
  5
2E4
330
1E
100
AcDbEntity
  8
0
100
AcDbLine
 10
128.896
 20
272.590999
 30
0.0
 11
128.896
 21
274.455999
 31
0.0
  0
LINE
  5
2E5
330
1E
100
AcDbEntity
  8
0
100
AcDbLine
 10
128.896
 20
272.590999
 30
0.0
 11
128.896
 21
272.004999
 31
0.0
  0
LINE
  5
2E6
330
1E
100
AcDbEntity
  8
0
100
AcDbLine
 10
119.896
 20
281.505999
 30
0.0
 11
119.896
 21
286.114999
 31
0.0
  0
LINE
  5
2E7
330
1E
100
AcDbEntity
  8
0
100
AcDbLine
 10
119.896
 20
281.505999
 30
0.0
 11
119.896
 21
275.4999989999999
 31
0.0
  0
LINE
  5
2E8
330
1E
100
AcDbEntity
  8
0
100
AcDbLine
 10
119.896
 20
275.4999989999999
 30
0.0
 11
119.896
 21
140.5059989999999
 31
0.0
  0
LINE
  5
2E9
330
1E
100
AcDbEntity
  8
0
100
AcDbLine
 10
119.896
 20
275.4999989999999
 30
0.0
 11
119.896
 21
281.505999
 31
0.0
  0
LINE
  5
2EA
330
1E
100
AcDbEntity
  8
0
100
AcDbLine
 10
97.896
 20
275.4999989999999
 30
0.0
 11
97.896
 21
281.505999
 31
0.0
  0
LINE
  5
2EB
330
1E
100
AcDbEntity
  8
0
100
AcDbLine
 10
97.896
 20
275.4999989999999
 30
0.0
 11
97.896
 21
140.5059989999999
 31
0.0
  0
LINE
  5
2EC
330
1E
100
AcDbEntity
  8
0
100
AcDbLine
 10
97.896
 20
281.505999
 30
0.0
 11
97.896
 21
286.114999
 31
0.0
  0
LINE
  5
2ED
330
1E
100
AcDbEntity
  8
0
100
AcDbLine
 10
97.896
 20
281.505999
 30
0.0
 11
97.896
 21
275.4999989999999
 31
0.0
  0
LINE
  5
2EE
330
1E
100
AcDbEntity
  8
0
100
AcDbLine
 10
128.896
 20
279.9999989999999
 30
0.0
 11
128.896
 21
257.999999
 31
0.0
  0
LINE
  5
2EF
330
1E
100
AcDbEntity
  8
0
100
AcDbLine
 10
128.896
 20
279.9999989999999
 30
0.0
 11
129.4
 21
283.054999
 31
0.0
  0
LINE
  5
2F0
330
1E
100
AcDbEntity
  8
0
100
AcDbLine
 10
128.896
 20
279.9999989999999
 30
0.0
 11
128.896
 21
280.999999
 31
0.0
  0
LINE
  5
2F1
330
1E
100
AcDbEntity
  8
0
100
AcDbLine
 10
97.896
 20
289.9999989999999
 30
0.0
 11
97.896
 21
289.011999
 31
0.0
  0
LINE
  5
2F2
330
1E
100
AcDbEntity
  8
0
100
AcDbLine
 10
97.896
 20
289.9999989999999
 30
0.0
 11
98.292
 21
292.815999
 31
0.0
  0
LINE
  5
2F3
330
1E
100
AcDbEntity
  8
0
100
AcDbLine
 10
97.896
 20
289.011999
 30
0.0
 11
97.896
 21
289.9999989999999
 31
0.0
  0
LINE
  5
2F4
330
1E
100
AcDbEntity
  8
0
100
AcDbLine
 10
97.896
 20
289.011999
 30
0.0
 11
97.896
 21
286.114999
 31
0.0
  0
LINE
  5
2F5
330
1E
100
AcDbEntity
  8
0
100
AcDbLine
 10
119.896
 20
286.114999
 30
0.0
 11
119.896
 21
289.011999
 31
0.0
  0
LINE
  5
2F6
330
1E
100
AcDbEntity
  8
0
100
AcDbLine
 10
119.896
 20
286.114999
 30
0.0
 11
119.896
 21
281.505999
 31
0.0
  0
LINE
  5
2F7
330
1E
100
AcDbEntity
  8
0
100
AcDbLine
 10
119.5
 20
292.815999
 30
0.0
 11
119.896
 21
289.9999989999999
 31
0.0
  0
LINE
  5
2F8
330
1E
100
AcDbEntity
  8
0
100
AcDbLine
 10
119.896
 20
289.011999
 30
0.0
 11
119.896
 21
286.114999
 31
0.0
  0
LINE
  5
2F9
330
1E
100
AcDbEntity
  8
0
100
AcDbLine
 10
119.896
 20
289.011999
 30
0.0
 11
119.896
 21
289.9999989999999
 31
0.0
  0
LINE
  5
2FA
330
1E
100
AcDbEntity
  8
0
100
AcDbLine
 10
119.896
 20
289.9999989999999
 30
0.0
 11
119.896
 21
289.011999
 31
0.0
  0
LINE
  5
2FB
330
1E
100
AcDbEntity
  8
0
100
AcDbLine
 10
98.292
 20
292.815999
 30
0.0
 11
99.34800000000009
 21
295.455999
 31
0.0
  0
LINE
  5
2FC
330
1E
100
AcDbEntity
  8
0
100
AcDbLine
 10
97.896
 20
286.114999
 30
0.0
 11
97.896
 21
281.505999
 31
0.0
  0
LINE
  5
2FD
330
1E
100
AcDbEntity
  8
0
100
AcDbLine
 10
97.896
 20
286.114999
 30
0.0
 11
97.896
 21
289.011999
 31
0.0
  0
LINE
  5
2FE
330
1E
100
AcDbEntity
  8
0
100
AcDbLine
 10
99.89600000000001
 20
296.182099
 30
0.0
 11
99.89600000000001
 21
341.9999989999999
 31
0.0
  0
LINE
  5
2FF
330
1E
100
AcDbEntity
  8
0
100
AcDbLine
 10
117.896
 20
296.182099
 30
0.0
 11
117.896
 21
341.9999989999999
 31
0.0
  0
LINE
  5
300
330
1E
100
AcDbEntity
  8
0
100
AcDbLine
 10
116.684
 20
297.787999
 30
0.0
 11
118.444
 21
295.455999
 31
0.0
  0
LINE
  5
301
330
1E
100
AcDbEntity
  8
0
100
AcDbLine
 10
118.444
 20
295.455999
 30
0.0
 11
119.5
 21
292.815999
 31
0.0
  0
LINE
  5
302
330
1E
100
AcDbEntity
  8
0
100
AcDbLine
 10
111.712
 20
300.603999
 30
0.0
 11
114.352
 21
299.547999
 31
0.0
  0
LINE
  5
303
330
1E
100
AcDbEntity
  8
0
100
AcDbLine
 10
114.352
 20
299.547999
 30
0.0
 11
116.684
 21
297.787999
 31
0.0
  0
LINE
  5
304
330
1E
100
AcDbEntity
  8
0
100
AcDbLine
 10
108.8959999999999
 20
300.999999
 30
0.0
 11
111.712
 21
300.603999
 31
0.0
  0
LINE
  5
305
330
1E
100
AcDbEntity
  8
0
100
AcDbLine
 10
106.0799999999999
 20
300.603999
 30
0.0
 11
108.8959999999999
 21
300.999999
 31
0.0
  0
LINE
  5
306
330
1E
100
AcDbEntity
  8
0
100
AcDbLine
 10
103.4399999999999
 20
299.547999
 30
0.0
 11
106.0799999999999
 21
300.603999
 31
0.0
  0
LINE
  5
307
330
1E
100
AcDbEntity
  8
0
100
AcDbLine
 10
101.1079999999999
 20
297.787999
 30
0.0
 11
103.4399999999999
 21
299.547999
 31
0.0
  0
LINE
  5
308
330
1E
100
AcDbEntity
  8
0
100
AcDbLine
 10
99.34800000000009
 20
295.455999
 30
0.0
 11
101.1079999999999
 21
297.787999
 31
0.0
  0
LINE
  5
309
330
1E
100
AcDbEntity
  8
0
100
AcDbLine
 10
128.896
 20
302.722999
 30
0.0
 11
128.896
 21
305.588999
 31
0.0
  0
LINE
  5
30A
330
1E
100
AcDbEntity
  8
0
100
AcDbLine
 10
128.896
 20
302.722999
 30
0.0
 11
128.896
 21
299.066999
 31
0.0
  0
LINE
  5
30B
330
1E
100
AcDbEntity
  8
0
100
AcDbLine
 10
128.896
 20
299.066999
 30
0.0
 11
128.896
 21
302.722999
 31
0.0
  0
LINE
  5
30C
330
1E
100
AcDbEntity
  8
0
100
AcDbLine
 10
128.896
 20
299.066999
 30
0.0
 11
128.896
 21
294.664999
 31
0.0
  0
LINE
  5
30D
330
1E
100
AcDbEntity
  8
0
100
AcDbLine
 10
128.896
 20
294.664999
 30
0.0
 11
128.896
 21
299.066999
 31
0.0
  0
LINE
  5
30E
330
1E
100
AcDbEntity
  8
0
100
AcDbLine
 10
128.896
 20
294.664999
 30
0.0
 11
128.896
 21
289.9199989999999
 31
0.0
  0
LINE
  5
30F
330
1E
100
AcDbEntity
  8
0
100
AcDbLine
 10
128.896
 20
289.9199989999999
 30
0.0
 11
128.896
 21
294.664999
 31
0.0
  0
LINE
  5
310
330
1E
100
AcDbEntity
  8
0
100
AcDbLine
 10
128.896
 20
289.9199989999999
 30
0.0
 11
128.896
 21
285.314999
 31
0.0
  0
LINE
  5
311
330
1E
100
AcDbEntity
  8
0
100
AcDbLine
 10
128.896
 20
285.314999
 30
0.0
 11
128.896
 21
289.9199989999999
 31
0.0
  0
LINE
  5
312
330
1E
100
AcDbEntity
  8
0
100
AcDbLine
 10
128.896
 20
285.314999
 30
0.0
 11
128.896
 21
280.999999
 31
0.0
  0
LINE
  5
313
330
1E
100
AcDbEntity
  8
0
100
AcDbLine
 10
128.896
 20
280.999999
 30
0.0
 11
128.896
 21
285.314999
 31
0.0
  0
LINE
  5
314
330
1E
100
AcDbEntity
  8
0
100
AcDbLine
 10
128.896
 20
280.999999
 30
0.0
 11
128.896
 21
279.9999989999999
 31
0.0
  0
LINE
  5
315
330
1E
100
AcDbEntity
  8
0
100
AcDbLine
 10
128.896
 20
280.999999
 30
0.0
 11
128.896
 21
277.332999
 31
0.0
  0
LINE
  5
316
330
1E
100
AcDbEntity
  8
0
100
AcDbLine
 10
128.896
 20
274.455999
 30
0.0
 11
128.896
 21
277.332999
 31
0.0
  0
LINE
  5
317
330
1E
100
AcDbEntity
  8
0
100
AcDbLine
 10
128.896
 20
274.455999
 30
0.0
 11
128.896
 21
272.590999
 31
0.0
  0
LINE
  5
318
330
1E
100
AcDbEntity
  8
0
100
AcDbLine
 10
129.2959999999999
 20
211.299999
 30
0.0
 11
130.896
 21
211.299999
 31
0.0
  0
LINE
  5
319
330
1E
100
AcDbEntity
  8
0
100
AcDbLine
 10
129.1529999999999
 20
170.173999
 30
0.0
 11
130.896
 21
176.986999
 31
0.0
  0
LINE
  5
31A
330
1E
100
AcDbEntity
  8
0
100
AcDbLine
 10
129.2959999999999
 20
150.883999
 30
0.0
 11
139.0959999999999
 21
147.6889989999999
 31
0.0
  0
LINE
  5
31B
330
1E
100
AcDbEntity
  8
0
100
AcDbLine
 10
129.496
 20
151.387999
 30
0.0
 11
139.496
 21
148.286999
 31
0.0
  0
LINE
  5
31C
330
1E
100
AcDbEntity
  8
0
100
AcDbLine
 10
129.2959999999999
 20
7.675079000000009
 30
0.0
 11
139.0959999999999
 21
10.869999
 31
0.0
  0
LINE
  5
31D
330
1E
100
AcDbEntity
  8
0
100
AcDbLine
 10
129.496
 20
6.487329000000019
 30
0.0
 11
139.496
 21
9.588319000000009
 31
0.0
  0
LINE
  5
31E
330
1E
100
AcDbEntity
  8
0
100
AcDbLine
 10
130.096
 20
243.899999
 30
0.0
 11
130.896
 21
244.433332333333
 31
0.0
  0
LINE
  5
31F
330
1E
100
AcDbEntity
  8
0
100
AcDbLine
 10
130.496
 20
211.799999
 30
0.0
 11
130.896
 21
211.799999
 31
0.0
  0
LINE
  5
320
330
1E
100
AcDbEntity
  8
0
100
AcDbLine
 10
130.22
 20
249.287999
 30
0.0
 11
130.896
 21
249.287999
 31
0.0
  0
LINE
  5
321
330
1E
100
AcDbEntity
  8
0
100
AcDbLine
 10
129.496
 20
2.725109000000009
 30
0.0
 11
139.496
 21
5.826099000000009
 31
0.0
  0
LINE
  5
322
330
1E
100
AcDbEntity
  8
0
100
AcDbLine
 10
129.496
 20
2.725109000000009
 30
0.0
 11
139.496
 21
5.826099000000009
 31
0.0
  0
LINE
  5
323
330
1E
100
AcDbEntity
  8
0
100
AcDbLine
 10
130.896
 20
176.986999
 30
0.0
 11
130.896
 21
186.0269989999999
 31
0.0
  0
LINE
  5
324
330
1E
100
AcDbEntity
  8
0
100
AcDbLine
 10
130.896
 20
186.0269989999999
 30
0.0
 11
130.896
 21
176.986999
 31
0.0
  0
LINE
  5
325
330
1E
100
AcDbEntity
  8
0
100
AcDbLine
 10
130.896
 20
195.3769989999999
 30
0.0
 11
130.896
 21
184.5999989999999
 31
0.0
  0
LINE
  5
326
330
1E
100
AcDbEntity
  8
0
100
AcDbLine
 10
130.896
 20
184.5999989999999
 30
0.0
 11
130.896
 21
195.3769989999999
 31
0.0
  0
LINE
  5
327
330
1E
100
AcDbEntity
  8
0
100
AcDbLine
 10
130.896
 20
195.3769989999999
 30
0.0
 11
130.896
 21
207.280999
 31
0.0
  0
LINE
  5
328
330
1E
100
AcDbEntity
  8
0
100
AcDbLine
 10
130.896
 20
207.280999
 30
0.0
 11
130.896
 21
219.089999
 31
0.0
  0
LINE
  5
329
330
1E
100
AcDbEntity
  8
0
100
AcDbLine
 10
130.896
 20
207.280999
 30
0.0
 11
130.896
 21
195.3769989999999
 31
0.0
  0
LINE
  5
32A
330
1E
100
AcDbEntity
  8
0
100
AcDbLine
 10
130.896
 20
219.089999
 30
0.0
 11
130.896
 21
207.280999
 31
0.0
  0
LINE
  5
32B
330
1E
100
AcDbEntity
  8
0
100
AcDbLine
 10
130.896
 20
225.960999
 30
0.0
 11
130.896
 21
215.216999
 31
0.0
  0
LINE
  5
32C
330
1E
100
AcDbEntity
  8
0
100
AcDbLine
 10
130.896
 20
215.216999
 30
0.0
 11
130.896
 21
231.304999
 31
0.0
  0
LINE
  5
32D
330
1E
100
AcDbEntity
  8
0
100
AcDbLine
 10
130.896
 20
231.304999
 30
0.0
 11
130.896
 21
243.731999
 31
0.0
  0
LINE
  5
32E
330
1E
100
AcDbEntity
  8
0
100
AcDbLine
 10
130.896
 20
243.731999
 30
0.0
 11
130.896
 21
252.788999
 31
0.0
  0
LINE
  5
32F
330
1E
100
AcDbEntity
  8
0
100
AcDbLine
 10
130.896
 20
243.731999
 30
0.0
 11
130.896
 21
231.304999
 31
0.0
  0
LINE
  5
330
330
1E
100
AcDbEntity
  8
0
100
AcDbLine
 10
139.0959999999999
 20
147.6889989999999
 30
0.0
 11
148.1959999999999
 21
143.554999
 31
0.0
  0
LINE
  5
331
330
1E
100
AcDbEntity
  8
0
100
AcDbLine
 10
139.496
 20
148.286999
 30
0.0
 11
148.696
 21
144.0579989999999
 31
0.0
  0
LINE
  5
332
330
1E
100
AcDbEntity
  8
0
100
AcDbLine
 10
139.0959999999999
 20
10.869999
 30
0.0
 11
148.1959999999999
 21
15.00469899999999
 31
0.0
  0
LINE
  5
333
330
1E
100
AcDbEntity
  8
0
100
AcDbLine
 10
139.496
 20
9.588319000000009
 30
0.0
 11
148.696
 21
13.816899
 31
0.0
  0
LINE
  5
334
330
1E
100
AcDbEntity
  8
0
100
AcDbLine
 10
148.1959999999999
 20
143.554999
 30
0.0
 11
156.896
 21
138.1039989999999
 31
0.0
  0
LINE
  5
335
330
1E
100
AcDbEntity
  8
0
100
AcDbLine
 10
148.696
 20
144.0579989999999
 30
0.0
 11
157.496
 21
138.513999
 31
0.0
  0
LINE
  5
336
330
1E
100
AcDbEntity
  8
0
100
AcDbLine
 10
148.1959999999999
 20
15.00469899999999
 30
0.0
 11
156.896
 21
20.45489899999999
 31
0.0
  0
LINE
  5
337
330
1E
100
AcDbEntity
  8
0
100
AcDbLine
 10
154.896
 20
207.280999
 30
0.0
 11
154.896
 21
219.089999
 31
0.0
  0
LINE
  5
338
330
1E
100
AcDbEntity
  8
0
100
AcDbLine
 10
154.896
 20
207.280999
 30
0.0
 11
154.896
 21
195.3769989999999
 31
0.0
  0
LINE
  5
339
330
1E
100
AcDbEntity
  8
0
100
AcDbLine
 10
154.896
 20
231.304999
 30
0.0
 11
154.896
 21
243.731999
 31
0.0
  0
LINE
  5
33A
330
1E
100
AcDbEntity
  8
0
100
AcDbLine
 10
154.896
 20
231.304999
 30
0.0
 11
154.896
 21
219.089999
 31
0.0
  0
LINE
  5
33B
330
1E
100
AcDbEntity
  8
0
100
AcDbLine
 10
154.896
 20
219.089999
 30
0.0
 11
154.896
 21
231.304999
 31
0.0
  0
LINE
  5
33C
330
1E
100
AcDbEntity
  8
0
100
AcDbLine
 10
154.896
 20
219.089999
 30
0.0
 11
154.896
 21
207.280999
 31
0.0
  0
LINE
  5
33D
330
1E
100
AcDbEntity
  8
0
100
AcDbLine
 10
154.896
 20
243.731999
 30
0.0
 11
154.896
 21
252.788999
 31
0.0
  0
LINE
  5
33E
330
1E
100
AcDbEntity
  8
0
100
AcDbLine
 10
154.896
 20
243.731999
 30
0.0
 11
154.896
 21
231.304999
 31
0.0
  0
LINE
  5
33F
330
1E
100
AcDbEntity
  8
0
100
AcDbLine
 10
154.896
 20
195.3769989999999
 30
0.0
 11
154.896
 21
207.280999
 31
0.0
  0
LINE
  5
340
330
1E
100
AcDbEntity
  8
0
100
AcDbLine
 10
154.896
 20
176.986999
 30
0.0
 11
154.896
 21
195.3769989999999
 31
0.0
  0
LINE
  5
341
330
1E
100
AcDbEntity
  8
0
100
AcDbLine
 10
154.896
 20
176.986999
 30
0.0
 11
156.639
 21
170.173999
 31
0.0
  0
LINE
  5
342
330
1E
100
AcDbEntity
  8
0
100
AcDbLine
 10
154.896
 20
195.3769989999999
 30
0.0
 11
154.896
 21
176.986999
 31
0.0
  0
LINE
  5
343
330
1E
100
AcDbEntity
  8
0
100
AcDbLine
 10
148.696
 20
13.816899
 30
0.0
 11
157.496
 21
19.36109899999999
 31
0.0
  0
LINE
  5
344
330
1E
100
AcDbEntity
  8
0
100
AcDbLine
 10
148.696
 20
10.054699
 30
0.0
 11
157.496
 21
15.59889899999999
 31
0.0
  0
LINE
  5
345
330
1E
100
AcDbEntity
  8
0
100
AcDbLine
 10
139.496
 20
5.826099000000009
 30
0.0
 11
148.696
 21
10.054699
 31
0.0
  0
LINE
  5
346
330
1E
100
AcDbEntity
  8
0
100
AcDbLine
 10
154.896
 20
252.788999
 30
0.0
 11
154.896
 21
243.731999
 31
0.0
  0
LINE
  5
347
330
1E
100
AcDbEntity
  8
0
100
AcDbLine
 10
154.896
 20
252.788999
 30
0.0
 11
154.896
 21
262.419999
 31
0.0
  0
LINE
  5
348
330
1E
100
AcDbEntity
  8
0
100
AcDbLine
 10
130.896
 20
252.788999
 30
0.0
 11
130.896
 21
262.419999
 31
0.0
  0
LINE
  5
349
330
1E
100
AcDbEntity
  8
0
100
AcDbLine
 10
130.896
 20
252.788999
 30
0.0
 11
130.896
 21
243.731999
 31
0.0
  0
LINE
  5
34A
330
1E
100
AcDbEntity
  8
0
100
AcDbLine
 10
154.896
 20
251.909320428571
 30
0.0
 11
155.048
 21
252.080999
 31
0.0
  0
LINE
  5
34B
330
1E
100
AcDbEntity
  8
0
100
AcDbLine
 10
156.639
 20
170.173999
 30
0.0
 11
159.268
 21
166.098999
 31
0.0
  0
LINE
  5
34C
330
1E
100
AcDbEntity
  8
0
100
AcDbLine
 10
156.896
 20
138.1039989999999
 30
0.0
 11
164.6959999999999
 21
131.714999
 31
0.0
  0
LINE
  5
34D
330
1E
100
AcDbEntity
  8
0
100
AcDbLine
 10
157.496
 20
138.513999
 30
0.0
 11
165.3959999999999
 21
132.029999
 31
0.0
  0
LINE
  5
34E
330
1E
100
AcDbEntity
  8
0
100
AcDbLine
 10
156.896
 20
20.45489899999999
 30
0.0
 11
164.6959999999999
 21
26.84479899999999
 31
0.0
  0
LINE
  5
34F
330
1E
100
AcDbEntity
  8
0
100
AcDbLine
 10
164.6959999999999
 20
26.84479899999999
 30
0.0
 11
171.4959999999999
 21
34.174399
 31
0.0
  0
LINE
  5
350
330
1E
100
AcDbEntity
  8
0
100
AcDbLine
 10
165.3959999999999
 20
25.84499899999999
 30
0.0
 11
172.296
 21
33.268599
 31
0.0
  0
LINE
  5
351
330
1E
100
AcDbEntity
  8
0
100
AcDbLine
 10
165.3959999999999
 20
22.08279899999999
 30
0.0
 11
172.296
 21
29.506299
 31
0.0
  0
LINE
  5
352
330
1E
100
AcDbEntity
  8
0
100
AcDbLine
 10
171.4959999999999
 20
34.174399
 30
0.0
 11
177.2959999999999
 21
42.349699
 31
0.0
  0
LINE
  5
353
330
1E
100
AcDbEntity
  8
0
100
AcDbLine
 10
177.2959999999999
 20
42.349699
 30
0.0
 11
181.6959999999999
 21
50.900899
 31
0.0
  0
LINE
  5
354
330
1E
100
AcDbEntity
  8
0
100
AcDbLine
 10
172.296
 20
33.268599
 30
0.0
 11
178.1959999999999
 21
41.53789899999999
 31
0.0
  0
LINE
  5
355
330
1E
100
AcDbEntity
  8
0
100
AcDbLine
 10
178.1959999999999
 20
41.53789899999999
 30
0.0
 11
182.6959999999999
 21
50.182999
 31
0.0
  0
LINE
  5
356
330
1E
100
AcDbEntity
  8
0
100
AcDbLine
 10
172.296
 20
29.506299
 30
0.0
 11
178.1959999999999
 21
37.77559899999999
 31
0.0
  0
LINE
  5
357
330
1E
100
AcDbEntity
  8
0
100
AcDbLine
 10
178.1959999999999
 20
37.77559899999999
 30
0.0
 11
182.6959999999999
 21
46.420799
 31
0.0
  0
LINE
  5
358
330
1E
100
AcDbEntity
  8
0
100
AcDbLine
 10
181.6959999999999
 20
50.900899
 30
0.0
 11
185.0959999999999
 21
60.109899
 31
0.0
  0
LINE
  5
359
330
1E
100
AcDbEntity
  8
0
100
AcDbLine
 10
185.0959999999999
 20
60.109899
 30
0.0
 11
187.0959999999999
 21
69.600799
 31
0.0
  0
LINE
  5
35A
330
1E
100
AcDbEntity
  8
0
100
AcDbLine
 10
182.6959999999999
 20
50.182999
 30
0.0
 11
185.9959999999999
 21
59.579999
 31
0.0
  0
LINE
  5
35B
330
1E
100
AcDbEntity
  8
0
100
AcDbLine
 10
185.9959999999999
 20
59.579999
 30
0.0
 11
188.0959999999999
 21
69.164799
 31
0.0
  0
LINE
  5
35C
330
1E
100
AcDbEntity
  8
0
100
AcDbLine
 10
182.6959999999999
 20
46.420799
 30
0.0
 11
185.9959999999999
 21
55.817699
 31
0.0
  0
LINE
  5
35D
330
1E
100
AcDbEntity
  8
0
100
AcDbLine
 10
185.9959999999999
 20
55.817699
 30
0.0
 11
188.0959999999999
 21
65.40259899999999
 31
0.0
  0
LINE
  5
35E
330
1E
100
AcDbEntity
  8
0
100
AcDbLine
 10
186.303173692125
 20
96.8932851325497
 30
0.0
 11
191.0959999999999
 21
106.5879989999999
 31
0.0
  0
LINE
  5
35F
330
1E
100
AcDbEntity
  8
0
100
AcDbLine
 10
186.577476973704
 20
95.64129964511868
 30
0.0
 11
190.5959999999999
 21
103.801999
 31
0.0
  0
LINE
  5
360
330
1E
100
AcDbEntity
  8
0
100
AcDbLine
 10
186.2161078588
 20
97.2906743258019
 30
0.0
 11
191.0959999999999
 21
107.161999
 31
0.0
  0
LINE
  5
361
330
1E
100
AcDbEntity
  8
0
100
AcDbLine
 10
187.0959999999999
 20
88.95849899999999
 30
0.0
 11
187.896
 21
79.27969899999999
 31
0.0
  0
LINE
  5
362
330
1E
100
AcDbEntity
  8
0
100
AcDbLine
 10
171.4959999999999
 20
124.3849989999999
 30
0.0
 11
177.2959999999999
 21
116.2099989999999
 31
0.0
  0
LINE
  5
363
330
1E
100
AcDbEntity
  8
0
100
AcDbLine
 10
177.2959999999999
 20
116.2099989999999
 30
0.0
 11
181.6959999999999
 21
107.657999
 31
0.0
  0
LINE
  5
364
330
1E
100
AcDbEntity
  8
0
100
AcDbLine
 10
163.5002265254389
 20
161.96265737341
 30
0.0
 11
167.4959999999999
 21
160.590999
 31
0.0
  0
LINE
  5
365
330
1E
100
AcDbEntity
  8
0
100
AcDbLine
 10
159.268
 20
166.098999
 30
0.0
 11
163.7259999999999
 21
161.7419989999999
 31
0.0
  0
LINE
  5
367
330
1E
100
AcDbEntity
  8
0
100
AcDbLine
 10
164.6959999999999
 20
131.714999
 30
0.0
 11
171.4959999999999
 21
124.3849989999999
 31
0.0
  0
LINE
  5
368
330
1E
100
AcDbEntity
  8
0
100
AcDbLine
 10
178.1959999999999
 20
153.4219989999999
 30
0.0
 11
186.196
 21
144.345999
 31
0.0
  0
LINE
  5
369
330
1E
100
AcDbEntity
  8
0
100
AcDbLine
 10
167.4959999999999
 20
160.590999
 30
0.0
 11
177.8959999999999
 21
153.714999
 31
0.0
  0
LINE
  5
36A
330
1E
100
AcDbEntity
  8
0
100
AcDbLine
 10
177.8959999999999
 20
153.714999
 30
0.0
 11
178.1959999999999
 21
153.4219989999999
 31
0.0
  0
LINE
  5
36B
330
1E
100
AcDbEntity
  8
0
100
AcDbLine
 10
165.3959999999999
 20
132.029999
 30
0.0
 11
172.296
 21
124.606999
 31
0.0
  0
LINE
  5
36C
330
1E
100
AcDbEntity
  8
0
100
AcDbLine
 10
172.296
 20
124.606999
 30
0.0
 11
178.1959999999999
 21
116.336999
 31
0.0
  0
LINE
  5
36D
330
1E
100
AcDbEntity
  8
0
100
AcDbLine
 10
181.6959999999999
 20
107.657999
 30
0.0
 11
185.0959999999999
 21
98.44939899999999
 31
0.0
  0
LINE
  5
36E
330
1E
100
AcDbEntity
  8
0
100
AcDbLine
 10
178.1959999999999
 20
116.336999
 30
0.0
 11
182.6959999999999
 21
107.6919989999999
 31
0.0
  0
LINE
  5
36F
330
1E
100
AcDbEntity
  8
0
100
AcDbLine
 10
186.196
 20
144.345999
 30
0.0
 11
191.0959999999999
 21
134.154999
 31
0.0
  0
LINE
  5
370
330
1E
100
AcDbEntity
  8
0
100
AcDbLine
 10
185.0959999999999
 20
98.44939899999999
 30
0.0
 11
187.0959999999999
 21
88.95849899999999
 31
0.0
  0
LINE
  5
371
330
1E
100
AcDbEntity
  8
0
100
AcDbLine
 10
182.6959999999999
 20
107.6919989999999
 30
0.0
 11
185.9959999999999
 21
98.295299
 31
0.0
  0
LINE
  5
372
330
1E
100
AcDbEntity
  8
0
100
AcDbLine
 10
185.9959999999999
 20
98.295299
 30
0.0
 11
188.0959999999999
 21
88.71039899999999
 31
0.0
  0
LINE
  5
373
330
1E
100
AcDbEntity
  8
0
100
AcDbLine
 10
188.0959999999999
 20
88.71039899999999
 30
0.0
 11
188.8959999999999
 21
78.937599
 31
0.0
  0
LINE
  5
374
330
1E
100
AcDbEntity
  8
0
100
AcDbLine
 10
187.0959999999999
 20
69.600799
 30
0.0
 11
187.896
 21
79.27969899999999
 31
0.0
  0
LINE
  5
375
330
1E
100
AcDbEntity
  8
0
100
AcDbLine
 10
191.0959999999999
 20
106.5879989999999
 30
0.0
 11
192.896
 21
117.0729989999999
 31
0.0
  0
LINE
  5
376
330
1E
100
AcDbEntity
  8
0
100
AcDbLine
 10
191.0959999999999
 20
105.1539989999999
 30
0.0
 11
192.896
 21
115.638999
 31
0.0
  0
LINE
  5
377
330
1E
100
AcDbEntity
  8
0
100
AcDbLine
 10
190.5959999999999
 20
103.801999
 30
0.0
 11
191.0959999999999
 21
105.1539989999999
 31
0.0
  0
LINE
  5
378
330
1E
100
AcDbEntity
  8
0
100
AcDbLine
 10
192.802086387435
 20
117.099952206806
 30
0.0
 11
192.896
 21
117.0729989999999
 31
0.0
  0
LINE
  5
379
330
1E
100
AcDbEntity
  8
0
100
AcDbLine
 10
192.8467319631869
 20
117.360012685566
 30
0.0
 11
192.896
 21
117.0729989999999
 31
0.0
  0
LINE
  5
37A
330
1E
100
AcDbEntity
  8
0
100
AcDbLine
 10
192.896
 20
115.638999
 30
0.0
 11
192.896
 21
117.0729989999999
 31
0.0
  0
LINE
  5
37B
330
1E
100
AcDbEntity
  8
0
100
AcDbLine
 10
192.896
 20
123.6699989999999
 30
0.0
 11
192.896
 21
117.6469989999999
 31
0.0
  0
LINE
  5
37C
330
1E
100
AcDbEntity
  8
0
100
AcDbLine
 10
192.896
 20
117.6469989999999
 30
0.0
 11
192.896
 21
123.6699989999999
 31
0.0
  0
LINE
  5
37D
330
1E
100
AcDbEntity
  8
0
100
AcDbLine
 10
191.0959999999999
 20
107.161999
 30
0.0
 11
192.896
 21
117.6469989999999
 31
0.0
  0
LINE
  5
37E
330
1E
100
AcDbEntity
  8
0
100
AcDbLine
 10
191.0959999999999
 20
134.154999
 30
0.0
 11
192.896
 21
123.6699989999999
 31
0.0
  0
LINE
  5
37F
330
1E
100
AcDbEntity
  8
0
100
AcDbLine
 10
188.8959999999999
 20
78.937599
 30
0.0
 11
188.8959999999999
 21
75.175399
 31
0.0
  0
LINE
  5
380
330
1E
100
AcDbEntity
  8
0
100
AcDbLine
 10
188.8959999999999
 20
75.175399
 30
0.0
 11
188.8959999999999
 21
78.937599
 31
0.0
  0
LINE
  5
381
330
1E
100
AcDbEntity
  8
0
100
AcDbLine
 10
188.0959999999999
 20
69.164799
 30
0.0
 11
188.8959999999999
 21
78.937599
 31
0.0
  0
LINE
  5
382
330
1E
100
AcDbEntity
  8
0
100
AcDbLine
 10
188.0959999999999
 20
65.40259899999999
 30
0.0
 11
188.8959999999999
 21
75.175399
 31
0.0
  0
LINE
  5
383
330
1E
100
AcDbEntity
  8
0
100
AcDbLine
 10
157.496
 20
19.36109899999999
 30
0.0
 11
165.3959999999999
 21
25.84499899999999
 31
0.0
  0
LINE
  5
384
330
1E
100
AcDbEntity
  8
0
100
AcDbLine
 10
157.496
 20
15.59889899999999
 30
0.0
 11
165.3959999999999
 21
22.08279899999999
 31
0.0
  0
LINE
  5
385
330
1E
100
AcDbEntity
  8
0
100
AcDbLine
 10
155.048
 20
252.080999
 30
0.0
 11
156.3919999999999
 21
254.944999
 31
0.0
  0
LINE
  5
386
330
1E
100
AcDbEntity
  8
0
100
AcDbLine
 10
156.3919999999999
 20
254.944999
 30
0.0
 11
156.896
 21
257.999999
 31
0.0
  0
LINE
  5
387
330
1E
100
AcDbEntity
  8
0
100
AcDbLine
 10
130.7439999999999
 20
252.080999
 30
0.0
 11
130.896
 21
251.909320428571
 31
0.0
  0
LINE
  5
388
330
1E
100
AcDbEntity
  8
0
100
AcDbLine
 10
129.4
 20
283.054999
 30
0.0
 11
130.7439999999999
 21
285.918999
 31
0.0
  0
LINE
  5
389
330
1E
100
AcDbEntity
  8
0
100
AcDbLine
 10
154.896
 20
262.419999
 30
0.0
 11
154.896
 21
252.788999
 31
0.0
  0
LINE
  5
38A
330
1E
100
AcDbEntity
  8
0
100
AcDbLine
 10
130.896
 20
262.419999
 30
0.0
 11
130.896
 21
252.788999
 31
0.0
  0
LINE
  5
38B
330
1E
100
AcDbEntity
  8
0
100
AcDbLine
 10
130.896
 20
262.419999
 30
0.0
 11
130.896
 21
264.6199989999999
 31
0.0
  0
LINE
  5
38C
330
1E
100
AcDbEntity
  8
0
100
AcDbLine
 10
155.048
 20
263.918999
 30
0.0
 11
156.3919999999999
 21
261.0549989999999
 31
0.0
  0
LINE
  5
38D
330
1E
100
AcDbEntity
  8
0
100
AcDbLine
 10
156.3919999999999
 20
261.0549989999999
 30
0.0
 11
156.896
 21
257.999999
 31
0.0
  0
LINE
  5
38E
330
1E
100
AcDbEntity
  8
0
100
AcDbLine
 10
156.896
 20
257.999999
 30
0.0
 11
156.896
 21
288.999999
 31
0.0
  0
LINE
  5
38F
330
1E
100
AcDbEntity
  8
0
100
AcDbLine
 10
154.464
 20
265.949999
 30
0.0
 11
154.896
 21
264.6199989999999
 31
0.0
  0
LINE
  5
390
330
1E
100
AcDbEntity
  8
0
100
AcDbLine
 10
153.312
 20
267.196999
 30
0.0
 11
154.464
 21
265.949999
 31
0.0
  0
LINE
  5
391
330
1E
100
AcDbEntity
  8
0
100
AcDbLine
 10
151.152
 20
268.493999
 30
0.0
 11
153.024
 21
267.433999
 31
0.0
  0
LINE
  5
392
330
1E
100
AcDbEntity
  8
0
100
AcDbLine
 10
153.024
 20
267.433999
 30
0.0
 11
153.312
 21
267.196999
 31
0.0
  0
LINE
  5
393
330
1E
100
AcDbEntity
  8
0
100
AcDbLine
 10
153.024
 20
267.433999
 30
0.0
 11
153.167794258995
 21
267.28358920652
 31
0.0
  0
LINE
  5
394
330
1E
100
AcDbEntity
  8
0
100
AcDbLine
 10
145.9199999999999
 20
269.803999
 30
0.0
 11
148.704
 21
269.304999
 31
0.0
  0
LINE
  5
395
330
1E
100
AcDbEntity
  8
0
100
AcDbLine
 10
148.704
 20
269.304999
 30
0.0
 11
151.152
 21
268.493999
 31
0.0
  0
LINE
  5
396
330
1E
100
AcDbEntity
  8
0
100
AcDbLine
 10
142.896
 20
269.990999
 30
0.0
 11
145.9199999999999
 21
269.803999
 31
0.0
  0
LINE
  5
397
330
1E
100
AcDbEntity
  8
0
100
AcDbLine
 10
139.872
 20
269.803999
 30
0.0
 11
142.896
 21
269.990999
 31
0.0
  0
LINE
  5
398
330
1E
100
AcDbEntity
  8
0
100
AcDbLine
 10
137.0879999999999
 20
269.304999
 30
0.0
 11
139.872
 21
269.803999
 31
0.0
  0
LINE
  5
399
330
1E
100
AcDbEntity
  8
0
100
AcDbLine
 10
134.6399999999999
 20
268.493999
 30
0.0
 11
137.0879999999999
 21
269.304999
 31
0.0
  0
LINE
  5
39A
330
1E
100
AcDbEntity
  8
0
100
AcDbLine
 10
132.7679999999999
 20
267.433999
 30
0.0
 11
134.6399999999999
 21
268.493999
 31
0.0
  0
LINE
  5
39B
330
1E
100
AcDbEntity
  8
0
100
AcDbLine
 10
132.6242057410049
 20
267.28358920652
 30
0.0
 11
132.7679999999999
 21
267.433999
 31
0.0
  0
LINE
  5
39C
330
1E
100
AcDbEntity
  8
0
100
AcDbLine
 10
132.4799999999999
 20
267.196999
 30
0.0
 11
132.7679999999999
 21
267.433999
 31
0.0
  0
LINE
  5
39D
330
1E
100
AcDbEntity
  8
0
100
AcDbLine
 10
131.328
 20
265.949999
 30
0.0
 11
132.4799999999999
 21
267.196999
 31
0.0
  0
LINE
  5
39E
330
1E
100
AcDbEntity
  8
0
100
AcDbLine
 10
130.896
 20
264.6199989999999
 30
0.0
 11
130.896
 21
262.419999
 31
0.0
  0
LINE
  5
39F
330
1E
100
AcDbEntity
  8
0
100
AcDbLine
 10
130.896
 20
264.6199989999999
 30
0.0
 11
131.328
 21
265.949999
 31
0.0
  0
LINE
  5
3A0
330
1E
100
AcDbEntity
  8
0
100
AcDbLine
 10
154.896
 20
264.090677571429
 30
0.0
 11
155.048
 21
263.918999
 31
0.0
  0
LINE
  5
3A1
330
1E
100
AcDbEntity
  8
0
100
AcDbLine
 10
152.8079999999999
 20
288.448999
 30
0.0
 11
155.048
 21
285.918999
 31
0.0
  0
LINE
  5
3A2
330
1E
100
AcDbEntity
  8
0
100
AcDbLine
 10
155.048
 20
285.918999
 30
0.0
 11
156.3919999999999
 21
283.054999
 31
0.0
  0
LINE
  5
3A3
330
1E
100
AcDbEntity
  8
0
100
AcDbLine
 10
156.896
 20
264.384999
 30
0.0
 11
183.8959999999999
 21
264.384999
 31
0.0
  0
LINE
  5
3A4
330
1E
100
AcDbEntity
  8
0
100
AcDbLine
 10
192.472
 20
263.999999
 30
0.0
 11
196.072
 21
263.999999
 31
0.0
  0
LINE
  5
3A5
330
1E
100
AcDbEntity
  8
0
100
AcDbLine
 10
188.3429999999999
 20
263.999999
 30
0.0
 11
192.472
 21
263.999999
 31
0.0
  0
LINE
  5
3A6
330
1E
100
AcDbEntity
  8
0
100
AcDbLine
 10
183.8959999999999
 20
263.999999
 30
0.0
 11
188.3429999999999
 21
263.999999
 31
0.0
  0
LINE
  5
3A7
330
1E
100
AcDbEntity
  8
0
100
AcDbLine
 10
196.072
 20
263.999999
 30
0.0
 11
198.772
 21
263.999999
 31
0.0
  0
LINE
  5
3A8
330
1E
100
AcDbEntity
  8
0
100
AcDbLine
 10
196.4429999999999
 20
264.384999
 30
0.0
 11
199.249
 21
264.384999
 31
0.0
  0
LINE
  5
3A9
330
1E
100
AcDbEntity
  8
0
100
AcDbLine
 10
199.249
 20
264.384999
 30
0.0
 11
200.9959999999999
 21
264.384999
 31
0.0
  0
LINE
  5
3AA
330
1E
100
AcDbEntity
  8
0
100
AcDbLine
 10
192.7369999999999
 20
264.384999
 30
0.0
 11
196.4429999999999
 21
264.384999
 31
0.0
  0
LINE
  5
3AB
330
1E
100
AcDbEntity
  8
0
100
AcDbLine
 10
188.449
 20
264.384999
 30
0.0
 11
192.7369999999999
 21
264.384999
 31
0.0
  0
LINE
  5
3AC
330
1E
100
AcDbEntity
  8
0
100
AcDbLine
 10
183.8959999999999
 20
264.384999
 30
0.0
 11
188.449
 21
264.384999
 31
0.0
  0
LINE
  5
3AD
330
1E
100
AcDbEntity
  8
0
100
AcDbLine
 10
198.772
 20
263.999999
 30
0.0
 11
200.4669999999999
 21
263.999999
 31
0.0
  0
LINE
  5
3AE
330
1E
100
AcDbEntity
  8
0
100
AcDbLine
 10
200.9959999999999
 20
264.384999
 30
0.0
 11
201.6309999999999
 21
264.384999
 31
0.0
  0
LINE
  5
3AF
330
1E
100
AcDbEntity
  8
0
100
AcDbLine
 10
201.102
 20
263.999999
 30
0.0
 11
201.6309999999999
 21
264.384999
 31
0.0
  0
LINE
  5
3B0
330
1E
100
AcDbEntity
  8
0
100
AcDbLine
 10
200.4669999999999
 20
263.999999
 30
0.0
 11
201.102
 21
263.999999
 31
0.0
  0
LINE
  5
3B1
330
1E
100
AcDbEntity
  8
0
100
AcDbLine
 10
201.8959999999999
 20
265.1539989999999
 30
0.0
 11
201.8959999999999
 21
281.9958763508629
 31
0.0
  0
LINE
  5
3B2
330
1E
100
AcDbEntity
  8
0
100
AcDbLine
 10
201.6309999999999
 20
264.384999
 30
0.0
 11
201.8959999999999
 21
265.1539989999999
 31
0.0
  0
LINE
  5
3B3
330
1E
100
AcDbEntity
  8
0
100
AcDbLine
 10
156.896
 20
263.999999
 30
0.0
 11
183.8959999999999
 21
263.999999
 31
0.0
  0
LINE
  5
3B4
330
1E
100
AcDbEntity
  8
0
100
AcDbLine
 10
201.8959999999999
 20
271.1357112935779
 30
0.0
 11
209.2
 21
271.191999
 31
0.0
  0
LINE
  5
3B5
330
1E
100
AcDbEntity
  8
0
100
AcDbLine
 10
209.2
 20
271.191999
 30
0.0
 11
222.104
 21
271.335999
 31
0.0
  0
LINE
  5
3B6
330
1E
100
AcDbEntity
  8
0
100
AcDbLine
 10
222.104
 20
271.335999
 30
0.0
 11
234.0679999999999
 21
271.516999
 31
0.0
  0
LINE
  5
3B7
330
1E
100
AcDbEntity
  8
0
100
AcDbLine
 10
234.0679999999999
 20
271.516999
 30
0.0
 11
244.8859999999999
 21
271.732999
 31
0.0
  0
LINE
  5
3B8
330
1E
100
AcDbEntity
  8
0
100
AcDbLine
 10
201.8959999999999
 20
281.9958763508629
 30
0.0
 11
201.8959999999999
 21
265.1539989999999
 31
0.0
  0
LINE
  5
3B9
330
1E
100
AcDbEntity
  8
0
100
AcDbLine
 10
162.607
 20
287.122999
 30
0.0
 11
191.934
 21
283.292999
 31
0.0
  0
LINE
  5
3BA
330
1E
100
AcDbEntity
  8
0
100
AcDbLine
 10
191.934
 20
283.292999
 30
0.0
 11
220.3809999999999
 21
279.588999
 31
0.0
  0
LINE
  5
3BB
330
1E
100
AcDbEntity
  8
0
100
AcDbLine
 10
220.3809999999999
 20
279.588999
 30
0.0
 11
245.754
 21
277.762999
 31
0.0
  0
LINE
  5
3BC
330
1E
100
AcDbEntity
  8
0
100
AcDbLine
 10
245.754
 20
277.762999
 30
0.0
 11
265.9159999999999
 21
276.397999
 31
0.0
  0
LINE
  5
3BD
330
1E
100
AcDbEntity
  8
0
100
AcDbLine
 10
262.367
 20
272.248999
 30
0.0
 11
268.731
 21
272.541999
 31
0.0
  0
LINE
  5
3BE
330
1E
100
AcDbEntity
  8
0
100
AcDbLine
 10
268.731
 20
272.541999
 30
0.0
 11
273.356
 21
272.850999
 31
0.0
  0
LINE
  5
3BF
330
1E
100
AcDbEntity
  8
0
100
AcDbLine
 10
273.356
 20
272.850999
 30
0.0
 11
276.163
 21
273.169999
 31
0.0
  0
LINE
  5
3C0
330
1E
100
AcDbEntity
  8
0
100
AcDbLine
 10
276.163
 20
273.169999
 30
0.0
 11
278.194
 21
273.4519989999999
 31
0.0
  0
LINE
  5
3C1
330
1E
100
AcDbEntity
  8
0
100
AcDbLine
 10
269.5299999999999
 20
275.324999
 30
0.0
 11
275.0559999999999
 21
273.7839989999999
 31
0.0
  0
LINE
  5
3C2
330
1E
100
AcDbEntity
  8
0
100
AcDbLine
 10
279.1519999999999
 20
273.7839989999999
 30
0.0
 11
281.0719999999999
 21
274.551999
 31
0.0
  0
LINE
  5
3C3
330
1E
100
AcDbEntity
  8
0
100
AcDbLine
 10
278.194
 20
273.4519989999999
 30
0.0
 11
279.1519999999999
 21
273.7839989999999
 31
0.0
  0
LINE
  5
3C4
330
1E
100
AcDbEntity
  8
0
100
AcDbLine
 10
281.0719999999999
 20
274.551999
 30
0.0
 11
282.7679999999999
 21
275.830999
 31
0.0
  0
LINE
  5
3C5
330
1E
100
AcDbEntity
  8
0
100
AcDbLine
 10
264.696911859281
 20
276.4805332382739
 30
0.0
 11
269.5299999999999
 21
275.324999
 31
0.0
  0
LINE
  5
3C6
330
1E
100
AcDbEntity
  8
0
100
AcDbLine
 10
282.7679999999999
 20
275.830999
 30
0.0
 11
284.0479999999999
 21
277.526999
 31
0.0
  0
LINE
  5
3C7
330
1E
100
AcDbEntity
  8
0
100
AcDbLine
 10
284.0479999999999
 20
277.526999
 30
0.0
 11
284.8159999999999
 21
279.445999
 31
0.0
  0
LINE
  5
3C8
330
1E
100
AcDbEntity
  8
0
100
AcDbLine
 10
281.0719999999999
 20
288.435999
 30
0.0
 11
282.7679999999999
 21
287.155999
 31
0.0
  0
LINE
  5
3C9
330
1E
100
AcDbEntity
  8
0
100
AcDbLine
 10
282.7679999999999
 20
287.155999
 30
0.0
 11
284.0479999999999
 21
285.460999
 31
0.0
  0
LINE
  5
3CA
330
1E
100
AcDbEntity
  8
0
100
AcDbLine
 10
284.0479999999999
 20
285.460999
 30
0.0
 11
284.8159999999999
 21
283.540999
 31
0.0
  0
LINE
  5
3CB
330
1E
100
AcDbEntity
  8
0
100
AcDbLine
 10
284.8159999999999
 20
283.540999
 30
0.0
 11
285.104
 21
281.493999
 31
0.0
  0
LINE
  5
3CC
330
1E
100
AcDbEntity
  8
0
100
AcDbLine
 10
284.8159999999999
 20
279.445999
 30
0.0
 11
285.104
 21
281.493999
 31
0.0
  0
LINE
  5
3CD
330
1E
100
AcDbEntity
  8
0
100
AcDbLine
 10
254.373
 20
271.977999
 30
0.0
 11
262.367
 21
272.248999
 31
0.0
  0
LINE
  5
3CE
330
1E
100
AcDbEntity
  8
0
100
AcDbLine
 10
244.8859999999999
 20
271.732999
 30
0.0
 11
254.373
 21
271.977999
 31
0.0
  0
LINE
  5
3CF
330
1E
100
AcDbEntity
  8
0
100
AcDbLine
 10
156.3919999999999
 20
283.054999
 30
0.0
 11
156.896
 21
288.999999
 31
0.0
  0
LINE
  5
3D0
330
1E
100
AcDbEntity
  8
0
100
AcDbLine
 10
131.896
 20
289.9199989999999
 30
0.0
 11
131.896
 21
294.664999
 31
0.0
  0
LINE
  5
3D1
330
1E
100
AcDbEntity
  8
0
100
AcDbLine
 10
131.896
 20
294.664999
 30
0.0
 11
131.896
 21
299.066999
 31
0.0
  0
LINE
  5
3D2
330
1E
100
AcDbEntity
  8
0
100
AcDbLine
 10
131.896
 20
294.664999
 30
0.0
 11
131.896
 21
289.9199989999999
 31
0.0
  0
LINE
  5
3D3
330
1E
100
AcDbEntity
  8
0
100
AcDbLine
 10
131.896
 20
299.066999
 30
0.0
 11
131.896
 21
302.722999
 31
0.0
  0
LINE
  5
3D4
330
1E
100
AcDbEntity
  8
0
100
AcDbLine
 10
131.896
 20
299.066999
 30
0.0
 11
131.896
 21
294.664999
 31
0.0
  0
LINE
  5
3D5
330
1E
100
AcDbEntity
  8
0
100
AcDbLine
 10
131.896
 20
302.160297277425
 30
0.0
 11
132.9499999999999
 21
303.295999
 31
0.0
  0
LINE
  5
3D6
330
1E
100
AcDbEntity
  8
0
100
AcDbLine
 10
131.896
 20
303.999999
 30
0.0
 11
134.299523685918
 21
303.999999
 31
0.0
  0
LINE
  5
3D7
330
1E
100
AcDbEntity
  8
0
100
AcDbLine
 10
131.896
 20
305.588999
 30
0.0
 11
131.896
 21
302.722999
 31
0.0
  0
LINE
  5
3D8
330
1E
100
AcDbEntity
  8
0
100
AcDbLine
 10
131.896
 20
305.588999
 30
0.0
 11
131.896
 21
307.330999
 31
0.0
  0
LINE
  5
3D9
330
1E
100
AcDbEntity
  8
0
100
AcDbLine
 10
131.896
 20
302.722999
 30
0.0
 11
131.896
 21
305.588999
 31
0.0
  0
LINE
  5
3DA
330
1E
100
AcDbEntity
  8
0
100
AcDbLine
 10
131.896
 20
302.722999
 30
0.0
 11
131.896
 21
299.066999
 31
0.0
  0
LINE
  5
3DB
330
1E
100
AcDbEntity
  8
0
100
AcDbLine
 10
135.904
 20
304.836999
 30
0.0
 11
139.2289999999999
 21
305.4209989999999
 31
0.0
  0
LINE
  5
3DC
330
1E
100
AcDbEntity
  8
0
100
AcDbLine
 10
132.9499999999999
 20
303.295999
 30
0.0
 11
135.904
 21
304.836999
 31
0.0
  0
LINE
  5
3DD
330
1E
100
AcDbEntity
  8
0
100
AcDbLine
 10
131.896
 20
302.160297277425
 30
0.0
 11
132.9499999999999
 21
303.295999
 31
0.0
  0
LINE
  5
3DE
330
1E
100
AcDbEntity
  8
0
100
AcDbLine
 10
156.8778158970849
 20
289.1602156905459
 30
0.0
 11
162.607
 21
287.122999
 31
0.0
  0
LINE
  5
3DF
330
1E
100
AcDbEntity
  8
0
100
AcDbLine
 10
146.4799999999999
 20
291.503999
 30
0.0
 11
149.84
 21
290.357999
 31
0.0
  0
LINE
  5
3E0
330
1E
100
AcDbEntity
  8
0
100
AcDbLine
 10
149.84
 20
290.357999
 30
0.0
 11
152.8079999999999
 21
288.448999
 31
0.0
  0
LINE
  5
3E1
330
1E
100
AcDbEntity
  8
0
100
AcDbLine
 10
273.6
 20
290.754999
 30
0.0
 11
279.1519999999999
 21
289.203999
 31
0.0
  0
LINE
  5
3E2
330
1E
100
AcDbEntity
  8
0
100
AcDbLine
 10
279.1519999999999
 20
289.203999
 30
0.0
 11
281.0719999999999
 21
288.435999
 31
0.0
  0
LINE
  5
3E3
330
1E
100
AcDbEntity
  8
0
100
AcDbLine
 10
156.896
 20
288.999999
 30
0.0
 11
156.896
 21
257.999999
 31
0.0
  0
LINE
  5
3E4
330
1E
100
AcDbEntity
  8
0
100
AcDbLine
 10
139.2289999999999
 20
305.4209989999999
 30
0.0
 11
143.137
 21
305.064999
 31
0.0
  0
LINE
  5
3E5
330
1E
100
AcDbEntity
  8
0
100
AcDbLine
 10
267.918
 20
292.113999
 30
0.0
 11
273.6
 21
290.754999
 31
0.0
  0
LINE
  5
3E6
330
1E
100
AcDbEntity
  8
0
100
AcDbLine
 10
143.5258636415399
 20
304.920173928022
 30
0.0
 11
145.846
 21
306.491999
 31
0.0
  0
LINE
  5
3E7
330
1E
100
AcDbEntity
  8
0
100
AcDbLine
 10
143.137
 20
305.064999
 30
0.0
 11
146.6409999999999
 21
303.759999
 31
0.0
  0
LINE
  5
3E8
330
1E
100
AcDbEntity
  8
0
100
AcDbLine
 10
146.6409999999999
 20
303.759999
 30
0.0
 11
149.966
 21
301.760999
 31
0.0
  0
LINE
  5
3E9
330
1E
100
AcDbEntity
  8
0
100
AcDbLine
 10
149.966
 20
301.760999
 30
0.0
 11
152.841
 21
298.953999
 31
0.0
  0
LINE
  5
3EA
330
1E
100
AcDbEntity
  8
0
100
AcDbLine
 10
152.841
 20
298.953999
 30
0.0
 11
155.357
 21
295.547999
 31
0.0
  0
LINE
  5
3EB
330
1E
100
AcDbEntity
  8
0
100
AcDbLine
 10
265.874
 20
292.393999
 30
0.0
 11
267.918
 21
292.113999
 31
0.0
  0
LINE
  5
3EC
330
1E
100
AcDbEntity
  8
0
100
AcDbLine
 10
245.7219999999999
 20
293.758999
 30
0.0
 11
265.874
 21
292.393999
 31
0.0
  0
LINE
  5
3ED
330
1E
100
AcDbEntity
  8
0
100
AcDbLine
 10
161.210064220184
 20
303.999999
 30
0.0
 11
183.8959999999999
 21
303.999999
 31
0.0
  0
LINE
  5
3EE
330
1E
100
AcDbEntity
  8
0
100
AcDbLine
 10
201.8959999999999
 20
297.988104170594
 30
0.0
 11
201.8959999999999
 21
303.999999
 31
0.0
  0
LINE
  5
3EF
330
1E
100
AcDbEntity
  8
0
100
AcDbLine
 10
220.3409999999999
 20
295.584999
 30
0.0
 11
245.7219999999999
 21
293.758999
 31
0.0
  0
LINE
  5
3F0
330
1E
100
AcDbEntity
  8
0
100
AcDbLine
 10
196.602
 20
303.999999
 30
0.0
 11
199.4609999999999
 21
303.999999
 31
0.0
  0
LINE
  5
3F1
330
1E
100
AcDbEntity
  8
0
100
AcDbLine
 10
192.8429999999999
 20
303.999999
 30
0.0
 11
196.602
 21
303.999999
 31
0.0
  0
LINE
  5
3F2
330
1E
100
AcDbEntity
  8
0
100
AcDbLine
 10
188.502
 20
303.999999
 30
0.0
 11
192.8429999999999
 21
303.999999
 31
0.0
  0
LINE
  5
3F3
330
1E
100
AcDbEntity
  8
0
100
AcDbLine
 10
183.8959999999999
 20
303.999999
 30
0.0
 11
188.502
 21
303.999999
 31
0.0
  0
LINE
  5
3F4
330
1E
100
AcDbEntity
  8
0
100
AcDbLine
 10
169.8959999999999
 20
303.999999
 30
0.0
 11
169.8959999999999
 21
311.999999
 31
0.0
  0
LINE
  5
3F5
330
1E
100
AcDbEntity
  8
0
100
AcDbLine
 10
199.4609999999999
 20
303.999999
 30
0.0
 11
201.261
 21
303.999999
 31
0.0
  0
LINE
  5
3F6
330
1E
100
AcDbEntity
  8
0
100
AcDbLine
 10
201.261
 20
303.999999
 30
0.0
 11
201.8959999999999
 21
303.999999
 31
0.0
  0
LINE
  5
3F7
330
1E
100
AcDbEntity
  8
0
100
AcDbLine
 10
201.8959999999999
 20
303.999999
 30
0.0
 11
201.8959999999999
 21
297.988104170594
 31
0.0
  0
LINE
  5
3F8
330
1E
100
AcDbEntity
  8
0
100
AcDbLine
 10
197.8959999999999
 20
303.999999
 30
0.0
 11
197.8959999999999
 21
311.999999
 31
0.0
  0
LINE
  5
3F9
330
1E
100
AcDbEntity
  8
0
100
AcDbLine
 10
191.9109999999999
 20
299.288999
 30
0.0
 11
220.3409999999999
 21
295.584999
 31
0.0
  0
LINE
  5
3FA
330
1E
100
AcDbEntity
  8
0
100
AcDbLine
 10
164.925
 20
302.631999
 30
0.0
 11
191.9109999999999
 21
299.288999
 31
0.0
  0
LINE
  5
3FD
330
1E
100
AcDbEntity
  8
0
100
AcDbLine
 10
155.357
 20
295.547999
 30
0.0
 11
156.526
 21
292.259999
 31
0.0
  0
LINE
  5
3FE
330
1E
100
AcDbEntity
  8
0
100
AcDbLine
 10
156.526
 20
292.259999
 30
0.0
 11
156.896
 21
288.999999
 31
0.0
  0
LINE
  5
3FF
330
1E
100
AcDbEntity
  8
0
100
AcDbLine
 10
142.896
 20
291.9329989999999
 30
0.0
 11
146.4799999999999
 21
291.503999
 31
0.0
  0
LINE
  5
400
330
1E
100
AcDbEntity
  8
0
100
AcDbLine
 10
139.312
 20
291.503999
 30
0.0
 11
142.896
 21
291.9329989999999
 31
0.0
  0
LINE
  5
401
330
1E
100
AcDbEntity
  8
0
100
AcDbLine
 10
135.952
 20
290.357999
 30
0.0
 11
139.312
 21
291.503999
 31
0.0
  0
LINE
  5
402
330
1E
100
AcDbEntity
  8
0
100
AcDbLine
 10
132.984
 20
288.448999
 30
0.0
 11
135.952
 21
290.357999
 31
0.0
  0
LINE
  5
403
330
1E
100
AcDbEntity
  8
0
100
AcDbLine
 10
130.7439999999999
 20
285.918999
 30
0.0
 11
132.984
 21
288.448999
 31
0.0
  0
LINE
  5
404
330
1E
100
AcDbEntity
  8
0
100
AcDbLine
 10
130.7439999999999
 20
263.918999
 30
0.0
 11
130.896
 21
264.090677571429
 31
0.0
  0
LINE
  5
405
330
1E
100
AcDbEntity
  8
0
100
AcDbLine
 10
129.4
 20
261.0549989999999
 30
0.0
 11
130.7439999999999
 21
263.918999
 31
0.0
  0
LINE
  5
406
330
1E
100
AcDbEntity
  8
0
100
AcDbLine
 10
129.4
 20
254.944999
 30
0.0
 11
130.7439999999999
 21
252.080999
 31
0.0
  0
LINE
  5
407
330
1E
100
AcDbEntity
  8
0
100
AcDbLine
 10
128.896
 20
277.332999
 30
0.0
 11
128.896
 21
280.999999
 31
0.0
  0
LINE
  5
408
330
1E
100
AcDbEntity
  8
0
100
AcDbLine
 10
128.896
 20
277.332999
 30
0.0
 11
128.896
 21
274.455999
 31
0.0
  0
LINE
  5
409
330
1E
100
AcDbEntity
  8
0
100
AcDbLine
 10
145.846
 20
306.491999
 30
0.0
 11
147.3189999999999
 21
307.392999
 31
0.0
  0
LINE
  5
40A
330
1E
100
AcDbEntity
  8
0
100
AcDbLine
 10
128.896
 20
305.588999
 30
0.0
 11
128.896
 21
307.330999
 31
0.0
  0
LINE
  5
40B
330
1E
100
AcDbEntity
  8
0
100
AcDbLine
 10
128.896
 20
305.588999
 30
0.0
 11
128.896
 21
302.722999
 31
0.0
  0
LINE
  5
40C
330
1E
100
AcDbEntity
  8
0
100
AcDbLine
 10
91.56299999999999
 20
305.213999
 30
0.0
 11
91.56299999999999
 21
306.920999
 31
0.0
  0
LINE
  5
40D
330
1E
100
AcDbEntity
  8
0
100
AcDbLine
 10
91.56299999999999
 20
305.213999
 30
0.0
 11
91.56299999999999
 21
302.384999
 31
0.0
  0
LINE
  5
40E
330
1E
100
AcDbEntity
  8
0
100
AcDbLine
 10
131.896
 20
307.330999
 30
0.0
 11
131.896
 21
307.994999
 31
0.0
  0
LINE
  5
40F
330
1E
100
AcDbEntity
  8
0
100
AcDbLine
 10
131.896
 20
307.330999
 30
0.0
 11
131.896
 21
305.588999
 31
0.0
  0
LINE
  5
410
330
1E
100
AcDbEntity
  8
0
100
AcDbLine
 10
153.513
 20
307.350999
 30
0.0
 11
164.925
 21
302.631999
 31
0.0
  0
LINE
  5
411
330
1E
100
AcDbEntity
  8
0
100
AcDbLine
 10
150.421
 20
307.972999
 30
0.0
 11
153.513
 21
307.350999
 31
0.0
  0
LINE
  5
412
330
1E
100
AcDbEntity
  8
0
100
AcDbLine
 10
147.3189999999999
 20
307.392999
 30
0.0
 11
150.421
 21
307.972999
 31
0.0
  0
LINE
  5
413
330
1E
100
AcDbEntity
  8
0
100
AcDbLine
 10
131.896
 20
307.994999
 30
0.0
 11
131.896
 21
307.330999
 31
0.0
  0
LINE
  5
414
330
1E
100
AcDbEntity
  8
0
100
AcDbLine
 10
128.896
 20
307.994999
 30
0.0
 11
128.896
 21
307.330999
 31
0.0
  0
LINE
  5
415
330
1E
100
AcDbEntity
  8
0
100
AcDbLine
 10
128.896
 20
307.994999
 30
0.0
 11
131.896
 21
307.994999
 31
0.0
  0
LINE
  5
416
330
1E
100
AcDbEntity
  8
0
100
AcDbLine
 10
128.896
 20
307.330999
 30
0.0
 11
128.896
 21
307.994999
 31
0.0
  0
LINE
  5
417
330
1E
100
AcDbEntity
  8
0
100
AcDbLine
 10
128.896
 20
307.330999
 30
0.0
 11
128.896
 21
305.588999
 31
0.0
  0
LINE
  5
418
330
1E
100
AcDbEntity
  8
0
100
AcDbLine
 10
117.896
 20
307.994999
 30
0.0
 11
128.896
 21
307.994999
 31
0.0
  0
LINE
  5
419
330
1E
100
AcDbEntity
  8
0
100
AcDbLine
 10
101.0839999999999
 20
341.9999989999999
 30
0.0
 11
102.5239999999999
 21
341.9999989999999
 31
0.0
  0
LINE
  5
41A
330
1E
100
AcDbEntity
  8
0
100
AcDbLine
 10
100.2199999999999
 20
341.9999989999999
 30
0.0
 11
101.0839999999999
 21
341.9999989999999
 31
0.0
  0
LINE
  5
41B
330
1E
100
AcDbEntity
  8
0
100
AcDbLine
 10
99.89600000000001
 20
341.9999989999999
 30
0.0
 11
99.89600000000001
 21
296.182099
 31
0.0
  0
LINE
  5
41C
330
1E
100
AcDbEntity
  8
0
100
AcDbLine
 10
99.89600000000001
 20
341.9999989999999
 30
0.0
 11
100.2199999999999
 21
341.9999989999999
 31
0.0
  0
LINE
  5
41D
330
1E
100
AcDbEntity
  8
0
100
AcDbLine
 10
106.592
 20
341.9999989999999
 30
0.0
 11
108.8959999999999
 21
341.9999989999999
 31
0.0
  0
LINE
  5
41E
330
1E
100
AcDbEntity
  8
0
100
AcDbLine
 10
104.432
 20
341.9999989999999
 30
0.0
 11
106.592
 21
341.9999989999999
 31
0.0
  0
LINE
  5
41F
330
1E
100
AcDbEntity
  8
0
100
AcDbLine
 10
102.5239999999999
 20
341.9999989999999
 30
0.0
 11
104.432
 21
341.9999989999999
 31
0.0
  0
LINE
  5
420
330
1E
100
AcDbEntity
  8
0
100
AcDbLine
 10
111.2
 20
341.9999989999999
 30
0.0
 11
113.3599999999999
 21
341.9999989999999
 31
0.0
  0
LINE
  5
421
330
1E
100
AcDbEntity
  8
0
100
AcDbLine
 10
113.3599999999999
 20
341.9999989999999
 30
0.0
 11
115.2679999999999
 21
341.9999989999999
 31
0.0
  0
LINE
  5
422
330
1E
100
AcDbEntity
  8
0
100
AcDbLine
 10
115.2679999999999
 20
341.9999989999999
 30
0.0
 11
116.708
 21
341.9999989999999
 31
0.0
  0
LINE
  5
423
330
1E
100
AcDbEntity
  8
0
100
AcDbLine
 10
116.708
 20
341.9999989999999
 30
0.0
 11
117.572
 21
341.9999989999999
 31
0.0
  0
LINE
  5
424
330
1E
100
AcDbEntity
  8
0
100
AcDbLine
 10
117.572
 20
341.9999989999999
 30
0.0
 11
117.896
 21
341.9999989999999
 31
0.0
  0
LINE
  5
425
330
1E
100
AcDbEntity
  8
0
100
AcDbLine
 10
108.8959999999999
 20
341.9999989999999
 30
0.0
 11
116.456
 21
341.9999989999999
 31
0.0
  0
LINE
  5
426
330
1E
100
AcDbEntity
  8
0
100
AcDbLine
 10
108.8959999999999
 20
341.9999989999999
 30
0.0
 11
111.2
 21
341.9999989999999
 31
0.0
  0
LINE
  5
427
330
1E
100
AcDbEntity
  8
0
100
AcDbLine
 10
116.456
 20
341.9999989999999
 30
0.0
 11
123.4159999999999
 21
341.9999989999999
 31
0.0
  0
LINE
  5
428
330
1E
100
AcDbEntity
  8
0
100
AcDbLine
 10
101.336
 20
341.9999989999999
 30
0.0
 11
108.8959999999999
 21
341.9999989999999
 31
0.0
  0
LINE
  5
429
330
1E
100
AcDbEntity
  8
0
100
AcDbLine
 10
94.37600000000001
 20
341.9999989999999
 30
0.0
 11
99.89600000000001
 21
341.9999989999999
 31
0.0
  0
LINE
  5
42A
330
1E
100
AcDbEntity
  8
0
100
AcDbLine
 10
94.37600000000001
 20
341.9999989999999
 30
0.0
 11
101.336
 21
341.9999989999999
 31
0.0
  0
LINE
  5
42B
330
1E
100
AcDbEntity
  8
0
100
AcDbLine
 10
117.896
 20
341.9999989999999
 30
0.0
 11
123.4159999999999
 21
341.9999989999999
 31
0.0
  0
LINE
  5
42C
330
1E
100
AcDbEntity
  8
0
100
AcDbLine
 10
117.896
 20
341.9999989999999
 30
0.0
 11
117.896
 21
296.182099
 31
0.0
  0
LINE
  5
42D
330
1E
100
AcDbEntity
  8
0
100
AcDbLine
 10
123.4159999999999
 20
341.9999989999999
 30
0.0
 11
129.536
 21
341.9999989999999
 31
0.0
  0
LINE
  5
42E
330
1E
100
AcDbEntity
  8
0
100
AcDbLine
 10
129.536
 20
341.9999989999999
 30
0.0
 11
134.216
 21
341.9999989999999
 31
0.0
  0
LINE
  5
42F
330
1E
100
AcDbEntity
  8
0
100
AcDbLine
 10
134.216
 20
341.9999989999999
 30
0.0
 11
137.0959999999999
 21
341.9999989999999
 31
0.0
  0
LINE
  5
430
330
1E
100
AcDbEntity
  8
0
100
AcDbLine
 10
137.0959999999999
 20
341.9999989999999
 30
0.0
 11
138.176
 21
341.9999989999999
 31
0.0
  0
LINE
  5
431
330
1E
100
AcDbEntity
  8
0
100
AcDbLine
 10
94.016
 20
342.599999
 30
0.0
 11
101.216
 21
342.599999
 31
0.0
  0
LINE
  5
432
330
1E
100
AcDbEntity
  8
0
100
AcDbLine
 10
108.8959999999999
 20
342.599999
 30
0.0
 11
116.576
 21
342.599999
 31
0.0
  0
LINE
  5
433
330
1E
100
AcDbEntity
  8
0
100
AcDbLine
 10
116.576
 20
342.599999
 30
0.0
 11
123.776
 21
342.599999
 31
0.0
  0
LINE
  5
434
330
1E
100
AcDbEntity
  8
0
100
AcDbLine
 10
123.776
 20
342.599999
 30
0.0
 11
130.136
 21
342.599999
 31
0.0
  0
LINE
  5
435
330
1E
100
AcDbEntity
  8
0
100
AcDbLine
 10
108.8959999999999
 20
351.999999
 30
0.0
 11
116.576
 21
351.999999
 31
0.0
  0
LINE
  5
436
330
1E
100
AcDbEntity
  8
0
100
AcDbLine
 10
116.576
 20
351.999999
 30
0.0
 11
123.776
 21
351.999999
 31
0.0
  0
LINE
  5
437
330
1E
100
AcDbEntity
  8
0
100
AcDbLine
 10
130.136
 20
342.599999
 30
0.0
 11
134.936
 21
342.599999
 31
0.0
  0
LINE
  5
438
330
1E
100
AcDbEntity
  8
0
100
AcDbLine
 10
134.936
 20
342.599999
 30
0.0
 11
137.816
 21
342.599999
 31
0.0
  0
LINE
  5
439
330
1E
100
AcDbEntity
  8
0
100
AcDbLine
 10
123.776
 20
351.999999
 30
0.0
 11
130.136
 21
351.999999
 31
0.0
  0
LINE
  5
43A
330
1E
100
AcDbEntity
  8
0
100
AcDbLine
 10
130.136
 20
351.999999
 30
0.0
 11
134.936
 21
351.999999
 31
0.0
  0
LINE
  5
43B
330
1E
100
AcDbEntity
  8
0
100
AcDbLine
 10
138.896
 20
351.999999
 30
0.0
 11
138.896
 21
342.599999
 31
0.0
  0
LINE
  5
43C
330
1E
100
AcDbEntity
  8
0
100
AcDbLine
 10
137.816
 20
342.599999
 30
0.0
 11
138.896
 21
342.599999
 31
0.0
  0
LINE
  5
43D
330
1E
100
AcDbEntity
  8
0
100
AcDbLine
 10
134.936
 20
351.999999
 30
0.0
 11
137.816
 21
351.999999
 31
0.0
  0
LINE
  5
43E
330
1E
100
AcDbEntity
  8
0
100
AcDbLine
 10
137.816
 20
351.999999
 30
0.0
 11
138.896
 21
351.999999
 31
0.0
  0
LINE
  5
43F
330
1E
100
AcDbEntity
  8
0
100
AcDbLine
 10
101.216
 20
342.599999
 30
0.0
 11
108.8959999999999
 21
342.599999
 31
0.0
  0
LINE
  5
440
330
1E
100
AcDbEntity
  8
0
100
AcDbLine
 10
101.216
 20
351.999999
 30
0.0
 11
108.8959999999999
 21
351.999999
 31
0.0
  0
LINE
  5
441
330
1E
100
AcDbEntity
  8
0
100
AcDbLine
 10
94.016
 20
351.999999
 30
0.0
 11
101.216
 21
351.999999
 31
0.0
  0
LINE
  5
442
330
1E
100
AcDbEntity
  8
0
100
AcDbLine
 10
138.176
 20
341.9999989999999
 30
0.0
 11
138.896
 21
342.599999
 31
0.0
  0
LINE
  5
443
330
1E
100
AcDbEntity
  8
0
100
AcDbLine
 10
169.8959999999999
 20
311.999999
 30
0.0
 11
169.8959999999999
 21
303.999999
 31
0.0
  0
LINE
  5
444
330
1E
100
AcDbEntity
  8
0
100
AcDbLine
 10
168.9059999999999
 20
311.999999
 30
0.0
 11
169.8959999999999
 21
311.999999
 31
0.0
  0
LINE
  5
445
330
1E
100
AcDbEntity
  8
0
100
AcDbLine
 10
168.317
 20
311.999999
 30
0.0
 11
168.9059999999999
 21
311.999999
 31
0.0
  0
LINE
  5
449
330
1E
100
AcDbEntity
  8
0
100
AcDbLine
 10
198.886
 20
311.999999
 30
0.0
 11
199.4749999999999
 21
311.999999
 31
0.0
  0
LINE
  5
44A
330
1E
100
AcDbEntity
  8
0
100
AcDbLine
 10
197.8959999999999
 20
311.999999
 30
0.0
 11
198.886
 21
311.999999
 31
0.0
  0
LINE
  5
44B
330
1E
100
AcDbEntity
  8
0
100
AcDbLine
 10
197.8959999999999
 20
311.999999
 30
0.0
 11
197.8959999999999
 21
303.999999
 31
0.0
  0
LINE
  5
44C
330
1E
100
AcDbEntity
  8
0
100
AcDbLine
 10
167.896
 20
312.099999
 30
0.0
 11
167.896
 21
312.239999
 31
0.0
  0
LINE
  5
44D
330
1E
100
AcDbEntity
  8
0
100
AcDbLine
 10
167.896
 20
312.099999
 30
0.0
 11
168.317
 21
311.999999
 31
0.0
  0
LINE
  5
450
330
1E
100
AcDbEntity
  8
0
100
AcDbLine
 10
199.4749999999999
 20
311.999999
 30
0.0
 11
199.8959999999999
 21
312.099999
 31
0.0
  0
LINE
  5
451
330
1E
100
AcDbEntity
  8
0
100
AcDbLine
 10
167.896
 20
312.239999
 30
0.0
 11
167.896
 21
312.9999989999999
 31
0.0
  0
LINE
  5
452
330
1E
100
AcDbEntity
  8
0
100
AcDbLine
 10
167.896
 20
312.239999
 30
0.0
 11
167.896
 21
312.099999
 31
0.0
  0
LINE
  5
453
330
1E
100
AcDbEntity
  8
0
100
AcDbLine
 10
175.7509999999999
 20
312.201999
 30
0.0
 11
179.544
 21
312.418999
 31
0.0
  0
LINE
  5
456
330
1E
100
AcDbEntity
  8
0
100
AcDbLine
 10
192.041
 20
312.201999
 30
0.0
 11
195.854
 21
312.363999
 31
0.0
  0
LINE
  5
457
330
1E
100
AcDbEntity
  8
0
100
AcDbLine
 10
179.544
 20
312.418999
 30
0.0
 11
181.919
 21
312.9999989999999
 31
0.0
  0
LINE
  5
459
330
1E
100
AcDbEntity
  8
0
100
AcDbLine
 10
171.9379999999999
 20
312.363999
 30
0.0
 11
175.7509999999999
 21
312.201999
 31
0.0
  0
LINE
  5
45E
330
1E
100
AcDbEntity
  8
0
100
AcDbLine
 10
195.854
 20
312.363999
 30
0.0
 11
198.525
 21
312.9999989999999
 31
0.0
  0
LINE
  5
460
330
1E
100
AcDbEntity
  8
0
100
AcDbLine
 10
168.233
 20
312.9999989999999
 30
0.0
 11
169.2669999999999
 21
312.9999989999999
 31
0.0
  0
LINE
  5
461
330
1E
100
AcDbEntity
  8
0
100
AcDbLine
 10
167.896
 20
312.9999989999999
 30
0.0
 11
167.896
 21
312.239999
 31
0.0
  0
LINE
  5
462
330
1E
100
AcDbEntity
  8
0
100
AcDbLine
 10
167.896
 20
312.9999989999999
 30
0.0
 11
167.896
 21
313.999999
 31
0.0
  0
LINE
  5
463
330
1E
100
AcDbEntity
  8
0
100
AcDbLine
 10
167.896
 20
312.9999989999999
 30
0.0
 11
168.233
 21
312.9999989999999
 31
0.0
  0
LINE
  5
465
330
1E
100
AcDbEntity
  8
0
100
AcDbLine
 10
181.919
 20
312.9999989999999
 30
0.0
 11
183.8959999999999
 21
312.9999989999999
 31
0.0
  0
LINE
  5
466
330
1E
100
AcDbEntity
  8
0
100
AcDbLine
 10
169.2669999999999
 20
312.9999989999999
 30
0.0
 11
171.9379999999999
 21
312.363999
 31
0.0
  0
LINE
  5
468
330
1E
100
AcDbEntity
  8
0
100
AcDbLine
 10
167.896
 20
313.999999
 30
0.0
 11
167.896
 21
323.999999
 31
0.0
  0
LINE
  5
469
330
1E
100
AcDbEntity
  8
0
100
AcDbLine
 10
167.896
 20
313.999999
 30
0.0
 11
167.896
 21
312.9999989999999
 31
0.0
  0
LINE
  5
46A
330
1E
100
AcDbEntity
  8
0
100
AcDbLine
 10
167.896
 20
323.999999
 30
0.0
 11
167.896
 21
324.999999
 31
0.0
  0
LINE
  5
46B
330
1E
100
AcDbEntity
  8
0
100
AcDbLine
 10
167.896
 20
323.999999
 30
0.0
 11
167.896
 21
313.999999
 31
0.0
  0
LINE
  5
46E
330
1E
100
AcDbEntity
  8
0
100
AcDbLine
 10
167.896
 20
323.999999
 30
0.0
 11
169.2669999999999
 21
324.999999
 31
0.0
  0
LINE
  5
470
330
1E
100
AcDbEntity
  8
0
100
AcDbLine
 10
183.8959999999999
 20
312.9999989999999
 30
0.0
 11
185.8729999999999
 21
312.9999989999999
 31
0.0
  0
LINE
  5
472
330
1E
100
AcDbEntity
  8
0
100
AcDbLine
 10
198.525
 20
312.9999989999999
 30
0.0
 11
199.559
 21
312.9999989999999
 31
0.0
  0
LINE
  5
473
330
1E
100
AcDbEntity
  8
0
100
AcDbLine
 10
199.8959999999999
 20
312.9999989999999
 30
0.0
 11
199.8959999999999
 21
312.239999
 31
0.0
  0
LINE
  5
474
330
1E
100
AcDbEntity
  8
0
100
AcDbLine
 10
199.559
 20
312.9999989999999
 30
0.0
 11
199.8959999999999
 21
312.9999989999999
 31
0.0
  0
LINE
  5
476
330
1E
100
AcDbEntity
  8
0
100
AcDbLine
 10
185.8729999999999
 20
312.9999989999999
 30
0.0
 11
188.2479999999999
 21
312.418999
 31
0.0
  0
LINE
  5
477
330
1E
100
AcDbEntity
  8
0
100
AcDbLine
 10
188.2479999999999
 20
312.418999
 30
0.0
 11
192.041
 21
312.201999
 31
0.0
  0
LINE
  5
478
330
1E
100
AcDbEntity
  8
0
100
AcDbLine
 10
199.8959999999999
 20
312.9999989999999
 30
0.0
 11
199.8959999999999
 21
323.999999
 31
0.0
  0
LINE
  5
47C
330
1E
100
AcDbEntity
  8
0
100
AcDbLine
 10
167.896
 20
324.999999
 30
0.0
 11
167.896
 21
325.759999
 31
0.0
  0
LINE
  5
47D
330
1E
100
AcDbEntity
  8
0
100
AcDbLine
 10
167.896
 20
324.999999
 30
0.0
 11
167.896
 21
323.999999
 31
0.0
  0
LINE
  5
47F
330
1E
100
AcDbEntity
  8
0
100
AcDbLine
 10
181.919
 20
324.999999
 30
0.0
 11
183.8959999999999
 21
324.999999
 31
0.0
  0
LINE
  5
480
330
1E
100
AcDbEntity
  8
0
100
AcDbLine
 10
169.2669999999999
 20
324.999999
 30
0.0
 11
171.9379999999999
 21
325.635999
 31
0.0
  0
LINE
  5
483
330
1E
100
AcDbEntity
  8
0
100
AcDbLine
 10
183.8959999999999
 20
324.999999
 30
0.0
 11
185.8729999999999
 21
324.999999
 31
0.0
  0
LINE
  5
486
330
1E
100
AcDbEntity
  8
0
100
AcDbLine
 10
179.544
 20
325.580999
 30
0.0
 11
181.919
 21
324.999999
 31
0.0
  0
LINE
  5
48A
330
1E
100
AcDbEntity
  8
0
100
AcDbLine
 10
171.9379999999999
 20
325.635999
 30
0.0
 11
175.7509999999999
 21
325.7979989999999
 31
0.0
  0
LINE
  5
48C
330
1E
100
AcDbEntity
  8
0
100
AcDbLine
 10
167.896
 20
325.759999
 30
0.0
 11
167.896
 21
324.999999
 31
0.0
  0
LINE
  5
48D
330
1E
100
AcDbEntity
  8
0
100
AcDbLine
 10
167.896
 20
325.759999
 30
0.0
 11
167.896
 21
325.899999
 31
0.0
  0
LINE
  5
491
330
1E
100
AcDbEntity
  8
0
100
AcDbLine
 10
155.796
 20
325.999999
 30
0.0
 11
160.896
 21
325.999999
 31
0.0
  0
LINE
  5
492
330
1E
100
AcDbEntity
  8
0
100
AcDbLine
 10
152.5959999999999
 20
325.999999
 30
0.0
 11
155.796
 21
325.999999
 31
0.0
  0
LINE
  5
493
330
1E
100
AcDbEntity
  8
0
100
AcDbLine
 10
151.396
 20
325.999999
 30
0.0
 11
152.5959999999999
 21
325.999999
 31
0.0
  0
LINE
  5
494
330
1E
100
AcDbEntity
  8
0
100
AcDbLine
 10
160.896
 20
325.999999
 30
0.0
 11
167.696
 21
325.999999
 31
0.0
  0
LINE
  5
495
330
1E
100
AcDbEntity
  8
0
100
AcDbLine
 10
167.696
 20
325.999999
 30
0.0
 11
168.317
 21
325.999999
 31
0.0
  0
LINE
  5
496
330
1E
100
AcDbEntity
  8
0
100
AcDbLine
 10
168.317
 20
325.999999
 30
0.0
 11
168.9059999999999
 21
325.999999
 31
0.0
  0
LINE
  5
497
330
1E
100
AcDbEntity
  8
0
100
AcDbLine
 10
167.896
 20
325.899999
 30
0.0
 11
167.896
 21
325.759999
 31
0.0
  0
LINE
  5
498
330
1E
100
AcDbEntity
  8
0
100
AcDbLine
 10
167.896
 20
325.899999
 30
0.0
 11
168.317
 21
325.999999
 31
0.0
  0
LINE
  5
499
330
1E
100
AcDbEntity
  8
0
100
AcDbLine
 10
172.865
 20
325.999999
 30
0.0
 11
176.149
 21
325.999999
 31
0.0
  0
LINE
  5
49B
330
1E
100
AcDbEntity
  8
0
100
AcDbLine
 10
176.149
 20
325.999999
 30
0.0
 11
179.854
 21
325.999999
 31
0.0
  0
LINE
  5
49D
330
1E
100
AcDbEntity
  8
0
100
AcDbLine
 10
170.422
 20
325.999999
 30
0.0
 11
172.865
 21
325.999999
 31
0.0
  0
LINE
  5
49E
330
1E
100
AcDbEntity
  8
0
100
AcDbLine
 10
168.9059999999999
 20
325.999999
 30
0.0
 11
170.422
 21
325.999999
 31
0.0
  0
LINE
  5
49F
330
1E
100
AcDbEntity
  8
0
100
AcDbLine
 10
175.7509999999999
 20
325.7979989999999
 30
0.0
 11
179.544
 21
325.580999
 31
0.0
  0
LINE
  5
4A1
330
1E
100
AcDbEntity
  8
0
100
AcDbLine
 10
179.854
 20
325.999999
 30
0.0
 11
183.8959999999999
 21
325.999999
 31
0.0
  0
LINE
  5
4A5
330
1E
100
AcDbEntity
  8
0
100
AcDbLine
 10
183.8959999999999
 20
325.999999
 30
0.0
 11
187.9379999999999
 21
325.999999
 31
0.0
  0
LINE
  5
4A7
330
1E
100
AcDbEntity
  8
0
100
AcDbLine
 10
185.8729999999999
 20
324.999999
 30
0.0
 11
188.2479999999999
 21
325.580999
 31
0.0
  0
LINE
  5
4AB
330
1E
100
AcDbEntity
  8
0
100
AcDbLine
 10
197.37
 20
325.999999
 30
0.0
 11
198.886
 21
325.999999
 31
0.0
  0
LINE
  5
4AE
330
1E
100
AcDbEntity
  8
0
100
AcDbLine
 10
194.928
 20
325.999999
 30
0.0
 11
197.37
 21
325.999999
 31
0.0
  0
LINE
  5
4AF
330
1E
100
AcDbEntity
  8
0
100
AcDbLine
 10
192.041
 20
325.7979989999999
 30
0.0
 11
195.854
 21
325.635999
 31
0.0
  0
LINE
  5
4B1
330
1E
100
AcDbEntity
  8
0
100
AcDbLine
 10
195.854
 20
325.635999
 30
0.0
 11
198.525
 21
324.999999
 31
0.0
  0
LINE
  5
4B6
330
1E
100
AcDbEntity
  8
0
100
AcDbLine
 10
198.525
 20
324.999999
 30
0.0
 11
199.8959999999999
 21
323.999999
 31
0.0
  0
LINE
  5
4B8
330
1E
100
AcDbEntity
  8
0
100
AcDbLine
 10
191.643
 20
325.999999
 30
0.0
 11
194.928
 21
325.999999
 31
0.0
  0
LINE
  5
4BA
330
1E
100
AcDbEntity
  8
0
100
AcDbLine
 10
188.2479999999999
 20
325.580999
 30
0.0
 11
192.041
 21
325.7979989999999
 31
0.0
  0
LINE
  5
4BB
330
1E
100
AcDbEntity
  8
0
100
AcDbLine
 10
149.896
 20
351.999999
 30
0.0
 11
151.096
 21
351.999999
 31
0.0
  0
LINE
  5
4BC
330
1E
100
AcDbEntity
  8
0
100
AcDbLine
 10
149.896
 20
351.999999
 30
0.0
 11
149.896
 21
327.4999989999999
 31
0.0
  0
LINE
  5
4BD
330
1E
100
AcDbEntity
  8
0
100
AcDbLine
 10
154.896
 20
326.499999
 30
0.0
 11
160.196
 21
326.499999
 31
0.0
  0
LINE
  5
4BE
330
1E
100
AcDbEntity
  8
0
100
AcDbLine
 10
151.5959999999999
 20
326.499999
 30
0.0
 11
154.896
 21
326.499999
 31
0.0
  0
LINE
  5
4BF
330
1E
100
AcDbEntity
  8
0
100
AcDbLine
 10
160.196
 20
326.499999
 30
0.0
 11
167.196
 21
326.499999
 31
0.0
  0
LINE
  5
4C0
330
1E
100
AcDbEntity
  8
0
100
AcDbLine
 10
167.196
 20
326.499999
 30
0.0
 11
175.2959999999999
 21
326.499999
 31
0.0
  0
LINE
  5
4C1
330
1E
100
AcDbEntity
  8
0
100
AcDbLine
 10
192.4959999999999
 20
326.499999
 30
0.0
 11
200.5959999999999
 21
326.499999
 31
0.0
  0
LINE
  5
4C2
330
1E
100
AcDbEntity
  8
0
100
AcDbLine
 10
183.8959999999999
 20
326.499999
 30
0.0
 11
192.4959999999999
 21
326.499999
 31
0.0
  0
LINE
  5
4C3
330
1E
100
AcDbEntity
  8
0
100
AcDbLine
 10
175.2959999999999
 20
326.499999
 30
0.0
 11
183.8959999999999
 21
326.499999
 31
0.0
  0
LINE
  5
4C4
330
1E
100
AcDbEntity
  8
0
100
AcDbLine
 10
154.496
 20
351.999999
 30
0.0
 11
159.896
 21
351.999999
 31
0.0
  0
LINE
  5
4C5
330
1E
100
AcDbEntity
  8
0
100
AcDbLine
 10
151.096
 20
351.999999
 30
0.0
 11
154.496
 21
351.999999
 31
0.0
  0
LINE
  5
4C6
330
1E
100
AcDbEntity
  8
0
100
AcDbLine
 10
159.896
 20
351.999999
 30
0.0
 11
166.9959999999999
 21
351.999999
 31
0.0
  0
LINE
  5
4C7
330
1E
100
AcDbEntity
  8
0
100
AcDbLine
 10
166.9959999999999
 20
351.999999
 30
0.0
 11
175.1959999999999
 21
351.999999
 31
0.0
  0
LINE
  5
4C8
330
1E
100
AcDbEntity
  8
0
100
AcDbLine
 10
192.5959999999999
 20
351.999999
 30
0.0
 11
200.7959999999999
 21
351.999999
 31
0.0
  0
LINE
  5
4C9
330
1E
100
AcDbEntity
  8
0
100
AcDbLine
 10
183.8959999999999
 20
351.999999
 30
0.0
 11
192.5959999999999
 21
351.999999
 31
0.0
  0
LINE
  5
4CA
330
1E
100
AcDbEntity
  8
0
100
AcDbLine
 10
175.1959999999999
 20
351.999999
 30
0.0
 11
183.8959999999999
 21
351.999999
 31
0.0
  0
LINE
  5
4CB
330
1E
100
AcDbEntity
  8
0
100
AcDbLine
 10
150.396
 20
326.499999
 30
0.0
 11
151.396
 21
325.999999
 31
0.0
  0
LINE
  5
4CC
330
1E
100
AcDbEntity
  8
0
100
AcDbLine
 10
150.396
 20
326.499999
 30
0.0
 11
151.5959999999999
 21
326.499999
 31
0.0
  0
LINE
  5
4CD
330
1E
100
AcDbEntity
  8
0
100
AcDbLine
 10
149.896
 20
327.4999989999999
 30
0.0
 11
149.896
 21
351.999999
 31
0.0
  0
LINE
  5
4CE
330
1E
100
AcDbEntity
  8
0
100
AcDbLine
 10
149.896
 20
327.4999989999999
 30
0.0
 11
150.396
 21
326.499999
 31
0.0
  0
LINE
  5
4CF
330
1E
100
AcDbEntity
  8
0
100
AcDbLine
 10
187.9379999999999
 20
325.999999
 30
0.0
 11
191.643
 21
325.999999
 31
0.0
  0
LINE
  5
4D3
330
1E
100
AcDbEntity
  8
0
100
AcDbLine
 10
199.4749999999999
 20
325.999999
 30
0.0
 11
199.8959999999999
 21
325.899999
 31
0.0
  0
LINE
  5
4D4
330
1E
100
AcDbEntity
  8
0
100
AcDbLine
 10
199.4749999999999
 20
325.999999
 30
0.0
 11
200.0959999999999
 21
325.999999
 31
0.0
  0
LINE
  5
4D5
330
1E
100
AcDbEntity
  8
0
100
AcDbLine
 10
199.8959999999999
 20
325.899999
 30
0.0
 11
199.8959999999999
 21
325.759999
 31
0.0
  0
LINE
  5
4D7
330
1E
100
AcDbEntity
  8
0
100
AcDbLine
 10
198.886
 20
325.999999
 30
0.0
 11
199.4749999999999
 21
325.999999
 31
0.0
  0
LINE
  5
4D8
330
1E
100
AcDbEntity
  8
0
100
AcDbLine
 10
199.8959999999999
 20
323.999999
 30
0.0
 11
199.8959999999999
 21
324.999999
 31
0.0
  0
LINE
  5
4D9
330
1E
100
AcDbEntity
  8
0
100
AcDbLine
 10
199.8959999999999
 20
323.999999
 30
0.0
 11
199.8959999999999
 21
312.9999989999999
 31
0.0
  0
LINE
  5
4DA
330
1E
100
AcDbEntity
  8
0
100
AcDbLine
 10
199.8959999999999
 20
324.999999
 30
0.0
 11
199.8959999999999
 21
325.759999
 31
0.0
  0
LINE
  5
4DB
330
1E
100
AcDbEntity
  8
0
100
AcDbLine
 10
199.8959999999999
 20
324.999999
 30
0.0
 11
199.8959999999999
 21
323.999999
 31
0.0
  0
LINE
  5
4DC
330
1E
100
AcDbEntity
  8
0
100
AcDbLine
 10
199.8959999999999
 20
312.239999
 30
0.0
 11
199.8959999999999
 21
312.9999989999999
 31
0.0
  0
LINE
  5
4DD
330
1E
100
AcDbEntity
  8
0
100
AcDbLine
 10
199.8959999999999
 20
312.239999
 30
0.0
 11
199.8959999999999
 21
312.099999
 31
0.0
  0
LINE
  5
4DE
330
1E
100
AcDbEntity
  8
0
100
AcDbLine
 10
200.0959999999999
 20
325.999999
 30
0.0
 11
206.8959999999999
 21
325.999999
 31
0.0
  0
LINE
  5
4DF
330
1E
100
AcDbEntity
  8
0
100
AcDbLine
 10
206.8959999999999
 20
325.999999
 30
0.0
 11
211.9959999999999
 21
325.999999
 31
0.0
  0
LINE
  5
4E0
330
1E
100
AcDbEntity
  8
0
100
AcDbLine
 10
211.9959999999999
 20
325.999999
 30
0.0
 11
215.1959999999999
 21
325.999999
 31
0.0
  0
LINE
  5
4E1
330
1E
100
AcDbEntity
  8
0
100
AcDbLine
 10
216.3959999999999
 20
325.999999
 30
0.0
 11
217.396
 21
326.499999
 31
0.0
  0
LINE
  5
4E2
330
1E
100
AcDbEntity
  8
0
100
AcDbLine
 10
200.5959999999999
 20
326.499999
 30
0.0
 11
207.5959999999999
 21
326.499999
 31
0.0
  0
LINE
  5
4E3
330
1E
100
AcDbEntity
  8
0
100
AcDbLine
 10
207.5959999999999
 20
326.499999
 30
0.0
 11
212.8959999999999
 21
326.499999
 31
0.0
  0
LINE
  5
4E4
330
1E
100
AcDbEntity
  8
0
100
AcDbLine
 10
212.8959999999999
 20
326.499999
 30
0.0
 11
216.196
 21
326.499999
 31
0.0
  0
LINE
  5
4E5
330
1E
100
AcDbEntity
  8
0
100
AcDbLine
 10
207.8959999999999
 20
351.999999
 30
0.0
 11
213.2959999999999
 21
351.999999
 31
0.0
  0
LINE
  5
4E6
330
1E
100
AcDbEntity
  8
0
100
AcDbLine
 10
216.196
 20
326.499999
 30
0.0
 11
217.396
 21
326.499999
 31
0.0
  0
LINE
  5
4E7
330
1E
100
AcDbEntity
  8
0
100
AcDbLine
 10
213.2959999999999
 20
351.999999
 30
0.0
 11
216.6959999999999
 21
351.999999
 31
0.0
  0
LINE
  5
4E8
330
1E
100
AcDbEntity
  8
0
100
AcDbLine
 10
216.6959999999999
 20
351.999999
 30
0.0
 11
217.896
 21
351.999999
 31
0.0
  0
LINE
  5
4E9
330
1E
100
AcDbEntity
  8
0
100
AcDbLine
 10
200.7959999999999
 20
351.999999
 30
0.0
 11
207.8959999999999
 21
351.999999
 31
0.0
  0
LINE
  5
4EA
330
1E
100
AcDbEntity
  8
0
100
AcDbLine
 10
215.1959999999999
 20
325.999999
 30
0.0
 11
216.3959999999999
 21
325.999999
 31
0.0
  0
LINE
  5
4EB
330
1E
100
AcDbEntity
  8
0
100
AcDbLine
 10
217.896
 20
327.4999989999999
 30
0.0
 11
217.896
 21
351.999999
 31
0.0
  0
LINE
  5
4EC
330
1E
100
AcDbEntity
  8
0
100
AcDbLine
 10
217.396
 20
326.499999
 30
0.0
 11
217.896
 21
327.4999989999999
 31
0.0
  0
LINE
  5
4ED
330
1E
100
AcDbEntity
  8
0
100
AcDbLine
 10
217.896
 20
351.999999
 30
0.0
 11
217.896
 21
327.4999989999999
 31
0.0
  0
LINE
  5
4EE
330
1E
100
AcDbEntity
  8
0
100
AcDbLine
 10
199.8959999999999
 20
325.759999
 30
0.0
 11
199.8959999999999
 21
325.899999
 31
0.0
  0
LINE
  5
4EF
330
1E
100
AcDbEntity
  8
0
100
AcDbLine
 10
199.8959999999999
 20
325.759999
 30
0.0
 11
199.8959999999999
 21
324.999999
 31
0.0
  0
LINE
  5
4F0
330
1E
100
AcDbEntity
  8
0
100
AcDbLine
 10
199.8959999999999
 20
312.099999
 30
0.0
 11
199.8959999999999
 21
312.239999
 31
0.0
  0
LINE
  5
4F1
330
1E
100
AcDbEntity
  8
0
100
AcDbLine
 10
138.896
 20
342.599999
 30
0.0
 11
138.896
 21
351.999999
 31
0.0
  0
LINE
  5
4F2
330
1E
100
AcDbEntity
  8
0
100
AcDbLine
 10
92.31700000000001
 20
307.994999
 30
0.0
 11
99.89600000000001
 21
307.994999
 31
0.0
  0
LINE
  5
4F3
330
1E
100
AcDbEntity
  8
0
100
AcDbLine
 10
91.56299999999999
 20
307.512999
 30
0.0
 11
91.56299999999999
 21
306.920999
 31
0.0
  0
LINE
  5
4F4
330
1E
100
AcDbEntity
  8
0
100
AcDbLine
 10
91.56299999999999
 20
307.512999
 30
0.0
 11
92.31700000000001
 21
307.994999
 31
0.0
  0
LINE
  5
4F5
330
1E
100
AcDbEntity
  8
0
100
AcDbLine
 10
91.56299999999999
 20
306.920999
 30
0.0
 11
91.56299999999999
 21
307.512999
 31
0.0
  0
LINE
  5
4F6
330
1E
100
AcDbEntity
  8
0
100
AcDbLine
 10
91.56299999999999
 20
306.920999
 30
0.0
 11
91.56299999999999
 21
305.213999
 31
0.0
  0
LINE
  5
4F7
330
1E
100
AcDbEntity
  8
0
100
AcDbLine
 10
90.80899999999999
 20
307.994999
 30
0.0
 11
91.56299999999999
 21
307.512999
 31
0.0
  0
ENDSEC
  0
SECTION
  2
OBJECTS
  0
DICTIONARY
  5
C
330
0
100
AcDbDictionary
281
     1
  3
ACAD_GROUP
350
D
  3
ACAD_LAYOUT
350
19
  3
ACAD_MLINESTYLE
350
16
  3
ACAD_PLOTSETTINGS
350
18
  3
ACAD_PLOTSTYLENAME
350
E
  3
AcDbVariableDictionary
350
4FD
  0
DICTIONARY
  5
D
102
{ACAD_REACTORS
330
C
102
}
330
C
100
AcDbDictionary
281
     1
  0
DICTIONARY
  5
19
102
{ACAD_REACTORS
330
C
102
}
330
C
100
AcDbDictionary
281
     1
  3
Layout1
350
1D
  3
Model
350
21
  0
DICTIONARY
  5
16
102
{ACAD_REACTORS
330
C
102
}
330
C
100
AcDbDictionary
281
     1
  3
Standard
350
17
  0
DICTIONARY
  5
18
102
{ACAD_REACTORS
330
C
102
}
330
C
100
AcDbDictionary
281
     1
  0
ACDBDICTIONARYWDFLT
  5
E
102
{ACAD_REACTORS
330
C
102
}
330
C
100
AcDbDictionary
281
     1
  3
Normal
350
F
100
AcDbDictionaryWithDefault
340
F
  0
DICTIONARY
  5
4FD
102
{ACAD_REACTORS
330
C
102
}
330
C
100
AcDbDictionary
281
     1
  3
DIMASSOC
350
4FE
  0
LAYOUT
  5
1D
102
{ACAD_REACTORS
330
19
102
}
330
19
100
AcDbPlotSettings
  1

  2
C:\Programme\AutoCAD LT 2002 Deu\plotters\DWF ePlot (optimized for plotting).pc3
  4

  6

 40
0.0
 41
0.0
 42
0.0
 43
0.0
 44
0.0
 45
0.0
 46
0.0
 47
0.0
 48
0.0
 49
0.0
140
0.0
141
0.0
142
1.0
143
1.0
 70
   688
 72
     0
 73
     0
 74
     5
  7

 75
    16
147
1.0
148
0.0
149
0.0
100
AcDbLayout
  1
Layout1
 70
     1
 71
     1
 10
0.0
 20
0.0
 11
12.0
 21
9.0
 12
0.0
 22
0.0
 32
0.0
 14
1.000000000000000E+20
 24
1.000000000000000E+20
 34
1.000000000000000E+20
 15
-1.000000000000000E+20
 25
-1.000000000000000E+20
 35
-1.000000000000000E+20
146
0.0
 13
0.0
 23
0.0
 33
0.0
 16
1.0
 26
0.0
 36
0.0
 17
0.0
 27
1.0
 37
0.0
 76
     0
330
1A
  0
LAYOUT
  5
21
102
{ACAD_REACTORS
330
19
102
}
330
19
100
AcDbPlotSettings
  1

  2
C:\Programme\AutoCAD LT 2002 Deu\plotters\DWF ePlot (optimized for plotting).pc3
  4

  6

 40
0.0
 41
0.0
 42
0.0
 43
0.0
 44
0.0
 45
0.0
 46
0.0
 47
0.0
 48
0.0
 49
0.0
140
0.0
141
0.0
142
1.0
143
1.0
 70
  1712
 72
     0
 73
     0
 74
     0
  7

 75
     0
147
1.0
148
0.0
149
0.0
100
AcDbLayout
  1
Model
 70
     1
 71
     0
 10
0.0
 20
0.0
 11
12.0
 21
9.0
 12
0.0
 22
0.0
 32
0.0
 14
0.0
 24
0.0
 34
0.0
 15
0.0
 25
0.0
 35
0.0
146
0.0
 13
0.0
 23
0.0
 33
0.0
 16
1.0
 26
0.0
 36
0.0
 17
0.0
 27
1.0
 37
0.0
 76
     0
330
1E
  0
MLINESTYLE
  5
17
102
{ACAD_REACTORS
330
16
102
}
330
16
100
AcDbMlineStyle
  2
STANDARD
 70
     0
  3

 62
   256
 51
90.0
 52
90.0
 71
     2
 49
0.5
 62
   256
  6
BYLAYER
 49
-0.5
 62
   256
  6
BYLAYER
  0
ACDBPLACEHOLDER
  5
F
102
{ACAD_REACTORS
330
E
102
}
330
E
  0
DICTIONARYVAR
  5
4FE
102
{ACAD_REACTORS
330
4FD
102
}
330
4FD
100
DictionaryVariables
280
     0
  1
1
  0
ENDSEC
  0
EOF
