  0
SECTION
  2
HEADER
  9
$ACADVER
  1
AC1015
  9
$ACADMAINTVER
 70
    13
  9
$DWGCODEPAGE
  3
ANSI_1252
  9
$INSBASE
 10
0.0
 20
0.0
 30
0.0
  9
$EXTMIN
 10
0.0
 20
0.203761999999985
 30
0.0
  9
$EXTMAX
 10
100.0
 20
165.7962379999999
 30
0.0
  9
$LIMMIN
 10
0.0
 20
0.0
  9
$LIMMAX
 10
12.0
 20
9.0
  9
$ORTHOMODE
 70
     0
  9
$REGENMODE
 70
     1
  9
$FILLMODE
 70
     1
  9
$QTEXTMODE
 70
     0
  9
$MIRRTEXT
 70
     1
  9
$LTSCALE
 40
1.0
  9
$ATTMODE
 70
     1
  9
$TEXTSIZE
 40
0.2
  9
$TRACEWID
 40
0.05
  9
$TEXTSTYLE
  7
Standard
  9
$CLAYER
  8
0
  9
$CELTYPE
  6
Continuous
  9
$CECOLOR
 62
   256
  9
$CELTSCALE
 40
1.0
  9
$DISPSILH
 70
     0
  9
$DIMSCALE
 40
1.0
  9
$DIMASZ
 40
0.18
  9
$DIMEXO
 40
0.0625
  9
$DIMDLI
 40
0.38
  9
$DIMRND
 40
0.0
  9
$DIMDLE
 40
0.0
  9
$DIMEXE
 40
0.18
  9
$DIMTP
 40
0.0
  9
$DIMTM
 40
0.0
  9
$DIMTXT
 40
0.18
  9
$DIMCEN
 40
0.09
  9
$DIMTSZ
 40
0.0
  9
$DIMTOL
 70
     0
  9
$DIMLIM
 70
     0
  9
$DIMTIH
 70
     1
  9
$DIMTOH
 70
     1
  9
$DIMSE1
 70
     0
  9
$DIMSE2
 70
     0
  9
$DIMTAD
 70
     0
  9
$DIMZIN
 70
     0
  9
$DIMBLK
  1

  9
$DIMASO
 70
     1
  9
$DIMSHO
 70
     1
  9
$DIMPOST
  1

  9
$DIMAPOST
  1

  9
$DIMALT
 70
     0
  9
$DIMALTD
 70
     2
  9
$DIMALTF
 40
25.4
  9
$DIMLFAC
 40
1.0
  9
$DIMTOFL
 70
     0
  9
$DIMTVP
 40
0.0
  9
$DIMTIX
 70
     0
  9
$DIMSOXD
 70
     0
  9
$DIMSAH
 70
     0
  9
$DIMBLK1
  1

  9
$DIMBLK2
  1

  9
$DIMSTYLE
  2
Standard
  9
$DIMCLRD
 70
     0
  9
$DIMCLRE
 70
     0
  9
$DIMCLRT
 70
     0
  9
$DIMTFAC
 40
1.0
  9
$DIMGAP
 40
0.09
  9
$DIMJUST
 70
     0
  9
$DIMSD1
 70
     0
  9
$DIMSD2
 70
     0
  9
$DIMTOLJ
 70
     1
  9
$DIMTZIN
 70
     0
  9
$DIMALTZ
 70
     0
  9
$DIMALTTZ
 70
     0
  9
$DIMUPT
 70
     0
  9
$DIMDEC
 70
     4
  9
$DIMTDEC
 70
     4
  9
$DIMALTU
 70
     2
  9
$DIMALTTD
 70
     2
  9
$DIMTXSTY
  7
Standard
  9
$DIMAUNIT
 70
     0
  9
$DIMADEC
 70
     0
  9
$DIMALTRND
 40
0.0
  9
$DIMAZIN
 70
     0
  9
$DIMDSEP
 70
    46
  9
$DIMATFIT
 70
     3
  9
$DIMFRAC
 70
     0
  9
$DIMLDRBLK
  1

  9
$DIMLUNIT
 70
     2
  9
$DIMLWD
 70
    -2
  9
$DIMLWE
 70
    -2
  9
$DIMTMOVE
 70
     0
  9
$LUNITS
 70
     2
  9
$LUPREC
 70
     4
  9
$SKETCHINC
 40
0.1
  9
$FILLETRAD
 40
0.0
  9
$AUNITS
 70
     0
  9
$AUPREC
 70
     0
  9
$MENU
  1
.
  9
$ELEVATION
 40
0.0
  9
$PELEVATION
 40
0.0
  9
$THICKNESS
 40
0.0
  9
$LIMCHECK
 70
     0
  9
$CHAMFERA
 40
0.0
  9
$CHAMFERB
 40
0.0
  9
$CHAMFERC
 40
0.0
  9
$CHAMFERD
 40
0.0
  9
$SKPOLY
 70
     0
  9
$TDCREATE
 40
2455656.860715359
  9
$TDUCREATE
 40
2455656.777382025
  9
$TDUPDATE
 40
2455656.866570393
  9
$TDUUPDATE
 40
2455656.783237059
  9
$TDINDWG
 40
0.0058550347
  9
$TDUSRTIMER
 40
0.0058550347
  9
$USRTIMER
 70
     1
  9
$ANGBASE
 50
0.0
  9
$ANGDIR
 70
     0
  9
$PDMODE
 70
     0
  9
$PDSIZE
 40
0.0
  9
$PLINEWID
 40
0.0
  9
$SPLFRAME
 70
     0
  9
$SPLINETYPE
 70
     6
  9
$SPLINESEGS
 70
     8
  9
$HANDSEED
  5
7C0
  9
$SURFTAB1
 70
     6
  9
$SURFTAB2
 70
     6
  9
$SURFTYPE
 70
     6
  9
$SURFU
 70
     6
  9
$SURFV
 70
     6
  9
$UCSBASE
  2

  9
$UCSNAME
  2

  9
$UCSORG
 10
0.0
 20
0.0
 30
0.0
  9
$UCSXDIR
 10
1.0
 20
0.0
 30
0.0
  9
$UCSYDIR
 10
0.0
 20
1.0
 30
0.0
  9
$UCSORTHOREF
  2

  9
$UCSORTHOVIEW
 70
     1
  9
$UCSORGTOP
 10
0.0
 20
0.0
 30
0.0
  9
$UCSORGBOTTOM
 10
0.0
 20
0.0
 30
0.0
  9
$UCSORGLEFT
 10
0.0
 20
0.0
 30
0.0
  9
$UCSORGRIGHT
 10
0.0
 20
0.0
 30
0.0
  9
$UCSORGFRONT
 10
0.0
 20
0.0
 30
0.0
  9
$UCSORGBACK
 10
0.0
 20
0.0
 30
0.0
  9
$PUCSBASE
  2

  9
$PUCSNAME
  2

  9
$PUCSORG
 10
0.0
 20
0.0
 30
0.0
  9
$PUCSXDIR
 10
1.0
 20
0.0
 30
0.0
  9
$PUCSYDIR
 10
0.0
 20
1.0
 30
0.0
  9
$PUCSORTHOREF
  2

  9
$PUCSORTHOVIEW
 70
     0
  9
$PUCSORGTOP
 10
0.0
 20
0.0
 30
0.0
  9
$PUCSORGBOTTOM
 10
0.0
 20
0.0
 30
0.0
  9
$PUCSORGLEFT
 10
0.0
 20
0.0
 30
0.0
  9
$PUCSORGRIGHT
 10
0.0
 20
0.0
 30
0.0
  9
$PUCSORGFRONT
 10
0.0
 20
0.0
 30
0.0
  9
$PUCSORGBACK
 10
0.0
 20
0.0
 30
0.0
  9
$USERI1
 70
     0
  9
$USERI2
 70
     0
  9
$USERI3
 70
     0
  9
$USERI4
 70
     0
  9
$USERI5
 70
     0
  9
$USERR1
 40
0.0
  9
$USERR2
 40
0.0
  9
$USERR3
 40
0.0
  9
$USERR4
 40
0.0
  9
$USERR5
 40
0.0
  9
$WORLDVIEW
 70
     1
  9
$SHADEDGE
 70
     3
  9
$SHADEDIF
 70
    70
  9
$TILEMODE
 70
     1
  9
$MAXACTVP
 70
    64
  9
$PINSBASE
 10
0.0
 20
0.0
 30
0.0
  9
$PLIMCHECK
 70
     0
  9
$PEXTMIN
 10
1.000000000000000E+20
 20
1.000000000000000E+20
 30
1.000000000000000E+20
  9
$PEXTMAX
 10
-1.000000000000000E+20
 20
-1.000000000000000E+20
 30
-1.000000000000000E+20
  9
$PLIMMIN
 10
0.0
 20
0.0
  9
$PLIMMAX
 10
12.0
 20
9.0
  9
$UNITMODE
 70
     0
  9
$VISRETAIN
 70
     1
  9
$PLINEGEN
 70
     0
  9
$PSLTSCALE
 70
     1
  9
$TREEDEPTH
 70
  3020
  9
$CMLSTYLE
  2
Standard
  9
$CMLJUST
 70
     0
  9
$CMLSCALE
 40
1.0
  9
$PROXYGRAPHICS
 70
     1
  9
$MEASUREMENT
 70
     0
  9
$CELWEIGHT
370
    -1
  9
$ENDCAPS
280
     0
  9
$JOINSTYLE
280
     0
  9
$LWDISPLAY
290
     0
  9
$INSUNITS
 70
     0
  9
$HYPERLINKBASE
  1

  9
$STYLESHEET
  1

  9
$XEDIT
290
     1
  9
$CEPSNTYPE
380
     0
  9
$PSTYLEMODE
290
     1
  9
$FINGERPRINTGUID
  2
{5CF2D526-C735-4156-962E-7DDF8A52A2EC}
  9
$VERSIONGUID
  2
{BB773DE7-90AB-4DC8-B6B3-A0C5E83EDDF8}
  9
$EXTNAMES
290
     1
  9
$PSVPSCALE
 40
0.0
  9
$OLESTARTUP
290
     0
  0
ENDSEC
  0
SECTION
  2
CLASSES
  0
CLASS
  1
ACDBDICTIONARYWDFLT
  2
AcDbDictionaryWithDefault
  3
AutoCAD 2000
 90
        0
280
     0
281
     0
  0
CLASS
  1
ACDBPLACEHOLDER
  2
AcDbPlaceHolder
  3
AutoCAD 2000
 90
        0
280
     0
281
     0
  0
CLASS
  1
LAYOUT
  2
AcDbLayout
  3
AutoCAD 2000
 90
        0
280
     0
281
     0
  0
CLASS
  1
DICTIONARYVAR
  2
AcDbDictionaryVar
  3
AutoCAD 2000
 90
        0
280
     0
281
     0
  0
ENDSEC
  0
SECTION
  2
TABLES
  0
TABLE
  2
VPORT
  5
8
330
0
100
AcDbSymbolTable
 70
     5
  0
VPORT
  5
7BF
330
8
100
AcDbSymbolTableRecord
100
AcDbViewportTableRecord
  2
*Active
 70
     0
 10
0.0
 20
0.0
 11
1.0
 21
1.0
 12
50.0
 22
82.99999999999998
 13
0.0
 23
0.0
 14
1.0
 24
1.0
 15
0.0
 25
0.0
 16
0.0
 26
0.0
 36
1.0
 17
0.0
 27
0.0
 37
0.0
 40
166.7126054881623
 41
2.073363431151241
 42
50.0
 43
0.0
 44
0.0
 50
0.0
 51
0.0
 71
     0
 72
   100
 73
     1
 74
     3
 75
     0
 76
     0
 77
     0
 78
     0
281
     0
 65
     1
110
0.0
120
0.0
130
0.0
111
1.0
121
0.0
131
0.0
112
0.0
122
1.0
132
0.0
 79
     1
146
0.0
  0
ENDTAB
  0
TABLE
  2
LTYPE
  5
5
330
0
100
AcDbSymbolTable
 70
     1
  0
LTYPE
  5
13
330
5
100
AcDbSymbolTableRecord
100
AcDbLinetypeTableRecord
  2
ByBlock
 70
     0
  3

 72
    65
 73
     0
 40
0.0
  0
LTYPE
  5
14
330
5
100
AcDbSymbolTableRecord
100
AcDbLinetypeTableRecord
  2
ByLayer
 70
     0
  3

 72
    65
 73
     0
 40
0.0
  0
LTYPE
  5
15
330
5
100
AcDbSymbolTableRecord
100
AcDbLinetypeTableRecord
  2
Continuous
 70
     0
  3
Solid line
 72
    65
 73
     0
 40
0.0
  0
ENDTAB
  0
TABLE
  2
LAYER
  5
2
330
0
100
AcDbSymbolTable
 70
     1
  0
LAYER
  5
10
330
2
100
AcDbSymbolTableRecord
100
AcDbLayerTableRecord
  2
0
 70
     0
 62
     7
  6
Continuous
370
    -3
390
F
  0
ENDTAB
  0
TABLE
  2
STYLE
  5
3
330
0
100
AcDbSymbolTable
 70
     1
  0
STYLE
  5
11
330
3
100
AcDbSymbolTableRecord
100
AcDbTextStyleTableRecord
  2
Standard
 70
     0
 40
0.0
 41
1.0
 50
0.0
 71
     0
 42
0.2
  3
txt
  4

  0
ENDTAB
  0
TABLE
  2
VIEW
  5
6
330
0
100
AcDbSymbolTable
 70
     0
  0
ENDTAB
  0
TABLE
  2
UCS
  5
7
330
0
100
AcDbSymbolTable
 70
     0
  0
ENDTAB
  0
TABLE
  2
APPID
  5
9
330
0
100
AcDbSymbolTable
 70
     1
  0
APPID
  5
12
330
9
100
AcDbSymbolTableRecord
100
AcDbRegAppTableRecord
  2
ACAD
 70
     0
  0
ENDTAB
  0
TABLE
  2
DIMSTYLE
  5
A
330
0
100
AcDbSymbolTable
 70
     1
100
AcDbDimStyleTable
 71
     0
  0
DIMSTYLE
105
7B6
330
A
100
AcDbSymbolTableRecord
100
AcDbDimStyleTableRecord
  2
Standard
 70
     0
340
11
  0
ENDTAB
  0
TABLE
  2
BLOCK_RECORD
  5
1
330
0
100
AcDbSymbolTable
 70
     0
  0
BLOCK_RECORD
  5
1E
330
1
100
AcDbSymbolTableRecord
100
AcDbBlockTableRecord
  2
*Model_Space
340
21
  0
BLOCK_RECORD
  5
1A
330
1
100
AcDbSymbolTableRecord
100
AcDbBlockTableRecord
  2
*Paper_Space
340
1D
  0
ENDTAB
  0
ENDSEC
  0
SECTION
  2
BLOCKS
  0
BLOCK
  5
1F
330
1E
100
AcDbEntity
  8
0
100
AcDbBlockBegin
  2
*Model_Space
 70
     0
 10
0.0
 20
0.0
 30
0.0
  3
*Model_Space
  1

  0
ENDBLK
  5
20
330
1E
100
AcDbEntity
  8
0
100
AcDbBlockEnd
  0
BLOCK
  5
1B
330
1A
100
AcDbEntity
 67
     1
  8
0
100
AcDbBlockBegin
  2
*Paper_Space
 70
     0
 10
0.0
 20
0.0
 30
0.0
  3
*Paper_Space
  1

  0
ENDBLK
  5
1C
330
1A
100
AcDbEntity
 67
     1
  8
0
100
AcDbBlockEnd
  0
ENDSEC
  0
SECTION
  2
ENTITIES
  0
LINE
  5
22
330
1E
100
AcDbEntity
  8
0
100
AcDbLine
 10
0.0
 20
140.3182379999999
 30
0.0
 11
0.0128
 21
140.1432379999999
 31
0.0
  0
LINE
  5
23
330
1E
100
AcDbEntity
  8
0
100
AcDbLine
 10
0.4375
 20
133.9212379999999
 30
0.0
 11
0.7163000000000001
 21
129.8702379999999
 31
0.0
  0
LINE
  5
24
330
1E
100
AcDbEntity
  8
0
100
AcDbLine
 10
0.0128
 20
140.1432379999999
 30
0.0
 11
0.4375
 21
133.9212379999999
 31
0.0
  0
LINE
  5
25
330
1E
100
AcDbEntity
  8
0
100
AcDbLine
 10
0.0128
 20
140.1432379999999
 30
0.0
 11
0.4375
 21
133.9212379999999
 31
0.0
  0
LINE
  5
26
330
1E
100
AcDbEntity
  8
0
100
AcDbLine
 10
1.0
 20
127.9102379999999
 30
0.0
 11
1.49
 21
125.8912379999999
 31
0.0
  0
LINE
  5
27
330
1E
100
AcDbEntity
  8
0
100
AcDbLine
 10
1.0
 20
127.9102379999999
 30
0.0
 11
1.0
 21
129.929238
 31
0.0
  0
LINE
  5
29
330
1E
100
AcDbEntity
  8
0
100
AcDbLine
 10
1.0
 20
129.929238
 30
0.0
 11
1.0
 21
127.9102379999999
 31
0.0
  0
LINE
  5
2B
330
1E
100
AcDbEntity
  8
0
100
AcDbLine
 10
0.8660999999999999
 20
128.560238
 30
0.0
 11
1.091699999999999
 21
127.2782379999999
 31
0.0
  0
LINE
  5
2C
330
1E
100
AcDbEntity
  8
0
100
AcDbLine
 10
0.7163000000000001
 20
129.8702379999999
 30
0.0
 11
0.7538000000000001
 21
130.2582379999999
 31
0.0
  0
LINE
  5
2D
330
1E
100
AcDbEntity
  8
0
100
AcDbLine
 10
0.7163000000000001
 20
129.8702379999999
 30
0.0
 11
0.8660999999999999
 21
128.560238
 31
0.0
  0
LINE
  5
2E
330
1E
100
AcDbEntity
  8
0
100
AcDbLine
 10
0.7055
 20
130.417238
 30
0.0
 11
0.7636
 21
131.6342379999999
 31
0.0
  0
LINE
  5
2F
330
1E
100
AcDbEntity
  8
0
100
AcDbLine
 10
0.7055
 20
130.417238
 30
0.0
 11
0.7538000000000001
 21
130.2582379999999
 31
0.0
  0
LINE
  5
30
330
1E
100
AcDbEntity
  8
0
100
AcDbLine
 10
0.7055
 20
130.417238
 30
0.0
 11
0.7163000000000001
 21
129.8702379999999
 31
0.0
  0
LINE
  5
31
330
1E
100
AcDbEntity
  8
0
100
AcDbLine
 10
0.0709
 20
141.6232379999999
 30
0.0
 11
0.2818
 21
142.9192379999999
 31
0.0
  0
LINE
  5
32
330
1E
100
AcDbEntity
  8
0
100
AcDbLine
 10
0.0
 20
140.328238
 30
0.0
 11
0.0709
 21
141.6232379999999
 31
0.0
  0
LINE
  5
33
330
1E
100
AcDbEntity
  8
0
100
AcDbLine
 10
0.2818
 20
142.9192379999999
 30
0.0
 11
0.6326000000000001
 21
144.2112379999999
 31
0.0
  0
LINE
  5
34
330
1E
100
AcDbEntity
  8
0
100
AcDbLine
 10
0.6326000000000001
 20
144.2112379999999
 30
0.0
 11
1.1223
 21
145.4962379999999
 31
0.0
  0
LINE
  5
35
330
1E
100
AcDbEntity
  8
0
100
AcDbLine
 10
0.0709
 20
141.6232379999999
 30
0.0
 11
0.2818
 21
142.9192379999999
 31
0.0
  0
LINE
  5
36
330
1E
100
AcDbEntity
  8
0
100
AcDbLine
 10
1.205
 20
126.869238
 30
0.0
 11
1.378787604764269
 21
126.349478461186
 31
0.0
  0
LINE
  5
37
330
1E
100
AcDbEntity
  8
0
100
AcDbLine
 10
1.205
 20
126.869238
 30
0.0
 11
1.378787604764269
 21
126.349478461186
 31
0.0
  0
LINE
  5
38
330
1E
100
AcDbEntity
  8
0
100
AcDbLine
 10
1.091699999999999
 20
127.2782379999999
 30
0.0
 11
1.205
 21
126.869238
 31
0.0
  0
LINE
  5
39
330
1E
100
AcDbEntity
  8
0
100
AcDbLine
 10
35.9405
 20
31.01733799999999
 30
0.0
 11
36.5681
 21
16.21983799999999
 31
0.0
  0
LINE
  5
3A
330
1E
100
AcDbEntity
  8
0
100
AcDbLine
 10
36.19690525472039
 20
24.971836475581
 30
0.0
 11
36.3602
 21
18.543838
 31
0.0
  0
LINE
  5
3B
330
1E
100
AcDbEntity
  8
0
100
AcDbLine
 10
35.63499999999999
 20
40.04063799999999
 30
0.0
 11
35.9405
 21
31.01733799999999
 31
0.0
  0
LINE
  5
3C
330
1E
100
AcDbEntity
  8
0
100
AcDbLine
 10
35.26749999999999
 20
59.220438
 30
0.0
 11
35.4124
 21
49.717738
 31
0.0
  0
LINE
  5
3D
330
1E
100
AcDbEntity
  8
0
100
AcDbLine
 10
35.26059999999999
 20
59.834838
 30
0.0
 11
35.26749999999999
 21
59.220438
 31
0.0
  0
LINE
  5
3E
330
1E
100
AcDbEntity
  8
0
100
AcDbLine
 10
35.4124
 20
49.717738
 30
0.0
 11
35.63499999999999
 21
40.04063799999999
 31
0.0
  0
LINE
  5
3F
330
1E
100
AcDbEntity
  8
0
100
AcDbLine
 10
36.3602
 20
18.543838
 30
0.0
 11
36.4322
 21
17.444938
 31
0.0
  0
LINE
  5
40
330
1E
100
AcDbEntity
  8
0
100
AcDbLine
 10
36.19690525472039
 20
24.971836475581
 30
0.0
 11
36.3602
 21
18.543838
 31
0.0
  0
LINE
  5
41
330
1E
100
AcDbEntity
  8
0
100
AcDbLine
 10
35.20739999999999
 20
73.997738
 30
0.0
 11
35.23699999999999
 21
79.10673800000001
 31
0.0
  0
LINE
  5
42
330
1E
100
AcDbEntity
  8
0
100
AcDbLine
 10
35.36509999999999
 20
88.34093799999999
 30
0.0
 11
35.5887
 21
97.31513800000001
 31
0.0
  0
LINE
  5
43
330
1E
100
AcDbEntity
  8
0
100
AcDbLine
 10
35.23699999999999
 20
79.10673800000001
 30
0.0
 11
35.36509999999999
 21
88.34093799999999
 31
0.0
  0
LINE
  5
44
330
1E
100
AcDbEntity
  8
0
100
AcDbLine
 10
3.253999999999999
 20
119.541238
 30
0.0
 11
4.626
 21
117.7212379999999
 31
0.0
  0
LINE
  5
45
330
1E
100
AcDbEntity
  8
0
100
AcDbLine
 10
9.232000000000001
 20
111.921238
 30
0.0
 11
16.77799999999999
 21
106.9212379999999
 31
0.0
  0
LINE
  5
46
330
1E
100
AcDbEntity
  8
0
100
AcDbLine
 10
4.626
 20
117.7212379999999
 30
0.0
 11
9.232000000000001
 21
111.921238
 31
0.0
  0
LINE
  5
47
330
1E
100
AcDbEntity
  8
0
100
AcDbLine
 10
10.8
 20
120.9422379999999
 30
0.0
 11
11.094
 21
120.592238
 31
0.0
  0
LINE
  5
49
330
1E
100
AcDbEntity
  8
0
100
AcDbLine
 10
10.8
 20
120.9422379999999
 30
0.0
 11
11.094
 21
121.2922379999999
 31
0.0
  0
LINE
  5
4D
330
1E
100
AcDbEntity
  8
0
100
AcDbLine
 10
11.5659
 20
117.8402379999999
 30
0.0
 11
12.1905
 21
118.049238
 31
0.0
  0
LINE
  5
4F
330
1E
100
AcDbEntity
  8
0
100
AcDbLine
 10
11.3955
 20
117.470238
 30
0.0
 11
11.8042
 21
117.151238
 31
0.0
  0
LINE
  5
50
330
1E
100
AcDbEntity
  8
0
100
AcDbLine
 10
11.3955
 20
117.470238
 30
0.0
 11
11.5659
 21
117.8402379999999
 31
0.0
  0
LINE
  5
52
330
1E
100
AcDbEntity
  8
0
100
AcDbLine
 10
16.77799999999999
 20
106.9212379999999
 30
0.0
 11
26.578
 21
103.0712379999999
 31
0.0
  0
LINE
  5
54
330
1E
100
AcDbEntity
  8
0
100
AcDbLine
 10
15.9634
 20
111.321238
 30
0.0
 11
16.0518
 21
110.9422379999999
 31
0.0
  0
LINE
  5
55
330
1E
100
AcDbEntity
  8
0
100
AcDbLine
 10
15.9634
 20
111.321238
 30
0.0
 11
16.41049999999999
 21
111.6252379999999
 31
0.0
  0
LINE
  5
57
330
1E
100
AcDbEntity
  8
0
100
AcDbLine
 10
17.39049999999999
 20
110.7592379999999
 30
0.0
 11
17.8376
 21
111.0642379999999
 31
0.0
  0
LINE
  5
59
330
1E
100
AcDbEntity
  8
0
100
AcDbLine
 10
17.74919999999999
 20
111.4422379999999
 30
0.0
 11
17.8376
 21
111.0642379999999
 31
0.0
  0
LINE
  5
5F
330
1E
100
AcDbEntity
  8
0
100
AcDbLine
 10
17.1516
 20
111.6712379999999
 30
0.0
 11
17.74919999999999
 21
111.4422379999999
 31
0.0
  0
LINE
  5
61
330
1E
100
AcDbEntity
  8
0
100
AcDbLine
 10
16.41049999999999
 20
111.6252379999999
 30
0.0
 11
17.1516
 21
111.6712379999999
 31
0.0
  0
LINE
  5
63
330
1E
100
AcDbEntity
  8
0
100
AcDbLine
 10
16.0518
 20
110.9422379999999
 30
0.0
 11
16.6494
 21
110.7142379999999
 31
0.0
  0
LINE
  5
64
330
1E
100
AcDbEntity
  8
0
100
AcDbLine
 10
16.6494
 20
110.7142379999999
 30
0.0
 11
17.39049999999999
 21
110.7592379999999
 31
0.0
  0
LINE
  5
66
330
1E
100
AcDbEntity
  8
0
100
AcDbLine
 10
19.7553
 20
108.4512379999999
 30
0.0
 11
19.9711
 21
108.0872379999999
 31
0.0
  0
LINE
  5
67
330
1E
100
AcDbEntity
  8
0
100
AcDbLine
 10
19.7553
 20
108.4512379999999
 30
0.0
 11
20.09189999999999
 21
108.7912379999999
 31
0.0
  0
LINE
  5
6A
330
1E
100
AcDbEntity
  8
0
100
AcDbLine
 10
20.8063
 20
108.9012379999999
 30
0.0
 11
21.4725
 21
108.7302379999999
 31
0.0
  0
LINE
  5
6B
330
1E
100
AcDbEntity
  8
0
100
AcDbLine
 10
20.09189999999999
 20
108.7912379999999
 30
0.0
 11
20.8063
 21
108.9012379999999
 31
0.0
  0
LINE
  5
6D
330
1E
100
AcDbEntity
  8
0
100
AcDbLine
 10
19.9711
 20
108.0872379999999
 30
0.0
 11
20.63719999999999
 21
107.9152379999999
 31
0.0
  0
LINE
  5
6E
330
1E
100
AcDbEntity
  8
0
100
AcDbLine
 10
20.63719999999999
 20
107.9152379999999
 30
0.0
 11
21.3517
 21
108.0252379999999
 31
0.0
  0
LINE
  5
6F
330
1E
100
AcDbEntity
  8
0
100
AcDbLine
 10
14.42009999999999
 20
113.803238
 30
0.0
 11
14.9642
 21
114.0642379999999
 31
0.0
  0
LINE
  5
71
330
1E
100
AcDbEntity
  8
0
100
AcDbLine
 10
14.9642
 20
114.0642379999999
 30
0.0
 11
15.0058
 21
114.4442379999999
 31
0.0
  0
LINE
  5
74
330
1E
100
AcDbEntity
  8
0
100
AcDbLine
 10
14.49489999999999
 20
114.7222379999999
 30
0.0
 11
15.0058
 21
114.4442379999999
 31
0.0
  0
LINE
  5
76
330
1E
100
AcDbEntity
  8
0
100
AcDbLine
 10
13.7498
 20
114.7432379999999
 30
0.0
 11
14.49489999999999
 21
114.7222379999999
 31
0.0
  0
LINE
  5
78
330
1E
100
AcDbEntity
  8
0
100
AcDbLine
 10
13.2057
 20
114.4822379999999
 30
0.0
 11
13.7498
 21
114.7432379999999
 31
0.0
  0
LINE
  5
7A
330
1E
100
AcDbEntity
  8
0
100
AcDbLine
 10
13.164
 20
114.1022379999999
 30
0.0
 11
13.6749
 21
113.8242379999999
 31
0.0
  0
LINE
  5
7B
330
1E
100
AcDbEntity
  8
0
100
AcDbLine
 10
13.164
 20
114.1022379999999
 30
0.0
 11
13.2057
 21
114.4822379999999
 31
0.0
  0
LINE
  5
7D
330
1E
100
AcDbEntity
  8
0
100
AcDbLine
 10
13.6749
 20
113.8242379999999
 30
0.0
 11
14.42009999999999
 21
113.803238
 31
0.0
  0
LINE
  5
7E
330
1E
100
AcDbEntity
  8
0
100
AcDbLine
 10
21.3517
 20
108.0252379999999
 30
0.0
 11
21.68819999999999
 21
108.3652379999999
 31
0.0
  0
LINE
  5
7F
330
1E
100
AcDbEntity
  8
0
100
AcDbLine
 10
21.4725
 20
108.7302379999999
 30
0.0
 11
21.68819999999999
 21
108.3652379999999
 31
0.0
  0
LINE
  5
80
330
1E
100
AcDbEntity
  8
0
100
AcDbLine
 10
21.6095
 20
113.9032379999999
 30
0.0
 11
22.16579999999999
 21
113.6492379999999
 31
0.0
  0
LINE
  5
83
330
1E
100
AcDbEntity
  8
0
100
AcDbLine
 10
24.68189999999999
 20
106.3262379999999
 30
0.0
 11
25.3481
 21
106.4982379999999
 31
0.0
  0
LINE
  5
85
330
1E
100
AcDbEntity
  8
0
100
AcDbLine
 10
24.4662
 20
105.9612379999999
 30
0.0
 11
24.8027
 21
105.6222379999999
 31
0.0
  0
LINE
  5
86
330
1E
100
AcDbEntity
  8
0
100
AcDbLine
 10
24.4662
 20
105.9612379999999
 30
0.0
 11
24.68189999999999
 21
106.3262379999999
 31
0.0
  0
LINE
  5
88
330
1E
100
AcDbEntity
  8
0
100
AcDbLine
 10
24.8027
 20
105.6222379999999
 30
0.0
 11
25.51719999999999
 21
105.5122379999999
 31
0.0
  0
LINE
  5
89
330
1E
100
AcDbEntity
  8
0
100
AcDbLine
 10
24.3397
 20
111.4902379999999
 30
0.0
 11
24.974
 21
111.2902379999999
 31
0.0
  0
LINE
  5
8B
330
1E
100
AcDbEntity
  8
0
100
AcDbLine
 10
25.3481
 20
106.4982379999999
 30
0.0
 11
26.0626
 21
106.3882379999999
 31
0.0
  0
LINE
  5
8D
330
1E
100
AcDbEntity
  8
0
100
AcDbLine
 10
26.578
 20
103.0712379999999
 30
0.0
 11
37.94599999999999
 21
100.7212379999999
 31
0.0
  0
LINE
  5
8E
330
1E
100
AcDbEntity
  8
0
100
AcDbLine
 10
26.18339999999999
 20
105.6832379999999
 30
0.0
 11
26.3991
 21
106.0482379999999
 31
0.0
  0
LINE
  5
8F
330
1E
100
AcDbEntity
  8
0
100
AcDbLine
 10
26.0626
 20
106.3882379999999
 30
0.0
 11
26.3991
 21
106.0482379999999
 31
0.0
  0
LINE
  5
90
330
1E
100
AcDbEntity
  8
0
100
AcDbLine
 10
25.51719999999999
 20
105.5122379999999
 30
0.0
 11
26.18339999999999
 21
105.6832379999999
 31
0.0
  0
LINE
  5
93
330
1E
100
AcDbEntity
  8
0
100
AcDbLine
 10
28.5425
 20
110.2052379999999
 30
0.0
 11
29.2355
 21
110.0632379999999
 31
0.0
  0
LINE
  5
95
330
1E
100
AcDbEntity
  8
0
100
AcDbLine
 10
27.8495
 20
110.0632379999999
 30
0.0
 11
28.5425
 21
110.2052379999999
 31
0.0
  0
LINE
  5
96
330
1E
100
AcDbEntity
  8
0
100
AcDbLine
 10
27.57229999999999
 20
109.7102379999999
 30
0.0
 11
27.8495
 21
109.3562379999999
 31
0.0
  0
LINE
  5
97
330
1E
100
AcDbEntity
  8
0
100
AcDbLine
 10
27.57229999999999
 20
109.7102379999999
 30
0.0
 11
27.8495
 21
110.0632379999999
 31
0.0
  0
LINE
  5
99
330
1E
100
AcDbEntity
  8
0
100
AcDbLine
 10
27.8495
 20
109.3562379999999
 30
0.0
 11
28.5425
 21
109.2152379999999
 31
0.0
  0
LINE
  5
9A
330
1E
100
AcDbEntity
  8
0
100
AcDbLine
 10
29.9529
 20
104.0135594036829
 30
0.0
 11
29.9529
 21
103.927238
 31
0.0
  0
LINE
  5
9C
330
1E
100
AcDbEntity
  8
0
100
AcDbLine
 10
30.6389
 20
104.533238
 30
0.0
 11
31.37999999999999
 21
104.4882379999999
 31
0.0
  0
LINE
  5
9D
330
1E
100
AcDbEntity
  8
0
100
AcDbLine
 10
30.04129999999999
 20
104.305238
 30
0.0
 11
30.6389
 21
104.533238
 31
0.0
  0
LINE
  5
9F
330
1E
100
AcDbEntity
  8
0
100
AcDbLine
 10
29.9529
 20
103.927238
 30
0.0
 11
30.4
 21
103.6222379999999
 31
0.0
  0
LINE
  5
A0
330
1E
100
AcDbEntity
  8
0
100
AcDbLine
 10
29.9529
 20
103.927238
 30
0.0
 11
30.04129999999999
 21
104.305238
 31
0.0
  0
LINE
  5
A1
330
1E
100
AcDbEntity
  8
0
100
AcDbLine
 10
29.9529
 20
103.927238
 30
0.0
 11
29.9529
 21
104.0135594036829
 31
0.0
  0
LINE
  5
A2
330
1E
100
AcDbEntity
  8
0
100
AcDbLine
 10
30.4
 20
103.6222379999999
 30
0.0
 11
31.1411
 21
103.577238
 31
0.0
  0
LINE
  5
A4
330
1E
100
AcDbEntity
  8
0
100
AcDbLine
 10
31.7387
 20
103.805238
 30
0.0
 11
31.8271
 21
104.183238
 31
0.0
  0
LINE
  5
A7
330
1E
100
AcDbEntity
  8
0
100
AcDbLine
 10
31.37999999999999
 20
104.4882379999999
 30
0.0
 11
31.8271
 21
104.183238
 31
0.0
  0
LINE
  5
A9
330
1E
100
AcDbEntity
  8
0
100
AcDbLine
 10
31.1411
 20
103.577238
 30
0.0
 11
31.7387
 21
103.805238
 31
0.0
  0
LINE
  5
AD
330
1E
100
AcDbEntity
  8
0
100
AcDbLine
 10
32.42609999999999
 20
108.4632379999999
 30
0.0
 11
33.1567
 21
108.3852379999999
 31
0.0
  0
LINE
  5
AF
330
1E
100
AcDbEntity
  8
0
100
AcDbLine
 10
31.7918
 20
108.2622379999999
 30
0.0
 11
32.42609999999999
 21
108.4632379999999
 31
0.0
  0
LINE
  5
B1
330
1E
100
AcDbEntity
  8
0
100
AcDbLine
 10
31.6391
 20
107.8892379999999
 30
0.0
 11
32.0324
 21
107.5662379999999
 31
0.0
  0
LINE
  5
B2
330
1E
100
AcDbEntity
  8
0
100
AcDbLine
 10
31.6391
 20
107.8892379999999
 30
0.0
 11
31.7918
 21
108.2622379999999
 31
0.0
  0
LINE
  5
B4
330
1E
100
AcDbEntity
  8
0
100
AcDbLine
 10
32.0324
 20
107.5662379999999
 30
0.0
 11
32.763
 21
107.488238
 31
0.0
  0
LINE
  5
B5
330
1E
100
AcDbEntity
  8
0
100
AcDbLine
 10
33.3973
 20
107.6882379999999
 30
0.0
 11
33.54999999999999
 21
108.0612379999999
 31
0.0
  0
LINE
  5
B7
330
1E
100
AcDbEntity
  8
0
100
AcDbLine
 10
33.1567
 20
108.3852379999999
 30
0.0
 11
33.54999999999999
 21
108.0612379999999
 31
0.0
  0
LINE
  5
B9
330
1E
100
AcDbEntity
  8
0
100
AcDbLine
 10
32.763
 20
107.488238
 30
0.0
 11
33.3973
 21
107.6882379999999
 31
0.0
  0
LINE
  5
BB
330
1E
100
AcDbEntity
  8
0
100
AcDbLine
 10
29.2355
 20
109.3562379999999
 30
0.0
 11
29.5127
 21
109.7102379999999
 31
0.0
  0
LINE
  5
BE
330
1E
100
AcDbEntity
  8
0
100
AcDbLine
 10
29.2355
 20
110.0632379999999
 30
0.0
 11
29.5127
 21
109.7102379999999
 31
0.0
  0
LINE
  5
C0
330
1E
100
AcDbEntity
  8
0
100
AcDbLine
 10
28.5425
 20
109.2152379999999
 30
0.0
 11
29.2355
 21
109.3562379999999
 31
0.0
  0
LINE
  5
C1
330
1E
100
AcDbEntity
  8
0
100
AcDbLine
 10
25.7045
 20
111.3682379999999
 30
0.0
 11
26.0978
 21
111.6912379999999
 31
0.0
  0
LINE
  5
C2
330
1E
100
AcDbEntity
  8
0
100
AcDbLine
 10
24.974
 20
111.2902379999999
 30
0.0
 11
25.7045
 21
111.3682379999999
 31
0.0
  0
LINE
  5
C5
330
1E
100
AcDbEntity
  8
0
100
AcDbLine
 10
25.9452
 20
112.0642379999999
 30
0.0
 11
26.0978
 21
111.6912379999999
 31
0.0
  0
LINE
  5
C6
330
1E
100
AcDbEntity
  8
0
100
AcDbLine
 10
25.3109
 20
112.2652379999999
 30
0.0
 11
25.9452
 21
112.0642379999999
 31
0.0
  0
LINE
  5
C7
330
1E
100
AcDbEntity
  8
0
100
AcDbLine
 10
24.5803
 20
112.1872379999999
 30
0.0
 11
25.3109
 21
112.2652379999999
 31
0.0
  0
LINE
  5
C8
330
1E
100
AcDbEntity
  8
0
100
AcDbLine
 10
24.18699999999999
 20
111.8632379999999
 30
0.0
 11
24.3397
 21
111.4902379999999
 31
0.0
  0
LINE
  5
C9
330
1E
100
AcDbEntity
  8
0
100
AcDbLine
 10
24.18699999999999
 20
111.8632379999999
 30
0.0
 11
24.5803
 21
112.1872379999999
 31
0.0
  0
LINE
  5
CC
330
1E
100
AcDbEntity
  8
0
100
AcDbLine
 10
34.783
 20
111.8992379999999
 30
0.0
 11
35.44919999999999
 21
112.071238
 31
0.0
  0
LINE
  5
CE
330
1E
100
AcDbEntity
  8
0
100
AcDbLine
 10
34.5673
 20
111.5342379999999
 30
0.0
 11
34.9038
 21
111.1942379999999
 31
0.0
  0
LINE
  5
CF
330
1E
100
AcDbEntity
  8
0
100
AcDbLine
 10
34.5673
 20
111.5342379999999
 30
0.0
 11
34.783
 21
111.8992379999999
 31
0.0
  0
LINE
  5
D2
330
1E
100
AcDbEntity
  8
0
100
AcDbLine
 10
35.44919999999999
 20
112.071238
 30
0.0
 11
36.16369999999999
 21
111.9612379999999
 31
0.0
  0
LINE
  5
D4
330
1E
100
AcDbEntity
  8
0
100
AcDbLine
 10
34.9038
 20
111.1942379999999
 30
0.0
 11
35.6183
 21
111.0842379999999
 31
0.0
  0
LINE
  5
D5
330
1E
100
AcDbEntity
  8
0
100
AcDbLine
 10
22.9118
 20
113.6612379999999
 30
0.0
 11
23.4093
 21
113.9452379999999
 31
0.0
  0
LINE
  5
D6
330
1E
100
AcDbEntity
  8
0
100
AcDbLine
 10
22.16579999999999
 20
113.6492379999999
 30
0.0
 11
22.9118
 21
113.6612379999999
 31
0.0
  0
LINE
  5
D7
330
1E
100
AcDbEntity
  8
0
100
AcDbLine
 10
23.38579999999999
 20
114.3262379999999
 30
0.0
 11
23.4093
 21
113.9452379999999
 31
0.0
  0
LINE
  5
D9
330
1E
100
AcDbEntity
  8
0
100
AcDbLine
 10
22.8295
 20
114.5802379999999
 30
0.0
 11
23.38579999999999
 21
114.3262379999999
 31
0.0
  0
LINE
  5
DB
330
1E
100
AcDbEntity
  8
0
100
AcDbLine
 10
22.0835
 20
114.568238
 30
0.0
 11
22.8295
 21
114.5802379999999
 31
0.0
  0
LINE
  5
DD
330
1E
100
AcDbEntity
  8
0
100
AcDbLine
 10
21.58599999999999
 20
114.2842379999999
 30
0.0
 11
21.6095
 21
113.9032379999999
 31
0.0
  0
LINE
  5
DE
330
1E
100
AcDbEntity
  8
0
100
AcDbLine
 10
21.58599999999999
 20
114.2842379999999
 30
0.0
 11
22.0835
 21
114.568238
 31
0.0
  0
LINE
  5
E5
330
1E
100
AcDbEntity
  8
0
100
AcDbLine
 10
29.5726
 20
114.7602379999999
 30
0.0
 11
29.66099999999999
 21
114.3822379999999
 31
0.0
  0
LINE
  5
E6
330
1E
100
AcDbEntity
  8
0
100
AcDbLine
 10
29.5726
 20
114.7602379999999
 30
0.0
 11
30.0197
 21
115.0652379999999
 31
0.0
  0
LINE
  5
E8
330
1E
100
AcDbEntity
  8
0
100
AcDbLine
 10
30.9997
 20
114.199238
 30
0.0
 11
31.4468
 21
114.5042379999999
 31
0.0
  0
LINE
  5
EA
330
1E
100
AcDbEntity
  8
0
100
AcDbLine
 10
31.35839999999999
 20
114.8822379999999
 30
0.0
 11
31.4468
 21
114.5042379999999
 31
0.0
  0
LINE
  5
F0
330
1E
100
AcDbEntity
  8
0
100
AcDbLine
 10
30.7608
 20
115.1102379999999
 30
0.0
 11
31.35839999999999
 21
114.8822379999999
 31
0.0
  0
LINE
  5
F2
330
1E
100
AcDbEntity
  8
0
100
AcDbLine
 10
30.0197
 20
115.0652379999999
 30
0.0
 11
30.7608
 21
115.1102379999999
 31
0.0
  0
LINE
  5
F4
330
1E
100
AcDbEntity
  8
0
100
AcDbLine
 10
29.66099999999999
 20
114.3822379999999
 30
0.0
 11
30.2586
 21
114.1542379999999
 31
0.0
  0
LINE
  5
F5
330
1E
100
AcDbEntity
  8
0
100
AcDbLine
 10
30.2586
 20
114.1542379999999
 30
0.0
 11
30.9997
 21
114.199238
 31
0.0
  0
LINE
  5
F6
330
1E
100
AcDbEntity
  8
0
100
AcDbLine
 10
20.94219999999999
 20
116.1672379999999
 30
0.0
 11
21.5287
 21
116.4032379999999
 31
0.0
  0
LINE
  5
F8
330
1E
100
AcDbEntity
  8
0
100
AcDbLine
 10
12.53079999999999
 20
117.0642379999999
 30
0.0
 11
13.1553
 21
117.2722379999999
 31
0.0
  0
LINE
  5
F9
330
1E
100
AcDbEntity
  8
0
100
AcDbLine
 10
13.1553
 20
117.2722379999999
 30
0.0
 11
13.3258
 21
117.6432379999999
 31
0.0
  0
LINE
  5
FA
330
1E
100
AcDbEntity
  8
0
100
AcDbLine
 10
11.8042
 20
117.151238
 30
0.0
 11
12.53079999999999
 21
117.0642379999999
 31
0.0
  0
LINE
  5
FB
330
1E
100
AcDbEntity
  8
0
100
AcDbLine
 10
12.9171
 20
117.9622379999999
 30
0.0
 11
13.3258
 21
117.6432379999999
 31
0.0
  0
LINE
  5
FC
330
1E
100
AcDbEntity
  8
0
100
AcDbLine
 10
12.1905
 20
118.049238
 30
0.0
 11
12.9171
 21
117.9622379999999
 31
0.0
  0
LINE
  5
101
330
1E
100
AcDbEntity
  8
0
100
AcDbLine
 10
19.0268
 20
119.6262379999999
 30
0.0
 11
19.6846
 21
119.8062379999999
 31
0.0
  0
LINE
  5
102
330
1E
100
AcDbEntity
  8
0
100
AcDbLine
 10
18.7937
 20
119.2652379999999
 30
0.0
 11
19.1464
 21
118.9292379999999
 31
0.0
  0
LINE
  5
104
330
1E
100
AcDbEntity
  8
0
100
AcDbLine
 10
18.7937
 20
119.2652379999999
 30
0.0
 11
19.0268
 21
119.6262379999999
 31
0.0
  0
LINE
  5
107
330
1E
100
AcDbEntity
  8
0
100
AcDbLine
 10
19.6846
 20
119.8062379999999
 30
0.0
 11
20.39359999999999
 21
119.687238
 31
0.0
  0
LINE
  5
108
330
1E
100
AcDbEntity
  8
0
100
AcDbLine
 10
19.1464
 20
118.9292379999999
 30
0.0
 11
19.8554
 21
118.8102379999999
 31
0.0
  0
LINE
  5
10C
330
1E
100
AcDbEntity
  8
0
100
AcDbLine
 10
21.5287
 20
116.4032379999999
 30
0.0
 11
21.6351
 21
116.7802379999999
 31
0.0
  0
LINE
  5
10D
330
1E
100
AcDbEntity
  8
0
100
AcDbLine
 10
19.8554
 20
118.8102379999999
 30
0.0
 11
20.5132
 21
118.9902379999999
 31
0.0
  0
LINE
  5
10E
330
1E
100
AcDbEntity
  8
0
100
AcDbLine
 10
20.39359999999999
 20
119.687238
 30
0.0
 11
20.7463
 21
119.3522379999999
 31
0.0
  0
LINE
  5
115
330
1E
100
AcDbEntity
  8
0
100
AcDbLine
 10
20.5132
 20
118.9902379999999
 30
0.0
 11
20.7463
 21
119.3522379999999
 31
0.0
  0
LINE
  5
116
330
1E
100
AcDbEntity
  8
0
100
AcDbLine
 10
28.0066
 20
117.8872379999999
 30
0.0
 11
28.6311
 21
118.0962379999999
 31
0.0
  0
LINE
  5
117
330
1E
100
AcDbEntity
  8
0
100
AcDbLine
 10
27.28
 20
117.9742379999999
 30
0.0
 11
28.0066
 21
117.8872379999999
 31
0.0
  0
LINE
  5
118
330
1E
100
AcDbEntity
  8
0
100
AcDbLine
 10
28.6311
 20
118.0962379999999
 30
0.0
 11
28.8015
 21
118.466238
 31
0.0
  0
LINE
  5
119
330
1E
100
AcDbEntity
  8
0
100
AcDbLine
 10
27.04169999999999
 20
118.6642379999999
 30
0.0
 11
27.6663
 21
118.8722379999999
 31
0.0
  0
LINE
  5
11A
330
1E
100
AcDbEntity
  8
0
100
AcDbLine
 10
26.8713
 20
118.293238
 30
0.0
 11
27.28
 21
117.9742379999999
 31
0.0
  0
LINE
  5
11B
330
1E
100
AcDbEntity
  8
0
100
AcDbLine
 10
26.8713
 20
118.293238
 30
0.0
 11
27.04169999999999
 21
118.6642379999999
 31
0.0
  0
LINE
  5
11C
330
1E
100
AcDbEntity
  8
0
100
AcDbLine
 10
28.3929
 20
118.785238
 30
0.0
 11
28.8015
 21
118.466238
 31
0.0
  0
LINE
  5
11D
330
1E
100
AcDbEntity
  8
0
100
AcDbLine
 10
27.6663
 20
118.8722379999999
 30
0.0
 11
28.3929
 21
118.785238
 31
0.0
  0
LINE
  5
120
330
1E
100
AcDbEntity
  8
0
100
AcDbLine
 10
35.1531
 20
118.7312379999999
 30
0.0
 11
35.899
 21
118.7432379999999
 31
0.0
  0
LINE
  5
122
330
1E
100
AcDbEntity
  8
0
100
AcDbLine
 10
34.65559999999999
 20
118.4472379999999
 30
0.0
 11
34.679
 21
118.0672379999999
 31
0.0
  0
LINE
  5
123
330
1E
100
AcDbEntity
  8
0
100
AcDbLine
 10
34.65559999999999
 20
118.4472379999999
 30
0.0
 11
35.1531
 21
118.7312379999999
 31
0.0
  0
LINE
  5
125
330
1E
100
AcDbEntity
  8
0
100
AcDbLine
 10
34.679
 20
118.0672379999999
 30
0.0
 11
35.2354
 21
117.8132379999999
 31
0.0
  0
LINE
  5
126
330
1E
100
AcDbEntity
  8
0
100
AcDbLine
 10
35.2354
 20
117.8132379999999
 30
0.0
 11
35.9814
 21
117.8252379999999
 31
0.0
  0
LINE
  5
129
330
1E
100
AcDbEntity
  8
0
100
AcDbLine
 10
21.1736
 20
117.0792379999999
 30
0.0
 11
21.6351
 21
116.7802379999999
 31
0.0
  0
LINE
  5
12B
330
1E
100
AcDbEntity
  8
0
100
AcDbLine
 10
20.43489999999999
 20
117.1332379999999
 30
0.0
 11
21.1736
 21
117.0792379999999
 31
0.0
  0
LINE
  5
12D
330
1E
100
AcDbEntity
  8
0
100
AcDbLine
 10
19.84829999999999
 20
116.8982379999999
 30
0.0
 11
20.43489999999999
 21
117.1332379999999
 31
0.0
  0
LINE
  5
12F
330
1E
100
AcDbEntity
  8
0
100
AcDbLine
 10
19.7419
 20
116.5212379999999
 30
0.0
 11
20.2034
 21
116.2222379999999
 31
0.0
  0
LINE
  5
130
330
1E
100
AcDbEntity
  8
0
100
AcDbLine
 10
19.7419
 20
116.5212379999999
 30
0.0
 11
19.84829999999999
 21
116.8982379999999
 31
0.0
  0
LINE
  5
132
330
1E
100
AcDbEntity
  8
0
100
AcDbLine
 10
20.2034
 20
116.2222379999999
 30
0.0
 11
20.94219999999999
 21
116.1672379999999
 31
0.0
  0
LINE
  5
133
330
1E
100
AcDbEntity
  8
0
100
AcDbLine
 10
11.77999999999999
 20
120.442238
 30
0.0
 11
12.46599999999999
 21
120.592238
 31
0.0
  0
LINE
  5
136
330
1E
100
AcDbEntity
  8
0
100
AcDbLine
 10
12.46599999999999
 20
120.592238
 30
0.0
 11
12.76
 21
120.9422379999999
 31
0.0
  0
LINE
  5
137
330
1E
100
AcDbEntity
  8
0
100
AcDbLine
 10
11.094
 20
120.592238
 30
0.0
 11
11.77999999999999
 21
120.442238
 31
0.0
  0
LINE
  5
139
330
1E
100
AcDbEntity
  8
0
100
AcDbLine
 10
1.49
 20
125.8912379999999
 30
0.0
 11
3.253999999999999
 21
119.541238
 31
0.0
  0
LINE
  5
13C
330
1E
100
AcDbEntity
  8
0
100
AcDbLine
 10
34.9682
 20
121.303238
 30
0.0
 11
35.71419999999999
 21
121.2912379999999
 31
0.0
  0
LINE
  5
13D
330
1E
100
AcDbEntity
  8
0
100
AcDbLine
 10
12.46599999999999
 20
121.2922379999999
 30
0.0
 11
12.76
 21
120.9422379999999
 31
0.0
  0
LINE
  5
13F
330
1E
100
AcDbEntity
  8
0
100
AcDbLine
 10
11.5659
 20
124.0452379999999
 30
0.0
 11
12.1905
 21
123.8362379999999
 31
0.0
  0
LINE
  5
141
330
1E
100
AcDbEntity
  8
0
100
AcDbLine
 10
11.3955
 20
124.4152379999999
 30
0.0
 11
11.8042
 21
124.7342379999999
 31
0.0
  0
LINE
  5
142
330
1E
100
AcDbEntity
  8
0
100
AcDbLine
 10
11.3955
 20
124.4152379999999
 30
0.0
 11
11.5659
 21
124.0452379999999
 31
0.0
  0
LINE
  5
145
330
1E
100
AcDbEntity
  8
0
100
AcDbLine
 10
19.6846
 20
121.5092379999999
 30
0.0
 11
20.39359999999999
 21
121.6282379999999
 31
0.0
  0
LINE
  5
146
330
1E
100
AcDbEntity
  8
0
100
AcDbLine
 10
20.39359999999999
 20
121.6282379999999
 30
0.0
 11
20.7463
 21
121.9632379999999
 31
0.0
  0
LINE
  5
14B
330
1E
100
AcDbEntity
  8
0
100
AcDbLine
 10
18.7937
 20
122.0512379999999
 30
0.0
 11
19.0268
 21
121.6892379999999
 31
0.0
  0
LINE
  5
14D
330
1E
100
AcDbEntity
  8
0
100
AcDbLine
 10
18.7937
 20
122.0512379999999
 30
0.0
 11
19.1464
 21
122.3862379999999
 31
0.0
  0
LINE
  5
14F
330
1E
100
AcDbEntity
  8
0
100
AcDbLine
 10
19.0268
 20
121.6892379999999
 30
0.0
 11
19.6846
 21
121.5092379999999
 31
0.0
  0
LINE
  5
151
330
1E
100
AcDbEntity
  8
0
100
AcDbLine
 10
28.3929
 20
121.9622379999999
 30
0.0
 11
28.8015
 21
122.2812379999999
 31
0.0
  0
LINE
  5
152
330
1E
100
AcDbEntity
  8
0
100
AcDbLine
 10
27.6663
 20
121.8752379999999
 30
0.0
 11
28.3929
 21
121.9622379999999
 31
0.0
  0
LINE
  5
153
330
1E
100
AcDbEntity
  8
0
100
AcDbLine
 10
27.04169999999999
 20
122.0842379999999
 30
0.0
 11
27.6663
 21
121.8752379999999
 31
0.0
  0
LINE
  5
154
330
1E
100
AcDbEntity
  8
0
100
AcDbLine
 10
34.4707
 20
121.5872379999999
 30
0.0
 11
34.49419999999999
 21
121.9682379999999
 31
0.0
  0
LINE
  5
155
330
1E
100
AcDbEntity
  8
0
100
AcDbLine
 10
34.4707
 20
121.5872379999999
 30
0.0
 11
34.9682
 21
121.303238
 31
0.0
  0
LINE
  5
156
330
1E
100
AcDbEntity
  8
0
100
AcDbLine
 10
34.49419999999999
 20
121.9682379999999
 30
0.0
 11
35.0506
 21
122.2222379999999
 31
0.0
  0
LINE
  5
158
330
1E
100
AcDbEntity
  8
0
100
AcDbLine
 10
35.0506
 20
122.2222379999999
 30
0.0
 11
35.7965
 21
122.2102379999999
 31
0.0
  0
LINE
  5
15E
330
1E
100
AcDbEntity
  8
0
100
AcDbLine
 10
19.1464
 20
122.3862379999999
 30
0.0
 11
19.8554
 21
122.5052379999999
 31
0.0
  0
LINE
  5
160
330
1E
100
AcDbEntity
  8
0
100
AcDbLine
 10
13.1553
 20
124.6132379999999
 30
0.0
 11
13.3258
 21
124.2422379999999
 31
0.0
  0
LINE
  5
161
330
1E
100
AcDbEntity
  8
0
100
AcDbLine
 10
12.9171
 20
123.9232379999999
 30
0.0
 11
13.3258
 21
124.2422379999999
 31
0.0
  0
LINE
  5
162
330
1E
100
AcDbEntity
  8
0
100
AcDbLine
 10
12.1905
 20
123.8362379999999
 30
0.0
 11
12.9171
 21
123.9232379999999
 31
0.0
  0
LINE
  5
163
330
1E
100
AcDbEntity
  8
0
100
AcDbLine
 10
11.8042
 20
124.7342379999999
 30
0.0
 11
12.53079999999999
 21
124.821238
 31
0.0
  0
LINE
  5
166
330
1E
100
AcDbEntity
  8
0
100
AcDbLine
 10
19.8554
 20
122.5052379999999
 30
0.0
 11
20.5132
 21
122.3252379999999
 31
0.0
  0
LINE
  5
168
330
1E
100
AcDbEntity
  8
0
100
AcDbLine
 10
19.84829999999999
 20
124.4172379999999
 30
0.0
 11
20.43489999999999
 21
124.1822379999999
 31
0.0
  0
LINE
  5
169
330
1E
100
AcDbEntity
  8
0
100
AcDbLine
 10
12.53079999999999
 20
124.821238
 30
0.0
 11
13.1553
 21
124.6132379999999
 31
0.0
  0
LINE
  5
16D
330
1E
100
AcDbEntity
  8
0
100
AcDbLine
 10
13.2057
 20
127.4032379999999
 30
0.0
 11
13.7498
 21
127.1422379999999
 31
0.0
  0
LINE
  5
16E
330
1E
100
AcDbEntity
  8
0
100
AcDbLine
 10
13.164
 20
127.7832379999999
 30
0.0
 11
13.6749
 21
128.0602379999999
 31
0.0
  0
LINE
  5
16F
330
1E
100
AcDbEntity
  8
0
100
AcDbLine
 10
13.164
 20
127.7832379999999
 30
0.0
 11
13.2057
 21
127.4032379999999
 31
0.0
  0
LINE
  5
171
330
1E
100
AcDbEntity
  8
0
100
AcDbLine
 10
14.42009999999999
 20
128.0822379999999
 30
0.0
 11
14.9642
 21
127.821238
 31
0.0
  0
LINE
  5
173
330
1E
100
AcDbEntity
  8
0
100
AcDbLine
 10
14.9642
 20
127.821238
 30
0.0
 11
15.0058
 21
127.4412379999999
 31
0.0
  0
LINE
  5
174
330
1E
100
AcDbEntity
  8
0
100
AcDbLine
 10
14.49489999999999
 20
127.163238
 30
0.0
 11
15.0058
 21
127.4412379999999
 31
0.0
  0
LINE
  5
175
330
1E
100
AcDbEntity
  8
0
100
AcDbLine
 10
13.7498
 20
127.1422379999999
 30
0.0
 11
14.49489999999999
 21
127.163238
 31
0.0
  0
LINE
  5
176
330
1E
100
AcDbEntity
  8
0
100
AcDbLine
 10
13.6749
 20
128.0602379999999
 30
0.0
 11
14.42009999999999
 21
128.0822379999999
 31
0.0
  0
LINE
  5
17A
330
1E
100
AcDbEntity
  8
0
100
AcDbLine
 10
19.7419
 20
124.794238
 30
0.0
 11
20.2034
 21
125.0932379999999
 31
0.0
  0
LINE
  5
17B
330
1E
100
AcDbEntity
  8
0
100
AcDbLine
 10
19.7419
 20
124.794238
 30
0.0
 11
19.84829999999999
 21
124.4172379999999
 31
0.0
  0
LINE
  5
17D
330
1E
100
AcDbEntity
  8
0
100
AcDbLine
 10
20.5132
 20
122.3252379999999
 30
0.0
 11
20.7463
 21
121.9632379999999
 31
0.0
  0
LINE
  5
17F
330
1E
100
AcDbEntity
  8
0
100
AcDbLine
 10
26.8713
 20
122.4542379999999
 30
0.0
 11
27.28
 21
122.7732379999999
 31
0.0
  0
LINE
  5
180
330
1E
100
AcDbEntity
  8
0
100
AcDbLine
 10
26.8713
 20
122.4542379999999
 30
0.0
 11
27.04169999999999
 21
122.0842379999999
 31
0.0
  0
LINE
  5
181
330
1E
100
AcDbEntity
  8
0
100
AcDbLine
 10
28.0066
 20
122.8602379999999
 30
0.0
 11
28.6311
 21
122.6512379999999
 31
0.0
  0
LINE
  5
183
330
1E
100
AcDbEntity
  8
0
100
AcDbLine
 10
28.6311
 20
122.6512379999999
 30
0.0
 11
28.8015
 21
122.2812379999999
 31
0.0
  0
LINE
  5
185
330
1E
100
AcDbEntity
  8
0
100
AcDbLine
 10
27.28
 20
122.7732379999999
 30
0.0
 11
28.0066
 21
122.8602379999999
 31
0.0
  0
LINE
  5
18C
330
1E
100
AcDbEntity
  8
0
100
AcDbLine
 10
20.94219999999999
 20
125.1482379999999
 30
0.0
 11
21.5287
 21
124.9122379999999
 31
0.0
  0
LINE
  5
18F
330
1E
100
AcDbEntity
  8
0
100
AcDbLine
 10
21.58599999999999
 20
127.228497953162
 30
0.0
 11
21.58599999999999
 21
127.0312379999999
 31
0.0
  0
LINE
  5
190
330
1E
100
AcDbEntity
  8
0
100
AcDbLine
 10
21.58599999999999
 20
127.0312379999999
 30
0.0
 11
21.6095
 21
127.4122379999999
 31
0.0
  0
LINE
  5
191
330
1E
100
AcDbEntity
  8
0
100
AcDbLine
 10
21.58599999999999
 20
127.0312379999999
 30
0.0
 11
22.0835
 21
126.7482379999999
 31
0.0
  0
LINE
  5
192
330
1E
100
AcDbEntity
  8
0
100
AcDbLine
 10
21.58599999999999
 20
127.0312379999999
 30
0.0
 11
21.58599999999999
 21
127.228497953162
 31
0.0
  0
LINE
  5
193
330
1E
100
AcDbEntity
  8
0
100
AcDbLine
 10
21.6095
 20
127.4122379999999
 30
0.0
 11
22.16579999999999
 21
127.6662379999999
 31
0.0
  0
LINE
  5
195
330
1E
100
AcDbEntity
  8
0
100
AcDbLine
 10
29.5726
 20
125.987238
 30
0.0
 11
29.66099999999999
 21
126.3652379999999
 31
0.0
  0
LINE
  5
196
330
1E
100
AcDbEntity
  8
0
100
AcDbLine
 10
29.5726
 20
125.987238
 30
0.0
 11
30.0197
 21
125.6822379999999
 31
0.0
  0
LINE
  5
198
330
1E
100
AcDbEntity
  8
0
100
AcDbLine
 10
30.7608
 20
125.6372379999999
 30
0.0
 11
31.35839999999999
 21
125.865238
 31
0.0
  0
LINE
  5
199
330
1E
100
AcDbEntity
  8
0
100
AcDbLine
 10
30.9997
 20
126.5482379999999
 30
0.0
 11
31.4468
 21
126.2432379999999
 31
0.0
  0
LINE
  5
19C
330
1E
100
AcDbEntity
  8
0
100
AcDbLine
 10
31.35839999999999
 20
125.865238
 30
0.0
 11
31.4468
 21
126.2432379999999
 31
0.0
  0
LINE
  5
19D
330
1E
100
AcDbEntity
  8
0
100
AcDbLine
 10
30.0197
 20
125.6822379999999
 30
0.0
 11
30.7608
 21
125.6372379999999
 31
0.0
  0
LINE
  5
19E
330
1E
100
AcDbEntity
  8
0
100
AcDbLine
 10
29.66099999999999
 20
126.3652379999999
 30
0.0
 11
30.2586
 21
126.5932379999999
 31
0.0
  0
LINE
  5
1A0
330
1E
100
AcDbEntity
  8
0
100
AcDbLine
 10
22.8295
 20
126.7362379999999
 30
0.0
 11
23.38579999999999
 21
126.9892379999999
 31
0.0
  0
LINE
  5
1A1
330
1E
100
AcDbEntity
  8
0
100
AcDbLine
 10
23.38579999999999
 20
126.9892379999999
 30
0.0
 11
23.4093
 21
127.3702379999999
 31
0.0
  0
LINE
  5
1A2
330
1E
100
AcDbEntity
  8
0
100
AcDbLine
 10
22.0835
 20
126.7482379999999
 30
0.0
 11
22.8295
 21
126.7362379999999
 31
0.0
  0
LINE
  5
1A4
330
1E
100
AcDbEntity
  8
0
100
AcDbLine
 10
22.9118
 20
127.6542379999999
 30
0.0
 11
23.4093
 21
127.3702379999999
 31
0.0
  0
LINE
  5
1A5
330
1E
100
AcDbEntity
  8
0
100
AcDbLine
 10
22.16579999999999
 20
127.6662379999999
 30
0.0
 11
22.9118
 21
127.6542379999999
 31
0.0
  0
LINE
  5
1AA
330
1E
100
AcDbEntity
  8
0
100
AcDbLine
 10
30.2586
 20
126.5932379999999
 30
0.0
 11
30.9997
 21
126.5482379999999
 31
0.0
  0
LINE
  5
1AD
330
1E
100
AcDbEntity
  8
0
100
AcDbLine
 10
21.5287
 20
124.9122379999999
 30
0.0
 11
21.6351
 21
124.5352379999999
 31
0.0
  0
LINE
  5
1AF
330
1E
100
AcDbEntity
  8
0
100
AcDbLine
 10
21.1736
 20
124.2362379999999
 30
0.0
 11
21.6351
 21
124.5352379999999
 31
0.0
  0
LINE
  5
1B0
330
1E
100
AcDbEntity
  8
0
100
AcDbLine
 10
20.43489999999999
 20
124.1822379999999
 30
0.0
 11
21.1736
 21
124.2362379999999
 31
0.0
  0
LINE
  5
1B1
330
1E
100
AcDbEntity
  8
0
100
AcDbLine
 10
20.2034
 20
125.0932379999999
 30
0.0
 11
20.94219999999999
 21
125.1482379999999
 31
0.0
  0
LINE
  5
1B6
330
1E
100
AcDbEntity
  8
0
100
AcDbLine
 10
11.77999999999999
 20
121.442238
 30
0.0
 11
12.46599999999999
 21
121.2922379999999
 31
0.0
  0
LINE
  5
1B9
330
1E
100
AcDbEntity
  8
0
100
AcDbLine
 10
11.094
 20
121.2922379999999
 30
0.0
 11
11.77999999999999
 21
121.442238
 31
0.0
  0
LINE
  5
1C0
330
1E
100
AcDbEntity
  8
0
100
AcDbLine
 10
35.6183
 20
111.0842379999999
 30
0.0
 11
36.2845
 21
111.2562379999999
 31
0.0
  0
LINE
  5
1C1
330
1E
100
AcDbEntity
  8
0
100
AcDbLine
 10
35.6488
 20
99.18613800000001
 30
0.0
 11
35.6991
 21
100.9292379999999
 31
0.0
  0
LINE
  5
1C2
330
1E
100
AcDbEntity
  8
0
100
AcDbLine
 10
35.5907
 20
97.359038
 30
0.0
 11
35.6488
 21
99.18613800000001
 31
0.0
  0
LINE
  5
1C4
330
1E
100
AcDbEntity
  8
0
100
AcDbLine
 10
25.9452
 20
129.251238
 30
0.0
 11
26.0978
 21
129.624238
 31
0.0
  0
LINE
  5
1C5
330
1E
100
AcDbEntity
  8
0
100
AcDbLine
 10
25.3109
 20
129.0502379999999
 30
0.0
 11
25.9452
 21
129.251238
 31
0.0
  0
LINE
  5
1C6
330
1E
100
AcDbEntity
  8
0
100
AcDbLine
 10
24.5803
 20
129.1282379999999
 30
0.0
 11
25.3109
 21
129.0502379999999
 31
0.0
  0
LINE
  5
1C7
330
1E
100
AcDbEntity
  8
0
100
AcDbLine
 10
24.18699999999999
 20
129.4522379999999
 30
0.0
 11
24.3397
 21
129.8252379999999
 31
0.0
  0
LINE
  5
1C8
330
1E
100
AcDbEntity
  8
0
100
AcDbLine
 10
24.18699999999999
 20
129.4522379999999
 30
0.0
 11
24.5803
 21
129.1282379999999
 31
0.0
  0
LINE
  5
1C9
330
1E
100
AcDbEntity
  8
0
100
AcDbLine
 10
35.44919999999999
 20
128.6762379999999
 30
0.0
 11
36.16369999999999
 21
128.787238
 31
0.0
  0
LINE
  5
1CA
330
1E
100
AcDbEntity
  8
0
100
AcDbLine
 10
34.783
 20
128.8482379999999
 30
0.0
 11
35.44919999999999
 21
128.6762379999999
 31
0.0
  0
LINE
  5
1CB
330
1E
100
AcDbEntity
  8
0
100
AcDbLine
 10
34.5673
 20
129.2132379999999
 30
0.0
 11
34.9038
 21
129.553238
 31
0.0
  0
LINE
  5
1CC
330
1E
100
AcDbEntity
  8
0
100
AcDbLine
 10
34.5673
 20
129.2132379999999
 30
0.0
 11
34.783
 21
128.8482379999999
 31
0.0
  0
LINE
  5
1D0
330
1E
100
AcDbEntity
  8
0
100
AcDbLine
 10
25.7045
 20
129.947238
 30
0.0
 11
26.0978
 21
129.624238
 31
0.0
  0
LINE
  5
1D2
330
1E
100
AcDbEntity
  8
0
100
AcDbLine
 10
24.3397
 20
129.8252379999999
 30
0.0
 11
24.974
 21
130.025238
 31
0.0
  0
LINE
  5
1D4
330
1E
100
AcDbEntity
  8
0
100
AcDbLine
 10
34.9038
 20
129.553238
 30
0.0
 11
35.6183
 21
129.6632379999999
 31
0.0
  0
LINE
  5
1D6
330
1E
100
AcDbEntity
  8
0
100
AcDbLine
 10
35.6183
 20
129.6632379999999
 30
0.0
 11
36.2845
 21
129.4912379999999
 31
0.0
  0
LINE
  5
1D9
330
1E
100
AcDbEntity
  8
0
100
AcDbLine
 10
36.0071
 20
102.7892379999999
 30
0.0
 11
36.0487
 21
102.409238
 31
0.0
  0
LINE
  5
1DA
330
1E
100
AcDbEntity
  8
0
100
AcDbLine
 10
36.0071
 20
102.7892379999999
 30
0.0
 11
36.518
 21
103.0672379999999
 31
0.0
  0
LINE
  5
1DC
330
1E
100
AcDbEntity
  8
0
100
AcDbLine
 10
36.0487
 20
102.409238
 30
0.0
 11
36.59279999999999
 21
102.1492379999999
 31
0.0
  0
LINE
  5
1DD
330
1E
100
AcDbEntity
  8
0
100
AcDbLine
 10
36.2873
 20
106.8372379999999
 30
0.0
 11
36.8436
 21
107.0912379999999
 31
0.0
  0
LINE
  5
1DE
330
1E
100
AcDbEntity
  8
0
100
AcDbLine
 10
36.2638
 20
106.4562379999999
 30
0.0
 11
36.7613
 21
106.1732379999999
 31
0.0
  0
LINE
  5
1DF
330
1E
100
AcDbEntity
  8
0
100
AcDbLine
 10
36.2638
 20
106.4562379999999
 30
0.0
 11
36.2873
 21
106.8372379999999
 31
0.0
  0
LINE
  5
1E0
330
1E
100
AcDbEntity
  8
0
100
AcDbLine
 10
36.2845
 20
111.2562379999999
 30
0.0
 11
36.5002
 21
111.6212379999999
 31
0.0
  0
LINE
  5
1E1
330
1E
100
AcDbEntity
  8
0
100
AcDbLine
 10
36.16369999999999
 20
111.9612379999999
 30
0.0
 11
36.5002
 21
111.6212379999999
 31
0.0
  0
LINE
  5
1E2
330
1E
100
AcDbEntity
  8
0
100
AcDbLine
 10
35.9814
 20
117.8252379999999
 30
0.0
 11
36.4789
 21
118.1092379999999
 31
0.0
  0
LINE
  5
1E3
330
1E
100
AcDbEntity
  8
0
100
AcDbLine
 10
35.899
 20
118.7432379999999
 30
0.0
 11
36.4554
 21
118.4892379999999
 31
0.0
  0
LINE
  5
1E8
330
1E
100
AcDbEntity
  8
0
100
AcDbLine
 10
35.7965
 20
122.2102379999999
 30
0.0
 11
36.294
 21
121.9262379999999
 31
0.0
  0
LINE
  5
1EA
330
1E
100
AcDbEntity
  8
0
100
AcDbLine
 10
36.2706
 20
121.5452379999999
 30
0.0
 11
36.294
 21
121.9262379999999
 31
0.0
  0
LINE
  5
1EB
330
1E
100
AcDbEntity
  8
0
100
AcDbLine
 10
35.71419999999999
 20
121.2912379999999
 30
0.0
 11
36.2706
 21
121.5452379999999
 31
0.0
  0
LINE
  5
1EC
330
1E
100
AcDbEntity
  8
0
100
AcDbLine
 10
36.2845
 20
129.4912379999999
 30
0.0
 11
36.5002
 21
129.126238
 31
0.0
  0
LINE
  5
1ED
330
1E
100
AcDbEntity
  8
0
100
AcDbLine
 10
36.16369999999999
 20
128.787238
 30
0.0
 11
36.5002
 21
129.126238
 31
0.0
  0
LINE
  5
1EE
330
1E
100
AcDbEntity
  8
0
100
AcDbLine
 10
35.6991
 20
100.9292379999999
 30
0.0
 11
35.7017101422345
 21
101.185178989246
 31
0.0
  0
LINE
  5
1EF
330
1E
100
AcDbEntity
  8
0
100
AcDbLine
 10
35.2035
 20
69.12993799999999
 30
0.0
 11
35.20739999999999
 21
73.997738
 31
0.0
  0
LINE
  5
1F0
330
1E
100
AcDbEntity
  8
0
100
AcDbLine
 10
35.2035
 20
69.12993799999999
 30
0.0
 11
35.26059999999999
 21
59.834838
 31
0.0
  0
LINE
  5
1F1
330
1E
100
AcDbEntity
  8
0
100
AcDbLine
 10
38.0569
 20
11.778238
 30
0.0
 11
38.6876
 21
10.929438
 31
0.0
  0
LINE
  5
1F2
330
1E
100
AcDbEntity
  8
0
100
AcDbLine
 10
38.6876
 20
10.929438
 30
0.0
 11
38.8009
 21
10.800638
 31
0.0
  0
LINE
  5
1F3
330
1E
100
AcDbEntity
  8
0
100
AcDbLine
 10
39.0
 20
8.53136799999998
 30
0.0
 11
39.42309999999999
 21
6.952317999999981
 31
0.0
  0
LINE
  5
1F4
330
1E
100
AcDbEntity
  8
0
100
AcDbLine
 10
39.0
 20
8.53136799999998
 30
0.0
 11
39.1516683570725
 21
9.097416103527439
 31
0.0
  0
LINE
  5
1F5
330
1E
100
AcDbEntity
  8
0
100
AcDbLine
 10
39.0
 20
8.53136799999998
 30
0.0
 11
39.1516683570725
 21
9.097416103527448
 31
0.0
  0
LINE
  5
1F6
330
1E
100
AcDbEntity
  8
0
100
AcDbLine
 10
39.0
 20
7.39870799999999
 30
0.0
 11
39.42309999999999
 21
5.81965799999999
 31
0.0
  0
LINE
  5
1F7
330
1E
100
AcDbEntity
  8
0
100
AcDbLine
 10
39.0
 20
7.39870799999999
 30
0.0
 11
39.151745811089
 21
7.965037999999981
 31
0.0
  0
LINE
  5
1F8
330
1E
100
AcDbEntity
  8
0
100
AcDbLine
 10
40.5231
 20
4.39562799999999
 30
0.0
 11
42.2154
 21
3.12626799999999
 31
0.0
  0
LINE
  5
1F9
330
1E
100
AcDbEntity
  8
0
100
AcDbLine
 10
42.80759999999999
 20
3.694147999999979
 30
0.0
 11
44.92309999999999
 21
2.80693799999999
 31
0.0
  0
LINE
  5
1FA
330
1E
100
AcDbEntity
  8
0
100
AcDbLine
 10
42.2154
 20
3.12626799999999
 30
0.0
 11
44.5
 21
2.18987799999998
 31
0.0
  0
LINE
  5
1FB
330
1E
100
AcDbEntity
  8
0
100
AcDbLine
 10
42.80759999999999
 20
2.561487999999989
 30
0.0
 11
44.92309999999999
 21
1.674277999999979
 31
0.0
  0
LINE
  5
1FC
330
1E
100
AcDbEntity
  8
0
100
AcDbLine
 10
42.2154
 20
4.25842799999999
 30
0.0
 11
44.5
 21
3.32253799999999
 31
0.0
  0
LINE
  5
1FD
330
1E
100
AcDbEntity
  8
0
100
AcDbLine
 10
41.2
 20
3.74230799999999
 30
0.0
 11
42.80759999999999
 21
2.561487999999989
 31
0.0
  0
LINE
  5
1FE
330
1E
100
AcDbEntity
  8
0
100
AcDbLine
 10
40.94200111443189
 20
4.08141874713985
 30
0.0
 11
41.2
 21
3.74230799999999
 31
0.0
  0
LINE
  5
1FF
330
1E
100
AcDbEntity
  8
0
100
AcDbLine
 10
42.2154
 20
1.993607999999989
 30
0.0
 11
44.5
 21
1.057717999999989
 31
0.0
  0
LINE
  5
200
330
1E
100
AcDbEntity
  8
0
100
AcDbLine
 10
40.5231
 20
3.262967999999979
 30
0.0
 11
42.2154
 21
1.993607999999989
 31
0.0
  0
LINE
  5
201
330
1E
100
AcDbEntity
  8
0
100
AcDbLine
 10
39.42309999999999
 20
8.08497799999999
 30
0.0
 11
40.5231
 21
6.659577999999981
 31
0.0
  0
LINE
  5
202
330
1E
100
AcDbEntity
  8
0
100
AcDbLine
 10
39.42309999999999
 20
6.952317999999981
 30
0.0
 11
40.5231
 21
5.528287999999981
 31
0.0
  0
LINE
  5
203
330
1E
100
AcDbEntity
  8
0
100
AcDbLine
 10
42.80759999999999
 20
4.82631799999998
 30
0.0
 11
44.92309999999999
 21
3.93960799999999
 31
0.0
  0
LINE
  5
204
330
1E
100
AcDbEntity
  8
0
100
AcDbLine
 10
41.2
 20
4.87409799999999
 30
0.0
 11
42.80759999999999
 21
3.694147999999979
 31
0.0
  0
LINE
  5
205
330
1E
100
AcDbEntity
  8
0
100
AcDbLine
 10
40.5231
 20
7.79187799999999
 30
0.0
 11
42.2154
 21
6.52238799999998
 31
0.0
  0
LINE
  5
206
330
1E
100
AcDbEntity
  8
0
100
AcDbLine
 10
40.5231
 20
6.659577999999981
 30
0.0
 11
42.2154
 21
5.39022799999998
 31
0.0
  0
LINE
  5
207
330
1E
100
AcDbEntity
  8
0
100
AcDbLine
 10
42.80759999999999
 20
5.958607999999981
 30
0.0
 11
44.92309999999999
 21
5.07175799999998
 31
0.0
  0
LINE
  5
208
330
1E
100
AcDbEntity
  8
0
100
AcDbLine
 10
42.2154
 20
5.39022799999998
 30
0.0
 11
44.5
 21
4.45469799999999
 31
0.0
  0
LINE
  5
209
330
1E
100
AcDbEntity
  8
0
100
AcDbLine
 10
41.2
 20
6.00675799999999
 30
0.0
 11
42.80759999999999
 21
4.82631799999998
 31
0.0
  0
LINE
  5
20A
330
1E
100
AcDbEntity
  8
0
100
AcDbLine
 10
42.80759999999999
 20
7.090767999999981
 30
0.0
 11
44.92309999999999
 21
6.20405799999999
 31
0.0
  0
LINE
  5
20B
330
1E
100
AcDbEntity
  8
0
100
AcDbLine
 10
42.2154
 20
6.52238799999998
 30
0.0
 11
44.5
 21
5.58649799999999
 31
0.0
  0
LINE
  5
20C
330
1E
100
AcDbEntity
  8
0
100
AcDbLine
 10
42.2154
 20
7.65504799999999
 30
0.0
 11
44.5
 21
6.71915799999999
 31
0.0
  0
LINE
  5
20D
330
1E
100
AcDbEntity
  8
0
100
AcDbLine
 10
41.2
 20
8.270717999999989
 30
0.0
 11
42.80759999999999
 21
7.090767999999981
 31
0.0
  0
LINE
  5
20E
330
1E
100
AcDbEntity
  8
0
100
AcDbLine
 10
40.9420144016355
 20
8.609910371014899
 30
0.0
 11
41.2
 21
8.270717999999989
 31
0.0
  0
LINE
  5
20F
330
1E
100
AcDbEntity
  8
0
100
AcDbLine
 10
41.2
 20
7.13805799999999
 30
0.0
 11
42.80759999999999
 21
5.958607999999981
 31
0.0
  0
LINE
  5
210
330
1E
100
AcDbEntity
  8
0
100
AcDbLine
 10
40.9413390327248
 20
7.47813323272832
 30
0.0
 11
41.2
 21
7.13805799999999
 31
0.0
  0
LINE
  5
211
330
1E
100
AcDbEntity
  8
0
100
AcDbLine
 10
40.943048676905
 20
6.34458547324391
 30
0.0
 11
41.2
 21
6.00675799999999
 31
0.0
  0
LINE
  5
212
330
1E
100
AcDbEntity
  8
0
100
AcDbLine
 10
40.5231
 20
5.528287999999981
 30
0.0
 11
42.2154
 21
4.25842799999999
 31
0.0
  0
LINE
  5
213
330
1E
100
AcDbEntity
  8
0
100
AcDbLine
 10
40.94084546718629
 20
5.214822149405389
 30
0.0
 11
41.2
 21
4.87409799999999
 31
0.0
  0
LINE
  5
214
330
1E
100
AcDbEntity
  8
0
100
AcDbLine
 10
39.42309999999999
 20
5.81965799999999
 30
0.0
 11
40.5231
 21
4.39562799999999
 31
0.0
  0
LINE
  5
215
330
1E
100
AcDbEntity
  8
0
100
AcDbLine
 10
39.42309999999999
 20
4.68749799999999
 30
0.0
 11
40.5231
 21
3.262967999999979
 31
0.0
  0
LINE
  5
216
330
1E
100
AcDbEntity
  8
0
100
AcDbLine
 10
39.0
 20
6.26654799999999
 30
0.0
 11
39.42309999999999
 21
4.68749799999999
 31
0.0
  0
LINE
  5
217
330
1E
100
AcDbEntity
  8
0
100
AcDbLine
 10
39.0
 20
6.26654799999999
 30
0.0
 11
39.1516788246097
 21
6.83262799999999
 31
0.0
  0
LINE
  5
218
330
1E
100
AcDbEntity
  8
0
100
AcDbLine
 10
39.42309999999999
 20
9.21627799999999
 30
0.0
 11
40.5231
 21
7.79187799999999
 31
0.0
  0
LINE
  5
219
330
1E
100
AcDbEntity
  8
0
100
AcDbLine
 10
39.8237740615706
 20
9.829665090266029
 30
0.0
 11
40.5231
 21
8.92403799999999
 31
0.0
  0
LINE
  5
21A
330
1E
100
AcDbEntity
  8
0
100
AcDbLine
 10
39.0
 20
9.66313799999998
 30
0.0
 11
39.42309999999999
 21
8.08497799999999
 31
0.0
  0
LINE
  5
21B
330
1E
100
AcDbEntity
  8
0
100
AcDbLine
 10
39.0
 20
9.66313799999998
 30
0.0
 11
39.15164692060189
 21
10.2291168520977
 31
0.0
  0
LINE
  5
21C
330
1E
100
AcDbEntity
  8
0
100
AcDbLine
 10
40.5231
 20
8.92403799999999
 30
0.0
 11
42.2154
 21
7.65504799999999
 31
0.0
  0
LINE
  5
21D
330
1E
100
AcDbEntity
  8
0
100
AcDbLine
 10
40.4986
 20
9.30851799999999
 30
0.0
 11
41.5864
 21
8.65198799999999
 31
0.0
  0
LINE
  5
21E
330
1E
100
AcDbEntity
  8
0
100
AcDbLine
 10
41.5864
 20
8.65198799999999
 30
0.0
 11
42.81899999999999
 21
8.065947999999981
 31
0.0
  0
LINE
  5
21F
330
1E
100
AcDbEntity
  8
0
100
AcDbLine
 10
44.5
 20
5.58649799999999
 30
0.0
 11
47.1231
 21
4.96775799999999
 31
0.0
  0
LINE
  5
220
330
1E
100
AcDbEntity
  8
0
100
AcDbLine
 10
44.5
 20
4.45469799999999
 30
0.0
 11
47.1231
 21
3.83646799999999
 31
0.0
  0
LINE
  5
221
330
1E
100
AcDbEntity
  8
0
100
AcDbLine
 10
44.5
 20
3.32253799999999
 30
0.0
 11
47.1231
 21
2.703807999999979
 31
0.0
  0
LINE
  5
222
330
1E
100
AcDbEntity
  8
0
100
AcDbLine
 10
44.5
 20
2.18987799999998
 30
0.0
 11
47.1231
 21
1.572007999999989
 31
0.0
  0
LINE
  5
223
330
1E
100
AcDbEntity
  8
0
100
AcDbLine
 10
50.0
 20
0.203761999999985
 30
0.0
 11
52.8769
 21
0.455277999999985
 31
0.0
  0
LINE
  5
224
330
1E
100
AcDbEntity
  8
0
100
AcDbLine
 10
44.92309999999999
 20
6.20405799999999
 30
0.0
 11
47.37689999999999
 21
5.64197799999999
 31
0.0
  0
LINE
  5
225
330
1E
100
AcDbEntity
  8
0
100
AcDbLine
 10
44.92309999999999
 20
5.07175799999998
 30
0.0
 11
47.37689999999999
 21
4.51017799999999
 31
0.0
  0
LINE
  5
226
330
1E
100
AcDbEntity
  8
0
100
AcDbLine
 10
44.92309999999999
 20
3.93960799999999
 30
0.0
 11
47.37689999999999
 21
3.37801799999999
 31
0.0
  0
LINE
  5
227
330
1E
100
AcDbEntity
  8
0
100
AcDbLine
 10
44.92309999999999
 20
2.80693799999999
 30
0.0
 11
47.37689999999999
 21
2.24535799999999
 31
0.0
  0
LINE
  5
228
330
1E
100
AcDbEntity
  8
0
100
AcDbLine
 10
50.0
 20
0.9337579999999849
 30
0.0
 11
52.6231
 21
1.14541799999999
 31
0.0
  0
LINE
  5
229
330
1E
100
AcDbEntity
  8
0
100
AcDbLine
 10
47.1231
 20
6.10042799999999
 30
0.0
 11
50.0
 21
5.86432799999999
 31
0.0
  0
LINE
  5
22A
330
1E
100
AcDbEntity
  8
0
100
AcDbLine
 10
47.1231
 20
4.96775799999999
 30
0.0
 11
50.0
 21
4.73253799999999
 31
0.0
  0
LINE
  5
22B
330
1E
100
AcDbEntity
  8
0
100
AcDbLine
 10
47.1231
 20
3.83646799999999
 30
0.0
 11
50.0
 21
3.60037799999999
 31
0.0
  0
LINE
  5
22C
330
1E
100
AcDbEntity
  8
0
100
AcDbLine
 10
47.1231
 20
2.703807999999979
 30
0.0
 11
50.0
 21
2.46771799999999
 31
0.0
  0
LINE
  5
22D
330
1E
100
AcDbEntity
  8
0
100
AcDbLine
 10
50.0
 20
2.066417999999989
 30
0.0
 11
52.6231
 21
2.27757799999999
 31
0.0
  0
LINE
  5
22E
330
1E
100
AcDbEntity
  8
0
100
AcDbLine
 10
50.0
 20
1.33505799999999
 30
0.0
 11
52.8769
 21
1.587937999999989
 31
0.0
  0
LINE
  5
22F
330
1E
100
AcDbEntity
  8
0
100
AcDbLine
 10
47.37689999999999
 20
5.64197799999999
 30
0.0
 11
50.0
 21
5.46302799999999
 31
0.0
  0
LINE
  5
230
330
1E
100
AcDbEntity
  8
0
100
AcDbLine
 10
47.37689999999999
 20
4.51017799999999
 30
0.0
 11
50.0
 21
4.33037799999999
 31
0.0
  0
LINE
  5
231
330
1E
100
AcDbEntity
  8
0
100
AcDbLine
 10
50.0
 20
6.59519799999999
 30
0.0
 11
52.6231
 21
6.80648799999999
 31
0.0
  0
LINE
  5
232
330
1E
100
AcDbEntity
  8
0
100
AcDbLine
 10
50.0
 20
5.86432799999999
 30
0.0
 11
52.8769
 21
6.11634799999999
 31
0.0
  0
LINE
  5
233
330
1E
100
AcDbEntity
  8
0
100
AcDbLine
 10
50.0
 20
5.46302799999999
 30
0.0
 11
52.6231
 21
5.67469799999999
 31
0.0
  0
LINE
  5
234
330
1E
100
AcDbEntity
  8
0
100
AcDbLine
 10
50.0
 20
4.73253799999999
 30
0.0
 11
52.8769
 21
4.98455799999999
 31
0.0
  0
LINE
  5
235
330
1E
100
AcDbEntity
  8
0
100
AcDbLine
 10
50.0
 20
4.33037799999999
 30
0.0
 11
52.6231
 21
4.54290799999999
 31
0.0
  0
LINE
  5
236
330
1E
100
AcDbEntity
  8
0
100
AcDbLine
 10
50.0
 20
3.60037799999999
 30
0.0
 11
52.8769
 21
3.85239799999999
 31
0.0
  0
LINE
  5
237
330
1E
100
AcDbEntity
  8
0
100
AcDbLine
 10
50.0
 20
3.19857799999999
 30
0.0
 11
52.6231
 21
3.41023799999999
 31
0.0
  0
LINE
  5
238
330
1E
100
AcDbEntity
  8
0
100
AcDbLine
 10
50.0
 20
2.46771799999999
 30
0.0
 11
52.8769
 21
2.72009799999999
 31
0.0
  0
LINE
  5
239
330
1E
100
AcDbEntity
  8
0
100
AcDbLine
 10
47.37689999999999
 20
3.37801799999999
 30
0.0
 11
50.0
 21
3.19857799999999
 31
0.0
  0
LINE
  5
23A
330
1E
100
AcDbEntity
  8
0
100
AcDbLine
 10
47.37689999999999
 20
2.24535799999999
 30
0.0
 11
50.0
 21
2.066417999999989
 31
0.0
  0
LINE
  5
23B
330
1E
100
AcDbEntity
  8
0
100
AcDbLine
 10
47.1231
 20
1.572007999999989
 30
0.0
 11
50.0
 21
1.33505799999999
 31
0.0
  0
LINE
  5
23C
330
1E
100
AcDbEntity
  8
0
100
AcDbLine
 10
47.37689999999999
 20
1.11356799999999
 30
0.0
 11
50.0
 21
0.9337579999999849
 31
0.0
  0
LINE
  5
23D
330
1E
100
AcDbEntity
  8
0
100
AcDbLine
 10
44.92309999999999
 20
1.674277999999979
 30
0.0
 11
47.37689999999999
 21
1.11356799999999
 31
0.0
  0
LINE
  5
23E
330
1E
100
AcDbEntity
  8
0
100
AcDbLine
 10
47.1231
 20
0.439347999999985
 30
0.0
 11
50.0
 21
0.203761999999985
 31
0.0
  0
LINE
  5
23F
330
1E
100
AcDbEntity
  8
0
100
AcDbLine
 10
44.5
 20
1.057717999999989
 30
0.0
 11
47.1231
 21
0.439347999999985
 31
0.0
  0
LINE
  5
240
330
1E
100
AcDbEntity
  8
0
100
AcDbLine
 10
47.37689999999999
 20
6.77413799999999
 30
0.0
 11
50.0
 21
6.59519799999999
 31
0.0
  0
LINE
  5
241
330
1E
100
AcDbEntity
  8
0
100
AcDbLine
 10
44.5
 20
6.71915799999999
 30
0.0
 11
47.1231
 21
6.10042799999999
 31
0.0
  0
LINE
  5
242
330
1E
100
AcDbEntity
  8
0
100
AcDbLine
 10
50.0
 20
6.71495799999999
 30
0.0
 11
50.0
 21
6.80193799999999
 31
0.0
  0
LINE
  5
243
330
1E
100
AcDbEntity
  8
0
100
AcDbLine
 10
50.0
 20
6.80193799999999
 30
0.0
 11
50.0
 21
6.92061799999999
 31
0.0
  0
LINE
  5
244
330
1E
100
AcDbEntity
  8
0
100
AcDbLine
 10
50.0
 20
6.80193799999999
 30
0.0
 11
50.0
 21
6.70868799999999
 31
0.0
  0
LINE
  5
245
330
1E
100
AcDbEntity
  8
0
100
AcDbLine
 10
50.0
 20
6.80193799999999
 30
0.0
 11
50.0
 21
6.91201799999999
 31
0.0
  0
LINE
  5
246
330
1E
100
AcDbEntity
  8
0
100
AcDbLine
 10
50.0
 20
6.92061799999999
 30
0.0
 11
50.0
 21
6.80193799999999
 31
0.0
  0
LINE
  5
247
330
1E
100
AcDbEntity
  8
0
100
AcDbLine
 10
47.785
 20
6.83159799999999
 30
0.0
 11
50.0
 21
6.70868799999999
 31
0.0
  0
LINE
  5
248
330
1E
100
AcDbEntity
  8
0
100
AcDbLine
 10
52.8769
 20
0.455277999999985
 30
0.0
 11
55.5
 21
1.10636799999999
 31
0.0
  0
LINE
  5
249
330
1E
100
AcDbEntity
  8
0
100
AcDbLine
 10
52.8769
 20
1.587937999999989
 30
0.0
 11
55.5
 21
2.23852799999999
 31
0.0
  0
LINE
  5
24A
330
1E
100
AcDbEntity
  8
0
100
AcDbLine
 10
52.6231
 20
1.14541799999999
 30
0.0
 11
55.0769
 21
1.756157999999989
 31
0.0
  0
LINE
  5
24B
330
1E
100
AcDbEntity
  8
0
100
AcDbLine
 10
55.5
 20
1.10636799999999
 30
0.0
 11
57.78459999999999
 21
2.123637999999989
 31
0.0
  0
LINE
  5
24C
330
1E
100
AcDbEntity
  8
0
100
AcDbLine
 10
52.8769
 20
2.72009799999999
 30
0.0
 11
55.5
 21
3.37118799999999
 31
0.0
  0
LINE
  5
24D
330
1E
100
AcDbEntity
  8
0
100
AcDbLine
 10
52.6231
 20
2.27757799999999
 30
0.0
 11
55.0769
 21
2.887447999999979
 31
0.0
  0
LINE
  5
24E
330
1E
100
AcDbEntity
  8
0
100
AcDbLine
 10
55.5
 20
2.23852799999999
 30
0.0
 11
57.78459999999999
 21
3.25492799999999
 31
0.0
  0
LINE
  5
24F
330
1E
100
AcDbEntity
  8
0
100
AcDbLine
 10
55.0769
 20
1.756157999999989
 30
0.0
 11
57.1923
 21
2.72336799999999
 31
0.0
  0
LINE
  5
250
330
1E
100
AcDbEntity
  8
0
100
AcDbLine
 10
57.78459999999999
 20
2.123637999999989
 30
0.0
 11
59.4769
 21
3.489917999999979
 31
0.0
  0
LINE
  5
251
330
1E
100
AcDbEntity
  8
0
100
AcDbLine
 10
52.8769
 20
3.85239799999999
 30
0.0
 11
55.5
 21
4.50297799999999
 31
0.0
  0
LINE
  5
252
330
1E
100
AcDbEntity
  8
0
100
AcDbLine
 10
52.6231
 20
3.41023799999999
 30
0.0
 11
55.0769
 21
4.02010799999999
 31
0.0
  0
LINE
  5
253
330
1E
100
AcDbEntity
  8
0
100
AcDbLine
 10
55.5
 20
3.37118799999999
 30
0.0
 11
57.78459999999999
 21
4.38758799999999
 31
0.0
  0
LINE
  5
254
330
1E
100
AcDbEntity
  8
0
100
AcDbLine
 10
52.8769
 20
4.98455799999999
 30
0.0
 11
55.5
 21
5.63514799999999
 31
0.0
  0
LINE
  5
255
330
1E
100
AcDbEntity
  8
0
100
AcDbLine
 10
52.6231
 20
4.54290799999999
 30
0.0
 11
55.0769
 21
5.15276799999998
 31
0.0
  0
LINE
  5
256
330
1E
100
AcDbEntity
  8
0
100
AcDbLine
 10
55.5
 20
4.50297799999999
 30
0.0
 11
57.78459999999999
 21
5.52024799999998
 31
0.0
  0
LINE
  5
257
330
1E
100
AcDbEntity
  8
0
100
AcDbLine
 10
55.0769
 20
4.02010799999999
 30
0.0
 11
57.1923
 21
4.98818799999998
 31
0.0
  0
LINE
  5
258
330
1E
100
AcDbEntity
  8
0
100
AcDbLine
 10
57.1923
 20
4.98818799999998
 30
0.0
 11
58.79999999999999
 21
6.24864799999998
 31
0.0
  0
LINE
  5
259
330
1E
100
AcDbEntity
  8
0
100
AcDbLine
 10
55.0769
 20
2.887447999999979
 30
0.0
 11
57.1923
 21
3.856027999999979
 31
0.0
  0
LINE
  5
25A
330
1E
100
AcDbEntity
  8
0
100
AcDbLine
 10
57.78459999999999
 20
4.38758799999999
 30
0.0
 11
59.4769
 21
5.75474799999998
 31
0.0
  0
LINE
  5
25B
330
1E
100
AcDbEntity
  8
0
100
AcDbLine
 10
57.78459999999999
 20
3.25492799999999
 30
0.0
 11
59.4769
 21
4.62207799999999
 31
0.0
  0
LINE
  5
25C
330
1E
100
AcDbEntity
  8
0
100
AcDbLine
 10
57.1923
 20
3.856027999999979
 30
0.0
 11
58.79999999999999
 21
5.11735799999999
 31
0.0
  0
LINE
  5
25D
330
1E
100
AcDbEntity
  8
0
100
AcDbLine
 10
57.1923
 20
2.72336799999999
 30
0.0
 11
58.79999999999999
 21
3.984687999999979
 31
0.0
  0
LINE
  5
25E
330
1E
100
AcDbEntity
  8
0
100
AcDbLine
 10
59.4769
 20
4.62207799999999
 30
0.0
 11
60.5769
 21
6.223927999999981
 31
0.0
  0
LINE
  5
25F
330
1E
100
AcDbEntity
  8
0
100
AcDbLine
 10
59.4769
 20
3.489917999999979
 30
0.0
 11
60.5769
 21
5.09262799999999
 31
0.0
  0
LINE
  5
260
330
1E
100
AcDbEntity
  8
0
100
AcDbLine
 10
58.79999999999999
 20
3.984687999999979
 30
0.0
 11
58.93589140212149
 21
4.185016069733729
 31
0.0
  0
LINE
  5
261
330
1E
100
AcDbEntity
  8
0
100
AcDbLine
 10
52.8769
 20
6.11634799999999
 30
0.0
 11
55.5
 21
6.76780799999999
 31
0.0
  0
LINE
  5
262
330
1E
100
AcDbEntity
  8
0
100
AcDbLine
 10
52.6231
 20
5.67469799999999
 30
0.0
 11
55.0769
 21
6.28406799999999
 31
0.0
  0
LINE
  5
263
330
1E
100
AcDbEntity
  8
0
100
AcDbLine
 10
55.5
 20
5.63514799999999
 30
0.0
 11
57.78459999999999
 21
6.651547999999981
 31
0.0
  0
LINE
  5
264
330
1E
100
AcDbEntity
  8
0
100
AcDbLine
 10
55.0769
 20
5.15276799999998
 30
0.0
 11
57.1923
 21
6.12048799999999
 31
0.0
  0
LINE
  5
265
330
1E
100
AcDbEntity
  8
0
100
AcDbLine
 10
57.78459999999999
 20
5.52024799999998
 30
0.0
 11
59.4769
 21
6.88603799999998
 31
0.0
  0
LINE
  5
266
330
1E
100
AcDbEntity
  8
0
100
AcDbLine
 10
52.6231
 20
6.80648799999999
 30
0.0
 11
53.70384781558479
 21
7.075261146541049
 31
0.0
  0
LINE
  5
267
330
1E
100
AcDbEntity
  8
0
100
AcDbLine
 10
55.5
 20
6.76780799999999
 30
0.0
 11
57.78459999999999
 21
7.78420799999999
 31
0.0
  0
LINE
  5
268
330
1E
100
AcDbEntity
  8
0
100
AcDbLine
 10
55.0769
 20
6.28406799999999
 30
0.0
 11
57.1923
 21
7.25264799999999
 31
0.0
  0
LINE
  5
269
330
1E
100
AcDbEntity
  8
0
100
AcDbLine
 10
57.78459999999999
 20
6.651547999999981
 30
0.0
 11
59.4769
 21
8.018697999999981
 31
0.0
  0
LINE
  5
26A
330
1E
100
AcDbEntity
  8
0
100
AcDbLine
 10
57.1923
 20
6.12048799999999
 30
0.0
 11
58.79999999999999
 21
7.38130799999999
 31
0.0
  0
LINE
  5
26B
330
1E
100
AcDbEntity
  8
0
100
AcDbLine
 10
59.4769
 20
6.88603799999998
 30
0.0
 11
60.5769
 21
8.48924799999998
 31
0.0
  0
LINE
  5
26C
330
1E
100
AcDbEntity
  8
0
100
AcDbLine
 10
59.4769
 20
5.75474799999998
 30
0.0
 11
60.5769
 21
7.35658799999998
 31
0.0
  0
LINE
  5
26D
330
1E
100
AcDbEntity
  8
0
100
AcDbLine
 10
58.79999999999999
 20
6.24864799999998
 30
0.0
 11
58.9364424149527
 21
6.44985554707691
 31
0.0
  0
LINE
  5
26E
330
1E
100
AcDbEntity
  8
0
100
AcDbLine
 10
58.79999999999999
 20
5.11735799999999
 30
0.0
 11
58.9360615660573
 21
5.317820343349829
 31
0.0
  0
LINE
  5
26F
330
1E
100
AcDbEntity
  8
0
100
AcDbLine
 10
60.5769
 20
6.223927999999981
 30
0.0
 11
61.0
 21
7.96485799999998
 31
0.0
  0
LINE
  5
270
330
1E
100
AcDbEntity
  8
0
100
AcDbLine
 10
60.5769
 20
5.09262799999999
 30
0.0
 11
61.0
 21
6.83269799999999
 31
0.0
  0
LINE
  5
271
330
1E
100
AcDbEntity
  8
0
100
AcDbLine
 10
52.215
 20
6.83159799999999
 30
0.0
 11
54.3561
 21
7.18200799999999
 31
0.0
  0
LINE
  5
272
330
1E
100
AcDbEntity
  8
0
100
AcDbLine
 10
54.3561
 20
7.18200799999999
 30
0.0
 11
55.8213
 21
7.56888799999999
 31
0.0
  0
LINE
  5
273
330
1E
100
AcDbEntity
  8
0
100
AcDbLine
 10
50.0
 20
6.70868799999999
 30
0.0
 11
50.0
 21
6.80193799999999
 31
0.0
  0
LINE
  5
274
330
1E
100
AcDbEntity
  8
0
100
AcDbLine
 10
50.0
 20
6.70868799999999
 30
0.0
 11
52.215
 21
6.83159799999999
 31
0.0
  0
LINE
  5
275
330
1E
100
AcDbEntity
  8
0
100
AcDbLine
 10
44.92309999999999
 20
7.33535799999998
 30
0.0
 11
47.37689999999999
 21
6.77413799999999
 31
0.0
  0
LINE
  5
276
330
1E
100
AcDbEntity
  8
0
100
AcDbLine
 10
44.6850706870928
 20
7.43518291439907
 30
0.0
 11
44.92309999999999
 21
7.33535799999998
 31
0.0
  0
LINE
  5
277
330
1E
100
AcDbEntity
  8
0
100
AcDbLine
 10
57.1923
 20
7.25264799999999
 30
0.0
 11
58.79999999999999
 21
8.51346799999999
 31
0.0
  0
LINE
  5
278
330
1E
100
AcDbEntity
  8
0
100
AcDbLine
 10
57.78459999999999
 20
7.78420799999999
 30
0.0
 11
59.4769
 21
9.15135799999998
 31
0.0
  0
LINE
  5
279
330
1E
100
AcDbEntity
  8
0
100
AcDbLine
 10
59.4769
 20
8.018697999999981
 30
0.0
 11
60.5769
 21
9.62053799999998
 31
0.0
  0
LINE
  5
27A
330
1E
100
AcDbEntity
  8
0
100
AcDbLine
 10
58.79999999999999
 20
7.38130799999999
 30
0.0
 11
58.93606636859701
 21
7.58177741903173
 31
0.0
  0
LINE
  5
27B
330
1E
100
AcDbEntity
  8
0
100
AcDbLine
 10
60.5769
 20
7.35658799999998
 30
0.0
 11
61.0
 21
9.097517999999981
 31
0.0
  0
LINE
  5
27C
330
1E
100
AcDbEntity
  8
0
100
AcDbLine
 10
60.8624052393318
 20
7.398696698439679
 30
0.0
 11
61.0
 21
6.83269799999999
 31
0.0
  0
LINE
  5
27D
330
1E
100
AcDbEntity
  8
0
100
AcDbLine
 10
58.79999999999999
 20
8.51346799999999
 30
0.0
 11
58.9367246550098
 21
8.714969225608099
 31
0.0
  0
LINE
  5
27E
330
1E
100
AcDbEntity
  8
0
100
AcDbLine
 10
60.5769
 20
8.48924799999998
 30
0.0
 11
61.0
 21
10.228838
 31
0.0
  0
LINE
  5
27F
330
1E
100
AcDbEntity
  8
0
100
AcDbLine
 10
59.4769
 20
9.15135799999998
 30
0.0
 11
59.67900864688751
 21
9.445679635705509
 31
0.0
  0
LINE
  5
280
330
1E
100
AcDbEntity
  8
0
100
AcDbLine
 10
60.8623662168178
 20
8.531196132461769
 30
0.0
 11
61.0
 21
7.96485799999998
 31
0.0
  0
LINE
  5
281
330
1E
100
AcDbEntity
  8
0
100
AcDbLine
 10
58.4136
 20
8.65198799999999
 30
0.0
 11
59.5014
 21
9.30851799999999
 31
0.0
  0
LINE
  5
282
330
1E
100
AcDbEntity
  8
0
100
AcDbLine
 10
57.181
 20
8.065947999999981
 30
0.0
 11
58.4136
 21
8.65198799999999
 31
0.0
  0
LINE
  5
283
330
1E
100
AcDbEntity
  8
0
100
AcDbLine
 10
55.8213
 20
7.56888799999999
 30
0.0
 11
57.181
 21
8.065947999999981
 31
0.0
  0
LINE
  5
284
330
1E
100
AcDbEntity
  8
0
100
AcDbLine
 10
60.5769
 20
9.62053799999998
 30
0.0
 11
60.75494755057939
 21
10.35313781281899
 31
0.0
  0
LINE
  5
285
330
1E
100
AcDbEntity
  8
0
100
AcDbLine
 10
60.8624737489621
 20
9.6633941544716
 30
0.0
 11
61.0
 21
9.097517999999981
 31
0.0
  0
LINE
  5
286
330
1E
100
AcDbEntity
  8
0
100
AcDbLine
 10
60.4296
 20
10.02533799999999
 30
0.0
 11
61.1991
 21
10.800638
 31
0.0
  0
LINE
  5
287
330
1E
100
AcDbEntity
  8
0
100
AcDbLine
 10
59.5014
 20
9.30851799999999
 30
0.0
 11
60.4296
 21
10.02533799999999
 31
0.0
  0
LINE
  5
288
330
1E
100
AcDbEntity
  8
0
100
AcDbLine
 10
44.17869999999999
 20
7.56888799999999
 30
0.0
 11
45.6439
 21
7.18200799999999
 31
0.0
  0
LINE
  5
289
330
1E
100
AcDbEntity
  8
0
100
AcDbLine
 10
45.6439
 20
7.18200799999999
 30
0.0
 11
47.785
 21
6.83159799999999
 31
0.0
  0
LINE
  5
28A
330
1E
100
AcDbEntity
  8
0
100
AcDbLine
 10
42.81899999999999
 20
8.065947999999981
 30
0.0
 11
44.17869999999999
 21
7.56888799999999
 31
0.0
  0
LINE
  5
28B
330
1E
100
AcDbEntity
  8
0
100
AcDbLine
 10
39.0715589732405
 20
10.5279389721204
 30
0.0
 11
39.42309999999999
 21
9.21627799999999
 31
0.0
  0
LINE
  5
28C
330
1E
100
AcDbEntity
  8
0
100
AcDbLine
 10
60.92753081323539
 20
10.5270218979875
 30
0.0
 11
61.0
 21
10.228838
 31
0.0
  0
LINE
  5
28D
330
1E
100
AcDbEntity
  8
0
100
AcDbLine
 10
61.9431
 20
11.778238
 30
0.0
 11
62.4564
 21
12.712938
 31
0.0
  0
LINE
  5
28E
330
1E
100
AcDbEntity
  8
0
100
AcDbLine
 10
61.3124
 20
10.929438
 30
0.0
 11
61.9431
 21
11.778238
 31
0.0
  0
LINE
  5
28F
330
1E
100
AcDbEntity
  8
0
100
AcDbLine
 10
61.1991
 20
10.800638
 30
0.0
 11
61.3124
 21
10.929438
 31
0.0
  0
LINE
  5
290
330
1E
100
AcDbEntity
  8
0
100
AcDbLine
 10
62.4564
 20
12.712938
 30
0.0
 11
63.0249
 21
14.223438
 31
0.0
  0
LINE
  5
291
330
1E
100
AcDbEntity
  8
0
100
AcDbLine
 10
39.5704
 20
10.02533799999999
 30
0.0
 11
40.4986
 21
9.30851799999999
 31
0.0
  0
LINE
  5
292
330
1E
100
AcDbEntity
  8
0
100
AcDbLine
 10
38.8009
 20
10.800638
 30
0.0
 11
39.5704
 21
10.02533799999999
 31
0.0
  0
LINE
  5
293
330
1E
100
AcDbEntity
  8
0
100
AcDbLine
 10
63.0673
 20
14.358638
 30
0.0
 11
63.4062
 21
15.898038
 31
0.0
  0
LINE
  5
294
330
1E
100
AcDbEntity
  8
0
100
AcDbLine
 10
63.0249
 20
14.223438
 30
0.0
 11
63.0673
 21
14.358638
 31
0.0
  0
LINE
  5
295
330
1E
100
AcDbEntity
  8
0
100
AcDbLine
 10
63.4062
 20
15.898038
 30
0.0
 11
63.5678
 21
17.444938
 31
0.0
  0
LINE
  5
296
330
1E
100
AcDbEntity
  8
0
100
AcDbLine
 10
36.97509999999999
 20
14.223438
 30
0.0
 11
37.5436
 21
12.712938
 31
0.0
  0
LINE
  5
297
330
1E
100
AcDbEntity
  8
0
100
AcDbLine
 10
37.5436
 20
12.712938
 30
0.0
 11
38.0569
 21
11.778238
 31
0.0
  0
LINE
  5
298
330
1E
100
AcDbEntity
  8
0
100
AcDbLine
 10
36.9327
 20
14.358638
 30
0.0
 11
36.97509999999999
 21
14.223438
 31
0.0
  0
LINE
  5
299
330
1E
100
AcDbEntity
  8
0
100
AcDbLine
 10
37.94599999999999
 20
100.7212379999999
 30
0.0
 11
50.0
 21
99.871238
 31
0.0
  0
LINE
  5
29A
330
1E
100
AcDbEntity
  8
0
100
AcDbLine
 10
62.054
 20
100.7212379999999
 30
0.0
 11
73.422
 21
103.0712379999999
 31
0.0
  0
LINE
  5
29B
330
1E
100
AcDbEntity
  8
0
100
AcDbLine
 10
50.0
 20
99.871238
 30
0.0
 11
62.054
 21
100.7212379999999
 31
0.0
  0
LINE
  5
29C
330
1E
100
AcDbEntity
  8
0
100
AcDbLine
 10
50.686
 20
101.092238
 30
0.0
 11
50.97999999999999
 21
101.442238
 31
0.0
  0
LINE
  5
29D
330
1E
100
AcDbEntity
  8
0
100
AcDbLine
 10
50.0
 20
100.9422379999999
 30
0.0
 11
50.686
 21
101.092238
 31
0.0
  0
LINE
  5
29E
330
1E
100
AcDbEntity
  8
0
100
AcDbLine
 10
49.314
 20
101.092238
 30
0.0
 11
50.0
 21
100.9422379999999
 31
0.0
  0
LINE
  5
29F
330
1E
100
AcDbEntity
  8
0
100
AcDbLine
 10
63.43189999999999
 20
16.21983799999999
 30
0.0
 11
64.0595
 21
31.01733799999999
 31
0.0
  0
LINE
  5
2A0
330
1E
100
AcDbEntity
  8
0
100
AcDbLine
 10
64.58759999999999
 20
49.717738
 30
0.0
 11
64.7325
 21
59.220438
 31
0.0
  0
LINE
  5
2A1
330
1E
100
AcDbEntity
  8
0
100
AcDbLine
 10
64.36499999999999
 20
40.04063799999999
 30
0.0
 11
64.58759999999999
 21
49.717738
 31
0.0
  0
LINE
  5
2A2
330
1E
100
AcDbEntity
  8
0
100
AcDbLine
 10
64.1679
 20
33.33313799999999
 30
0.0
 11
64.36499999999999
 21
40.04063799999999
 31
0.0
  0
LINE
  5
2A3
330
1E
100
AcDbEntity
  8
0
100
AcDbLine
 10
64.30089999999999
 20
100.9292379999999
 30
0.0
 11
64.35120000000001
 21
99.18613800000001
 31
0.0
  0
LINE
  5
2A4
330
1E
100
AcDbEntity
  8
0
100
AcDbLine
 10
64.35120000000001
 20
99.18613800000001
 30
0.0
 11
64.4093
 21
97.359038
 31
0.0
  0
LINE
  5
2A5
330
1E
100
AcDbEntity
  8
0
100
AcDbLine
 10
64.4113
 20
97.31513800000001
 30
0.0
 11
64.6349
 21
88.34093799999999
 31
0.0
  0
LINE
  5
2A6
330
1E
100
AcDbEntity
  8
0
100
AcDbLine
 10
64.6349
 20
88.34093799999999
 30
0.0
 11
64.76300000000001
 21
79.10673800000001
 31
0.0
  0
LINE
  5
2A7
330
1E
100
AcDbEntity
  8
0
100
AcDbLine
 10
64.76300000000001
 20
79.10673800000001
 30
0.0
 11
64.7926
 21
73.997738
 31
0.0
  0
LINE
  5
2A8
330
1E
100
AcDbEntity
  8
0
100
AcDbLine
 10
64.7394
 20
59.834838
 30
0.0
 11
64.79649999999999
 21
69.12993799999999
 31
0.0
  0
LINE
  5
2A9
330
1E
100
AcDbEntity
  8
0
100
AcDbLine
 10
64.7325
 20
59.220438
 30
0.0
 11
64.7394
 21
59.834838
 31
0.0
  0
LINE
  5
2AA
330
1E
100
AcDbEntity
  8
0
100
AcDbLine
 10
64.0595
 20
31.01733799999999
 30
0.0
 11
64.1679
 21
33.33313799999999
 31
0.0
  0
LINE
  5
2AB
330
1E
100
AcDbEntity
  8
0
100
AcDbLine
 10
63.6398
 20
18.543838
 30
0.0
 11
63.8030947452796
 21
24.97183647558039
 31
0.0
  0
LINE
  5
2AC
330
1E
100
AcDbEntity
  8
0
100
AcDbLine
 10
63.5678
 20
17.444938
 30
0.0
 11
63.6398
 21
18.543838
 31
0.0
  0
LINE
  5
2AD
330
1E
100
AcDbEntity
  8
0
100
AcDbLine
 10
37.26319999999999
 20
103.0882379999999
 30
0.0
 11
37.8072
 21
102.828238
 31
0.0
  0
LINE
  5
2AE
330
1E
100
AcDbEntity
  8
0
100
AcDbLine
 10
36.518
 20
103.0672379999999
 30
0.0
 11
37.26319999999999
 21
103.0882379999999
 31
0.0
  0
LINE
  5
2AF
330
1E
100
AcDbEntity
  8
0
100
AcDbLine
 10
36.59279999999999
 20
102.1492379999999
 30
0.0
 11
37.338
 21
102.170238
 31
0.0
  0
LINE
  5
2B0
330
1E
100
AcDbEntity
  8
0
100
AcDbLine
 10
37.338
 20
102.170238
 30
0.0
 11
37.8489
 21
102.4472379999999
 31
0.0
  0
LINE
  5
2B1
330
1E
100
AcDbEntity
  8
0
100
AcDbLine
 10
36.8436
 20
107.0912379999999
 30
0.0
 11
37.5896
 21
107.0792379999999
 31
0.0
  0
LINE
  5
2B2
330
1E
100
AcDbEntity
  8
0
100
AcDbLine
 10
36.7613
 20
106.1732379999999
 30
0.0
 11
37.5073
 21
106.1612379999999
 31
0.0
  0
LINE
  5
2B5
330
1E
100
AcDbEntity
  8
0
100
AcDbLine
 10
37.8072
 20
102.828238
 30
0.0
 11
37.8489
 21
102.4472379999999
 31
0.0
  0
LINE
  5
2B6
330
1E
100
AcDbEntity
  8
0
100
AcDbLine
 10
38.08709999999999
 20
106.7952379999999
 30
0.0
 11
38.08709999999999
 21
106.931177724059
 31
0.0
  0
LINE
  5
2B7
330
1E
100
AcDbEntity
  8
0
100
AcDbLine
 10
38.08709999999999
 20
106.931177724059
 30
0.0
 11
38.08709999999999
 21
106.7952379999999
 31
0.0
  0
LINE
  5
2B8
330
1E
100
AcDbEntity
  8
0
100
AcDbLine
 10
38.0636
 20
106.4142379999999
 30
0.0
 11
38.08709999999999
 21
106.7952379999999
 31
0.0
  0
LINE
  5
2B9
330
1E
100
AcDbEntity
  8
0
100
AcDbLine
 10
37.5896
 20
107.0792379999999
 30
0.0
 11
38.08709999999999
 21
106.7952379999999
 31
0.0
  0
LINE
  5
2BA
330
1E
100
AcDbEntity
  8
0
100
AcDbLine
 10
37.5073
 20
106.1612379999999
 30
0.0
 11
38.0636
 21
106.4142379999999
 31
0.0
  0
LINE
  5
2BE
330
1E
100
AcDbEntity
  8
0
100
AcDbLine
 10
37.7546
 20
115.985238
 30
0.0
 11
38.4476
 21
116.1272379999999
 31
0.0
  0
LINE
  5
2C0
330
1E
100
AcDbEntity
  8
0
100
AcDbLine
 10
37.47749999999999
 20
115.6322379999999
 30
0.0
 11
37.7546
 21
115.2782379999999
 31
0.0
  0
LINE
  5
2C1
330
1E
100
AcDbEntity
  8
0
100
AcDbLine
 10
37.47749999999999
 20
115.6322379999999
 30
0.0
 11
37.7546
 21
115.985238
 31
0.0
  0
LINE
  5
2C3
330
1E
100
AcDbEntity
  8
0
100
AcDbLine
 10
37.7546
 20
115.2782379999999
 30
0.0
 11
38.4476
 21
115.1372379999999
 31
0.0
  0
LINE
  5
2C6
330
1E
100
AcDbEntity
  8
0
100
AcDbLine
 10
36.4554
 20
118.4892379999999
 30
0.0
 11
36.4789
 21
118.1092379999999
 31
0.0
  0
LINE
  5
2C8
330
1E
100
AcDbEntity
  8
0
100
AcDbLine
 10
38.032
 20
125.2606075834499
 30
0.0
 11
38.032
 21
125.0632379999999
 31
0.0
  0
LINE
  5
2CA
330
1E
100
AcDbEntity
  8
0
100
AcDbLine
 10
38.4476
 20
116.1272379999999
 30
0.0
 11
39.1406
 21
115.985238
 31
0.0
  0
LINE
  5
2CC
330
1E
100
AcDbEntity
  8
0
100
AcDbLine
 10
38.4476
 20
115.1372379999999
 30
0.0
 11
39.1406
 21
115.2782379999999
 31
0.0
  0
LINE
  5
2CD
330
1E
100
AcDbEntity
  8
0
100
AcDbLine
 10
39.0022
 20
124.5682379999999
 30
0.0
 11
39.69509999999999
 21
124.7092379999999
 31
0.0
  0
LINE
  5
2CE
330
1E
100
AcDbEntity
  8
0
100
AcDbLine
 10
38.30919999999999
 20
124.7092379999999
 30
0.0
 11
39.0022
 21
124.5682379999999
 31
0.0
  0
LINE
  5
2CF
330
1E
100
AcDbEntity
  8
0
100
AcDbLine
 10
38.032
 20
125.0632379999999
 30
0.0
 11
38.30919999999999
 21
125.4162379999999
 31
0.0
  0
LINE
  5
2D0
330
1E
100
AcDbEntity
  8
0
100
AcDbLine
 10
38.032
 20
125.0632379999999
 30
0.0
 11
38.30919999999999
 21
124.7092379999999
 31
0.0
  0
LINE
  5
2D1
330
1E
100
AcDbEntity
  8
0
100
AcDbLine
 10
38.032
 20
125.0632379999999
 30
0.0
 11
38.032
 21
125.2606075834499
 31
0.0
  0
LINE
  5
2D3
330
1E
100
AcDbEntity
  8
0
100
AcDbLine
 10
38.30919999999999
 20
125.4162379999999
 30
0.0
 11
39.0022
 21
125.5582379999999
 31
0.0
  0
LINE
  5
2D4
330
1E
100
AcDbEntity
  8
0
100
AcDbLine
 10
39.1406
 20
115.2782379999999
 30
0.0
 11
39.41779999999999
 21
115.6322379999999
 31
0.0
  0
LINE
  5
2D6
330
1E
100
AcDbEntity
  8
0
100
AcDbLine
 10
39.1406
 20
115.985238
 30
0.0
 11
39.41779999999999
 21
115.6322379999999
 31
0.0
  0
LINE
  5
2D8
330
1E
100
AcDbEntity
  8
0
100
AcDbLine
 10
39.0022
 20
125.5582379999999
 30
0.0
 11
39.69509999999999
 21
125.4162379999999
 31
0.0
  0
LINE
  5
2DA
330
1E
100
AcDbEntity
  8
0
100
AcDbLine
 10
42.3981
 20
101.826238
 30
0.0
 11
42.5685
 21
101.455238
 31
0.0
  0
LINE
  5
2DB
330
1E
100
AcDbEntity
  8
0
100
AcDbLine
 10
42.3981
 20
101.826238
 30
0.0
 11
42.80669999999999
 21
102.144238
 31
0.0
  0
LINE
  5
2DD
330
1E
100
AcDbEntity
  8
0
100
AcDbLine
 10
43.53329999999999
 20
102.231238
 30
0.0
 11
44.1579
 21
102.023238
 31
0.0
  0
LINE
  5
2DE
330
1E
100
AcDbEntity
  8
0
100
AcDbLine
 10
42.80669999999999
 20
102.144238
 30
0.0
 11
43.53329999999999
 21
102.231238
 31
0.0
  0
LINE
  5
2DF
330
1E
100
AcDbEntity
  8
0
100
AcDbLine
 10
42.5685
 20
101.455238
 30
0.0
 11
43.19300000000001
 21
101.246238
 31
0.0
  0
LINE
  5
2E0
330
1E
100
AcDbEntity
  8
0
100
AcDbLine
 10
43.19300000000001
 20
101.246238
 30
0.0
 11
43.9196
 21
101.333238
 31
0.0
  0
LINE
  5
2E2
330
1E
100
AcDbEntity
  8
0
100
AcDbLine
 10
44.1579
 20
102.023238
 30
0.0
 11
44.3283
 21
101.652238
 31
0.0
  0
LINE
  5
2E3
330
1E
100
AcDbEntity
  8
0
100
AcDbLine
 10
43.9196
 20
101.333238
 30
0.0
 11
44.3283
 21
101.652238
 31
0.0
  0
LINE
  5
2E7
330
1E
100
AcDbEntity
  8
0
100
AcDbLine
 10
49.314
 20
101.7922379999999
 30
0.0
 11
50.0
 21
101.9422379999999
 31
0.0
  0
LINE
  5
2E9
330
1E
100
AcDbEntity
  8
0
100
AcDbLine
 10
50.0
 20
101.9422379999999
 30
0.0
 11
50.686
 21
101.7922379999999
 31
0.0
  0
LINE
  5
2EA
330
1E
100
AcDbEntity
  8
0
100
AcDbLine
 10
50.686
 20
101.7922379999999
 30
0.0
 11
50.97999999999999
 21
101.442238
 31
0.0
  0
LINE
  5
2EB
330
1E
100
AcDbEntity
  8
0
100
AcDbLine
 10
49.02000000000001
 20
101.442238
 30
0.0
 11
49.314
 21
101.092238
 31
0.0
  0
LINE
  5
2EC
330
1E
100
AcDbEntity
  8
0
100
AcDbLine
 10
49.02000000000001
 20
101.442238
 30
0.0
 11
49.314
 21
101.7922379999999
 31
0.0
  0
LINE
  5
2EE
330
1E
100
AcDbEntity
  8
0
100
AcDbLine
 10
41.8924
 20
105.2202379999999
 30
0.0
 11
42.6311
 21
105.2742379999999
 31
0.0
  0
LINE
  5
2EF
330
1E
100
AcDbEntity
  8
0
100
AcDbLine
 10
42.6311
 20
105.2742379999999
 30
0.0
 11
43.0926
 21
105.5732379999999
 31
0.0
  0
LINE
  5
2F0
330
1E
100
AcDbEntity
  8
0
100
AcDbLine
 10
42.98619999999999
 20
105.9502379999999
 30
0.0
 11
43.0926
 21
105.5732379999999
 31
0.0
  0
LINE
  5
2F2
330
1E
100
AcDbEntity
  8
0
100
AcDbLine
 10
42.3997
 20
106.1862379999999
 30
0.0
 11
42.98619999999999
 21
105.9502379999999
 31
0.0
  0
LINE
  5
2F4
330
1E
100
AcDbEntity
  8
0
100
AcDbLine
 10
41.66089999999999
 20
106.1312379999999
 30
0.0
 11
42.3997
 21
106.1862379999999
 31
0.0
  0
LINE
  5
2F5
330
1E
100
AcDbEntity
  8
0
100
AcDbLine
 10
41.19939999999999
 20
105.8322379999999
 30
0.0
 11
41.3058
 21
105.455238
 31
0.0
  0
LINE
  5
2F6
330
1E
100
AcDbEntity
  8
0
100
AcDbLine
 10
41.19939999999999
 20
105.8322379999999
 30
0.0
 11
41.66089999999999
 21
106.1312379999999
 31
0.0
  0
LINE
  5
2F7
330
1E
100
AcDbEntity
  8
0
100
AcDbLine
 10
41.3058
 20
105.455238
 30
0.0
 11
41.8924
 21
105.2202379999999
 31
0.0
  0
LINE
  5
2F9
330
1E
100
AcDbEntity
  8
0
100
AcDbLine
 10
46.3789
 20
105.2782379999999
 30
0.0
 11
46.612
 21
104.9162379999999
 31
0.0
  0
LINE
  5
2FA
330
1E
100
AcDbEntity
  8
0
100
AcDbLine
 10
46.3789
 20
105.2782379999999
 30
0.0
 11
46.7316
 21
105.6132379999999
 31
0.0
  0
LINE
  5
2FE
330
1E
100
AcDbEntity
  8
0
100
AcDbLine
 10
47.4406
 20
105.732238
 30
0.0
 11
48.0984
 21
105.5522379999999
 31
0.0
  0
LINE
  5
300
330
1E
100
AcDbEntity
  8
0
100
AcDbLine
 10
46.7316
 20
105.6132379999999
 30
0.0
 11
47.4406
 21
105.732238
 31
0.0
  0
LINE
  5
302
330
1E
100
AcDbEntity
  8
0
100
AcDbLine
 10
46.612
 20
104.9162379999999
 30
0.0
 11
47.2698
 21
104.736238
 31
0.0
  0
LINE
  5
303
330
1E
100
AcDbEntity
  8
0
100
AcDbLine
 10
47.2698
 20
104.736238
 30
0.0
 11
47.9788
 21
104.855238
 31
0.0
  0
LINE
  5
304
330
1E
100
AcDbEntity
  8
0
100
AcDbLine
 10
48.0984
 20
105.5522379999999
 30
0.0
 11
48.33149999999999
 21
105.1912379999999
 31
0.0
  0
LINE
  5
305
330
1E
100
AcDbEntity
  8
0
100
AcDbLine
 10
47.9788
 20
104.855238
 30
0.0
 11
48.33149999999999
 21
105.1912379999999
 31
0.0
  0
LINE
  5
307
330
1E
100
AcDbEntity
  8
0
100
AcDbLine
 10
50.686
 20
108.5412379999999
 30
0.0
 11
50.97999999999999
 21
108.8912379999999
 31
0.0
  0
LINE
  5
308
330
1E
100
AcDbEntity
  8
0
100
AcDbLine
 10
50.0
 20
108.3912379999999
 30
0.0
 11
50.686
 21
108.5412379999999
 31
0.0
  0
LINE
  5
309
330
1E
100
AcDbEntity
  8
0
100
AcDbLine
 10
49.314
 20
108.5412379999999
 30
0.0
 11
50.0
 21
108.3912379999999
 31
0.0
  0
LINE
  5
30A
330
1E
100
AcDbEntity
  8
0
100
AcDbLine
 10
41.9675
 20
109.1142379999999
 30
0.0
 11
42.7127
 21
109.1352379999999
 31
0.0
  0
LINE
  5
30B
330
1E
100
AcDbEntity
  8
0
100
AcDbLine
 10
41.42339999999999
 20
109.3742379999999
 30
0.0
 11
41.9675
 21
109.1142379999999
 31
0.0
  0
LINE
  5
30C
330
1E
100
AcDbEntity
  8
0
100
AcDbLine
 10
42.7127
 20
109.1352379999999
 30
0.0
 11
43.22359999999999
 21
109.413238
 31
0.0
  0
LINE
  5
30D
330
1E
100
AcDbEntity
  8
0
100
AcDbLine
 10
49.314
 20
109.241238
 30
0.0
 11
50.0
 21
109.3912379999999
 31
0.0
  0
LINE
  5
30E
330
1E
100
AcDbEntity
  8
0
100
AcDbLine
 10
50.0
 20
109.3912379999999
 30
0.0
 11
50.686
 21
109.241238
 31
0.0
  0
LINE
  5
30F
330
1E
100
AcDbEntity
  8
0
100
AcDbLine
 10
50.686
 20
109.241238
 30
0.0
 11
50.97999999999999
 21
108.8912379999999
 31
0.0
  0
LINE
  5
310
330
1E
100
AcDbEntity
  8
0
100
AcDbLine
 10
49.02000000000001
 20
108.8912379999999
 30
0.0
 11
49.314
 21
108.5412379999999
 31
0.0
  0
LINE
  5
311
330
1E
100
AcDbEntity
  8
0
100
AcDbLine
 10
49.02000000000001
 20
108.8912379999999
 30
0.0
 11
49.314
 21
109.241238
 31
0.0
  0
LINE
  5
312
330
1E
100
AcDbEntity
  8
0
100
AcDbLine
 10
52.7302
 20
104.736238
 30
0.0
 11
53.388
 21
104.9162379999999
 31
0.0
  0
LINE
  5
313
330
1E
100
AcDbEntity
  8
0
100
AcDbLine
 10
51.9016
 20
105.5522379999999
 30
0.0
 11
52.55939999999999
 21
105.732238
 31
0.0
  0
LINE
  5
316
330
1E
100
AcDbEntity
  8
0
100
AcDbLine
 10
52.55939999999999
 20
105.732238
 30
0.0
 11
53.2684
 21
105.6132379999999
 31
0.0
  0
LINE
  5
318
330
1E
100
AcDbEntity
  8
0
100
AcDbLine
 10
53.2684
 20
105.6132379999999
 30
0.0
 11
53.6211
 21
105.2782379999999
 31
0.0
  0
LINE
  5
31C
330
1E
100
AcDbEntity
  8
0
100
AcDbLine
 10
53.388
 20
104.9162379999999
 30
0.0
 11
53.6211
 21
105.2782379999999
 31
0.0
  0
LINE
  5
31D
330
1E
100
AcDbEntity
  8
0
100
AcDbLine
 10
52.0212
 20
104.855238
 30
0.0
 11
52.7302
 21
104.736238
 31
0.0
  0
LINE
  5
31E
330
1E
100
AcDbEntity
  8
0
100
AcDbLine
 10
51.6685
 20
105.1912379999999
 30
0.0
 11
52.0212
 21
104.855238
 31
0.0
  0
LINE
  5
31F
330
1E
100
AcDbEntity
  8
0
100
AcDbLine
 10
51.6685
 20
105.1912379999999
 30
0.0
 11
51.9016
 21
105.5522379999999
 31
0.0
  0
LINE
  5
321
330
1E
100
AcDbEntity
  8
0
100
AcDbLine
 10
56.80699999999999
 20
101.246238
 30
0.0
 11
57.43149999999999
 21
101.455238
 31
0.0
  0
LINE
  5
322
330
1E
100
AcDbEntity
  8
0
100
AcDbLine
 10
55.8421
 20
102.023238
 30
0.0
 11
56.4667
 21
102.231238
 31
0.0
  0
LINE
  5
323
330
1E
100
AcDbEntity
  8
0
100
AcDbLine
 10
57.36889999999999
 20
105.2742379999999
 30
0.0
 11
58.1076
 21
105.2202379999999
 31
0.0
  0
LINE
  5
324
330
1E
100
AcDbEntity
  8
0
100
AcDbLine
 10
56.7764
 20
109.413238
 30
0.0
 11
57.2873
 21
109.1352379999999
 31
0.0
  0
LINE
  5
325
330
1E
100
AcDbEntity
  8
0
100
AcDbLine
 10
56.7764
 20
109.413238
 30
0.0
 11
56.8181
 21
109.7932379999999
 31
0.0
  0
LINE
  5
326
330
1E
100
AcDbEntity
  8
0
100
AcDbLine
 10
57.2873
 20
109.1352379999999
 30
0.0
 11
58.0325
 21
109.1142379999999
 31
0.0
  0
LINE
  5
327
330
1E
100
AcDbEntity
  8
0
100
AcDbLine
 10
57.0138
 20
105.9502379999999
 30
0.0
 11
57.6003
 21
106.1862379999999
 31
0.0
  0
LINE
  5
328
330
1E
100
AcDbEntity
  8
0
100
AcDbLine
 10
56.9074
 20
105.5732379999999
 30
0.0
 11
57.36889999999999
 21
105.2742379999999
 31
0.0
  0
LINE
  5
329
330
1E
100
AcDbEntity
  8
0
100
AcDbLine
 10
56.9074
 20
105.5732379999999
 30
0.0
 11
57.0138
 21
105.9502379999999
 31
0.0
  0
LINE
  5
32A
330
1E
100
AcDbEntity
  8
0
100
AcDbLine
 10
56.4667
 20
102.231238
 30
0.0
 11
57.1933
 21
102.144238
 31
0.0
  0
LINE
  5
32B
330
1E
100
AcDbEntity
  8
0
100
AcDbLine
 10
57.1933
 20
102.144238
 30
0.0
 11
57.6019
 21
101.826238
 31
0.0
  0
LINE
  5
32C
330
1E
100
AcDbEntity
  8
0
100
AcDbLine
 10
63.9513
 20
102.409238
 30
0.0
 11
63.9929
 21
102.7892379999999
 31
0.0
  0
LINE
  5
32D
330
1E
100
AcDbEntity
  8
0
100
AcDbLine
 10
63.40720000000001
 20
102.1492379999999
 30
0.0
 11
63.9513
 21
102.409238
 31
0.0
  0
LINE
  5
32E
330
1E
100
AcDbEntity
  8
0
100
AcDbLine
 10
62.662
 20
102.170238
 30
0.0
 11
63.40720000000001
 21
102.1492379999999
 31
0.0
  0
LINE
  5
32F
330
1E
100
AcDbEntity
  8
0
100
AcDbLine
 10
62.1928
 20
102.828238
 30
0.0
 11
62.7368
 21
103.0882379999999
 31
0.0
  0
LINE
  5
330
330
1E
100
AcDbEntity
  8
0
100
AcDbLine
 10
62.7368
 20
103.0882379999999
 30
0.0
 11
63.482
 21
103.0672379999999
 31
0.0
  0
LINE
  5
332
330
1E
100
AcDbEntity
  8
0
100
AcDbLine
 10
63.482
 20
103.0672379999999
 30
0.0
 11
63.9929
 21
102.7892379999999
 31
0.0
  0
LINE
  5
333
330
1E
100
AcDbEntity
  8
0
100
AcDbLine
 10
62.1511
 20
102.4472379999999
 30
0.0
 11
62.662
 21
102.170238
 31
0.0
  0
LINE
  5
334
330
1E
100
AcDbEntity
  8
0
100
AcDbLine
 10
62.1511
 20
102.4472379999999
 30
0.0
 11
62.1928
 21
102.828238
 31
0.0
  0
LINE
  5
338
330
1E
100
AcDbEntity
  8
0
100
AcDbLine
 10
57.6003
 20
106.1862379999999
 30
0.0
 11
58.3391
 21
106.1312379999999
 31
0.0
  0
LINE
  5
33A
330
1E
100
AcDbEntity
  8
0
100
AcDbLine
 10
58.3391
 20
106.1312379999999
 30
0.0
 11
58.8006
 21
105.8322379999999
 31
0.0
  0
LINE
  5
33B
330
1E
100
AcDbEntity
  8
0
100
AcDbLine
 10
58.6942
 20
105.455238
 30
0.0
 11
58.8006
 21
105.8322379999999
 31
0.0
  0
LINE
  5
33C
330
1E
100
AcDbEntity
  8
0
100
AcDbLine
 10
58.1076
 20
105.2202379999999
 30
0.0
 11
58.6942
 21
105.455238
 31
0.0
  0
LINE
  5
33D
330
1E
100
AcDbEntity
  8
0
100
AcDbLine
 10
58.5766
 20
109.3742379999999
 30
0.0
 11
58.6182
 21
109.7552379999999
 31
0.0
  0
LINE
  5
33E
330
1E
100
AcDbEntity
  8
0
100
AcDbLine
 10
58.0325
 20
109.1142379999999
 30
0.0
 11
58.5766
 21
109.3742379999999
 31
0.0
  0
LINE
  5
33F
330
1E
100
AcDbEntity
  8
0
100
AcDbLine
 10
61.9129
 20
106.931177724059
 30
0.0
 11
61.9129
 21
106.7952379999999
 31
0.0
  0
LINE
  5
340
330
1E
100
AcDbEntity
  8
0
100
AcDbLine
 10
61.9129
 20
106.7952379999999
 30
0.0
 11
62.4104
 21
107.0792379999999
 31
0.0
  0
LINE
  5
341
330
1E
100
AcDbEntity
  8
0
100
AcDbLine
 10
61.9129
 20
106.7952379999999
 30
0.0
 11
61.9364
 21
106.4142379999999
 31
0.0
  0
LINE
  5
342
330
1E
100
AcDbEntity
  8
0
100
AcDbLine
 10
61.9129
 20
106.7952379999999
 30
0.0
 11
61.9129
 21
106.931177724059
 31
0.0
  0
LINE
  5
343
330
1E
100
AcDbEntity
  8
0
100
AcDbLine
 10
62.4104
 20
107.0792379999999
 30
0.0
 11
63.1564
 21
107.0912379999999
 31
0.0
  0
LINE
  5
344
330
1E
100
AcDbEntity
  8
0
100
AcDbLine
 10
63.1564
 20
107.0912379999999
 30
0.0
 11
63.71269999999999
 21
106.8372379999999
 31
0.0
  0
LINE
  5
345
330
1E
100
AcDbEntity
  8
0
100
AcDbLine
 10
63.71269999999999
 20
106.8372379999999
 30
0.0
 11
63.73619999999999
 21
106.4562379999999
 31
0.0
  0
LINE
  5
346
330
1E
100
AcDbEntity
  8
0
100
AcDbLine
 10
63.2387
 20
106.1732379999999
 30
0.0
 11
63.73619999999999
 21
106.4562379999999
 31
0.0
  0
LINE
  5
347
330
1E
100
AcDbEntity
  8
0
100
AcDbLine
 10
62.4927
 20
106.1612379999999
 30
0.0
 11
63.2387
 21
106.1732379999999
 31
0.0
  0
LINE
  5
348
330
1E
100
AcDbEntity
  8
0
100
AcDbLine
 10
61.9364
 20
106.4142379999999
 30
0.0
 11
62.4927
 21
106.1612379999999
 31
0.0
  0
LINE
  5
34C
330
1E
100
AcDbEntity
  8
0
100
AcDbLine
 10
57.43149999999999
 20
101.455238
 30
0.0
 11
57.6019
 21
101.826238
 31
0.0
  0
LINE
  5
34D
330
1E
100
AcDbEntity
  8
0
100
AcDbLine
 10
56.08039999999999
 20
101.333238
 30
0.0
 11
56.80699999999999
 21
101.246238
 31
0.0
  0
LINE
  5
34E
330
1E
100
AcDbEntity
  8
0
100
AcDbLine
 10
55.6717
 20
101.652238
 30
0.0
 11
56.08039999999999
 21
101.333238
 31
0.0
  0
LINE
  5
34F
330
1E
100
AcDbEntity
  8
0
100
AcDbLine
 10
55.6717
 20
101.652238
 30
0.0
 11
55.8421
 21
102.023238
 31
0.0
  0
LINE
  5
352
330
1E
100
AcDbEntity
  8
0
100
AcDbLine
 10
42.6379
 20
110.0532379999999
 30
0.0
 11
43.1819
 21
109.7932379999999
 31
0.0
  0
LINE
  5
353
330
1E
100
AcDbEntity
  8
0
100
AcDbLine
 10
41.89269999999999
 20
110.0322379999999
 30
0.0
 11
42.6379
 21
110.0532379999999
 31
0.0
  0
LINE
  5
354
330
1E
100
AcDbEntity
  8
0
100
AcDbLine
 10
41.3818
 20
109.7552379999999
 30
0.0
 11
41.42339999999999
 21
109.3742379999999
 31
0.0
  0
LINE
  5
355
330
1E
100
AcDbEntity
  8
0
100
AcDbLine
 10
41.3818
 20
109.7552379999999
 30
0.0
 11
41.89269999999999
 21
110.0322379999999
 31
0.0
  0
LINE
  5
358
330
1E
100
AcDbEntity
  8
0
100
AcDbLine
 10
42.4924
 20
113.8102379999999
 30
0.0
 11
43.04879999999999
 21
114.0642379999999
 31
0.0
  0
LINE
  5
35A
330
1E
100
AcDbEntity
  8
0
100
AcDbLine
 10
42.46899999999999
 20
113.4292379999999
 30
0.0
 11
42.9665
 21
113.145238
 31
0.0
  0
LINE
  5
35B
330
1E
100
AcDbEntity
  8
0
100
AcDbLine
 10
42.46899999999999
 20
113.4292379999999
 30
0.0
 11
42.4924
 21
113.8102379999999
 31
0.0
  0
LINE
  5
35D
330
1E
100
AcDbEntity
  8
0
100
AcDbLine
 10
42.9665
 20
113.145238
 30
0.0
 11
43.7124
 21
113.1332379999999
 31
0.0
  0
LINE
  5
362
330
1E
100
AcDbEntity
  8
0
100
AcDbLine
 10
39.69509999999999
 20
125.4162379999999
 30
0.0
 11
39.9723
 21
125.0632379999999
 31
0.0
  0
LINE
  5
364
330
1E
100
AcDbEntity
  8
0
100
AcDbLine
 10
39.69509999999999
 20
124.7092379999999
 30
0.0
 11
39.9723
 21
125.0632379999999
 31
0.0
  0
LINE
  5
365
330
1E
100
AcDbEntity
  8
0
100
AcDbLine
 10
43.1819
 20
109.7932379999999
 30
0.0
 11
43.22359999999999
 21
109.413238
 31
0.0
  0
LINE
  5
367
330
1E
100
AcDbEntity
  8
0
100
AcDbLine
 10
43.04879999999999
 20
114.0642379999999
 30
0.0
 11
43.7948
 21
114.0522379999999
 31
0.0
  0
LINE
  5
369
330
1E
100
AcDbEntity
  8
0
100
AcDbLine
 10
44.29229999999999
 20
113.7682379999999
 30
0.0
 11
44.29229999999999
 21
113.983713406081
 31
0.0
  0
LINE
  5
36A
330
1E
100
AcDbEntity
  8
0
100
AcDbLine
 10
44.29229999999999
 20
113.983713406081
 30
0.0
 11
44.29229999999999
 21
113.7682379999999
 31
0.0
  0
LINE
  5
36B
330
1E
100
AcDbEntity
  8
0
100
AcDbLine
 10
44.26879999999999
 20
113.3872379999999
 30
0.0
 11
44.29229999999999
 21
113.7682379999999
 31
0.0
  0
LINE
  5
36D
330
1E
100
AcDbEntity
  8
0
100
AcDbLine
 10
43.7948
 20
114.0522379999999
 30
0.0
 11
44.29229999999999
 21
113.7682379999999
 31
0.0
  0
LINE
  5
36F
330
1E
100
AcDbEntity
  8
0
100
AcDbLine
 10
43.7124
 20
113.1332379999999
 30
0.0
 11
44.26879999999999
 21
113.3872379999999
 31
0.0
  0
LINE
  5
370
330
1E
100
AcDbEntity
  8
0
100
AcDbLine
 10
43.7412
 20
126.330238
 30
0.0
 11
44.23869999999999
 21
126.6142379999999
 31
0.0
  0
LINE
  5
371
330
1E
100
AcDbEntity
  8
0
100
AcDbLine
 10
42.9952
 20
126.3182379999999
 30
0.0
 11
43.7412
 21
126.330238
 31
0.0
  0
LINE
  5
373
330
1E
100
AcDbEntity
  8
0
100
AcDbLine
 10
42.43879999999999
 20
126.5722379999999
 30
0.0
 11
42.9952
 21
126.3182379999999
 31
0.0
  0
LINE
  5
374
330
1E
100
AcDbEntity
  8
0
100
AcDbLine
 10
49.9179
 20
112.2312379999999
 30
0.0
 11
50.5756
 21
112.4112379999999
 31
0.0
  0
LINE
  5
375
330
1E
100
AcDbEntity
  8
0
100
AcDbLine
 10
49.0893
 20
113.0482379999999
 30
0.0
 11
49.747
 21
113.2282379999999
 31
0.0
  0
LINE
  5
376
330
1E
100
AcDbEntity
  8
0
100
AcDbLine
 10
49.747
 20
113.2282379999999
 30
0.0
 11
50.456
 21
113.1092379999999
 31
0.0
  0
LINE
  5
377
330
1E
100
AcDbEntity
  8
0
100
AcDbLine
 10
50.456
 20
113.1092379999999
 30
0.0
 11
50.8087
 21
112.7732379999999
 31
0.0
  0
LINE
  5
378
330
1E
100
AcDbEntity
  8
0
100
AcDbLine
 10
50.5756
 20
112.4112379999999
 30
0.0
 11
50.8087
 21
112.7732379999999
 31
0.0
  0
LINE
  5
379
330
1E
100
AcDbEntity
  8
0
100
AcDbLine
 10
49.2088
 20
112.3502379999999
 30
0.0
 11
49.9179
 21
112.2312379999999
 31
0.0
  0
LINE
  5
37A
330
1E
100
AcDbEntity
  8
0
100
AcDbLine
 10
48.8562
 20
112.6862379999999
 30
0.0
 11
49.2088
 21
112.3502379999999
 31
0.0
  0
LINE
  5
37B
330
1E
100
AcDbEntity
  8
0
100
AcDbLine
 10
48.8562
 20
112.6862379999999
 30
0.0
 11
49.0893
 21
113.0482379999999
 31
0.0
  0
LINE
  5
37C
330
1E
100
AcDbEntity
  8
0
100
AcDbLine
 10
42.41539999999999
 20
126.9532379999999
 30
0.0
 11
42.91279999999999
 21
127.2372379999999
 31
0.0
  0
LINE
  5
37D
330
1E
100
AcDbEntity
  8
0
100
AcDbLine
 10
42.41539999999999
 20
126.9532379999999
 30
0.0
 11
42.43879999999999
 21
126.5722379999999
 31
0.0
  0
LINE
  5
37F
330
1E
100
AcDbEntity
  8
0
100
AcDbLine
 10
50.0105
 20
127.1212379999999
 30
0.0
 11
50.6683
 21
127.3012379999999
 31
0.0
  0
LINE
  5
380
330
1E
100
AcDbEntity
  8
0
100
AcDbLine
 10
49.3015
 20
127.2402379999999
 30
0.0
 11
50.0105
 21
127.1212379999999
 31
0.0
  0
LINE
  5
381
330
1E
100
AcDbEntity
  8
0
100
AcDbLine
 10
44.2152
 20
126.9952379999999
 30
0.0
 11
44.23869999999999
 21
126.6142379999999
 31
0.0
  0
LINE
  5
383
330
1E
100
AcDbEntity
  8
0
100
AcDbLine
 10
42.91279999999999
 20
127.2372379999999
 30
0.0
 11
43.65879999999999
 21
127.2492379999999
 31
0.0
  0
LINE
  5
387
330
1E
100
AcDbEntity
  8
0
100
AcDbLine
 10
50.6683
 20
127.3012379999999
 30
0.0
 11
50.9014
 21
127.6632379999999
 31
0.0
  0
LINE
  5
388
330
1E
100
AcDbEntity
  8
0
100
AcDbLine
 10
48.9488
 20
127.5752379999999
 30
0.0
 11
49.1819
 21
127.9372379999999
 31
0.0
  0
LINE
  5
389
330
1E
100
AcDbEntity
  8
0
100
AcDbLine
 10
48.9488
 20
127.5752379999999
 30
0.0
 11
49.3015
 21
127.2402379999999
 31
0.0
  0
LINE
  5
38A
330
1E
100
AcDbEntity
  8
0
100
AcDbLine
 10
49.1819
 20
127.9372379999999
 30
0.0
 11
49.8397
 21
128.1172379999999
 31
0.0
  0
LINE
  5
38B
330
1E
100
AcDbEntity
  8
0
100
AcDbLine
 10
49.8397
 20
128.1172379999999
 30
0.0
 11
50.5487
 21
127.9982379999999
 31
0.0
  0
LINE
  5
38C
330
1E
100
AcDbEntity
  8
0
100
AcDbLine
 10
50.5487
 20
127.9982379999999
 30
0.0
 11
50.9014
 21
127.6632379999999
 31
0.0
  0
LINE
  5
390
330
1E
100
AcDbEntity
  8
0
100
AcDbLine
 10
43.65879999999999
 20
127.2492379999999
 30
0.0
 11
44.2152
 21
126.9952379999999
 31
0.0
  0
LINE
  5
394
330
1E
100
AcDbEntity
  8
0
100
AcDbLine
 10
55.7613
 20
126.6142379999999
 30
0.0
 11
56.2588
 21
126.330238
 31
0.0
  0
LINE
  5
395
330
1E
100
AcDbEntity
  8
0
100
AcDbLine
 10
55.7613
 20
126.6142379999999
 30
0.0
 11
55.78479999999999
 21
126.9952379999999
 31
0.0
  0
LINE
  5
397
330
1E
100
AcDbEntity
  8
0
100
AcDbLine
 10
56.7725
 20
113.2572379999999
 30
0.0
 11
57.51850000000001
 21
113.2692379999999
 31
0.0
  0
LINE
  5
399
330
1E
100
AcDbEntity
  8
0
100
AcDbLine
 10
56.1927
 20
113.8912379999999
 30
0.0
 11
56.6901
 21
114.175238
 31
0.0
  0
LINE
  5
39A
330
1E
100
AcDbEntity
  8
0
100
AcDbLine
 10
56.1927
 20
113.8912379999999
 30
0.0
 11
56.2161
 21
113.511238
 31
0.0
  0
LINE
  5
39B
330
1E
100
AcDbEntity
  8
0
100
AcDbLine
 10
56.6901
 20
114.175238
 30
0.0
 11
57.4361
 21
114.1872379999999
 31
0.0
  0
LINE
  5
39D
330
1E
100
AcDbEntity
  8
0
100
AcDbLine
 10
56.2161
 20
113.511238
 30
0.0
 11
56.7725
 21
113.2572379999999
 31
0.0
  0
LINE
  5
39E
330
1E
100
AcDbEntity
  8
0
100
AcDbLine
 10
56.8181
 20
109.7932379999999
 30
0.0
 11
57.36209999999999
 21
110.0532379999999
 31
0.0
  0
LINE
  5
39F
330
1E
100
AcDbEntity
  8
0
100
AcDbLine
 10
56.2588
 20
126.330238
 30
0.0
 11
57.0048
 21
126.3182379999999
 31
0.0
  0
LINE
  5
3A0
330
1E
100
AcDbEntity
  8
0
100
AcDbLine
 10
57.0048
 20
126.3182379999999
 30
0.0
 11
57.5612
 21
126.5722379999999
 31
0.0
  0
LINE
  5
3A1
330
1E
100
AcDbEntity
  8
0
100
AcDbLine
 10
57.4361
 20
114.1872379999999
 30
0.0
 11
57.9925
 21
113.9332379999999
 31
0.0
  0
LINE
  5
3A2
330
1E
100
AcDbEntity
  8
0
100
AcDbLine
 10
58.0159
 20
113.5532379999999
 30
0.0
 11
58.0159
 21
113.6720258654159
 31
0.0
  0
LINE
  5
3A3
330
1E
100
AcDbEntity
  8
0
100
AcDbLine
 10
58.0159
 20
113.6720258654159
 30
0.0
 11
58.0159
 21
113.5532379999999
 31
0.0
  0
LINE
  5
3A4
330
1E
100
AcDbEntity
  8
0
100
AcDbLine
 10
57.9925
 20
113.9332379999999
 30
0.0
 11
58.0159
 21
113.5532379999999
 31
0.0
  0
LINE
  5
3A5
330
1E
100
AcDbEntity
  8
0
100
AcDbLine
 10
57.51850000000001
 20
113.2692379999999
 30
0.0
 11
58.0159
 21
113.5532379999999
 31
0.0
  0
LINE
  5
3A6
330
1E
100
AcDbEntity
  8
0
100
AcDbLine
 10
57.36209999999999
 20
110.0532379999999
 30
0.0
 11
58.1073
 21
110.0322379999999
 31
0.0
  0
LINE
  5
3A7
330
1E
100
AcDbEntity
  8
0
100
AcDbLine
 10
58.1073
 20
110.0322379999999
 30
0.0
 11
58.6182
 21
109.7552379999999
 31
0.0
  0
LINE
  5
3AA
330
1E
100
AcDbEntity
  8
0
100
AcDbLine
 10
60.0277
 20
125.0632379999999
 30
0.0
 11
60.3049
 21
124.7092379999999
 31
0.0
  0
LINE
  5
3AB
330
1E
100
AcDbEntity
  8
0
100
AcDbLine
 10
60.0277
 20
125.0632379999999
 30
0.0
 11
60.3049
 21
125.4162379999999
 31
0.0
  0
LINE
  5
3AD
330
1E
100
AcDbEntity
  8
0
100
AcDbLine
 10
60.3049
 20
124.7092379999999
 30
0.0
 11
60.99779999999999
 21
124.5682379999999
 31
0.0
  0
LINE
  5
3B0
330
1E
100
AcDbEntity
  8
0
100
AcDbLine
 10
60.5822
 20
115.6322379999999
 30
0.0
 11
60.8594
 21
115.985238
 31
0.0
  0
LINE
  5
3B1
330
1E
100
AcDbEntity
  8
0
100
AcDbLine
 10
60.5822
 20
115.6322379999999
 30
0.0
 11
60.8594
 21
115.2782379999999
 31
0.0
  0
LINE
  5
3B3
330
1E
100
AcDbEntity
  8
0
100
AcDbLine
 10
60.8594
 20
115.985238
 30
0.0
 11
61.5524
 21
116.1272379999999
 31
0.0
  0
LINE
  5
3B5
330
1E
100
AcDbEntity
  8
0
100
AcDbLine
 10
60.8594
 20
115.2782379999999
 30
0.0
 11
61.5524
 21
115.1372379999999
 31
0.0
  0
LINE
  5
3B7
330
1E
100
AcDbEntity
  8
0
100
AcDbLine
 10
61.5524
 20
116.1272379999999
 30
0.0
 11
62.2454
 21
115.985238
 31
0.0
  0
LINE
  5
3B9
330
1E
100
AcDbEntity
  8
0
100
AcDbLine
 10
61.5524
 20
115.1372379999999
 30
0.0
 11
62.2454
 21
115.2782379999999
 31
0.0
  0
LINE
  5
3BA
330
1E
100
AcDbEntity
  8
0
100
AcDbLine
 10
60.99779999999999
 20
124.5682379999999
 30
0.0
 11
61.69080000000001
 21
124.7092379999999
 31
0.0
  0
LINE
  5
3BB
330
1E
100
AcDbEntity
  8
0
100
AcDbLine
 10
61.69080000000001
 20
124.7092379999999
 30
0.0
 11
61.968
 21
125.0632379999999
 31
0.0
  0
LINE
  5
3C0
330
1E
100
AcDbEntity
  8
0
100
AcDbLine
 10
63.52109999999999
 20
118.1092379999999
 30
0.0
 11
63.5446
 21
118.4892379999999
 31
0.0
  0
LINE
  5
3C1
330
1E
100
AcDbEntity
  8
0
100
AcDbLine
 10
63.52109999999999
 20
118.1092379999999
 30
0.0
 11
64.0186
 21
117.8252379999999
 31
0.0
  0
LINE
  5
3C3
330
1E
100
AcDbEntity
  8
0
100
AcDbLine
 10
63.5446
 20
118.4892379999999
 30
0.0
 11
64.10099999999999
 21
118.7432379999999
 31
0.0
  0
LINE
  5
3C6
330
1E
100
AcDbEntity
  8
0
100
AcDbLine
 10
62.2454
 20
115.985238
 30
0.0
 11
62.5225
 21
115.6322379999999
 31
0.0
  0
LINE
  5
3C8
330
1E
100
AcDbEntity
  8
0
100
AcDbLine
 10
62.2454
 20
115.2782379999999
 30
0.0
 11
62.5225
 21
115.6322379999999
 31
0.0
  0
LINE
  5
3C9
330
1E
100
AcDbEntity
  8
0
100
AcDbLine
 10
63.4998
 20
111.6212379999999
 30
0.0
 11
63.8363
 21
111.9612379999999
 31
0.0
  0
LINE
  5
3CA
330
1E
100
AcDbEntity
  8
0
100
AcDbLine
 10
63.4998
 20
111.6212379999999
 30
0.0
 11
63.7155
 21
111.2562379999999
 31
0.0
  0
LINE
  5
3CC
330
1E
100
AcDbEntity
  8
0
100
AcDbLine
 10
64.10099999999999
 20
118.7432379999999
 30
0.0
 11
64.8469
 21
118.7312379999999
 31
0.0
  0
LINE
  5
3CE
330
1E
100
AcDbEntity
  8
0
100
AcDbLine
 10
64.0186
 20
117.8252379999999
 30
0.0
 11
64.7646
 21
117.8132379999999
 31
0.0
  0
LINE
  5
3CF
330
1E
100
AcDbEntity
  8
0
100
AcDbLine
 10
63.8363
 20
111.9612379999999
 30
0.0
 11
64.55079999999999
 21
112.071238
 31
0.0
  0
LINE
  5
3D0
330
1E
100
AcDbEntity
  8
0
100
AcDbLine
 10
63.7155
 20
111.2562379999999
 30
0.0
 11
64.38169999999999
 21
111.0842379999999
 31
0.0
  0
LINE
  5
3D1
330
1E
100
AcDbEntity
  8
0
100
AcDbLine
 10
63.706
 20
121.9262379999999
 30
0.0
 11
63.72939999999999
 21
121.5452379999999
 31
0.0
  0
LINE
  5
3D2
330
1E
100
AcDbEntity
  8
0
100
AcDbLine
 10
63.706
 20
121.9262379999999
 30
0.0
 11
64.2035
 21
122.2102379999999
 31
0.0
  0
LINE
  5
3D4
330
1E
100
AcDbEntity
  8
0
100
AcDbLine
 10
63.72939999999999
 20
121.5452379999999
 30
0.0
 11
64.2858
 21
121.2912379999999
 31
0.0
  0
LINE
  5
3D6
330
1E
100
AcDbEntity
  8
0
100
AcDbLine
 10
64.7646
 20
117.8132379999999
 30
0.0
 11
65.32099999999999
 21
118.0672379999999
 31
0.0
  0
LINE
  5
3D7
330
1E
100
AcDbEntity
  8
0
100
AcDbLine
 10
64.55079999999999
 20
112.071238
 30
0.0
 11
65.217
 21
111.8992379999999
 31
0.0
  0
LINE
  5
3D9
330
1E
100
AcDbEntity
  8
0
100
AcDbLine
 10
64.38169999999999
 20
111.0842379999999
 30
0.0
 11
65.09619999999999
 21
111.1942379999999
 31
0.0
  0
LINE
  5
3DA
330
1E
100
AcDbEntity
  8
0
100
AcDbLine
 10
64.2858
 20
121.2912379999999
 30
0.0
 11
65.0318
 21
121.303238
 31
0.0
  0
LINE
  5
3DD
330
1E
100
AcDbEntity
  8
0
100
AcDbLine
 10
64.2035
 20
122.2102379999999
 30
0.0
 11
64.94939999999999
 21
122.2222379999999
 31
0.0
  0
LINE
  5
3DF
330
1E
100
AcDbEntity
  8
0
100
AcDbLine
 10
61.968
 20
125.0632379999999
 30
0.0
 11
61.968
 21
125.2606075834499
 31
0.0
  0
LINE
  5
3E0
330
1E
100
AcDbEntity
  8
0
100
AcDbLine
 10
61.968
 20
125.2606075834499
 30
0.0
 11
61.968
 21
125.0632379999999
 31
0.0
  0
LINE
  5
3E1
330
1E
100
AcDbEntity
  8
0
100
AcDbLine
 10
61.69080000000001
 20
125.4162379999999
 30
0.0
 11
61.968
 21
125.0632379999999
 31
0.0
  0
LINE
  5
3E3
330
1E
100
AcDbEntity
  8
0
100
AcDbLine
 10
60.99779999999999
 20
125.5582379999999
 30
0.0
 11
61.69080000000001
 21
125.4162379999999
 31
0.0
  0
LINE
  5
3E5
330
1E
100
AcDbEntity
  8
0
100
AcDbLine
 10
60.3049
 20
125.4162379999999
 30
0.0
 11
60.99779999999999
 21
125.5582379999999
 31
0.0
  0
LINE
  5
3E8
330
1E
100
AcDbEntity
  8
0
100
AcDbLine
 10
57.5612
 20
126.5722379999999
 30
0.0
 11
57.5846
 21
126.9532379999999
 31
0.0
  0
LINE
  5
3E9
330
1E
100
AcDbEntity
  8
0
100
AcDbLine
 10
57.08709999999999
 20
127.2372379999999
 30
0.0
 11
57.5846
 21
126.9532379999999
 31
0.0
  0
LINE
  5
3EC
330
1E
100
AcDbEntity
  8
0
100
AcDbLine
 10
63.4998
 20
129.126238
 30
0.0
 11
63.8363
 21
128.787238
 31
0.0
  0
LINE
  5
3ED
330
1E
100
AcDbEntity
  8
0
100
AcDbLine
 10
63.4998
 20
129.126238
 30
0.0
 11
63.7155
 21
129.4912379999999
 31
0.0
  0
LINE
  5
3EE
330
1E
100
AcDbEntity
  8
0
100
AcDbLine
 10
63.8363
 20
128.787238
 30
0.0
 11
64.55079999999999
 21
128.6762379999999
 31
0.0
  0
LINE
  5
3EF
330
1E
100
AcDbEntity
  8
0
100
AcDbLine
 10
64.55079999999999
 20
128.6762379999999
 30
0.0
 11
65.217
 21
128.8482379999999
 31
0.0
  0
LINE
  5
3F0
330
1E
100
AcDbEntity
  8
0
100
AcDbLine
 10
64.38169999999999
 20
129.6632379999999
 30
0.0
 11
65.09619999999999
 21
129.553238
 31
0.0
  0
LINE
  5
3F1
330
1E
100
AcDbEntity
  8
0
100
AcDbLine
 10
63.7155
 20
129.4912379999999
 30
0.0
 11
64.38169999999999
 21
129.6632379999999
 31
0.0
  0
LINE
  5
3F4
330
1E
100
AcDbEntity
  8
0
100
AcDbLine
 10
56.3412
 20
127.2492379999999
 30
0.0
 11
57.08709999999999
 21
127.2372379999999
 31
0.0
  0
LINE
  5
3F6
330
1E
100
AcDbEntity
  8
0
100
AcDbLine
 10
55.78479999999999
 20
126.9952379999999
 30
0.0
 11
56.3412
 21
127.2492379999999
 31
0.0
  0
LINE
  5
3F8
330
1E
100
AcDbEntity
  8
0
100
AcDbLine
 10
64.29828985776549
 20
101.185178989246
 30
0.0
 11
64.30089999999999
 21
100.9292379999999
 31
0.0
  0
LINE
  5
3F9
330
1E
100
AcDbEntity
  8
0
100
AcDbLine
 10
67.9676
 20
107.5662379999999
 30
0.0
 11
68.3609
 21
107.8892379999999
 31
0.0
  0
LINE
  5
3FA
330
1E
100
AcDbEntity
  8
0
100
AcDbLine
 10
67.237
 20
107.488238
 30
0.0
 11
67.9676
 21
107.5662379999999
 31
0.0
  0
LINE
  5
3FB
330
1E
100
AcDbEntity
  8
0
100
AcDbLine
 10
66.45
 20
108.0612379999999
 30
0.0
 11
66.8433
 21
108.3852379999999
 31
0.0
  0
LINE
  5
3FC
330
1E
100
AcDbEntity
  8
0
100
AcDbLine
 10
66.45
 20
108.0612379999999
 30
0.0
 11
66.6027
 21
107.6882379999999
 31
0.0
  0
LINE
  5
3FD
330
1E
100
AcDbEntity
  8
0
100
AcDbLine
 10
64.8469
 20
118.7312379999999
 30
0.0
 11
65.3444
 21
118.4472379999999
 31
0.0
  0
LINE
  5
402
330
1E
100
AcDbEntity
  8
0
100
AcDbLine
 10
65.32099999999999
 20
118.0672379999999
 30
0.0
 11
65.3444
 21
118.4472379999999
 31
0.0
  0
LINE
  5
405
330
1E
100
AcDbEntity
  8
0
100
AcDbLine
 10
65.217
 20
111.8992379999999
 30
0.0
 11
65.43269999999999
 21
111.5342379999999
 31
0.0
  0
LINE
  5
407
330
1E
100
AcDbEntity
  8
0
100
AcDbLine
 10
65.09619999999999
 20
111.1942379999999
 30
0.0
 11
65.43269999999999
 21
111.5342379999999
 31
0.0
  0
LINE
  5
40A
330
1E
100
AcDbEntity
  8
0
100
AcDbLine
 10
66.8433
 20
108.3852379999999
 30
0.0
 11
67.5739
 21
108.4632379999999
 31
0.0
  0
LINE
  5
40C
330
1E
100
AcDbEntity
  8
0
100
AcDbLine
 10
67.5739
 20
108.4632379999999
 30
0.0
 11
68.20820000000001
 21
108.2622379999999
 31
0.0
  0
LINE
  5
40E
330
1E
100
AcDbEntity
  8
0
100
AcDbLine
 10
66.6027
 20
107.6882379999999
 30
0.0
 11
67.237
 21
107.488238
 31
0.0
  0
LINE
  5
410
330
1E
100
AcDbEntity
  8
0
100
AcDbLine
 10
68.20820000000001
 20
108.2622379999999
 30
0.0
 11
68.3609
 21
107.8892379999999
 31
0.0
  0
LINE
  5
413
330
1E
100
AcDbEntity
  8
0
100
AcDbLine
 10
68.17289999999999
 20
104.183238
 30
0.0
 11
68.62
 21
104.4882379999999
 31
0.0
  0
LINE
  5
414
330
1E
100
AcDbEntity
  8
0
100
AcDbLine
 10
68.17289999999999
 20
104.183238
 30
0.0
 11
68.2613
 21
103.805238
 31
0.0
  0
LINE
  5
416
330
1E
100
AcDbEntity
  8
0
100
AcDbLine
 10
73.422
 20
103.0712379999999
 30
0.0
 11
83.222
 21
106.9212379999999
 31
0.0
  0
LINE
  5
417
330
1E
100
AcDbEntity
  8
0
100
AcDbLine
 10
68.62
 20
104.4882379999999
 30
0.0
 11
69.36109999999999
 21
104.533238
 31
0.0
  0
LINE
  5
41A
330
1E
100
AcDbEntity
  8
0
100
AcDbLine
 10
68.5532
 20
114.5042379999999
 30
0.0
 11
68.6416
 21
114.8822379999999
 31
0.0
  0
LINE
  5
41B
330
1E
100
AcDbEntity
  8
0
100
AcDbLine
 10
68.5532
 20
114.5042379999999
 30
0.0
 11
69.0003
 21
114.199238
 31
0.0
  0
LINE
  5
420
330
1E
100
AcDbEntity
  8
0
100
AcDbLine
 10
68.6416
 20
114.8822379999999
 30
0.0
 11
69.23919999999999
 21
115.1102379999999
 31
0.0
  0
LINE
  5
422
330
1E
100
AcDbEntity
  8
0
100
AcDbLine
 10
69.23919999999999
 20
115.1102379999999
 30
0.0
 11
69.98029999999999
 21
115.0652379999999
 31
0.0
  0
LINE
  5
424
330
1E
100
AcDbEntity
  8
0
100
AcDbLine
 10
69.0003
 20
114.199238
 30
0.0
 11
69.7414
 21
114.1542379999999
 31
0.0
  0
LINE
  5
427
330
1E
100
AcDbEntity
  8
0
100
AcDbLine
 10
69.36109999999999
 20
104.533238
 30
0.0
 11
69.9587
 21
104.305238
 31
0.0
  0
LINE
  5
428
330
1E
100
AcDbEntity
  8
0
100
AcDbLine
 10
70.0471
 20
103.927238
 30
0.0
 11
70.0471
 21
104.0135594036829
 31
0.0
  0
LINE
  5
429
330
1E
100
AcDbEntity
  8
0
100
AcDbLine
 10
70.0471
 20
104.0135594036829
 30
0.0
 11
70.0471
 21
103.927238
 31
0.0
  0
LINE
  5
42A
330
1E
100
AcDbEntity
  8
0
100
AcDbLine
 10
69.7414
 20
114.1542379999999
 30
0.0
 11
70.339
 21
114.3822379999999
 31
0.0
  0
LINE
  5
42B
330
1E
100
AcDbEntity
  8
0
100
AcDbLine
 10
75.1973
 20
105.6222379999999
 30
0.0
 11
75.5338
 21
105.9612379999999
 31
0.0
  0
LINE
  5
42C
330
1E
100
AcDbEntity
  8
0
100
AcDbLine
 10
74.4828
 20
105.5122379999999
 30
0.0
 11
75.1973
 21
105.6222379999999
 31
0.0
  0
LINE
  5
42D
330
1E
100
AcDbEntity
  8
0
100
AcDbLine
 10
73.60089999999999
 20
106.0482379999999
 30
0.0
 11
73.9374
 21
106.3882379999999
 31
0.0
  0
LINE
  5
42E
330
1E
100
AcDbEntity
  8
0
100
AcDbLine
 10
73.60089999999999
 20
106.0482379999999
 30
0.0
 11
73.8166
 21
105.6832379999999
 31
0.0
  0
LINE
  5
42F
330
1E
100
AcDbEntity
  8
0
100
AcDbLine
 10
73.9374
 20
106.3882379999999
 30
0.0
 11
74.65189999999999
 21
106.4982379999999
 31
0.0
  0
LINE
  5
432
330
1E
100
AcDbEntity
  8
0
100
AcDbLine
 10
74.65189999999999
 20
106.4982379999999
 30
0.0
 11
75.3181
 21
106.3262379999999
 31
0.0
  0
LINE
  5
436
330
1E
100
AcDbEntity
  8
0
100
AcDbLine
 10
75.3181
 20
106.3262379999999
 30
0.0
 11
75.5338
 21
105.9612379999999
 31
0.0
  0
LINE
  5
438
330
1E
100
AcDbEntity
  8
0
100
AcDbLine
 10
73.8166
 20
105.6832379999999
 30
0.0
 11
74.4828
 21
105.5122379999999
 31
0.0
  0
LINE
  5
439
330
1E
100
AcDbEntity
  8
0
100
AcDbLine
 10
79.3628
 20
107.9152379999999
 30
0.0
 11
80.02889999999998
 21
108.0872379999999
 31
0.0
  0
LINE
  5
43A
330
1E
100
AcDbEntity
  8
0
100
AcDbLine
 10
78.3118
 20
108.3652379999999
 30
0.0
 11
78.5275
 21
108.7302379999999
 31
0.0
  0
LINE
  5
43B
330
1E
100
AcDbEntity
  8
0
100
AcDbLine
 10
78.3118
 20
108.3652379999999
 30
0.0
 11
78.64830000000001
 21
108.0252379999999
 31
0.0
  0
LINE
  5
43C
330
1E
100
AcDbEntity
  8
0
100
AcDbLine
 10
78.5275
 20
108.7302379999999
 30
0.0
 11
79.1937
 21
108.9012379999999
 31
0.0
  0
LINE
  5
43D
330
1E
100
AcDbEntity
  8
0
100
AcDbLine
 10
72.15049999999999
 20
109.3562379999999
 30
0.0
 11
72.4276
 21
109.7102379999999
 31
0.0
  0
LINE
  5
43E
330
1E
100
AcDbEntity
  8
0
100
AcDbLine
 10
71.45749999999999
 20
109.2152379999999
 30
0.0
 11
72.15049999999999
 21
109.3562379999999
 31
0.0
  0
LINE
  5
43F
330
1E
100
AcDbEntity
  8
0
100
AcDbLine
 10
70.4873
 20
109.7102379999999
 30
0.0
 11
70.7645
 21
110.0632379999999
 31
0.0
  0
LINE
  5
440
330
1E
100
AcDbEntity
  8
0
100
AcDbLine
 10
70.4873
 20
109.7102379999999
 30
0.0
 11
70.7645
 21
109.3562379999999
 31
0.0
  0
LINE
  5
442
330
1E
100
AcDbEntity
  8
0
100
AcDbLine
 10
70.7645
 20
110.0632379999999
 30
0.0
 11
71.45749999999999
 21
110.2052379999999
 31
0.0
  0
LINE
  5
447
330
1E
100
AcDbEntity
  8
0
100
AcDbLine
 10
69.98029999999999
 20
115.0652379999999
 30
0.0
 11
70.42740000000001
 21
114.7602379999999
 31
0.0
  0
LINE
  5
449
330
1E
100
AcDbEntity
  8
0
100
AcDbLine
 10
70.339
 20
114.3822379999999
 30
0.0
 11
70.42740000000001
 21
114.7602379999999
 31
0.0
  0
LINE
  5
44A
330
1E
100
AcDbEntity
  8
0
100
AcDbLine
 10
71.3689
 20
118.0962379999999
 30
0.0
 11
71.99339999999999
 21
117.8872379999999
 31
0.0
  0
LINE
  5
44B
330
1E
100
AcDbEntity
  8
0
100
AcDbLine
 10
71.19849999999999
 20
118.466238
 30
0.0
 11
71.6071
 21
118.785238
 31
0.0
  0
LINE
  5
44C
330
1E
100
AcDbEntity
  8
0
100
AcDbLine
 10
71.19849999999999
 20
118.466238
 30
0.0
 11
71.3689
 21
118.0962379999999
 31
0.0
  0
LINE
  5
44F
330
1E
100
AcDbEntity
  8
0
100
AcDbLine
 10
71.6071
 20
118.785238
 30
0.0
 11
72.33369999999999
 21
118.8722379999999
 31
0.0
  0
LINE
  5
450
330
1E
100
AcDbEntity
  8
0
100
AcDbLine
 10
71.99339999999999
 20
117.8872379999999
 30
0.0
 11
72.72
 21
117.9742379999999
 31
0.0
  0
LINE
  5
452
330
1E
100
AcDbEntity
  8
0
100
AcDbLine
 10
71.45749999999999
 20
110.2052379999999
 30
0.0
 11
72.15049999999999
 21
110.0632379999999
 31
0.0
  0
LINE
  5
454
330
1E
100
AcDbEntity
  8
0
100
AcDbLine
 10
72.4276
 20
109.7102379999999
 30
0.0
 11
72.4276
 21
109.963768330753
 31
0.0
  0
LINE
  5
455
330
1E
100
AcDbEntity
  8
0
100
AcDbLine
 10
73.90219999999999
 20
111.959250087912
 30
0.0
 11
73.90219999999999
 21
111.6912379999999
 31
0.0
  0
LINE
  5
456
330
1E
100
AcDbEntity
  8
0
100
AcDbLine
 10
73.90219999999999
 20
111.6912379999999
 30
0.0
 11
74.0548
 21
112.0642379999999
 31
0.0
  0
LINE
  5
457
330
1E
100
AcDbEntity
  8
0
100
AcDbLine
 10
73.90219999999999
 20
111.6912379999999
 30
0.0
 11
74.2955
 21
111.3682379999999
 31
0.0
  0
LINE
  5
458
330
1E
100
AcDbEntity
  8
0
100
AcDbLine
 10
73.90219999999999
 20
111.6912379999999
 30
0.0
 11
73.90219999999999
 21
111.959250087912
 31
0.0
  0
LINE
  5
459
330
1E
100
AcDbEntity
  8
0
100
AcDbLine
 10
72.95829999999999
 20
118.6642379999999
 30
0.0
 11
73.1287
 21
118.293238
 31
0.0
  0
LINE
  5
45A
330
1E
100
AcDbEntity
  8
0
100
AcDbLine
 10
72.72
 20
117.9742379999999
 30
0.0
 11
73.1287
 21
118.293238
 31
0.0
  0
LINE
  5
45B
330
1E
100
AcDbEntity
  8
0
100
AcDbLine
 10
74.0548
 20
112.0642379999999
 30
0.0
 11
74.6891
 21
112.2652379999999
 31
0.0
  0
LINE
  5
45C
330
1E
100
AcDbEntity
  8
0
100
AcDbLine
 10
74.6891
 20
112.2652379999999
 30
0.0
 11
75.4197
 21
112.1872379999999
 31
0.0
  0
LINE
  5
45D
330
1E
100
AcDbEntity
  8
0
100
AcDbLine
 10
75.4197
 20
112.1872379999999
 30
0.0
 11
75.813
 21
111.8632379999999
 31
0.0
  0
LINE
  5
45E
330
1E
100
AcDbEntity
  8
0
100
AcDbLine
 10
77.83419999999999
 20
113.6492379999999
 30
0.0
 11
78.3905
 21
113.9032379999999
 31
0.0
  0
LINE
  5
45F
330
1E
100
AcDbEntity
  8
0
100
AcDbLine
 10
76.59069999999999
 20
113.9452379999999
 30
0.0
 11
76.61419999999999
 21
114.3262379999999
 31
0.0
  0
LINE
  5
460
330
1E
100
AcDbEntity
  8
0
100
AcDbLine
 10
76.59069999999999
 20
113.9452379999999
 30
0.0
 11
77.0882
 21
113.6612379999999
 31
0.0
  0
LINE
  5
461
330
1E
100
AcDbEntity
  8
0
100
AcDbLine
 10
76.61419999999999
 20
114.3262379999999
 30
0.0
 11
77.1705
 21
114.5802379999999
 31
0.0
  0
LINE
  5
466
330
1E
100
AcDbEntity
  8
0
100
AcDbLine
 10
77.1705
 20
114.5802379999999
 30
0.0
 11
77.9165
 21
114.568238
 31
0.0
  0
LINE
  5
468
330
1E
100
AcDbEntity
  8
0
100
AcDbLine
 10
77.9165
 20
114.568238
 30
0.0
 11
78.414
 21
114.2842379999999
 31
0.0
  0
LINE
  5
46A
330
1E
100
AcDbEntity
  8
0
100
AcDbLine
 10
77.0882
 20
113.6612379999999
 30
0.0
 11
77.83419999999999
 21
113.6492379999999
 31
0.0
  0
LINE
  5
46D
330
1E
100
AcDbEntity
  8
0
100
AcDbLine
 10
78.3905
 20
113.9032379999999
 30
0.0
 11
78.414
 21
114.2842379999999
 31
0.0
  0
LINE
  5
46E
330
1E
100
AcDbEntity
  8
0
100
AcDbLine
 10
78.47129999999999
 20
116.4032379999999
 30
0.0
 11
79.0578
 21
116.1672379999999
 31
0.0
  0
LINE
  5
46F
330
1E
100
AcDbEntity
  8
0
100
AcDbLine
 10
78.36490000000001
 20
116.7802379999999
 30
0.0
 11
78.82640000000001
 21
117.0792379999999
 31
0.0
  0
LINE
  5
470
330
1E
100
AcDbEntity
  8
0
100
AcDbLine
 10
78.36490000000001
 20
116.7802379999999
 30
0.0
 11
78.47129999999999
 21
116.4032379999999
 31
0.0
  0
LINE
  5
474
330
1E
100
AcDbEntity
  8
0
100
AcDbLine
 10
78.82640000000001
 20
117.0792379999999
 30
0.0
 11
79.5651
 21
117.1332379999999
 31
0.0
  0
LINE
  5
476
330
1E
100
AcDbEntity
  8
0
100
AcDbLine
 10
79.0578
 20
116.1672379999999
 30
0.0
 11
79.79659999999999
 21
116.2222379999999
 31
0.0
  0
LINE
  5
477
330
1E
100
AcDbEntity
  8
0
100
AcDbLine
 10
75.66030000000001
 20
111.4902379999999
 30
0.0
 11
75.813
 21
111.8632379999999
 31
0.0
  0
LINE
  5
478
330
1E
100
AcDbEntity
  8
0
100
AcDbLine
 10
75.02600000000001
 20
111.2902379999999
 30
0.0
 11
75.66030000000001
 21
111.4902379999999
 31
0.0
  0
LINE
  5
479
330
1E
100
AcDbEntity
  8
0
100
AcDbLine
 10
74.2955
 20
111.3682379999999
 30
0.0
 11
75.02600000000001
 21
111.2902379999999
 31
0.0
  0
LINE
  5
47A
330
1E
100
AcDbEntity
  8
0
100
AcDbLine
 10
72.4276
 20
109.963768330753
 30
0.0
 11
72.4276
 21
109.7102379999999
 31
0.0
  0
LINE
  5
47B
330
1E
100
AcDbEntity
  8
0
100
AcDbLine
 10
72.15049999999999
 20
110.0632379999999
 30
0.0
 11
72.4276
 21
109.7102379999999
 31
0.0
  0
LINE
  5
47C
330
1E
100
AcDbEntity
  8
0
100
AcDbLine
 10
70.7645
 20
109.3562379999999
 30
0.0
 11
71.45749999999999
 21
109.2152379999999
 31
0.0
  0
LINE
  5
47E
330
1E
100
AcDbEntity
  8
0
100
AcDbLine
 10
79.5651
 20
117.1332379999999
 30
0.0
 11
80.15170000000001
 21
116.8982379999999
 31
0.0
  0
LINE
  5
480
330
1E
100
AcDbEntity
  8
0
100
AcDbLine
 10
79.79659999999999
 20
116.2222379999999
 30
0.0
 11
80.25809999999999
 21
116.5212379999999
 31
0.0
  0
LINE
  5
482
330
1E
100
AcDbEntity
  8
0
100
AcDbLine
 10
79.1937
 20
108.9012379999999
 30
0.0
 11
79.90819999999999
 21
108.7912379999999
 31
0.0
  0
LINE
  5
483
330
1E
100
AcDbEntity
  8
0
100
AcDbLine
 10
79.90819999999999
 20
108.7912379999999
 30
0.0
 11
80.24469999999999
 21
108.4512379999999
 31
0.0
  0
LINE
  5
486
330
1E
100
AcDbEntity
  8
0
100
AcDbLine
 10
80.15170000000001
 20
116.8982379999999
 30
0.0
 11
80.25809999999999
 21
116.5212379999999
 31
0.0
  0
LINE
  5
488
330
1E
100
AcDbEntity
  8
0
100
AcDbLine
 10
80.02889999999998
 20
108.0872379999999
 30
0.0
 11
80.24469999999999
 21
108.4512379999999
 31
0.0
  0
LINE
  5
489
330
1E
100
AcDbEntity
  8
0
100
AcDbLine
 10
78.64830000000001
 20
108.0252379999999
 30
0.0
 11
79.3628
 21
107.9152379999999
 31
0.0
  0
LINE
  5
48B
330
1E
100
AcDbEntity
  8
0
100
AcDbLine
 10
69.9587
 20
104.305238
 30
0.0
 11
70.0471
 21
103.927238
 31
0.0
  0
LINE
  5
48D
330
1E
100
AcDbEntity
  8
0
100
AcDbLine
 10
69.59999999999999
 20
103.6222379999999
 30
0.0
 11
70.0471
 21
103.927238
 31
0.0
  0
LINE
  5
48E
330
1E
100
AcDbEntity
  8
0
100
AcDbLine
 10
68.8589
 20
103.577238
 30
0.0
 11
69.59999999999999
 21
103.6222379999999
 31
0.0
  0
LINE
  5
48F
330
1E
100
AcDbEntity
  8
0
100
AcDbLine
 10
68.2613
 20
103.805238
 30
0.0
 11
68.8589
 21
103.577238
 31
0.0
  0
LINE
  5
490
330
1E
100
AcDbEntity
  8
0
100
AcDbLine
 10
72.33369999999999
 20
118.8722379999999
 30
0.0
 11
72.95829999999999
 21
118.6642379999999
 31
0.0
  0
LINE
  5
492
330
1E
100
AcDbEntity
  8
0
100
AcDbLine
 10
79.2537
 20
119.3522379999999
 30
0.0
 11
79.4868
 21
118.9902379999999
 31
0.0
  0
LINE
  5
494
330
1E
100
AcDbEntity
  8
0
100
AcDbLine
 10
79.2537
 20
119.3522379999999
 30
0.0
 11
79.60639999999999
 21
119.687238
 31
0.0
  0
LINE
  5
496
330
1E
100
AcDbEntity
  8
0
100
AcDbLine
 10
79.60639999999999
 20
119.687238
 30
0.0
 11
80.31539999999999
 21
119.8062379999999
 31
0.0
  0
LINE
  5
497
330
1E
100
AcDbEntity
  8
0
100
AcDbLine
 10
79.4868
 20
118.9902379999999
 30
0.0
 11
80.14459999999999
 21
118.8102379999999
 31
0.0
  0
LINE
  5
499
330
1E
100
AcDbEntity
  8
0
100
AcDbLine
 10
80.14459999999999
 20
118.8102379999999
 30
0.0
 11
80.85359999999999
 21
118.9292379999999
 31
0.0
  0
LINE
  5
49F
330
1E
100
AcDbEntity
  8
0
100
AcDbLine
 10
80.85359999999999
 20
118.9292379999999
 30
0.0
 11
81.2063
 21
119.2652379999999
 31
0.0
  0
LINE
  5
4A0
330
1E
100
AcDbEntity
  8
0
100
AcDbLine
 10
83.222
 20
106.9212379999999
 30
0.0
 11
90.76799999999998
 21
111.921238
 31
0.0
  0
LINE
  5
4A1
330
1E
100
AcDbEntity
  8
0
100
AcDbLine
 10
83.3506
 20
110.7142379999999
 30
0.0
 11
83.94820000000001
 21
110.9422379999999
 31
0.0
  0
LINE
  5
4A2
330
1E
100
AcDbEntity
  8
0
100
AcDbLine
 10
82.1624
 20
111.0642379999999
 30
0.0
 11
82.2508
 21
111.4422379999999
 31
0.0
  0
LINE
  5
4A3
330
1E
100
AcDbEntity
  8
0
100
AcDbLine
 10
82.1624
 20
111.0642379999999
 30
0.0
 11
82.60949999999999
 21
110.7592379999999
 31
0.0
  0
LINE
  5
4A5
330
1E
100
AcDbEntity
  8
0
100
AcDbLine
 10
82.2508
 20
111.4422379999999
 30
0.0
 11
82.8484
 21
111.6712379999999
 31
0.0
  0
LINE
  5
4AB
330
1E
100
AcDbEntity
  8
0
100
AcDbLine
 10
82.8484
 20
111.6712379999999
 30
0.0
 11
83.5895
 21
111.6252379999999
 31
0.0
  0
LINE
  5
4AD
330
1E
100
AcDbEntity
  8
0
100
AcDbLine
 10
83.5895
 20
111.6252379999999
 30
0.0
 11
84.0366
 21
111.321238
 31
0.0
  0
LINE
  5
4B0
330
1E
100
AcDbEntity
  8
0
100
AcDbLine
 10
85.03579999999999
 20
114.0642379999999
 30
0.0
 11
85.5799
 21
113.803238
 31
0.0
  0
LINE
  5
4B1
330
1E
100
AcDbEntity
  8
0
100
AcDbLine
 10
84.9942
 20
114.4442379999999
 30
0.0
 11
85.50499999999999
 21
114.7222379999999
 31
0.0
  0
LINE
  5
4B2
330
1E
100
AcDbEntity
  8
0
100
AcDbLine
 10
84.9942
 20
114.4442379999999
 30
0.0
 11
85.03579999999999
 21
114.0642379999999
 31
0.0
  0
LINE
  5
4B4
330
1E
100
AcDbEntity
  8
0
100
AcDbLine
 10
85.50499999999999
 20
114.7222379999999
 30
0.0
 11
86.25020000000001
 21
114.7432379999999
 31
0.0
  0
LINE
  5
4B6
330
1E
100
AcDbEntity
  8
0
100
AcDbLine
 10
86.67419999999999
 20
117.6432379999999
 30
0.0
 11
87.08289999999999
 21
117.9622379999999
 31
0.0
  0
LINE
  5
4B7
330
1E
100
AcDbEntity
  8
0
100
AcDbLine
 10
86.67419999999999
 20
117.6432379999999
 30
0.0
 11
86.84470000000001
 21
117.2722379999999
 31
0.0
  0
LINE
  5
4BA
330
1E
100
AcDbEntity
  8
0
100
AcDbLine
 10
86.25020000000001
 20
114.7432379999999
 30
0.0
 11
86.79430000000001
 21
114.4822379999999
 31
0.0
  0
LINE
  5
4BD
330
1E
100
AcDbEntity
  8
0
100
AcDbLine
 10
86.84470000000001
 20
117.2722379999999
 30
0.0
 11
87.46920000000001
 21
117.0642379999999
 31
0.0
  0
LINE
  5
4BE
330
1E
100
AcDbEntity
  8
0
100
AcDbLine
 10
87.08289999999999
 20
117.9622379999999
 30
0.0
 11
87.8095
 21
118.049238
 31
0.0
  0
LINE
  5
4C0
330
1E
100
AcDbEntity
  8
0
100
AcDbLine
 10
87.8095
 20
118.049238
 30
0.0
 11
88.4341
 21
117.8402379999999
 31
0.0
  0
LINE
  5
4C4
330
1E
100
AcDbEntity
  8
0
100
AcDbLine
 10
88.4341
 20
117.8402379999999
 30
0.0
 11
88.6045
 21
117.470238
 31
0.0
  0
LINE
  5
4C6
330
1E
100
AcDbEntity
  8
0
100
AcDbLine
 10
88.1958
 20
117.151238
 30
0.0
 11
88.6045
 21
117.470238
 31
0.0
  0
LINE
  5
4C7
330
1E
100
AcDbEntity
  8
0
100
AcDbLine
 10
87.46920000000001
 20
117.0642379999999
 30
0.0
 11
88.1958
 21
117.151238
 31
0.0
  0
LINE
  5
4C9
330
1E
100
AcDbEntity
  8
0
100
AcDbLine
 10
86.79430000000001
 20
114.4822379999999
 30
0.0
 11
86.8359
 21
114.1022379999999
 31
0.0
  0
LINE
  5
4CB
330
1E
100
AcDbEntity
  8
0
100
AcDbLine
 10
86.32510000000001
 20
113.8242379999999
 30
0.0
 11
86.8359
 21
114.1022379999999
 31
0.0
  0
LINE
  5
4CC
330
1E
100
AcDbEntity
  8
0
100
AcDbLine
 10
85.5799
 20
113.803238
 30
0.0
 11
86.32510000000001
 21
113.8242379999999
 31
0.0
  0
LINE
  5
4CE
330
1E
100
AcDbEntity
  8
0
100
AcDbLine
 10
83.94820000000001
 20
110.9422379999999
 30
0.0
 11
84.0366
 21
111.321238
 31
0.0
  0
LINE
  5
4CF
330
1E
100
AcDbEntity
  8
0
100
AcDbLine
 10
82.60949999999999
 20
110.7592379999999
 30
0.0
 11
83.3506
 21
110.7142379999999
 31
0.0
  0
LINE
  5
4D3
330
1E
100
AcDbEntity
  8
0
100
AcDbLine
 10
80.97320000000001
 20
119.6262379999999
 30
0.0
 11
81.2063
 21
119.2652379999999
 31
0.0
  0
LINE
  5
4D4
330
1E
100
AcDbEntity
  8
0
100
AcDbLine
 10
80.31539999999999
 20
119.8062379999999
 30
0.0
 11
80.97320000000001
 21
119.6262379999999
 31
0.0
  0
LINE
  5
4D9
330
1E
100
AcDbEntity
  8
0
100
AcDbLine
 10
87.24
 20
120.9422379999999
 30
0.0
 11
87.53399999999999
 21
120.592238
 31
0.0
  0
LINE
  5
4DB
330
1E
100
AcDbEntity
  8
0
100
AcDbLine
 10
87.24
 20
120.9422379999999
 30
0.0
 11
87.53399999999999
 21
121.2922379999999
 31
0.0
  0
LINE
  5
4DD
330
1E
100
AcDbEntity
  8
0
100
AcDbLine
 10
87.53399999999999
 20
120.592238
 30
0.0
 11
88.22
 21
120.442238
 31
0.0
  0
LINE
  5
4DF
330
1E
100
AcDbEntity
  8
0
100
AcDbLine
 10
88.22
 20
120.442238
 30
0.0
 11
88.906
 21
120.592238
 31
0.0
  0
LINE
  5
4E1
330
1E
100
AcDbEntity
  8
0
100
AcDbLine
 10
95.37399999999999
 20
117.7212379999999
 30
0.0
 11
96.74600000000001
 21
119.541238
 31
0.0
  0
LINE
  5
4E2
330
1E
100
AcDbEntity
  8
0
100
AcDbLine
 10
96.74600000000001
 20
119.541238
 30
0.0
 11
98.51
 21
125.8912379999999
 31
0.0
  0
LINE
  5
4E3
330
1E
100
AcDbEntity
  8
0
100
AcDbLine
 10
90.76799999999998
 20
111.921238
 30
0.0
 11
95.37399999999999
 21
117.7212379999999
 31
0.0
  0
LINE
  5
4E5
330
1E
100
AcDbEntity
  8
0
100
AcDbLine
 10
88.906
 20
120.592238
 30
0.0
 11
89.19999999999999
 21
120.9422379999999
 31
0.0
  0
LINE
  5
4E6
330
1E
100
AcDbEntity
  8
0
100
AcDbLine
 10
65.0318
 20
121.303238
 30
0.0
 11
65.5293
 21
121.5872379999999
 31
0.0
  0
LINE
  5
4E7
330
1E
100
AcDbEntity
  8
0
100
AcDbLine
 10
71.6071
 20
121.9622379999999
 30
0.0
 11
72.33369999999999
 21
121.8752379999999
 31
0.0
  0
LINE
  5
4E8
330
1E
100
AcDbEntity
  8
0
100
AcDbLine
 10
72.33369999999999
 20
121.8752379999999
 30
0.0
 11
72.95829999999999
 21
122.0842379999999
 31
0.0
  0
LINE
  5
4E9
330
1E
100
AcDbEntity
  8
0
100
AcDbLine
 10
65.5058
 20
121.9682379999999
 30
0.0
 11
65.5293
 21
121.5872379999999
 31
0.0
  0
LINE
  5
4EB
330
1E
100
AcDbEntity
  8
0
100
AcDbLine
 10
79.2537
 20
121.9632379999999
 30
0.0
 11
79.60639999999999
 21
121.6282379999999
 31
0.0
  0
LINE
  5
4ED
330
1E
100
AcDbEntity
  8
0
100
AcDbLine
 10
79.2537
 20
121.9632379999999
 30
0.0
 11
79.4868
 21
122.3252379999999
 31
0.0
  0
LINE
  5
4EE
330
1E
100
AcDbEntity
  8
0
100
AcDbLine
 10
79.60639999999999
 20
121.6282379999999
 30
0.0
 11
80.31539999999999
 21
121.5092379999999
 31
0.0
  0
LINE
  5
4F0
330
1E
100
AcDbEntity
  8
0
100
AcDbLine
 10
80.31539999999999
 20
121.5092379999999
 30
0.0
 11
80.97320000000001
 21
121.6892379999999
 31
0.0
  0
LINE
  5
4F1
330
1E
100
AcDbEntity
  8
0
100
AcDbLine
 10
80.97320000000001
 20
121.6892379999999
 30
0.0
 11
81.2063
 21
122.0512379999999
 31
0.0
  0
LINE
  5
4F2
330
1E
100
AcDbEntity
  8
0
100
AcDbLine
 10
64.94939999999999
 20
122.2222379999999
 30
0.0
 11
65.5058
 21
121.9682379999999
 31
0.0
  0
LINE
  5
4F4
330
1E
100
AcDbEntity
  8
0
100
AcDbLine
 10
71.19849999999999
 20
122.2812379999999
 30
0.0
 11
71.6071
 21
121.9622379999999
 31
0.0
  0
LINE
  5
4F5
330
1E
100
AcDbEntity
  8
0
100
AcDbLine
 10
71.19849999999999
 20
122.2812379999999
 30
0.0
 11
71.3689
 21
122.6512379999999
 31
0.0
  0
LINE
  5
4F6
330
1E
100
AcDbEntity
  8
0
100
AcDbLine
 10
72.95829999999999
 20
122.0842379999999
 30
0.0
 11
73.1287
 21
122.4542379999999
 31
0.0
  0
LINE
  5
4F8
330
1E
100
AcDbEntity
  8
0
100
AcDbLine
 10
71.3689
 20
122.6512379999999
 30
0.0
 11
71.99339999999999
 21
122.8602379999999
 31
0.0
  0
LINE
  5
4FA
330
1E
100
AcDbEntity
  8
0
100
AcDbLine
 10
72.72
 20
122.7732379999999
 30
0.0
 11
73.1287
 21
122.4542379999999
 31
0.0
  0
LINE
  5
4FC
330
1E
100
AcDbEntity
  8
0
100
AcDbLine
 10
69.23919999999999
 20
125.6372379999999
 30
0.0
 11
69.98029999999999
 21
125.6822379999999
 31
0.0
  0
LINE
  5
4FD
330
1E
100
AcDbEntity
  8
0
100
AcDbLine
 10
68.5532
 20
126.2432379999999
 30
0.0
 11
68.6416
 21
125.865238
 31
0.0
  0
LINE
  5
4FE
330
1E
100
AcDbEntity
  8
0
100
AcDbLine
 10
68.5532
 20
126.2432379999999
 30
0.0
 11
69.0003
 21
126.5482379999999
 31
0.0
  0
LINE
  5
501
330
1E
100
AcDbEntity
  8
0
100
AcDbLine
 10
68.6416
 20
125.865238
 30
0.0
 11
69.23919999999999
 21
125.6372379999999
 31
0.0
  0
LINE
  5
502
330
1E
100
AcDbEntity
  8
0
100
AcDbLine
 10
69.98029999999999
 20
125.6822379999999
 30
0.0
 11
70.42740000000001
 21
125.987238
 31
0.0
  0
LINE
  5
508
330
1E
100
AcDbEntity
  8
0
100
AcDbLine
 10
78.47129999999999
 20
124.9122379999999
 30
0.0
 11
79.0578
 21
125.1482379999999
 31
0.0
  0
LINE
  5
50A
330
1E
100
AcDbEntity
  8
0
100
AcDbLine
 10
78.36490000000001
 20
124.5352379999999
 30
0.0
 11
78.82640000000001
 21
124.2362379999999
 31
0.0
  0
LINE
  5
50B
330
1E
100
AcDbEntity
  8
0
100
AcDbLine
 10
78.36490000000001
 20
124.5352379999999
 30
0.0
 11
78.47129999999999
 21
124.9122379999999
 31
0.0
  0
LINE
  5
50D
330
1E
100
AcDbEntity
  8
0
100
AcDbLine
 10
78.82640000000001
 20
124.2362379999999
 30
0.0
 11
79.5651
 21
124.1822379999999
 31
0.0
  0
LINE
  5
50E
330
1E
100
AcDbEntity
  8
0
100
AcDbLine
 10
79.0578
 20
125.1482379999999
 30
0.0
 11
79.79659999999999
 21
125.0932379999999
 31
0.0
  0
LINE
  5
510
330
1E
100
AcDbEntity
  8
0
100
AcDbLine
 10
71.99339999999999
 20
122.8602379999999
 30
0.0
 11
72.72
 21
122.7732379999999
 31
0.0
  0
LINE
  5
513
330
1E
100
AcDbEntity
  8
0
100
AcDbLine
 10
79.5651
 20
124.1822379999999
 30
0.0
 11
80.15170000000001
 21
124.4172379999999
 31
0.0
  0
LINE
  5
514
330
1E
100
AcDbEntity
  8
0
100
AcDbLine
 10
79.79659999999999
 20
125.0932379999999
 30
0.0
 11
80.25809999999999
 21
124.794238
 31
0.0
  0
LINE
  5
519
330
1E
100
AcDbEntity
  8
0
100
AcDbLine
 10
79.4868
 20
122.3252379999999
 30
0.0
 11
80.14459999999999
 21
122.5052379999999
 31
0.0
  0
LINE
  5
51E
330
1E
100
AcDbEntity
  8
0
100
AcDbLine
 10
80.15170000000001
 20
124.4172379999999
 30
0.0
 11
80.25809999999999
 21
124.794238
 31
0.0
  0
LINE
  5
51F
330
1E
100
AcDbEntity
  8
0
100
AcDbLine
 10
86.84470000000001
 20
124.6132379999999
 30
0.0
 11
87.46920000000001
 21
124.821238
 31
0.0
  0
LINE
  5
520
330
1E
100
AcDbEntity
  8
0
100
AcDbLine
 10
86.67419999999999
 20
124.2422379999999
 30
0.0
 11
87.08289999999999
 21
123.9232379999999
 31
0.0
  0
LINE
  5
521
330
1E
100
AcDbEntity
  8
0
100
AcDbLine
 10
86.67419999999999
 20
124.2422379999999
 30
0.0
 11
86.84470000000001
 21
124.6132379999999
 31
0.0
  0
LINE
  5
522
330
1E
100
AcDbEntity
  8
0
100
AcDbLine
 10
87.08289999999999
 20
123.9232379999999
 30
0.0
 11
87.8095
 21
123.8362379999999
 31
0.0
  0
LINE
  5
525
330
1E
100
AcDbEntity
  8
0
100
AcDbLine
 10
80.85359999999999
 20
122.3862379999999
 30
0.0
 11
81.2063
 21
122.0512379999999
 31
0.0
  0
LINE
  5
528
330
1E
100
AcDbEntity
  8
0
100
AcDbLine
 10
80.14459999999999
 20
122.5052379999999
 30
0.0
 11
80.85359999999999
 21
122.3862379999999
 31
0.0
  0
LINE
  5
52F
330
1E
100
AcDbEntity
  8
0
100
AcDbLine
 10
87.8095
 20
123.8362379999999
 30
0.0
 11
88.4341
 21
124.0452379999999
 31
0.0
  0
LINE
  5
531
330
1E
100
AcDbEntity
  8
0
100
AcDbLine
 10
88.1958
 20
124.7342379999999
 30
0.0
 11
88.6045
 21
124.4152379999999
 31
0.0
  0
LINE
  5
533
330
1E
100
AcDbEntity
  8
0
100
AcDbLine
 10
87.46920000000001
 20
124.821238
 30
0.0
 11
88.1958
 21
124.7342379999999
 31
0.0
  0
LINE
  5
538
330
1E
100
AcDbEntity
  8
0
100
AcDbLine
 10
87.53399999999999
 20
121.2922379999999
 30
0.0
 11
88.22
 21
121.442238
 31
0.0
  0
LINE
  5
53C
330
1E
100
AcDbEntity
  8
0
100
AcDbLine
 10
88.4341
 20
124.0452379999999
 30
0.0
 11
88.6045
 21
124.4152379999999
 31
0.0
  0
LINE
  5
53F
330
1E
100
AcDbEntity
  8
0
100
AcDbLine
 10
88.906
 20
121.2922379999999
 30
0.0
 11
89.19999999999999
 21
120.9422379999999
 31
0.0
  0
LINE
  5
541
330
1E
100
AcDbEntity
  8
0
100
AcDbLine
 10
88.22
 20
121.442238
 30
0.0
 11
88.906
 21
121.2922379999999
 31
0.0
  0
LINE
  5
549
330
1E
100
AcDbEntity
  8
0
100
AcDbLine
 10
98.51
 20
125.8912379999999
 30
0.0
 11
99.0
 21
127.9102379999999
 31
0.0
  0
LINE
  5
54C
330
1E
100
AcDbEntity
  8
0
100
AcDbLine
 10
70.339
 20
126.3652379999999
 30
0.0
 11
70.42740000000001
 21
125.987238
 31
0.0
  0
LINE
  5
54E
330
1E
100
AcDbEntity
  8
0
100
AcDbLine
 10
77.1705
 20
126.7362379999999
 30
0.0
 11
77.9165
 21
126.7482379999999
 31
0.0
  0
LINE
  5
54F
330
1E
100
AcDbEntity
  8
0
100
AcDbLine
 10
78.414
 20
127.0312379999999
 30
0.0
 11
78.414
 21
127.228497953162
 31
0.0
  0
LINE
  5
550
330
1E
100
AcDbEntity
  8
0
100
AcDbLine
 10
76.61419999999999
 20
126.9892379999999
 30
0.0
 11
77.1705
 21
126.7362379999999
 31
0.0
  0
LINE
  5
551
330
1E
100
AcDbEntity
  8
0
100
AcDbLine
 10
77.9165
 20
126.7482379999999
 30
0.0
 11
78.414
 21
127.0312379999999
 31
0.0
  0
LINE
  5
555
330
1E
100
AcDbEntity
  8
0
100
AcDbLine
 10
69.7414
 20
126.5932379999999
 30
0.0
 11
70.339
 21
126.3652379999999
 31
0.0
  0
LINE
  5
557
330
1E
100
AcDbEntity
  8
0
100
AcDbLine
 10
69.0003
 20
126.5482379999999
 30
0.0
 11
69.7414
 21
126.5932379999999
 31
0.0
  0
LINE
  5
559
330
1E
100
AcDbEntity
  8
0
100
AcDbLine
 10
78.414
 20
127.228497953162
 30
0.0
 11
78.414
 21
127.0312379999999
 31
0.0
  0
LINE
  5
55A
330
1E
100
AcDbEntity
  8
0
100
AcDbLine
 10
85.50499999999999
 20
127.163238
 30
0.0
 11
86.25020000000001
 21
127.1422379999999
 31
0.0
  0
LINE
  5
55B
330
1E
100
AcDbEntity
  8
0
100
AcDbLine
 10
86.25020000000001
 20
127.1422379999999
 30
0.0
 11
86.79430000000001
 21
127.4032379999999
 31
0.0
  0
LINE
  5
55D
330
1E
100
AcDbEntity
  8
0
100
AcDbLine
 10
98.62121239523581
 20
126.349478461186
 30
0.0
 11
98.795
 21
126.869238
 31
0.0
  0
LINE
  5
55E
330
1E
100
AcDbEntity
  8
0
100
AcDbLine
 10
98.795
 20
126.869238
 30
0.0
 11
98.90830000000001
 21
127.2782379999999
 31
0.0
  0
LINE
  5
55F
330
1E
100
AcDbEntity
  8
0
100
AcDbLine
 10
76.59069999999999
 20
127.3702379999999
 30
0.0
 11
76.61419999999999
 21
126.9892379999999
 31
0.0
  0
LINE
  5
560
330
1E
100
AcDbEntity
  8
0
100
AcDbLine
 10
76.59069999999999
 20
127.3702379999999
 30
0.0
 11
77.0882
 21
127.6542379999999
 31
0.0
  0
LINE
  5
561
330
1E
100
AcDbEntity
  8
0
100
AcDbLine
 10
78.3905
 20
127.4122379999999
 30
0.0
 11
78.414
 21
127.0312379999999
 31
0.0
  0
LINE
  5
562
330
1E
100
AcDbEntity
  8
0
100
AcDbLine
 10
77.83419999999999
 20
127.6662379999999
 30
0.0
 11
78.3905
 21
127.4122379999999
 31
0.0
  0
LINE
  5
563
330
1E
100
AcDbEntity
  8
0
100
AcDbLine
 10
77.0882
 20
127.6542379999999
 30
0.0
 11
77.83419999999999
 21
127.6662379999999
 31
0.0
  0
LINE
  5
564
330
1E
100
AcDbEntity
  8
0
100
AcDbLine
 10
85.03579999999999
 20
127.821238
 30
0.0
 11
85.5799
 21
128.0822379999999
 31
0.0
  0
LINE
  5
565
330
1E
100
AcDbEntity
  8
0
100
AcDbLine
 10
84.9942
 20
127.4412379999999
 30
0.0
 11
85.50499999999999
 21
127.163238
 31
0.0
  0
LINE
  5
566
330
1E
100
AcDbEntity
  8
0
100
AcDbLine
 10
84.9942
 20
127.4412379999999
 30
0.0
 11
85.03579999999999
 21
127.821238
 31
0.0
  0
LINE
  5
568
330
1E
100
AcDbEntity
  8
0
100
AcDbLine
 10
86.79430000000001
 20
127.4032379999999
 30
0.0
 11
86.8359
 21
127.7832379999999
 31
0.0
  0
LINE
  5
569
330
1E
100
AcDbEntity
  8
0
100
AcDbLine
 10
86.32510000000001
 20
128.0602379999999
 30
0.0
 11
86.8359
 21
127.7832379999999
 31
0.0
  0
LINE
  5
56B
330
1E
100
AcDbEntity
  8
0
100
AcDbLine
 10
73.90219999999999
 20
129.624238
 30
0.0
 11
74.0548
 21
129.251238
 31
0.0
  0
LINE
  5
56C
330
1E
100
AcDbEntity
  8
0
100
AcDbLine
 10
73.90219999999999
 20
129.624238
 30
0.0
 11
74.2955
 21
129.947238
 31
0.0
  0
LINE
  5
56E
330
1E
100
AcDbEntity
  8
0
100
AcDbLine
 10
74.0548
 20
129.251238
 30
0.0
 11
74.6891
 21
129.0502379999999
 31
0.0
  0
LINE
  5
56F
330
1E
100
AcDbEntity
  8
0
100
AcDbLine
 10
74.6891
 20
129.0502379999999
 30
0.0
 11
75.4197
 21
129.1282379999999
 31
0.0
  0
LINE
  5
570
330
1E
100
AcDbEntity
  8
0
100
AcDbLine
 10
75.4197
 20
129.1282379999999
 30
0.0
 11
75.813
 21
129.4522379999999
 31
0.0
  0
LINE
  5
571
330
1E
100
AcDbEntity
  8
0
100
AcDbLine
 10
65.217
 20
128.8482379999999
 30
0.0
 11
65.43269999999999
 21
129.2132379999999
 31
0.0
  0
LINE
  5
572
330
1E
100
AcDbEntity
  8
0
100
AcDbLine
 10
65.09619999999999
 20
129.553238
 30
0.0
 11
65.43269999999999
 21
129.2132379999999
 31
0.0
  0
LINE
  5
574
330
1E
100
AcDbEntity
  8
0
100
AcDbLine
 10
75.66030000000001
 20
129.8252379999999
 30
0.0
 11
75.813
 21
129.4522379999999
 31
0.0
  0
LINE
  5
579
330
1E
100
AcDbEntity
  8
0
100
AcDbLine
 10
85.5799
 20
128.0822379999999
 30
0.0
 11
86.32510000000001
 21
128.0602379999999
 31
0.0
  0
LINE
  5
57B
330
1E
100
AcDbEntity
  8
0
100
AcDbLine
 10
99.0
 20
127.9102379999999
 30
0.0
 11
99.0
 21
129.929238
 31
0.0
  0
LINE
  5
57C
330
1E
100
AcDbEntity
  8
0
100
AcDbLine
 10
98.90830000000001
 20
127.2782379999999
 30
0.0
 11
99.13389999999999
 21
128.560238
 31
0.0
  0
LINE
  5
57D
330
1E
100
AcDbEntity
  8
0
100
AcDbLine
 10
99.13389999999999
 20
128.560238
 30
0.0
 11
99.28370000000001
 21
129.8702379999999
 31
0.0
  0
LINE
  5
57E
330
1E
100
AcDbEntity
  8
0
100
AcDbLine
 10
99.0
 20
129.929238
 30
0.0
 11
99.0
 21
127.9102379999999
 31
0.0
  0
LINE
  5
57F
330
1E
100
AcDbEntity
  8
0
100
AcDbLine
 10
74.2955
 20
129.947238
 30
0.0
 11
75.02600000000001
 21
130.025238
 31
0.0
  0
LINE
  5
581
330
1E
100
AcDbEntity
  8
0
100
AcDbLine
 10
99.28370000000001
 20
129.8702379999999
 30
0.0
 11
99.5625
 21
133.9212379999999
 31
0.0
  0
LINE
  5
582
330
1E
100
AcDbEntity
  8
0
100
AcDbLine
 10
99.28370000000001
 20
129.8702379999999
 30
0.0
 11
99.2945
 21
130.417238
 31
0.0
  0
LINE
  5
583
330
1E
100
AcDbEntity
  8
0
100
AcDbLine
 10
64.7926
 20
73.997738
 30
0.0
 11
64.79649999999999
 21
69.12993799999999
 31
0.0
  0
LINE
  5
584
330
1E
100
AcDbEntity
  8
0
100
AcDbLine
 10
36.5938
 20
15.898038
 30
0.0
 11
36.9327
 21
14.358638
 31
0.0
  0
LINE
  5
585
330
1E
100
AcDbEntity
  8
0
100
AcDbLine
 10
36.4322
 20
17.444938
 30
0.0
 11
36.5938
 21
15.898038
 31
0.0
  0
LINE
  5
586
330
1E
100
AcDbEntity
  8
0
100
AcDbLine
 10
17.1516
 20
130.214238
 30
0.0
 11
17.74919999999999
 21
130.4422379999999
 31
0.0
  0
LINE
  5
587
330
1E
100
AcDbEntity
  8
0
100
AcDbLine
 10
17.74919999999999
 20
130.4422379999999
 30
0.0
 11
17.8376
 21
130.821238
 31
0.0
  0
LINE
  5
588
330
1E
100
AcDbEntity
  8
0
100
AcDbLine
 10
16.41049999999999
 20
130.2592379999999
 30
0.0
 11
17.1516
 21
130.214238
 31
0.0
  0
LINE
  5
589
330
1E
100
AcDbEntity
  8
0
100
AcDbLine
 10
15.9634
 20
130.5642379999999
 30
0.0
 11
16.0518
 21
130.9422379999999
 31
0.0
  0
LINE
  5
58A
330
1E
100
AcDbEntity
  8
0
100
AcDbLine
 10
15.9634
 20
130.5642379999999
 30
0.0
 11
16.41049999999999
 21
130.2592379999999
 31
0.0
  0
LINE
  5
58C
330
1E
100
AcDbEntity
  8
0
100
AcDbLine
 10
24.974
 20
130.025238
 30
0.0
 11
25.7045
 21
129.947238
 31
0.0
  0
LINE
  5
58E
330
1E
100
AcDbEntity
  8
0
100
AcDbLine
 10
42.6379
 20
130.6942379999999
 30
0.0
 11
43.1819
 21
130.9542379999999
 31
0.0
  0
LINE
  5
591
330
1E
100
AcDbEntity
  8
0
100
AcDbLine
 10
16.0518
 20
130.9422379999999
 30
0.0
 11
16.6494
 21
131.1712379999999
 31
0.0
  0
LINE
  5
597
330
1E
100
AcDbEntity
  8
0
100
AcDbLine
 10
43.1819
 20
130.9542379999999
 30
0.0
 11
43.22359999999999
 21
131.3342379999999
 31
0.0
  0
LINE
  5
598
330
1E
100
AcDbEntity
  8
0
100
AcDbLine
 10
41.89269999999999
 20
130.715238
 30
0.0
 11
42.6379
 21
130.6942379999999
 31
0.0
  0
LINE
  5
599
330
1E
100
AcDbEntity
  8
0
100
AcDbLine
 10
17.39049999999999
 20
131.1252379999999
 30
0.0
 11
17.8376
 21
130.821238
 31
0.0
  0
LINE
  5
59B
330
1E
100
AcDbEntity
  8
0
100
AcDbLine
 10
16.6494
 20
131.1712379999999
 30
0.0
 11
17.39049999999999
 21
131.1252379999999
 31
0.0
  0
LINE
  5
59D
330
1E
100
AcDbEntity
  8
0
100
AcDbLine
 10
29.2355
 20
131.2522379999999
 30
0.0
 11
29.5127
 21
131.6052379999999
 31
0.0
  0
LINE
  5
59E
330
1E
100
AcDbEntity
  8
0
100
AcDbLine
 10
28.5425
 20
131.1102379999999
 30
0.0
 11
29.2355
 21
131.2522379999999
 31
0.0
  0
LINE
  5
59F
330
1E
100
AcDbEntity
  8
0
100
AcDbLine
 10
27.8495
 20
131.2522379999999
 30
0.0
 11
28.5425
 21
131.1102379999999
 31
0.0
  0
LINE
  5
5A0
330
1E
100
AcDbEntity
  8
0
100
AcDbLine
 10
41.3818
 20
130.9922379999999
 30
0.0
 11
41.42339999999999
 21
131.3732379999999
 31
0.0
  0
LINE
  5
5A1
330
1E
100
AcDbEntity
  8
0
100
AcDbLine
 10
41.3818
 20
130.9922379999999
 30
0.0
 11
41.89269999999999
 21
130.715238
 31
0.0
  0
LINE
  5
5A2
330
1E
100
AcDbEntity
  8
0
100
AcDbLine
 10
56.8181
 20
130.9542379999999
 30
0.0
 11
57.36209999999999
 21
130.6942379999999
 31
0.0
  0
LINE
  5
5A3
330
1E
100
AcDbEntity
  8
0
100
AcDbLine
 10
57.36209999999999
 20
130.6942379999999
 30
0.0
 11
58.1073
 21
130.715238
 31
0.0
  0
LINE
  5
5A5
330
1E
100
AcDbEntity
  8
0
100
AcDbLine
 10
70.7645
 20
131.2522379999999
 30
0.0
 11
71.45749999999999
 21
131.1102379999999
 31
0.0
  0
LINE
  5
5A6
330
1E
100
AcDbEntity
  8
0
100
AcDbLine
 10
75.02600000000001
 20
130.025238
 30
0.0
 11
75.66030000000001
 21
129.8252379999999
 31
0.0
  0
LINE
  5
5A8
330
1E
100
AcDbEntity
  8
0
100
AcDbLine
 10
82.8484
 20
130.214238
 30
0.0
 11
83.5895
 21
130.2592379999999
 31
0.0
  0
LINE
  5
5AD
330
1E
100
AcDbEntity
  8
0
100
AcDbLine
 10
82.1624
 20
130.821238
 30
0.0
 11
82.2508
 21
130.4422379999999
 31
0.0
  0
LINE
  5
5AE
330
1E
100
AcDbEntity
  8
0
100
AcDbLine
 10
82.1624
 20
130.821238
 30
0.0
 11
82.60949999999999
 21
131.1252379999999
 31
0.0
  0
LINE
  5
5B0
330
1E
100
AcDbEntity
  8
0
100
AcDbLine
 10
82.2508
 20
130.4422379999999
 30
0.0
 11
82.8484
 21
130.214238
 31
0.0
  0
LINE
  5
5B1
330
1E
100
AcDbEntity
  8
0
100
AcDbLine
 10
83.5895
 20
130.2592379999999
 30
0.0
 11
84.0366
 21
130.5642379999999
 31
0.0
  0
LINE
  5
5B3
330
1E
100
AcDbEntity
  8
0
100
AcDbLine
 10
83.94820000000001
 20
130.9422379999999
 30
0.0
 11
84.0366
 21
130.5642379999999
 31
0.0
  0
LINE
  5
5B5
330
1E
100
AcDbEntity
  8
0
100
AcDbLine
 10
83.3506
 20
131.1712379999999
 30
0.0
 11
83.94820000000001
 21
130.9422379999999
 31
0.0
  0
LINE
  5
5B7
330
1E
100
AcDbEntity
  8
0
100
AcDbLine
 10
82.60949999999999
 20
131.1252379999999
 30
0.0
 11
83.3506
 21
131.1712379999999
 31
0.0
  0
LINE
  5
5B9
330
1E
100
AcDbEntity
  8
0
100
AcDbLine
 10
71.45749999999999
 20
131.1102379999999
 30
0.0
 11
72.15049999999999
 21
131.2522379999999
 31
0.0
  0
LINE
  5
5BA
330
1E
100
AcDbEntity
  8
0
100
AcDbLine
 10
72.15049999999999
 20
131.2522379999999
 30
0.0
 11
72.4276
 21
131.6052379999999
 31
0.0
  0
LINE
  5
5BB
330
1E
100
AcDbEntity
  8
0
100
AcDbLine
 10
58.1073
 20
130.715238
 30
0.0
 11
58.6182
 21
130.9922379999999
 31
0.0
  0
LINE
  5
5BC
330
1E
100
AcDbEntity
  8
0
100
AcDbLine
 10
41.42339999999999
 20
131.3732379999999
 30
0.0
 11
41.9675
 21
131.6332379999999
 31
0.0
  0
LINE
  5
5BE
330
1E
100
AcDbEntity
  8
0
100
AcDbLine
 10
49.314
 20
131.506238
 30
0.0
 11
50.0
 21
131.356238
 31
0.0
  0
LINE
  5
5BF
330
1E
100
AcDbEntity
  8
0
100
AcDbLine
 10
50.0
 20
131.356238
 30
0.0
 11
50.686
 21
131.506238
 31
0.0
  0
LINE
  5
5C0
330
1E
100
AcDbEntity
  8
0
100
AcDbLine
 10
50.686
 20
131.506238
 30
0.0
 11
50.97999999999999
 21
131.8562379999999
 31
0.0
  0
LINE
  5
5C1
330
1E
100
AcDbEntity
  8
0
100
AcDbLine
 10
58.5766
 20
131.3732379999999
 30
0.0
 11
58.6182
 21
130.9922379999999
 31
0.0
  0
LINE
  5
5C3
330
1E
100
AcDbEntity
  8
0
100
AcDbLine
 10
56.7764
 20
131.3342379999999
 30
0.0
 11
57.2873
 21
131.6122379999999
 31
0.0
  0
LINE
  5
5C4
330
1E
100
AcDbEntity
  8
0
100
AcDbLine
 10
56.7764
 20
131.3342379999999
 30
0.0
 11
56.8181
 21
130.9542379999999
 31
0.0
  0
LINE
  5
5C6
330
1E
100
AcDbEntity
  8
0
100
AcDbLine
 10
29.5127
 20
131.6052379999999
 30
0.0
 11
29.5127
 21
131.721215339901
 31
0.0
  0
LINE
  5
5C7
330
1E
100
AcDbEntity
  8
0
100
AcDbLine
 10
27.57229999999999
 20
131.6052379999999
 30
0.0
 11
27.8495
 21
131.959238
 31
0.0
  0
LINE
  5
5C8
330
1E
100
AcDbEntity
  8
0
100
AcDbLine
 10
27.57229999999999
 20
131.6052379999999
 30
0.0
 11
27.8495
 21
131.2522379999999
 31
0.0
  0
LINE
  5
5CE
330
1E
100
AcDbEntity
  8
0
100
AcDbLine
 10
29.5127
 20
131.721215339901
 30
0.0
 11
29.5127
 21
131.6052379999999
 31
0.0
  0
LINE
  5
5CF
330
1E
100
AcDbEntity
  8
0
100
AcDbLine
 10
41.9675
 20
131.6332379999999
 30
0.0
 11
42.7127
 21
131.6122379999999
 31
0.0
  0
LINE
  5
5D1
330
1E
100
AcDbEntity
  8
0
100
AcDbLine
 10
42.7127
 20
131.6122379999999
 30
0.0
 11
43.22359999999999
 21
131.3342379999999
 31
0.0
  0
LINE
  5
5D5
330
1E
100
AcDbEntity
  8
0
100
AcDbLine
 10
27.8495
 20
131.959238
 30
0.0
 11
28.5425
 21
132.1002379999999
 31
0.0
  0
LINE
  5
5D7
330
1E
100
AcDbEntity
  8
0
100
AcDbLine
 10
29.2355
 20
131.959238
 30
0.0
 11
29.5127
 21
131.6052379999999
 31
0.0
  0
LINE
  5
5D8
330
1E
100
AcDbEntity
  8
0
100
AcDbLine
 10
28.5425
 20
132.1002379999999
 30
0.0
 11
29.2355
 21
131.959238
 31
0.0
  0
LINE
  5
5DF
330
1E
100
AcDbEntity
  8
0
100
AcDbLine
 10
33.1567
 20
132.930238
 30
0.0
 11
33.54999999999999
 21
133.2542379999999
 31
0.0
  0
LINE
  5
5E0
330
1E
100
AcDbEntity
  8
0
100
AcDbLine
 10
32.42609999999999
 20
132.8532379999999
 30
0.0
 11
33.1567
 21
132.930238
 31
0.0
  0
LINE
  5
5E1
330
1E
100
AcDbEntity
  8
0
100
AcDbLine
 10
50.686
 20
132.2062379999999
 30
0.0
 11
50.97999999999999
 21
131.8562379999999
 31
0.0
  0
LINE
  5
5E3
330
1E
100
AcDbEntity
  8
0
100
AcDbLine
 10
50.0
 20
132.356238
 30
0.0
 11
50.686
 21
132.2062379999999
 31
0.0
  0
LINE
  5
5E5
330
1E
100
AcDbEntity
  8
0
100
AcDbLine
 10
49.314
 20
132.2062379999999
 30
0.0
 11
50.0
 21
132.356238
 31
0.0
  0
LINE
  5
5E7
330
1E
100
AcDbEntity
  8
0
100
AcDbLine
 10
49.02000000000001
 20
131.8562379999999
 30
0.0
 11
49.314
 21
132.2062379999999
 31
0.0
  0
LINE
  5
5E8
330
1E
100
AcDbEntity
  8
0
100
AcDbLine
 10
49.02000000000001
 20
131.8562379999999
 30
0.0
 11
49.314
 21
131.506238
 31
0.0
  0
LINE
  5
5EA
330
1E
100
AcDbEntity
  8
0
100
AcDbLine
 10
31.7918
 20
133.0532379999999
 30
0.0
 11
32.42609999999999
 21
132.8532379999999
 31
0.0
  0
LINE
  5
5EB
330
1E
100
AcDbEntity
  8
0
100
AcDbLine
 10
31.6391
 20
133.4262379999999
 30
0.0
 11
32.0324
 21
133.7502379999999
 31
0.0
  0
LINE
  5
5EC
330
1E
100
AcDbEntity
  8
0
100
AcDbLine
 10
31.6391
 20
133.4262379999999
 30
0.0
 11
31.7918
 21
133.0532379999999
 31
0.0
  0
LINE
  5
5ED
330
1E
100
AcDbEntity
  8
0
100
AcDbLine
 10
31.6391
 20
133.4262379999999
 30
0.0
 11
31.6391
 21
133.6227232795559
 31
0.0
  0
LINE
  5
5EE
330
1E
100
AcDbEntity
  8
0
100
AcDbLine
 10
21.4725
 20
133.1552379999999
 30
0.0
 11
21.68819999999999
 21
133.5202379999999
 31
0.0
  0
LINE
  5
5EF
330
1E
100
AcDbEntity
  8
0
100
AcDbLine
 10
20.8063
 20
132.9842379999999
 30
0.0
 11
21.4725
 21
133.1552379999999
 31
0.0
  0
LINE
  5
5F0
330
1E
100
AcDbEntity
  8
0
100
AcDbLine
 10
20.09189999999999
 20
133.0942379999999
 30
0.0
 11
20.8063
 21
132.9842379999999
 31
0.0
  0
LINE
  5
5F1
330
1E
100
AcDbEntity
  8
0
100
AcDbLine
 10
31.6391
 20
133.6227232795559
 30
0.0
 11
31.6391
 21
133.4262379999999
 31
0.0
  0
LINE
  5
5F2
330
1E
100
AcDbEntity
  8
0
100
AcDbLine
 10
33.3973
 20
133.6272379999999
 30
0.0
 11
33.54999999999999
 21
133.2542379999999
 31
0.0
  0
LINE
  5
5F3
330
1E
100
AcDbEntity
  8
0
100
AcDbLine
 10
19.7553
 20
133.434238
 30
0.0
 11
19.9711
 21
133.7982379999999
 31
0.0
  0
LINE
  5
5F4
330
1E
100
AcDbEntity
  8
0
100
AcDbLine
 10
19.7553
 20
133.434238
 30
0.0
 11
20.09189999999999
 21
133.0942379999999
 31
0.0
  0
LINE
  5
5FA
330
1E
100
AcDbEntity
  8
0
100
AcDbLine
 10
70.4873
 20
131.6052379999999
 30
0.0
 11
70.7645
 21
131.2522379999999
 31
0.0
  0
LINE
  5
5FB
330
1E
100
AcDbEntity
  8
0
100
AcDbLine
 10
70.4873
 20
131.6052379999999
 30
0.0
 11
70.7645
 21
131.959238
 31
0.0
  0
LINE
  5
5FC
330
1E
100
AcDbEntity
  8
0
100
AcDbLine
 10
70.4873
 20
131.6052379999999
 30
0.0
 11
70.4873
 21
131.721215339901
 31
0.0
  0
LINE
  5
5FD
330
1E
100
AcDbEntity
  8
0
100
AcDbLine
 10
70.4873
 20
131.721215339901
 30
0.0
 11
70.4873
 21
131.6052379999999
 31
0.0
  0
LINE
  5
603
330
1E
100
AcDbEntity
  8
0
100
AcDbLine
 10
72.15049999999999
 20
131.959238
 30
0.0
 11
72.4276
 21
131.6052379999999
 31
0.0
  0
LINE
  5
606
330
1E
100
AcDbEntity
  8
0
100
AcDbLine
 10
71.45749999999999
 20
132.1002379999999
 30
0.0
 11
72.15049999999999
 21
131.959238
 31
0.0
  0
LINE
  5
608
330
1E
100
AcDbEntity
  8
0
100
AcDbLine
 10
70.7645
 20
131.959238
 30
0.0
 11
71.45749999999999
 21
132.1002379999999
 31
0.0
  0
LINE
  5
609
330
1E
100
AcDbEntity
  8
0
100
AcDbLine
 10
66.45
 20
133.2542379999999
 30
0.0
 11
66.8433
 21
132.930238
 31
0.0
  0
LINE
  5
60A
330
1E
100
AcDbEntity
  8
0
100
AcDbLine
 10
66.45
 20
133.2542379999999
 30
0.0
 11
66.6027
 21
133.6272379999999
 31
0.0
  0
LINE
  5
60B
330
1E
100
AcDbEntity
  8
0
100
AcDbLine
 10
66.8433
 20
132.930238
 30
0.0
 11
67.5739
 21
132.8532379999999
 31
0.0
  0
LINE
  5
60C
330
1E
100
AcDbEntity
  8
0
100
AcDbLine
 10
79.1937
 20
132.9842379999999
 30
0.0
 11
79.90819999999999
 21
133.0942379999999
 31
0.0
  0
LINE
  5
60F
330
1E
100
AcDbEntity
  8
0
100
AcDbLine
 10
67.5739
 20
132.8532379999999
 30
0.0
 11
68.20820000000001
 21
133.0532379999999
 31
0.0
  0
LINE
  5
610
330
1E
100
AcDbEntity
  8
0
100
AcDbLine
 10
68.3609
 20
133.4262379999999
 30
0.0
 11
68.3609
 21
133.6227232795559
 31
0.0
  0
LINE
  5
611
330
1E
100
AcDbEntity
  8
0
100
AcDbLine
 10
78.3118
 20
133.5202379999999
 30
0.0
 11
78.5275
 21
133.1552379999999
 31
0.0
  0
LINE
  5
612
330
1E
100
AcDbEntity
  8
0
100
AcDbLine
 10
78.3118
 20
133.5202379999999
 30
0.0
 11
78.64830000000001
 21
133.8602379999999
 31
0.0
  0
LINE
  5
614
330
1E
100
AcDbEntity
  8
0
100
AcDbLine
 10
78.5275
 20
133.1552379999999
 30
0.0
 11
79.1937
 21
132.9842379999999
 31
0.0
  0
LINE
  5
615
330
1E
100
AcDbEntity
  8
0
100
AcDbLine
 10
79.90819999999999
 20
133.0942379999999
 30
0.0
 11
80.24469999999999
 21
133.434238
 31
0.0
  0
LINE
  5
616
330
1E
100
AcDbEntity
  8
0
100
AcDbLine
 10
68.3609
 20
133.6227232795559
 30
0.0
 11
68.3609
 21
133.4262379999999
 31
0.0
  0
LINE
  5
617
330
1E
100
AcDbEntity
  8
0
100
AcDbLine
 10
68.20820000000001
 20
133.0532379999999
 30
0.0
 11
68.3609
 21
133.4262379999999
 31
0.0
  0
LINE
  5
618
330
1E
100
AcDbEntity
  8
0
100
AcDbLine
 10
66.6027
 20
133.6272379999999
 30
0.0
 11
67.237
 21
133.827238
 31
0.0
  0
LINE
  5
61B
330
1E
100
AcDbEntity
  8
0
100
AcDbLine
 10
58.0325
 20
131.6332379999999
 30
0.0
 11
58.5766
 21
131.3732379999999
 31
0.0
  0
LINE
  5
61D
330
1E
100
AcDbEntity
  8
0
100
AcDbLine
 10
57.2873
 20
131.6122379999999
 30
0.0
 11
58.0325
 21
131.6332379999999
 31
0.0
  0
LINE
  5
61F
330
1E
100
AcDbEntity
  8
0
100
AcDbLine
 10
32.0324
 20
133.7502379999999
 30
0.0
 11
32.763
 21
133.827238
 31
0.0
  0
LINE
  5
620
330
1E
100
AcDbEntity
  8
0
100
AcDbLine
 10
32.763
 20
133.827238
 30
0.0
 11
33.3973
 21
133.6272379999999
 31
0.0
  0
LINE
  5
621
330
1E
100
AcDbEntity
  8
0
100
AcDbLine
 10
21.3517
 20
133.8602379999999
 30
0.0
 11
21.68819999999999
 21
133.5202379999999
 31
0.0
  0
LINE
  5
623
330
1E
100
AcDbEntity
  8
0
100
AcDbLine
 10
19.9711
 20
133.7982379999999
 30
0.0
 11
20.63719999999999
 21
133.970238
 31
0.0
  0
LINE
  5
625
330
1E
100
AcDbEntity
  8
0
100
AcDbLine
 10
20.63719999999999
 20
133.970238
 30
0.0
 11
21.3517
 21
133.8602379999999
 31
0.0
  0
LINE
  5
627
330
1E
100
AcDbEntity
  8
0
100
AcDbLine
 10
80.02889999999998
 20
133.7982379999999
 30
0.0
 11
80.24469999999999
 21
133.434238
 31
0.0
  0
LINE
  5
629
330
1E
100
AcDbEntity
  8
0
100
AcDbLine
 10
79.3628
 20
133.970238
 30
0.0
 11
80.02889999999998
 21
133.7982379999999
 31
0.0
  0
LINE
  5
62B
330
1E
100
AcDbEntity
  8
0
100
AcDbLine
 10
78.64830000000001
 20
133.8602379999999
 30
0.0
 11
79.3628
 21
133.970238
 31
0.0
  0
LINE
  5
62D
330
1E
100
AcDbEntity
  8
0
100
AcDbLine
 10
67.9676
 20
133.7502379999999
 30
0.0
 11
68.3609
 21
133.4262379999999
 31
0.0
  0
LINE
  5
62E
330
1E
100
AcDbEntity
  8
0
100
AcDbLine
 10
67.237
 20
133.827238
 30
0.0
 11
67.9676
 21
133.7502379999999
 31
0.0
  0
LINE
  5
631
330
1E
100
AcDbEntity
  8
0
100
AcDbLine
 10
36.8436
 20
134.2242379999999
 30
0.0
 11
37.5896
 21
134.2362379999999
 31
0.0
  0
LINE
  5
633
330
1E
100
AcDbEntity
  8
0
100
AcDbLine
 10
37.5896
 20
134.2362379999999
 30
0.0
 11
38.08709999999999
 21
134.5202379999999
 31
0.0
  0
LINE
  5
634
330
1E
100
AcDbEntity
  8
0
100
AcDbLine
 10
36.2873
 20
134.4782379999999
 30
0.0
 11
36.8436
 21
134.2242379999999
 31
0.0
  0
LINE
  5
635
330
1E
100
AcDbEntity
  8
0
100
AcDbLine
 10
36.2638
 20
134.8592379999999
 30
0.0
 11
36.7613
 21
135.143238
 31
0.0
  0
LINE
  5
636
330
1E
100
AcDbEntity
  8
0
100
AcDbLine
 10
36.2638
 20
134.8592379999999
 30
0.0
 11
36.2873
 21
134.4782379999999
 31
0.0
  0
LINE
  5
637
330
1E
100
AcDbEntity
  8
0
100
AcDbLine
 10
61.9129
 20
134.5202379999999
 30
0.0
 11
62.4104
 21
134.2362379999999
 31
0.0
  0
LINE
  5
638
330
1E
100
AcDbEntity
  8
0
100
AcDbLine
 10
61.9129
 20
134.5202379999999
 30
0.0
 11
61.9364
 21
134.9012379999999
 31
0.0
  0
LINE
  5
63A
330
1E
100
AcDbEntity
  8
0
100
AcDbLine
 10
62.4104
 20
134.2362379999999
 30
0.0
 11
63.1564
 21
134.2242379999999
 31
0.0
  0
LINE
  5
63B
330
1E
100
AcDbEntity
  8
0
100
AcDbLine
 10
63.1564
 20
134.2242379999999
 30
0.0
 11
63.71269999999999
 21
134.4782379999999
 31
0.0
  0
LINE
  5
63C
330
1E
100
AcDbEntity
  8
0
100
AcDbLine
 10
63.71269999999999
 20
134.4782379999999
 30
0.0
 11
63.73619999999999
 21
134.8592379999999
 31
0.0
  0
LINE
  5
63F
330
1E
100
AcDbEntity
  8
0
100
AcDbLine
 10
99.2462
 20
130.2582379999999
 30
0.0
 11
99.28370000000001
 21
129.8702379999999
 31
0.0
  0
LINE
  5
640
330
1E
100
AcDbEntity
  8
0
100
AcDbLine
 10
99.2462
 20
130.2582379999999
 30
0.0
 11
99.2945
 21
130.417238
 31
0.0
  0
LINE
  5
641
330
1E
100
AcDbEntity
  8
0
100
AcDbLine
 10
99.2364
 20
131.6342379999999
 30
0.0
 11
99.2945
 21
130.417238
 31
0.0
  0
LINE
  5
642
330
1E
100
AcDbEntity
  8
0
100
AcDbLine
 10
99.5625
 20
133.9212379999999
 30
0.0
 11
100.0
 21
140.3182379999999
 31
0.0
  0
LINE
  5
643
330
1E
100
AcDbEntity
  8
0
100
AcDbLine
 10
98.75160000000001
 20
132.4762379999999
 30
0.0
 11
98.98609999999999
 21
130.0442379999999
 31
0.0
  0
LINE
  5
644
330
1E
100
AcDbEntity
  8
0
100
AcDbLine
 10
98.0461
 20
134.8852379999999
 30
0.0
 11
98.75160000000001
 21
132.4762379999999
 31
0.0
  0
LINE
  5
645
330
1E
100
AcDbEntity
  8
0
100
AcDbLine
 10
98.98266607658881
 20
129.992127518045
 30
0.0
 11
98.98609999999999
 21
130.0442379999999
 31
0.0
  0
LINE
  5
646
330
1E
100
AcDbEntity
  8
0
100
AcDbLine
 10
1.248399999999999
 20
132.4762379999999
 30
0.0
 11
1.953899999999999
 21
134.8852379999999
 31
0.0
  0
LINE
  5
64A
330
1E
100
AcDbEntity
  8
0
100
AcDbLine
 10
1.1223
 20
145.4962379999999
 30
0.0
 11
1.748899999999999
 21
146.769238
 31
0.0
  0
LINE
  5
64B
330
1E
100
AcDbEntity
  8
0
100
AcDbLine
 10
1.748899999999999
 20
146.769238
 30
0.0
 11
2.398299999999999
 21
147.9932379999999
 31
0.0
  0
LINE
  5
64C
330
1E
100
AcDbEntity
  8
0
100
AcDbLine
 10
1.748899999999999
 20
146.769238
 30
0.0
 11
2.398299999999999
 21
147.9932379999999
 31
0.0
  0
LINE
  5
64E
330
1E
100
AcDbEntity
  8
0
100
AcDbLine
 10
2.398299999999999
 20
147.9932379999999
 30
0.0
 11
4.0605
 21
150.286238
 31
0.0
  0
LINE
  5
64F
330
1E
100
AcDbEntity
  8
0
100
AcDbLine
 10
42.3997
 20
135.1292379999999
 30
0.0
 11
42.98619999999999
 21
135.3652379999999
 31
0.0
  0
LINE
  5
650
330
1E
100
AcDbEntity
  8
0
100
AcDbLine
 10
38.0636
 20
134.9012379999999
 30
0.0
 11
38.08709999999999
 21
134.5202379999999
 31
0.0
  0
LINE
  5
652
330
1E
100
AcDbEntity
  8
0
100
AcDbLine
 10
36.7613
 20
135.143238
 30
0.0
 11
37.5073
 21
135.1552379999999
 31
0.0
  0
LINE
  5
654
330
1E
100
AcDbEntity
  8
0
100
AcDbLine
 10
25.3481
 20
135.387238
 30
0.0
 11
26.0626
 21
135.4972379999999
 31
0.0
  0
LINE
  5
655
330
1E
100
AcDbEntity
  8
0
100
AcDbLine
 10
42.98619999999999
 20
135.3652379999999
 30
0.0
 11
43.0926
 21
135.7422379999999
 31
0.0
  0
LINE
  5
656
330
1E
100
AcDbEntity
  8
0
100
AcDbLine
 10
41.66089999999999
 20
135.1842379999999
 30
0.0
 11
42.3997
 21
135.1292379999999
 31
0.0
  0
LINE
  5
657
330
1E
100
AcDbEntity
  8
0
100
AcDbLine
 10
37.5073
 20
135.1552379999999
 30
0.0
 11
38.0636
 21
134.9012379999999
 31
0.0
  0
LINE
  5
65A
330
1E
100
AcDbEntity
  8
0
100
AcDbLine
 10
26.0626
 20
135.4972379999999
 30
0.0
 11
26.3991
 21
135.8372379999999
 31
0.0
  0
LINE
  5
65B
330
1E
100
AcDbEntity
  8
0
100
AcDbLine
 10
24.68189999999999
 20
135.559238
 30
0.0
 11
25.3481
 21
135.387238
 31
0.0
  0
LINE
  5
65C
330
1E
100
AcDbEntity
  8
0
100
AcDbLine
 10
41.19939999999999
 20
135.4832379999999
 30
0.0
 11
41.3058
 21
135.8602379999999
 31
0.0
  0
LINE
  5
65D
330
1E
100
AcDbEntity
  8
0
100
AcDbLine
 10
41.19939999999999
 20
135.4832379999999
 30
0.0
 11
41.66089999999999
 21
135.1842379999999
 31
0.0
  0
LINE
  5
660
330
1E
100
AcDbEntity
  8
0
100
AcDbLine
 10
47.4406
 20
135.583238
 30
0.0
 11
48.0984
 21
135.763238
 31
0.0
  0
LINE
  5
661
330
1E
100
AcDbEntity
  8
0
100
AcDbLine
 10
24.4662
 20
135.9232379999999
 30
0.0
 11
24.8027
 21
136.2632379999999
 31
0.0
  0
LINE
  5
662
330
1E
100
AcDbEntity
  8
0
100
AcDbLine
 10
24.4662
 20
135.9232379999999
 30
0.0
 11
24.68189999999999
 21
135.559238
 31
0.0
  0
LINE
  5
665
330
1E
100
AcDbEntity
  8
0
100
AcDbLine
 10
41.3058
 20
135.8602379999999
 30
0.0
 11
41.8924
 21
136.095238
 31
0.0
  0
LINE
  5
668
330
1E
100
AcDbEntity
  8
0
100
AcDbLine
 10
48.0984
 20
135.763238
 30
0.0
 11
48.33149999999999
 21
136.125238
 31
0.0
  0
LINE
  5
669
330
1E
100
AcDbEntity
  8
0
100
AcDbLine
 10
46.7316
 20
135.7022379999999
 30
0.0
 11
47.4406
 21
135.583238
 31
0.0
  0
LINE
  5
66A
330
1E
100
AcDbEntity
  8
0
100
AcDbLine
 10
41.8924
 20
136.095238
 30
0.0
 11
42.6311
 21
136.0412379999999
 31
0.0
  0
LINE
  5
66C
330
1E
100
AcDbEntity
  8
0
100
AcDbLine
 10
42.6311
 20
136.0412379999999
 30
0.0
 11
43.0926
 21
135.7422379999999
 31
0.0
  0
LINE
  5
66E
330
1E
100
AcDbEntity
  8
0
100
AcDbLine
 10
46.3789
 20
136.037238
 30
0.0
 11
46.612
 21
136.399238
 31
0.0
  0
LINE
  5
66F
330
1E
100
AcDbEntity
  8
0
100
AcDbLine
 10
46.3789
 20
136.037238
 30
0.0
 11
46.7316
 21
135.7022379999999
 31
0.0
  0
LINE
  5
671
330
1E
100
AcDbEntity
  8
0
100
AcDbLine
 10
51.9016
 20
135.763238
 30
0.0
 11
52.55939999999999
 21
135.583238
 31
0.0
  0
LINE
  5
672
330
1E
100
AcDbEntity
  8
0
100
AcDbLine
 10
52.55939999999999
 20
135.583238
 30
0.0
 11
53.2684
 21
135.7022379999999
 31
0.0
  0
LINE
  5
673
330
1E
100
AcDbEntity
  8
0
100
AcDbLine
 10
53.6211
 20
136.037238
 30
0.0
 11
53.6211
 21
136.414215570093
 31
0.0
  0
LINE
  5
674
330
1E
100
AcDbEntity
  8
0
100
AcDbLine
 10
53.2684
 20
135.7022379999999
 30
0.0
 11
53.6211
 21
136.037238
 31
0.0
  0
LINE
  5
675
330
1E
100
AcDbEntity
  8
0
100
AcDbLine
 10
24.8027
 20
136.2632379999999
 30
0.0
 11
25.51719999999999
 21
136.3732379999999
 31
0.0
  0
LINE
  5
677
330
1E
100
AcDbEntity
  8
0
100
AcDbLine
 10
26.18339999999999
 20
136.2022379999999
 30
0.0
 11
26.3991
 21
135.8372379999999
 31
0.0
  0
LINE
  5
679
330
1E
100
AcDbEntity
  8
0
100
AcDbLine
 10
25.51719999999999
 20
136.3732379999999
 30
0.0
 11
26.18339999999999
 21
136.2022379999999
 31
0.0
  0
LINE
  5
67D
330
1E
100
AcDbEntity
  8
0
100
AcDbLine
 10
46.612
 20
136.399238
 30
0.0
 11
47.2698
 21
136.5792379999999
 31
0.0
  0
LINE
  5
682
330
1E
100
AcDbEntity
  8
0
100
AcDbLine
 10
30.6389
 20
137.352238
 30
0.0
 11
31.37999999999999
 21
137.3972379999999
 31
0.0
  0
LINE
  5
683
330
1E
100
AcDbEntity
  8
0
100
AcDbLine
 10
30.04129999999999
 20
137.5802379999999
 30
0.0
 11
30.6389
 21
137.352238
 31
0.0
  0
LINE
  5
684
330
1E
100
AcDbEntity
  8
0
100
AcDbLine
 10
29.9529
 20
137.9582379999999
 30
0.0
 11
30.4
 21
138.2632379999999
 31
0.0
  0
LINE
  5
685
330
1E
100
AcDbEntity
  8
0
100
AcDbLine
 10
29.9529
 20
137.9582379999999
 30
0.0
 11
30.04129999999999
 21
137.5802379999999
 31
0.0
  0
LINE
  5
687
330
1E
100
AcDbEntity
  8
0
100
AcDbLine
 10
30.4
 20
138.2632379999999
 30
0.0
 11
31.1411
 21
138.3082379999999
 31
0.0
  0
LINE
  5
68B
330
1E
100
AcDbEntity
  8
0
100
AcDbLine
 10
31.7387
 20
138.0802379999999
 30
0.0
 11
31.8271
 21
137.7022379999999
 31
0.0
  0
LINE
  5
68D
330
1E
100
AcDbEntity
  8
0
100
AcDbLine
 10
31.37999999999999
 20
137.3972379999999
 30
0.0
 11
31.8271
 21
137.7022379999999
 31
0.0
  0
LINE
  5
68E
330
1E
100
AcDbEntity
  8
0
100
AcDbLine
 10
31.1411
 20
138.3082379999999
 30
0.0
 11
31.7387
 21
138.0802379999999
 31
0.0
  0
LINE
  5
690
330
1E
100
AcDbEntity
  8
0
100
AcDbLine
 10
37.26319999999999
 20
138.7972379999999
 30
0.0
 11
37.8072
 21
139.0572379999999
 31
0.0
  0
LINE
  5
691
330
1E
100
AcDbEntity
  8
0
100
AcDbLine
 10
47.2698
 20
136.5792379999999
 30
0.0
 11
47.9788
 21
136.4602379999999
 31
0.0
  0
LINE
  5
692
330
1E
100
AcDbEntity
  8
0
100
AcDbLine
 10
47.9788
 20
136.4602379999999
 30
0.0
 11
48.33149999999999
 21
136.125238
 31
0.0
  0
LINE
  5
693
330
1E
100
AcDbEntity
  8
0
100
AcDbLine
 10
53.6211
 20
136.414215570093
 30
0.0
 11
53.6211
 21
136.037238
 31
0.0
  0
LINE
  5
694
330
1E
100
AcDbEntity
  8
0
100
AcDbLine
 10
53.388
 20
136.399238
 30
0.0
 11
53.6211
 21
136.037238
 31
0.0
  0
LINE
  5
695
330
1E
100
AcDbEntity
  8
0
100
AcDbLine
 10
52.7302
 20
136.5792379999999
 30
0.0
 11
53.388
 21
136.399238
 31
0.0
  0
LINE
  5
696
330
1E
100
AcDbEntity
  8
0
100
AcDbLine
 10
52.0212
 20
136.4602379999999
 30
0.0
 11
52.7302
 21
136.5792379999999
 31
0.0
  0
LINE
  5
697
330
1E
100
AcDbEntity
  8
0
100
AcDbLine
 10
51.6685
 20
136.125238
 30
0.0
 11
52.0212
 21
136.4602379999999
 31
0.0
  0
LINE
  5
698
330
1E
100
AcDbEntity
  8
0
100
AcDbLine
 10
51.6685
 20
136.125238
 30
0.0
 11
51.9016
 21
135.763238
 31
0.0
  0
LINE
  5
699
330
1E
100
AcDbEntity
  8
0
100
AcDbLine
 10
57.6003
 20
135.1292379999999
 30
0.0
 11
58.3391
 21
135.1842379999999
 31
0.0
  0
LINE
  5
69A
330
1E
100
AcDbEntity
  8
0
100
AcDbLine
 10
57.0138
 20
135.3652379999999
 30
0.0
 11
57.6003
 21
135.1292379999999
 31
0.0
  0
LINE
  5
69B
330
1E
100
AcDbEntity
  8
0
100
AcDbLine
 10
58.3391
 20
135.1842379999999
 30
0.0
 11
58.8006
 21
135.4832379999999
 31
0.0
  0
LINE
  5
69E
330
1E
100
AcDbEntity
  8
0
100
AcDbLine
 10
63.2387
 20
135.143238
 30
0.0
 11
63.73619999999999
 21
134.8592379999999
 31
0.0
  0
LINE
  5
6A0
330
1E
100
AcDbEntity
  8
0
100
AcDbLine
 10
62.4927
 20
135.1552379999999
 30
0.0
 11
63.2387
 21
135.143238
 31
0.0
  0
LINE
  5
6A2
330
1E
100
AcDbEntity
  8
0
100
AcDbLine
 10
61.9364
 20
134.9012379999999
 30
0.0
 11
62.4927
 21
135.1552379999999
 31
0.0
  0
LINE
  5
6A4
330
1E
100
AcDbEntity
  8
0
100
AcDbLine
 10
58.6942
 20
135.8602379999999
 30
0.0
 11
58.8006
 21
135.4832379999999
 31
0.0
  0
LINE
  5
6A8
330
1E
100
AcDbEntity
  8
0
100
AcDbLine
 10
58.1076
 20
136.095238
 30
0.0
 11
58.6942
 21
135.8602379999999
 31
0.0
  0
LINE
  5
6AA
330
1E
100
AcDbEntity
  8
0
100
AcDbLine
 10
57.36889999999999
 20
136.0412379999999
 30
0.0
 11
58.1076
 21
136.095238
 31
0.0
  0
LINE
  5
6AB
330
1E
100
AcDbEntity
  8
0
100
AcDbLine
 10
56.9074
 20
135.7422379999999
 30
0.0
 11
57.36889999999999
 21
136.0412379999999
 31
0.0
  0
LINE
  5
6AC
330
1E
100
AcDbEntity
  8
0
100
AcDbLine
 10
56.9074
 20
135.7422379999999
 30
0.0
 11
57.0138
 21
135.3652379999999
 31
0.0
  0
LINE
  5
6AF
330
1E
100
AcDbEntity
  8
0
100
AcDbLine
 10
37.8072
 20
139.0572379999999
 30
0.0
 11
37.8489
 21
139.4372379999999
 31
0.0
  0
LINE
  5
6B0
330
1E
100
AcDbEntity
  8
0
100
AcDbLine
 10
36.518
 20
138.8182379999999
 30
0.0
 11
37.26319999999999
 21
138.7972379999999
 31
0.0
  0
LINE
  5
6B4
330
1E
100
AcDbEntity
  8
0
100
AcDbLine
 10
36.0071
 20
139.0952379999999
 30
0.0
 11
36.0487
 21
139.4762379999999
 31
0.0
  0
LINE
  5
6B5
330
1E
100
AcDbEntity
  8
0
100
AcDbLine
 10
36.0071
 20
139.0952379999999
 30
0.0
 11
36.518
 21
138.8182379999999
 31
0.0
  0
LINE
  5
6B7
330
1E
100
AcDbEntity
  8
0
100
AcDbLine
 10
62.1928
 20
139.0572379999999
 30
0.0
 11
62.7368
 21
138.7972379999999
 31
0.0
  0
LINE
  5
6B8
330
1E
100
AcDbEntity
  8
0
100
AcDbLine
 10
62.7368
 20
138.7972379999999
 30
0.0
 11
63.482
 21
138.8182379999999
 31
0.0
  0
LINE
  5
6BB
330
1E
100
AcDbEntity
  8
0
100
AcDbLine
 10
68.17289999999999
 20
137.7022379999999
 30
0.0
 11
68.62
 21
137.3972379999999
 31
0.0
  0
LINE
  5
6BC
330
1E
100
AcDbEntity
  8
0
100
AcDbLine
 10
68.17289999999999
 20
137.7022379999999
 30
0.0
 11
68.2613
 21
138.0802379999999
 31
0.0
  0
LINE
  5
6BE
330
1E
100
AcDbEntity
  8
0
100
AcDbLine
 10
68.62
 20
137.3972379999999
 30
0.0
 11
69.36109999999999
 21
137.352238
 31
0.0
  0
LINE
  5
6BF
330
1E
100
AcDbEntity
  8
0
100
AcDbLine
 10
69.36109999999999
 20
137.352238
 30
0.0
 11
69.9587
 21
137.5802379999999
 31
0.0
  0
LINE
  5
6C0
330
1E
100
AcDbEntity
  8
0
100
AcDbLine
 10
73.60089999999999
 20
135.8372379999999
 30
0.0
 11
73.9374
 21
135.4972379999999
 31
0.0
  0
LINE
  5
6C1
330
1E
100
AcDbEntity
  8
0
100
AcDbLine
 10
73.60089999999999
 20
135.8372379999999
 30
0.0
 11
73.8166
 21
136.2022379999999
 31
0.0
  0
LINE
  5
6C2
330
1E
100
AcDbEntity
  8
0
100
AcDbLine
 10
73.9374
 20
135.4972379999999
 30
0.0
 11
74.65189999999999
 21
135.387238
 31
0.0
  0
LINE
  5
6C3
330
1E
100
AcDbEntity
  8
0
100
AcDbLine
 10
74.65189999999999
 20
135.387238
 30
0.0
 11
75.3181
 21
135.559238
 31
0.0
  0
LINE
  5
6C9
330
1E
100
AcDbEntity
  8
0
100
AcDbLine
 10
75.3181
 20
135.559238
 30
0.0
 11
75.5338
 21
135.9232379999999
 31
0.0
  0
LINE
  5
6CA
330
1E
100
AcDbEntity
  8
0
100
AcDbLine
 10
75.1973
 20
136.2632379999999
 30
0.0
 11
75.5338
 21
135.9232379999999
 31
0.0
  0
LINE
  5
6CD
330
1E
100
AcDbEntity
  8
0
100
AcDbLine
 10
74.4828
 20
136.3732379999999
 30
0.0
 11
75.1973
 21
136.2632379999999
 31
0.0
  0
LINE
  5
6CF
330
1E
100
AcDbEntity
  8
0
100
AcDbLine
 10
73.8166
 20
136.2022379999999
 30
0.0
 11
74.4828
 21
136.3732379999999
 31
0.0
  0
LINE
  5
6D5
330
1E
100
AcDbEntity
  8
0
100
AcDbLine
 10
69.9587
 20
137.5802379999999
 30
0.0
 11
70.0471
 21
137.9582379999999
 31
0.0
  0
LINE
  5
6D6
330
1E
100
AcDbEntity
  8
0
100
AcDbLine
 10
69.59999999999999
 20
138.2632379999999
 30
0.0
 11
70.0471
 21
137.9582379999999
 31
0.0
  0
LINE
  5
6D8
330
1E
100
AcDbEntity
  8
0
100
AcDbLine
 10
68.8589
 20
138.3082379999999
 30
0.0
 11
69.59999999999999
 21
138.2632379999999
 31
0.0
  0
LINE
  5
6DA
330
1E
100
AcDbEntity
  8
0
100
AcDbLine
 10
68.2613
 20
138.0802379999999
 30
0.0
 11
68.8589
 21
138.3082379999999
 31
0.0
  0
LINE
  5
6DF
330
1E
100
AcDbEntity
  8
0
100
AcDbLine
 10
63.482
 20
138.8182379999999
 30
0.0
 11
63.9929
 21
139.0952379999999
 31
0.0
  0
LINE
  5
6E1
330
1E
100
AcDbEntity
  8
0
100
AcDbLine
 10
36.0487
 20
139.4762379999999
 30
0.0
 11
36.59279999999999
 21
139.7362379999999
 31
0.0
  0
LINE
  5
6E3
330
1E
100
AcDbEntity
  8
0
100
AcDbLine
 10
43.53329999999999
 20
139.6542379999999
 30
0.0
 11
44.1579
 21
139.8622379999999
 31
0.0
  0
LINE
  5
6E4
330
1E
100
AcDbEntity
  8
0
100
AcDbLine
 10
36.59279999999999
 20
139.7362379999999
 30
0.0
 11
37.338
 21
139.715238
 31
0.0
  0
LINE
  5
6E6
330
1E
100
AcDbEntity
  8
0
100
AcDbLine
 10
37.338
 20
139.715238
 30
0.0
 11
37.8489
 21
139.4372379999999
 31
0.0
  0
LINE
  5
6E8
330
1E
100
AcDbEntity
  8
0
100
AcDbLine
 10
44.1579
 20
139.8622379999999
 30
0.0
 11
44.3283
 21
140.233238
 31
0.0
  0
LINE
  5
6E9
330
1E
100
AcDbEntity
  8
0
100
AcDbLine
 10
42.80669999999999
 20
139.7412379999999
 30
0.0
 11
43.53329999999999
 21
139.6542379999999
 31
0.0
  0
LINE
  5
6EA
330
1E
100
AcDbEntity
  8
0
100
AcDbLine
 10
42.3981
 20
140.0592379999999
 30
0.0
 11
42.5685
 21
140.430238
 31
0.0
  0
LINE
  5
6EB
330
1E
100
AcDbEntity
  8
0
100
AcDbLine
 10
42.3981
 20
140.0592379999999
 30
0.0
 11
42.80669999999999
 21
139.7412379999999
 31
0.0
  0
LINE
  5
6ED
330
1E
100
AcDbEntity
  8
0
100
AcDbLine
 10
49.314
 20
140.0922379999999
 30
0.0
 11
50.0
 21
139.9422379999999
 31
0.0
  0
LINE
  5
6EE
330
1E
100
AcDbEntity
  8
0
100
AcDbLine
 10
50.0
 20
139.9422379999999
 30
0.0
 11
50.686
 21
140.0922379999999
 31
0.0
  0
LINE
  5
6F0
330
1E
100
AcDbEntity
  8
0
100
AcDbLine
 10
50.686
 20
140.0922379999999
 30
0.0
 11
50.97999999999999
 21
140.4422379999999
 31
0.0
  0
LINE
  5
6F1
330
1E
100
AcDbEntity
  8
0
100
AcDbLine
 10
55.8421
 20
139.8622379999999
 30
0.0
 11
56.4667
 21
139.6542379999999
 31
0.0
  0
LINE
  5
6F2
330
1E
100
AcDbEntity
  8
0
100
AcDbLine
 10
56.4667
 20
139.6542379999999
 30
0.0
 11
57.1933
 21
139.7412379999999
 31
0.0
  0
LINE
  5
6F4
330
1E
100
AcDbEntity
  8
0
100
AcDbLine
 10
57.1933
 20
139.7412379999999
 30
0.0
 11
57.6019
 21
140.0592379999999
 31
0.0
  0
LINE
  5
6F5
330
1E
100
AcDbEntity
  8
0
100
AcDbLine
 10
42.5685
 20
140.430238
 30
0.0
 11
43.19300000000001
 21
140.6392379999999
 31
0.0
  0
LINE
  5
6FD
330
1E
100
AcDbEntity
  8
0
100
AcDbLine
 10
43.19300000000001
 20
140.6392379999999
 30
0.0
 11
43.9196
 21
140.5522379999999
 31
0.0
  0
LINE
  5
6FF
330
1E
100
AcDbEntity
  8
0
100
AcDbLine
 10
43.9196
 20
140.5522379999999
 30
0.0
 11
44.3283
 21
140.233238
 31
0.0
  0
LINE
  5
701
330
1E
100
AcDbEntity
  8
0
100
AcDbLine
 10
50.686
 20
140.792238
 30
0.0
 11
50.97999999999999
 21
140.4422379999999
 31
0.0
  0
LINE
  5
703
330
1E
100
AcDbEntity
  8
0
100
AcDbLine
 10
50.0
 20
140.9422379999999
 30
0.0
 11
50.686
 21
140.792238
 31
0.0
  0
LINE
  5
705
330
1E
100
AcDbEntity
  8
0
100
AcDbLine
 10
49.314
 20
140.792238
 30
0.0
 11
50.0
 21
140.9422379999999
 31
0.0
  0
LINE
  5
707
330
1E
100
AcDbEntity
  8
0
100
AcDbLine
 10
49.02000000000001
 20
140.4422379999999
 30
0.0
 11
49.314
 21
140.792238
 31
0.0
  0
LINE
  5
708
330
1E
100
AcDbEntity
  8
0
100
AcDbLine
 10
49.02000000000001
 20
140.4422379999999
 30
0.0
 11
49.314
 21
140.0922379999999
 31
0.0
  0
LINE
  5
70A
330
1E
100
AcDbEntity
  8
0
100
AcDbLine
 10
57.43149999999999
 20
140.430238
 30
0.0
 11
57.6019
 21
140.0592379999999
 31
0.0
  0
LINE
  5
70C
330
1E
100
AcDbEntity
  8
0
100
AcDbLine
 10
56.80699999999999
 20
140.6392379999999
 30
0.0
 11
57.43149999999999
 21
140.430238
 31
0.0
  0
LINE
  5
70E
330
1E
100
AcDbEntity
  8
0
100
AcDbLine
 10
56.08039999999999
 20
140.5522379999999
 30
0.0
 11
56.80699999999999
 21
140.6392379999999
 31
0.0
  0
LINE
  5
710
330
1E
100
AcDbEntity
  8
0
100
AcDbLine
 10
55.6717
 20
140.233238
 30
0.0
 11
56.08039999999999
 21
140.5522379999999
 31
0.0
  0
LINE
  5
711
330
1E
100
AcDbEntity
  8
0
100
AcDbLine
 10
55.6717
 20
140.233238
 30
0.0
 11
55.8421
 21
139.8622379999999
 31
0.0
  0
LINE
  5
718
330
1E
100
AcDbEntity
  8
0
100
AcDbLine
 10
63.9513
 20
139.4762379999999
 30
0.0
 11
63.9929
 21
139.0952379999999
 31
0.0
  0
LINE
  5
71D
330
1E
100
AcDbEntity
  8
0
100
AcDbLine
 10
63.40720000000001
 20
139.7362379999999
 30
0.0
 11
63.9513
 21
139.4762379999999
 31
0.0
  0
LINE
  5
71F
330
1E
100
AcDbEntity
  8
0
100
AcDbLine
 10
62.662
 20
139.715238
 30
0.0
 11
63.40720000000001
 21
139.7362379999999
 31
0.0
  0
LINE
  5
721
330
1E
100
AcDbEntity
  8
0
100
AcDbLine
 10
62.1511
 20
139.4372379999999
 30
0.0
 11
62.662
 21
139.715238
 31
0.0
  0
LINE
  5
722
330
1E
100
AcDbEntity
  8
0
100
AcDbLine
 10
62.1511
 20
139.4372379999999
 30
0.0
 11
62.1928
 21
139.0572379999999
 31
0.0
  0
LINE
  5
725
330
1E
100
AcDbEntity
  8
0
100
AcDbLine
 10
99.92910000000001
 20
141.6232379999999
 30
0.0
 11
100.0
 21
140.328238
 31
0.0
  0
LINE
  5
726
330
1E
100
AcDbEntity
  8
0
100
AcDbLine
 10
96.87649999999999
 20
137.2482379999999
 30
0.0
 11
98.0461
 21
134.8852379999999
 31
0.0
  0
LINE
  5
727
330
1E
100
AcDbEntity
  8
0
100
AcDbLine
 10
95.2557
 20
139.5412379999999
 30
0.0
 11
96.87649999999999
 21
137.2482379999999
 31
0.0
  0
LINE
  5
728
330
1E
100
AcDbEntity
  8
0
100
AcDbLine
 10
93.19830000000001
 20
141.7422379999999
 30
0.0
 11
95.2557
 21
139.5412379999999
 31
0.0
  0
LINE
  5
729
330
1E
100
AcDbEntity
  8
0
100
AcDbLine
 10
4.744299999999999
 20
139.5412379999999
 30
0.0
 11
6.8017
 21
141.7422379999999
 31
0.0
  0
LINE
  5
72D
330
1E
100
AcDbEntity
  8
0
100
AcDbLine
 10
4.1669
 20
150.404238
 30
0.0
 11
6.2716
 21
152.6062379999999
 31
0.0
  0
LINE
  5
72F
330
1E
100
AcDbEntity
  8
0
100
AcDbLine
 10
8.799899999999999
 20
154.702238
 30
0.0
 11
11.7292
 21
156.6692379999999
 31
0.0
  0
LINE
  5
732
330
1E
100
AcDbEntity
  8
0
100
AcDbLine
 10
11.7292
 20
156.6692379999999
 30
0.0
 11
15.03009999999999
 21
158.4862379999999
 31
0.0
  0
LINE
  5
734
330
1E
100
AcDbEntity
  8
0
100
AcDbLine
 10
6.2716
 20
152.6062379999999
 30
0.0
 11
8.799899999999999
 21
154.702238
 31
0.0
  0
LINE
  5
735
330
1E
100
AcDbEntity
  8
0
100
AcDbLine
 10
4.0605
 20
150.286238
 30
0.0
 11
4.1669
 21
150.404238
 31
0.0
  0
LINE
  5
736
330
1E
100
AcDbEntity
  8
0
100
AcDbLine
 10
9.2748
 20
143.8312379999999
 30
0.0
 11
12.1401
 21
145.7862379999999
 31
0.0
  0
LINE
  5
747
330
1E
100
AcDbEntity
  8
0
100
AcDbLine
 10
90.7252
 20
143.8312379999999
 30
0.0
 11
93.19830000000001
 21
141.7422379999999
 31
0.0
  0
LINE
  5
748
330
1E
100
AcDbEntity
  8
0
100
AcDbLine
 10
98.87770000000001
 20
145.4962379999999
 30
0.0
 11
99.3674
 21
144.2112379999999
 31
0.0
  0
LINE
  5
749
330
1E
100
AcDbEntity
  8
0
100
AcDbLine
 10
99.3674
 20
144.2112379999999
 30
0.0
 11
99.71820000000001
 21
142.9192379999999
 31
0.0
  0
LINE
  5
74A
330
1E
100
AcDbEntity
  8
0
100
AcDbLine
 10
99.71820000000001
 20
142.9192379999999
 30
0.0
 11
99.92910000000001
 21
141.6232379999999
 31
0.0
  0
LINE
  5
74B
330
1E
100
AcDbEntity
  8
0
100
AcDbLine
 10
98.2511
 20
146.769238
 30
0.0
 11
98.87770000000001
 21
145.4962379999999
 31
0.0
  0
LINE
  5
74C
330
1E
100
AcDbEntity
  8
0
100
AcDbLine
 10
87.85989999999999
 20
145.7862379999999
 30
0.0
 11
90.7252
 21
143.8312379999999
 31
0.0
  0
LINE
  5
74D
330
1E
100
AcDbEntity
  8
0
100
AcDbLine
 10
97.6017
 20
147.9932379999999
 30
0.0
 11
98.0887295373985
 21
147.037617168197
 31
0.0
  0
LINE
  5
74F
330
1E
100
AcDbEntity
  8
0
100
AcDbLine
 10
81.06810000000001
 20
149.2252379999999
 30
0.0
 11
84.631
 21
147.5902379999999
 31
0.0
  0
LINE
  5
750
330
1E
100
AcDbEntity
  8
0
100
AcDbLine
 10
84.631
 20
147.5902379999999
 30
0.0
 11
87.85989999999999
 21
145.7862379999999
 31
0.0
  0
LINE
  5
751
330
1E
100
AcDbEntity
  8
0
100
AcDbLine
 10
15.369
 20
147.5902379999999
 30
0.0
 11
18.93189999999999
 21
149.2252379999999
 31
0.0
  0
LINE
  5
753
330
1E
100
AcDbEntity
  8
0
100
AcDbLine
 10
15.03009999999999
 20
158.4862379999999
 30
0.0
 11
18.6334
 21
160.119238
 31
0.0
  0
LINE
  5
757
330
1E
100
AcDbEntity
  8
0
100
AcDbLine
 10
22.5362
 20
161.5712379999999
 30
0.0
 11
26.7012
 21
162.8282379999999
 31
0.0
  0
LINE
  5
759
330
1E
100
AcDbEntity
  8
0
100
AcDbLine
 10
18.6334
 20
160.119238
 30
0.0
 11
22.5362
 21
161.5712379999999
 31
0.0
  0
LINE
  5
75B
330
1E
100
AcDbEntity
  8
0
100
AcDbLine
 10
26.1326559067807
 20
151.689704096442
 30
0.0
 11
26.915
 21
151.9272379999999
 31
0.0
  0
LINE
  5
75C
330
1E
100
AcDbEntity
  8
0
100
AcDbLine
 10
22.79139999999999
 20
150.6752379999999
 30
0.0
 11
26.1326559067807
 21
151.689704096442
 31
0.0
  0
LINE
  5
75D
330
1E
100
AcDbEntity
  8
0
100
AcDbLine
 10
95.93949999999999
 20
150.286238
 30
0.0
 11
97.6017
 21
147.9932379999999
 31
0.0
  0
LINE
  5
75E
330
1E
100
AcDbEntity
  8
0
100
AcDbLine
 10
95.8331
 20
150.404238
 30
0.0
 11
95.93949999999999
 21
150.286238
 31
0.0
  0
LINE
  5
75F
330
1E
100
AcDbEntity
  8
0
100
AcDbLine
 10
74.985761631016
 20
151.35013217935
 30
0.0
 11
77.2086
 21
150.6752379999999
 31
0.0
  0
LINE
  5
760
330
1E
100
AcDbEntity
  8
0
100
AcDbLine
 10
77.2086
 20
150.6752379999999
 30
0.0
 11
81.06810000000001
 21
149.2252379999999
 31
0.0
  0
LINE
  5
762
330
1E
100
AcDbEntity
  8
0
100
AcDbLine
 10
64.2162
 20
153.7882379999999
 30
0.0
 11
68.74079999999999
 21
152.9682379999999
 31
0.0
  0
LINE
  5
763
330
1E
100
AcDbEntity
  8
0
100
AcDbLine
 10
68.74079999999999
 20
152.9682379999999
 30
0.0
 11
73.08499999999999
 21
151.9272379999999
 31
0.0
  0
LINE
  5
765
330
1E
100
AcDbEntity
  8
0
100
AcDbLine
 10
93.7284
 20
152.6062379999999
 30
0.0
 11
95.8331
 21
150.404238
 31
0.0
  0
LINE
  5
767
330
1E
100
AcDbEntity
  8
0
100
AcDbLine
 10
73.08499999999999
 20
151.9272379999999
 30
0.0
 11
74.985761631016
 21
151.35013217935
 31
0.0
  0
LINE
  5
769
330
1E
100
AcDbEntity
  8
0
100
AcDbLine
 10
31.2592
 20
152.9682379999999
 30
0.0
 11
35.7838
 21
153.7882379999999
 31
0.0
  0
LINE
  5
76B
330
1E
100
AcDbEntity
  8
0
100
AcDbLine
 10
28.5542271778144
 20
163.2698973966169
 30
0.0
 11
31.1193
 21
163.8852379999999
 31
0.0
  0
LINE
  5
76E
330
1E
100
AcDbEntity
  8
0
100
AcDbLine
 10
35.6705
 20
164.7132379999999
 30
0.0
 11
38.9664
 21
165.1592379999999
 31
0.0
  0
LINE
  5
771
330
1E
100
AcDbEntity
  8
0
100
AcDbLine
 10
31.1193
 20
163.8852379999999
 30
0.0
 11
35.6705
 21
164.7132379999999
 31
0.0
  0
LINE
  5
772
330
1E
100
AcDbEntity
  8
0
100
AcDbLine
 10
26.7012
 20
162.8282379999999
 30
0.0
 11
31.1193
 21
163.8852379999999
 31
0.0
  0
LINE
  5
775
330
1E
100
AcDbEntity
  8
0
100
AcDbLine
 10
62.90415953085711
 20
153.9548248737899
 30
0.0
 11
64.2162
 21
153.7882379999999
 31
0.0
  0
LINE
  5
776
330
1E
100
AcDbEntity
  8
0
100
AcDbLine
 10
91.2001
 20
154.702238
 30
0.0
 11
93.7284
 21
152.6062379999999
 31
0.0
  0
LINE
  5
777
330
1E
100
AcDbEntity
  8
0
100
AcDbLine
 10
54.7995
 20
154.7372379999999
 30
0.0
 11
59.5536
 21
154.3802379999999
 31
0.0
  0
LINE
  5
778
330
1E
100
AcDbEntity
  8
0
100
AcDbLine
 10
59.5536
 20
154.3802379999999
 30
0.0
 11
62.90415953085711
 21
153.9548248737899
 31
0.0
  0
LINE
  5
779
330
1E
100
AcDbEntity
  8
0
100
AcDbLine
 10
40.4464
 20
154.3802379999999
 30
0.0
 11
45.2005
 21
154.7372379999999
 31
0.0
  0
LINE
  5
781
330
1E
100
AcDbEntity
  8
0
100
AcDbLine
 10
40.3656
 20
165.297238
 30
0.0
 11
42.3382
 21
165.4912379999999
 31
0.0
  0
LINE
  5
782
330
1E
100
AcDbEntity
  8
0
100
AcDbLine
 10
42.3382
 20
165.4912379999999
 30
0.0
 11
45.7336
 21
165.7022379999999
 31
0.0
  0
LINE
  5
783
330
1E
100
AcDbEntity
  8
0
100
AcDbLine
 10
38.9664
 20
165.1592379999999
 30
0.0
 11
40.3656
 21
165.297238
 31
0.0
  0
LINE
  5
786
330
1E
100
AcDbEntity
  8
0
100
AcDbLine
 10
50.0
 20
165.7962379999999
 30
0.0
 11
54.26639999999999
 21
165.7022379999999
 31
0.0
  0
LINE
  5
78A
330
1E
100
AcDbEntity
  8
0
100
AcDbLine
 10
45.7336
 20
165.7022379999999
 30
0.0
 11
50.0
 21
165.7962379999999
 31
0.0
  0
LINE
  5
78E
330
1E
100
AcDbEntity
  8
0
100
AcDbLine
 10
81.3666
 20
160.119238
 30
0.0
 11
84.9699
 21
158.4862379999999
 31
0.0
  0
LINE
  5
791
330
1E
100
AcDbEntity
  8
0
100
AcDbLine
 10
73.2988
 20
162.8282379999999
 30
0.0
 11
77.46380000000001
 21
161.5712379999999
 31
0.0
  0
LINE
  5
792
330
1E
100
AcDbEntity
  8
0
100
AcDbLine
 10
77.46380000000001
 20
161.5712379999999
 30
0.0
 11
81.3666
 21
160.119238
 31
0.0
  0
LINE
  5
795
330
1E
100
AcDbEntity
  8
0
100
AcDbLine
 10
54.26639999999999
 20
165.7022379999999
 30
0.0
 11
57.6618
 21
165.4912379999999
 31
0.0
  0
LINE
  5
798
330
1E
100
AcDbEntity
  8
0
100
AcDbLine
 10
68.8807
 20
163.8852379999999
 30
0.0
 11
73.2988
 21
162.8282379999999
 31
0.0
  0
LINE
  5
799
330
1E
100
AcDbEntity
  8
0
100
AcDbLine
 10
68.8807
 20
163.8852379999999
 30
0.0
 11
73.2988
 21
162.8282379999999
 31
0.0
  0
LINE
  5
79B
330
1E
100
AcDbEntity
  8
0
100
AcDbLine
 10
57.6618
 20
165.4912379999999
 30
0.0
 11
59.6344
 21
165.297238
 31
0.0
  0
LINE
  5
79C
330
1E
100
AcDbEntity
  8
0
100
AcDbLine
 10
59.6344
 20
165.297238
 30
0.0
 11
61.0336
 21
165.1592379999999
 31
0.0
  0
LINE
  5
79D
330
1E
100
AcDbEntity
  8
0
100
AcDbLine
 10
61.0336
 20
165.1592379999999
 30
0.0
 11
64.32949999999999
 21
164.7132379999999
 31
0.0
  0
LINE
  5
79E
330
1E
100
AcDbEntity
  8
0
100
AcDbLine
 10
64.32949999999999
 20
164.7132379999999
 30
0.0
 11
68.8807
 21
163.8852379999999
 31
0.0
  0
LINE
  5
7A3
330
1E
100
AcDbEntity
  8
0
100
AcDbLine
 10
88.2708
 20
156.6692379999999
 30
0.0
 11
91.2001
 21
154.702238
 31
0.0
  0
LINE
  5
7A6
330
1E
100
AcDbEntity
  8
0
100
AcDbLine
 10
84.9699
 20
158.4862379999999
 30
0.0
 11
88.2708
 21
156.6692379999999
 31
0.0
  0
LINE
  5
7AA
330
1E
100
AcDbEntity
  8
0
100
AcDbLine
 10
51.55445395149659
 20
154.817709894424
 30
0.0
 11
54.7995
 21
154.7372379999999
 31
0.0
  0
LINE
  5
7AB
330
1E
100
AcDbEntity
  8
0
100
AcDbLine
 10
45.2005
 20
154.7372379999999
 30
0.0
 11
51.55445395149659
 21
154.817709894424
 31
0.0
  0
LINE
  5
7AC
330
1E
100
AcDbEntity
  8
0
100
AcDbLine
 10
37.9754547757261
 20
154.066507555019
 30
0.0
 11
40.4464
 21
154.3802379999999
 31
0.0
  0
LINE
  5
7AD
330
1E
100
AcDbEntity
  8
0
100
AcDbLine
 10
35.7838
 20
153.7882379999999
 30
0.0
 11
37.9754547757261
 21
154.066507555019
 31
0.0
  0
LINE
  5
7AE
330
1E
100
AcDbEntity
  8
0
100
AcDbLine
 10
26.915
 20
151.9272379999999
 30
0.0
 11
31.2592
 21
152.9682379999999
 31
0.0
  0
LINE
  5
7AF
330
1E
100
AcDbEntity
  8
0
100
AcDbLine
 10
18.93189999999999
 20
149.2252379999999
 30
0.0
 11
22.79139999999999
 21
150.6752379999999
 31
0.0
  0
LINE
  5
7B0
330
1E
100
AcDbEntity
  8
0
100
AcDbLine
 10
12.1401
 20
145.7862379999999
 30
0.0
 11
15.369
 21
147.5902379999999
 31
0.0
  0
LINE
  5
7B1
330
1E
100
AcDbEntity
  8
0
100
AcDbLine
 10
6.8017
 20
141.7422379999999
 30
0.0
 11
9.2748
 21
143.8312379999999
 31
0.0
  0
LINE
  5
7B2
330
1E
100
AcDbEntity
  8
0
100
AcDbLine
 10
3.123499999999999
 20
137.2482379999999
 30
0.0
 11
4.744299999999999
 21
139.5412379999999
 31
0.0
  0
LINE
  5
7B3
330
1E
100
AcDbEntity
  8
0
100
AcDbLine
 10
1.953899999999999
 20
134.8852379999999
 30
0.0
 11
3.123499999999999
 21
137.2482379999999
 31
0.0
  0
LINE
  5
7B4
330
1E
100
AcDbEntity
  8
0
100
AcDbLine
 10
1.0139
 20
130.0442379999999
 30
0.0
 11
1.248399999999999
 21
132.4762379999999
 31
0.0
  0
LINE
  5
7B5
330
1E
100
AcDbEntity
  8
0
100
AcDbLine
 10
1.0139
 20
130.0442379999999
 30
0.0
 11
1.017333923411219
 21
129.992127518045
 31
0.0
  0
ENDSEC
  0
SECTION
  2
OBJECTS
  0
DICTIONARY
  5
C
330
0
100
AcDbDictionary
281
     1
  3
ACAD_GROUP
350
D
  3
ACAD_LAYOUT
350
19
  3
ACAD_MLINESTYLE
350
16
  3
ACAD_PLOTSETTINGS
350
18
  3
ACAD_PLOTSTYLENAME
350
E
  3
AcDbVariableDictionary
350
7BB
  0
DICTIONARY
  5
D
102
{ACAD_REACTORS
330
C
102
}
330
C
100
AcDbDictionary
281
     1
  0
DICTIONARY
  5
19
102
{ACAD_REACTORS
330
C
102
}
330
C
100
AcDbDictionary
281
     1
  3
Layout1
350
1D
  3
Model
350
21
  0
DICTIONARY
  5
16
102
{ACAD_REACTORS
330
C
102
}
330
C
100
AcDbDictionary
281
     1
  3
Standard
350
17
  0
DICTIONARY
  5
18
102
{ACAD_REACTORS
330
C
102
}
330
C
100
AcDbDictionary
281
     1
  0
ACDBDICTIONARYWDFLT
  5
E
102
{ACAD_REACTORS
330
C
102
}
330
C
100
AcDbDictionary
281
     1
  3
Normal
350
F
100
AcDbDictionaryWithDefault
340
F
  0
DICTIONARY
  5
7BB
102
{ACAD_REACTORS
330
C
102
}
330
C
100
AcDbDictionary
281
     1
  3
DIMASSOC
350
7BC
  0
LAYOUT
  5
1D
102
{ACAD_REACTORS
330
19
102
}
330
19
100
AcDbPlotSettings
  1

  2
C:\Programme\AutoCAD LT 2002 Deu\plotters\DWF ePlot (optimized for plotting).pc3
  4

  6

 40
0.0
 41
0.0
 42
0.0
 43
0.0
 44
0.0
 45
0.0
 46
0.0
 47
0.0
 48
0.0
 49
0.0
140
0.0
141
0.0
142
1.0
143
1.0
 70
   688
 72
     0
 73
     0
 74
     5
  7

 75
    16
147
1.0
148
0.0
149
0.0
100
AcDbLayout
  1
Layout1
 70
     1
 71
     1
 10
0.0
 20
0.0
 11
12.0
 21
9.0
 12
0.0
 22
0.0
 32
0.0
 14
1.000000000000000E+20
 24
1.000000000000000E+20
 34
1.000000000000000E+20
 15
-1.000000000000000E+20
 25
-1.000000000000000E+20
 35
-1.000000000000000E+20
146
0.0
 13
0.0
 23
0.0
 33
0.0
 16
1.0
 26
0.0
 36
0.0
 17
0.0
 27
1.0
 37
0.0
 76
     0
330
1A
  0
LAYOUT
  5
21
102
{ACAD_REACTORS
330
19
102
}
330
19
100
AcDbPlotSettings
  1

  2
C:\Programme\AutoCAD LT 2002 Deu\plotters\DWF ePlot (optimized for plotting).pc3
  4

  6

 40
0.0
 41
0.0
 42
0.0
 43
0.0
 44
0.0
 45
0.0
 46
0.0
 47
0.0
 48
0.0
 49
0.0
140
0.0
141
0.0
142
1.0
143
1.0
 70
  1712
 72
     0
 73
     0
 74
     0
  7

 75
     0
147
1.0
148
0.0
149
0.0
100
AcDbLayout
  1
Model
 70
     1
 71
     0
 10
0.0
 20
0.0
 11
12.0
 21
9.0
 12
0.0
 22
0.0
 32
0.0
 14
0.0
 24
0.0
 34
0.0
 15
0.0
 25
0.0
 35
0.0
146
0.0
 13
0.0
 23
0.0
 33
0.0
 16
1.0
 26
0.0
 36
0.0
 17
0.0
 27
1.0
 37
0.0
 76
     0
330
1E
  0
MLINESTYLE
  5
17
102
{ACAD_REACTORS
330
16
102
}
330
16
100
AcDbMlineStyle
  2
STANDARD
 70
     0
  3

 62
   256
 51
90.0
 52
90.0
 71
     2
 49
0.5
 62
   256
  6
BYLAYER
 49
-0.5
 62
   256
  6
BYLAYER
  0
ACDBPLACEHOLDER
  5
F
102
{ACAD_REACTORS
330
E
102
}
330
E
  0
DICTIONARYVAR
  5
7BC
102
{ACAD_REACTORS
330
7BB
102
}
330
7BB
100
DictionaryVariables
280
     0
  1
1
  0
ENDSEC
  0
EOF
