  0
SECTION
  2
HEADER
  9
$ACADVER
  1
AC1015
  9
$ACADMAINTVER
 70
    13
  9
$DWGCODEPAGE
  3
ANSI_1252
  9
$INSBASE
 10
0.0
 20
0.0
 30
0.0
  9
$EXTMIN
 10
0.0
 20
-0.0672374999999984
 30
0.0
  9
$EXTMAX
 10
100.0
 20
198.0672375
 30
0.0
  9
$LIMMIN
 10
0.0
 20
0.0
  9
$LIMMAX
 10
12.0
 20
9.0
  9
$ORTHOMODE
 70
     0
  9
$REGENMODE
 70
     1
  9
$FILLMODE
 70
     1
  9
$QTEXTMODE
 70
     0
  9
$MIRRTEXT
 70
     1
  9
$LTSCALE
 40
1.0
  9
$ATTMODE
 70
     1
  9
$TEXTSIZE
 40
0.2
  9
$TRACEWID
 40
0.05
  9
$TEXTSTYLE
  7
Standard
  9
$CLAYER
  8
0
  9
$CELTYPE
  6
Continuous
  9
$CECOLOR
 62
   256
  9
$CELTSCALE
 40
1.0
  9
$DISPSILH
 70
     0
  9
$DIMSCALE
 40
1.0
  9
$DIMASZ
 40
0.18
  9
$DIMEXO
 40
0.0625
  9
$DIMDLI
 40
0.38
  9
$DIMRND
 40
0.0
  9
$DIMDLE
 40
0.0
  9
$DIMEXE
 40
0.18
  9
$DIMTP
 40
0.0
  9
$DIMTM
 40
0.0
  9
$DIMTXT
 40
0.18
  9
$DIMCEN
 40
0.09
  9
$DIMTSZ
 40
0.0
  9
$DIMTOL
 70
     0
  9
$DIMLIM
 70
     0
  9
$DIMTIH
 70
     1
  9
$DIMTOH
 70
     1
  9
$DIMSE1
 70
     0
  9
$DIMSE2
 70
     0
  9
$DIMTAD
 70
     0
  9
$DIMZIN
 70
     0
  9
$DIMBLK
  1

  9
$DIMASO
 70
     1
  9
$DIMSHO
 70
     1
  9
$DIMPOST
  1

  9
$DIMAPOST
  1

  9
$DIMALT
 70
     0
  9
$DIMALTD
 70
     2
  9
$DIMALTF
 40
25.4
  9
$DIMLFAC
 40
1.0
  9
$DIMTOFL
 70
     0
  9
$DIMTVP
 40
0.0
  9
$DIMTIX
 70
     0
  9
$DIMSOXD
 70
     0
  9
$DIMSAH
 70
     0
  9
$DIMBLK1
  1

  9
$DIMBLK2
  1

  9
$DIMSTYLE
  2
Standard
  9
$DIMCLRD
 70
     0
  9
$DIMCLRE
 70
     0
  9
$DIMCLRT
 70
     0
  9
$DIMTFAC
 40
1.0
  9
$DIMGAP
 40
0.09
  9
$DIMJUST
 70
     0
  9
$DIMSD1
 70
     0
  9
$DIMSD2
 70
     0
  9
$DIMTOLJ
 70
     1
  9
$DIMTZIN
 70
     0
  9
$DIMALTZ
 70
     0
  9
$DIMALTTZ
 70
     0
  9
$DIMUPT
 70
     0
  9
$DIMDEC
 70
     4
  9
$DIMTDEC
 70
     4
  9
$DIMALTU
 70
     2
  9
$DIMALTTD
 70
     2
  9
$DIMTXSTY
  7
Standard
  9
$DIMAUNIT
 70
     0
  9
$DIMADEC
 70
     0
  9
$DIMALTRND
 40
0.0
  9
$DIMAZIN
 70
     0
  9
$DIMDSEP
 70
    46
  9
$DIMATFIT
 70
     3
  9
$DIMFRAC
 70
     0
  9
$DIMLDRBLK
  1

  9
$DIMLUNIT
 70
     2
  9
$DIMLWD
 70
    -2
  9
$DIMLWE
 70
    -2
  9
$DIMTMOVE
 70
     0
  9
$LUNITS
 70
     2
  9
$LUPREC
 70
     4
  9
$SKETCHINC
 40
0.1
  9
$FILLETRAD
 40
0.0
  9
$AUNITS
 70
     0
  9
$AUPREC
 70
     0
  9
$MENU
  1
.
  9
$ELEVATION
 40
0.0
  9
$PELEVATION
 40
0.0
  9
$THICKNESS
 40
0.0
  9
$LIMCHECK
 70
     0
  9
$CHAMFERA
 40
0.0
  9
$CHAMFERB
 40
0.0
  9
$CHAMFERC
 40
0.0
  9
$CHAMFERD
 40
0.0
  9
$SKPOLY
 70
     0
  9
$TDCREATE
 40
2455656.860712106
  9
$TDUCREATE
 40
2455656.777378773
  9
$TDUPDATE
 40
2455656.868415555
  9
$TDUUPDATE
 40
2455656.785082222
  9
$TDINDWG
 40
0.0077034491
  9
$TDUSRTIMER
 40
0.0077034491
  9
$USRTIMER
 70
     1
  9
$ANGBASE
 50
0.0
  9
$ANGDIR
 70
     0
  9
$PDMODE
 70
     0
  9
$PDSIZE
 40
0.0
  9
$PLINEWID
 40
0.0
  9
$SPLFRAME
 70
     0
  9
$SPLINETYPE
 70
     6
  9
$SPLINESEGS
 70
     8
  9
$HANDSEED
  5
31D
  9
$SURFTAB1
 70
     6
  9
$SURFTAB2
 70
     6
  9
$SURFTYPE
 70
     6
  9
$SURFU
 70
     6
  9
$SURFV
 70
     6
  9
$UCSBASE
  2

  9
$UCSNAME
  2

  9
$UCSORG
 10
0.0
 20
0.0
 30
0.0
  9
$UCSXDIR
 10
1.0
 20
0.0
 30
0.0
  9
$UCSYDIR
 10
0.0
 20
1.0
 30
0.0
  9
$UCSORTHOREF
  2

  9
$UCSORTHOVIEW
 70
     1
  9
$UCSORGTOP
 10
0.0
 20
0.0
 30
0.0
  9
$UCSORGBOTTOM
 10
0.0
 20
0.0
 30
0.0
  9
$UCSORGLEFT
 10
0.0
 20
0.0
 30
0.0
  9
$UCSORGRIGHT
 10
0.0
 20
0.0
 30
0.0
  9
$UCSORGFRONT
 10
0.0
 20
0.0
 30
0.0
  9
$UCSORGBACK
 10
0.0
 20
0.0
 30
0.0
  9
$PUCSBASE
  2

  9
$PUCSNAME
  2

  9
$PUCSORG
 10
0.0
 20
0.0
 30
0.0
  9
$PUCSXDIR
 10
1.0
 20
0.0
 30
0.0
  9
$PUCSYDIR
 10
0.0
 20
1.0
 30
0.0
  9
$PUCSORTHOREF
  2

  9
$PUCSORTHOVIEW
 70
     0
  9
$PUCSORGTOP
 10
0.0
 20
0.0
 30
0.0
  9
$PUCSORGBOTTOM
 10
0.0
 20
0.0
 30
0.0
  9
$PUCSORGLEFT
 10
0.0
 20
0.0
 30
0.0
  9
$PUCSORGRIGHT
 10
0.0
 20
0.0
 30
0.0
  9
$PUCSORGFRONT
 10
0.0
 20
0.0
 30
0.0
  9
$PUCSORGBACK
 10
0.0
 20
0.0
 30
0.0
  9
$USERI1
 70
     0
  9
$USERI2
 70
     0
  9
$USERI3
 70
     0
  9
$USERI4
 70
     0
  9
$USERI5
 70
     0
  9
$USERR1
 40
0.0
  9
$USERR2
 40
0.0
  9
$USERR3
 40
0.0
  9
$USERR4
 40
0.0
  9
$USERR5
 40
0.0
  9
$WORLDVIEW
 70
     1
  9
$SHADEDGE
 70
     3
  9
$SHADEDIF
 70
    70
  9
$TILEMODE
 70
     1
  9
$MAXACTVP
 70
    64
  9
$PINSBASE
 10
0.0
 20
0.0
 30
0.0
  9
$PLIMCHECK
 70
     0
  9
$PEXTMIN
 10
1.000000000000000E+20
 20
1.000000000000000E+20
 30
1.000000000000000E+20
  9
$PEXTMAX
 10
-1.000000000000000E+20
 20
-1.000000000000000E+20
 30
-1.000000000000000E+20
  9
$PLIMMIN
 10
0.0
 20
0.0
  9
$PLIMMAX
 10
12.0
 20
9.0
  9
$UNITMODE
 70
     0
  9
$VISRETAIN
 70
     1
  9
$PLINEGEN
 70
     0
  9
$PSLTSCALE
 70
     1
  9
$TREEDEPTH
 70
  3020
  9
$CMLSTYLE
  2
Standard
  9
$CMLJUST
 70
     0
  9
$CMLSCALE
 40
1.0
  9
$PROXYGRAPHICS
 70
     1
  9
$MEASUREMENT
 70
     0
  9
$CELWEIGHT
370
    -1
  9
$ENDCAPS
280
     0
  9
$JOINSTYLE
280
     0
  9
$LWDISPLAY
290
     0
  9
$INSUNITS
 70
     0
  9
$HYPERLINKBASE
  1

  9
$STYLESHEET
  1

  9
$XEDIT
290
     1
  9
$CEPSNTYPE
380
     0
  9
$PSTYLEMODE
290
     1
  9
$FINGERPRINTGUID
  2
{C91C5007-BBEC-4B09-BC81-FFF39705F80F}
  9
$VERSIONGUID
  2
{B5211DE7-6252-49C7-9756-6379CE1962DC}
  9
$EXTNAMES
290
     1
  9
$PSVPSCALE
 40
0.0
  9
$OLESTARTUP
290
     0
  0
ENDSEC
  0
SECTION
  2
CLASSES
  0
CLASS
  1
ACDBDICTIONARYWDFLT
  2
AcDbDictionaryWithDefault
  3
AutoCAD 2000
 90
        0
280
     0
281
     0
  0
CLASS
  1
ACDBPLACEHOLDER
  2
AcDbPlaceHolder
  3
AutoCAD 2000
 90
        0
280
     0
281
     0
  0
CLASS
  1
LAYOUT
  2
AcDbLayout
  3
AutoCAD 2000
 90
        0
280
     0
281
     0
  0
CLASS
  1
DICTIONARYVAR
  2
AcDbDictionaryVar
  3
AutoCAD 2000
 90
        0
280
     0
281
     0
  0
ENDSEC
  0
SECTION
  2
TABLES
  0
TABLE
  2
VPORT
  5
8
330
0
100
AcDbSymbolTable
 70
     4
  0
VPORT
  5
31C
330
8
100
AcDbSymbolTableRecord
100
AcDbViewportTableRecord
  2
*Active
 70
     0
 10
0.0
 20
0.0
 11
1.0
 21
1.0
 12
50.0
 22
99.0
 13
0.0
 23
0.0
 14
1.0
 24
1.0
 15
0.0
 25
0.0
 16
0.0
 26
0.0
 36
1.0
 17
0.0
 27
0.0
 37
0.0
 40
199.4747307497181
 41
2.073363431151241
 42
50.0
 43
0.0
 44
0.0
 50
0.0
 51
0.0
 71
     0
 72
   100
 73
     1
 74
     3
 75
     0
 76
     0
 77
     0
 78
     0
281
     0
 65
     1
110
0.0
120
0.0
130
0.0
111
1.0
121
0.0
131
0.0
112
0.0
122
1.0
132
0.0
 79
     1
146
0.0
  0
ENDTAB
  0
TABLE
  2
LTYPE
  5
5
330
0
100
AcDbSymbolTable
 70
     1
  0
LTYPE
  5
13
330
5
100
AcDbSymbolTableRecord
100
AcDbLinetypeTableRecord
  2
ByBlock
 70
     0
  3

 72
    65
 73
     0
 40
0.0
  0
LTYPE
  5
14
330
5
100
AcDbSymbolTableRecord
100
AcDbLinetypeTableRecord
  2
ByLayer
 70
     0
  3

 72
    65
 73
     0
 40
0.0
  0
LTYPE
  5
15
330
5
100
AcDbSymbolTableRecord
100
AcDbLinetypeTableRecord
  2
Continuous
 70
     0
  3
Solid line
 72
    65
 73
     0
 40
0.0
  0
ENDTAB
  0
TABLE
  2
LAYER
  5
2
330
0
100
AcDbSymbolTable
 70
     1
  0
LAYER
  5
10
330
2
100
AcDbSymbolTableRecord
100
AcDbLayerTableRecord
  2
0
 70
     0
 62
     7
  6
Continuous
370
    -3
390
F
  0
ENDTAB
  0
TABLE
  2
STYLE
  5
3
330
0
100
AcDbSymbolTable
 70
     1
  0
STYLE
  5
11
330
3
100
AcDbSymbolTableRecord
100
AcDbTextStyleTableRecord
  2
Standard
 70
     0
 40
0.0
 41
1.0
 50
0.0
 71
     0
 42
0.2
  3
txt
  4

  0
ENDTAB
  0
TABLE
  2
VIEW
  5
6
330
0
100
AcDbSymbolTable
 70
     0
  0
ENDTAB
  0
TABLE
  2
UCS
  5
7
330
0
100
AcDbSymbolTable
 70
     0
  0
ENDTAB
  0
TABLE
  2
APPID
  5
9
330
0
100
AcDbSymbolTable
 70
     1
  0
APPID
  5
12
330
9
100
AcDbSymbolTableRecord
100
AcDbRegAppTableRecord
  2
ACAD
 70
     0
  0
ENDTAB
  0
TABLE
  2
DIMSTYLE
  5
A
330
0
100
AcDbSymbolTable
 70
     1
100
AcDbDimStyleTable
 71
     0
  0
DIMSTYLE
105
23F
330
A
100
AcDbSymbolTableRecord
100
AcDbDimStyleTableRecord
  2
Standard
 70
     0
340
11
  0
ENDTAB
  0
TABLE
  2
BLOCK_RECORD
  5
1
330
0
100
AcDbSymbolTable
 70
     0
  0
BLOCK_RECORD
  5
1E
330
1
100
AcDbSymbolTableRecord
100
AcDbBlockTableRecord
  2
*Model_Space
340
21
  0
BLOCK_RECORD
  5
1A
330
1
100
AcDbSymbolTableRecord
100
AcDbBlockTableRecord
  2
*Paper_Space
340
1D
  0
ENDTAB
  0
ENDSEC
  0
SECTION
  2
BLOCKS
  0
BLOCK
  5
1F
330
1E
100
AcDbEntity
  8
0
100
AcDbBlockBegin
  2
*Model_Space
 70
     0
 10
0.0
 20
0.0
 30
0.0
  3
*Model_Space
  1

  0
ENDBLK
  5
20
330
1E
100
AcDbEntity
  8
0
100
AcDbBlockEnd
  0
BLOCK
  5
1B
330
1A
100
AcDbEntity
 67
     1
  8
0
100
AcDbBlockBegin
  2
*Paper_Space
 70
     0
 10
0.0
 20
0.0
 30
0.0
  3
*Paper_Space
  1

  0
ENDBLK
  5
1C
330
1A
100
AcDbEntity
 67
     1
  8
0
100
AcDbBlockEnd
  0
ENDSEC
  0
SECTION
  2
ENTITIES
  0
LINE
  5
22
330
1E
100
AcDbEntity
  8
0
100
AcDbLine
 10
0.2818
 20
46.64333749999999
 30
0.0
 11
0.941
 21
41.3972375
 31
0.0
  0
LINE
  5
23
330
1E
100
AcDbEntity
  8
0
100
AcDbLine
 10
0.0709
 20
48.9867375
 30
0.0
 11
0.2818
 21
46.64333749999999
 31
0.0
  0
LINE
  5
24
330
1E
100
AcDbEntity
  8
0
100
AcDbLine
 10
0.3813
 20
46.66683749999999
 30
0.0
 11
0.7311
 21
44.33783749999999
 31
0.0
  0
LINE
  5
25
330
1E
100
AcDbEntity
  8
0
100
AcDbLine
 10
0.2818
 20
46.64333749999999
 30
0.0
 11
0.6326000000000001
 21
44.3136375
 31
0.0
  0
LINE
  5
26
330
1E
100
AcDbEntity
  8
0
100
AcDbLine
 10
0.2818
 20
46.64333749999999
 30
0.0
 11
0.941
 21
41.3972375
 31
0.0
  0
LINE
  5
27
330
1E
100
AcDbEntity
  8
0
100
AcDbLine
 10
0.941
 20
41.3972375
 30
0.0
 11
1.653399999999999
 21
37.1792375
 31
0.0
  0
LINE
  5
28
330
1E
100
AcDbEntity
  8
0
100
AcDbLine
 10
2.617130079350229
 20
33.8043784055526
 30
0.0
 11
2.763999999999999
 21
32.88143749999999
 31
0.0
  0
LINE
  5
29
330
1E
100
AcDbEntity
  8
0
100
AcDbLine
 10
2.617130079350229
 20
33.8043784055526
 30
0.0
 11
2.763999999999999
 21
32.88143749999999
 31
0.0
  0
LINE
  5
2A
330
1E
100
AcDbEntity
  8
0
100
AcDbLine
 10
2.763999999999999
 20
32.88143749999999
 30
0.0
 11
3.253999999999999
 21
31.8025375
 31
0.0
  0
LINE
  5
2B
330
1E
100
AcDbEntity
  8
0
100
AcDbLine
 10
4.74578923275136
 20
28.5342695799393
 30
0.0
 11
7.957999999999999
 21
21.4968375
 31
0.0
  0
LINE
  5
2C
330
1E
100
AcDbEntity
  8
0
100
AcDbLine
 10
4.74578923275136
 20
28.5342695799393
 30
0.0
 11
7.957999999999999
 21
21.4968375
 31
0.0
  0
LINE
  5
2D
330
1E
100
AcDbEntity
  8
0
100
AcDbLine
 10
6.5376
 20
25.2160375
 30
0.0
 11
6.572099999999999
 21
25.1556375
 31
0.0
  0
LINE
  5
2E
330
1E
100
AcDbEntity
  8
0
100
AcDbLine
 10
7.957999999999999
 20
21.4968375
 30
0.0
 11
15.7
 21
12.4901375
 31
0.0
  0
LINE
  5
2F
330
1E
100
AcDbEntity
  8
0
100
AcDbLine
 10
13.0121
 20
17.0350375
 30
0.0
 11
15.1857
 21
14.9723375
 31
0.0
  0
LINE
  5
30
330
1E
100
AcDbEntity
  8
0
100
AcDbLine
 10
11.9391
 20
18.11373749999999
 30
0.0
 11
13.0121
 21
17.0350375
 31
0.0
  0
LINE
  5
31
330
1E
100
AcDbEntity
  8
0
100
AcDbLine
 10
11.01089999999999
 20
19.1601375
 30
0.0
 11
11.9391
 21
18.11373749999999
 31
0.0
  0
LINE
  5
33
330
1E
100
AcDbEntity
  8
0
100
AcDbLine
 10
9.058999999999999
 20
21.5190375
 30
0.0
 11
9.625552295644231
 21
20.8491716854945
 31
0.0
  0
LINE
  5
34
330
1E
100
AcDbEntity
  8
0
100
AcDbLine
 10
9.058999999999999
 20
21.5190375
 30
0.0
 11
9.625552295644231
 21
20.8491716854945
 31
0.0
  0
LINE
  5
37
330
1E
100
AcDbEntity
  8
0
100
AcDbLine
 10
15.7
 20
12.4901375
 30
0.0
 11
25.89199999999999
 21
5.6485275
 31
0.0
  0
LINE
  5
38
330
1E
100
AcDbEntity
  8
0
100
AcDbLine
 10
15.7
 20
12.4901375
 30
0.0
 11
25.89199999999999
 21
5.6485275
 31
0.0
  0
LINE
  5
39
330
1E
100
AcDbEntity
  8
0
100
AcDbLine
 10
15.1857
 20
14.9723375
 30
0.0
 11
18.7664
 21
12.1258375
 31
0.0
  0
LINE
  5
3A
330
1E
100
AcDbEntity
  8
0
100
AcDbLine
 10
25.89199999999999
 20
5.6485275
 30
0.0
 11
37.554
 21
1.491607499999999
 31
0.0
  0
LINE
  5
3B
330
1E
100
AcDbEntity
  8
0
100
AcDbLine
 10
25.89199999999999
 20
5.6485275
 30
0.0
 11
37.554
 21
1.491607499999999
 31
0.0
  0
LINE
  5
3C
330
1E
100
AcDbEntity
  8
0
100
AcDbLine
 10
22.9064253066695
 20
9.463270327887199
 30
0.0
 11
25.598
 21
7.6336175
 31
0.0
  0
LINE
  5
3E
330
1E
100
AcDbEntity
  8
0
100
AcDbLine
 10
23.3067
 20
14.0079375
 30
0.0
 11
27.0973
 21
12.1032375
 31
0.0
  0
LINE
  5
41
330
1E
100
AcDbEntity
  8
0
100
AcDbLine
 10
25.598
 20
7.6336175
 30
0.0
 11
31.9937973912621
 21
5.344808750989339
 31
0.0
  0
LINE
  5
42
330
1E
100
AcDbEntity
  8
0
100
AcDbLine
 10
25.598
 20
7.6336175
 30
0.0
 11
31.9937973912621
 21
5.344808750989339
 31
0.0
  0
LINE
  5
43
330
1E
100
AcDbEntity
  8
0
100
AcDbLine
 10
25.64389999999999
 20
12.8912375
 30
0.0
 11
27.988
 21
11.8109375
 31
0.0
  0
LINE
  5
45
330
1E
100
AcDbEntity
  8
0
100
AcDbLine
 10
23.36489999999999
 20
14.0818375
 30
0.0
 11
25.64389999999999
 21
12.8912375
 31
0.0
  0
LINE
  5
47
330
1E
100
AcDbEntity
  8
0
100
AcDbLine
 10
18.7664
 20
12.1258375
 30
0.0
 11
22.9064253066695
 21
9.463270327887199
 31
0.0
  0
LINE
  5
4A
330
1E
100
AcDbEntity
  8
0
100
AcDbLine
 10
14.8557
 20
20.0372375
 30
0.0
 11
18.00769999999999
 21
17.5126375
 31
0.0
  0
LINE
  5
4B
330
1E
100
AcDbEntity
  8
0
100
AcDbLine
 10
13.2407
 20
21.5151375
 30
0.0
 11
14.8557
 21
20.0372375
 31
0.0
  0
LINE
  5
4C
330
1E
100
AcDbEntity
  8
0
100
AcDbLine
 10
15.0044
 20
19.7820375
 30
0.0
 11
17.9525
 21
17.43563749999999
 31
0.0
  0
LINE
  5
4D
330
1E
100
AcDbEntity
  8
0
100
AcDbLine
 10
18.00769999999999
 20
17.5126375
 30
0.0
 11
21.15769999999999
 21
15.3794375
 31
0.0
  0
LINE
  5
4E
330
1E
100
AcDbEntity
  8
0
100
AcDbLine
 10
17.9525
 20
17.43563749999999
 30
0.0
 11
21.1036
 21
15.3028375
 31
0.0
  0
LINE
  5
4F
330
1E
100
AcDbEntity
  8
0
100
AcDbLine
 10
21.15769999999999
 20
15.3794375
 30
0.0
 11
23.36489999999999
 21
14.0818375
 31
0.0
  0
LINE
  5
50
330
1E
100
AcDbEntity
  8
0
100
AcDbLine
 10
21.1036
 20
15.3028375
 30
0.0
 11
23.3067
 21
14.0079375
 31
0.0
  0
LINE
  5
51
330
1E
100
AcDbEntity
  8
0
100
AcDbLine
 10
13.16089999999999
 20
21.4588375
 30
0.0
 11
15.0044
 21
19.7820375
 31
0.0
  0
LINE
  5
56
330
1E
100
AcDbEntity
  8
0
100
AcDbLine
 10
8.352499999999999
 20
27.02843749999999
 30
0.0
 11
9.872899999999999
 21
25.1116375
 31
0.0
  0
LINE
  5
57
330
1E
100
AcDbEntity
  8
0
100
AcDbLine
 10
8.270799999999999
 20
26.9761375
 30
0.0
 11
9.788199999999999
 21
25.0606375
 31
0.0
  0
LINE
  5
58
330
1E
100
AcDbEntity
  8
0
100
AcDbLine
 10
9.872899999999999
 20
25.1116375
 30
0.0
 11
11.5056
 21
23.2715375
 31
0.0
  0
LINE
  5
59
330
1E
100
AcDbEntity
  8
0
100
AcDbLine
 10
9.788199999999999
 20
25.0606375
 30
0.0
 11
11.42079999999999
 21
23.22013749999999
 31
0.0
  0
LINE
  5
5A
330
1E
100
AcDbEntity
  8
0
100
AcDbLine
 10
11.5056
 20
23.2715375
 30
0.0
 11
13.2407
 21
21.5151375
 31
0.0
  0
LINE
  5
5B
330
1E
100
AcDbEntity
  8
0
100
AcDbLine
 10
11.42079999999999
 20
23.22013749999999
 30
0.0
 11
13.16089999999999
 21
21.4588375
 31
0.0
  0
LINE
  5
5C
330
1E
100
AcDbEntity
  8
0
100
AcDbLine
 10
6.572099999999999
 20
25.1556375
 30
0.0
 11
9.058999999999999
 21
21.5190375
 31
0.0
  0
LINE
  5
5D
330
1E
100
AcDbEntity
  8
0
100
AcDbLine
 10
3.253999999999999
 20
31.8025375
 30
0.0
 11
4.09524629410099
 21
29.95950350061299
 31
0.0
  0
LINE
  5
5E
330
1E
100
AcDbEntity
  8
0
100
AcDbLine
 10
3.253999999999999
 20
31.8025375
 30
0.0
 11
4.09524629410099
 21
29.95950350061299
 31
0.0
  0
LINE
  5
5F
330
1E
100
AcDbEntity
  8
0
100
AcDbLine
 10
5.372899999999999
 20
31.5801375
 30
0.0
 11
6.9504
 21
29.01463749999999
 31
0.0
  0
LINE
  5
60
330
1E
100
AcDbEntity
  8
0
100
AcDbLine
 10
5.288199999999999
 20
31.5299375
 30
0.0
 11
6.868699999999999
 21
28.96013749999999
 31
0.0
  0
LINE
  5
61
330
1E
100
AcDbEntity
  8
0
100
AcDbLine
 10
4.463499999999999
 20
29.0570375
 30
0.0
 11
6.5376
 21
25.2160375
 31
0.0
  0
LINE
  5
62
330
1E
100
AcDbEntity
  8
0
100
AcDbLine
 10
6.9504
 20
29.01463749999999
 30
0.0
 11
8.352499999999999
 21
27.02843749999999
 31
0.0
  0
LINE
  5
63
330
1E
100
AcDbEntity
  8
0
100
AcDbLine
 10
6.868699999999999
 20
28.96013749999999
 30
0.0
 11
8.270799999999999
 21
26.9761375
 31
0.0
  0
LINE
  5
64
330
1E
100
AcDbEntity
  8
0
100
AcDbLine
 10
2.8288
 20
33.0631375
 30
0.0
 11
4.463499999999999
 21
29.0570375
 31
0.0
  0
LINE
  5
65
330
1E
100
AcDbEntity
  8
0
100
AcDbLine
 10
1.847499999999999
 20
39.7440375
 30
0.0
 11
2.6091
 21
37.5025375
 31
0.0
  0
LINE
  5
66
330
1E
100
AcDbEntity
  8
0
100
AcDbLine
 10
1.748899999999999
 20
39.72543749999999
 30
0.0
 11
2.5106
 21
37.4791375
 31
0.0
  0
LINE
  5
67
330
1E
100
AcDbEntity
  8
0
100
AcDbLine
 10
2.6091
 20
37.5025375
 30
0.0
 11
3.995499999999999
 21
34.2284375
 31
0.0
  0
LINE
  5
68
330
1E
100
AcDbEntity
  8
0
100
AcDbLine
 10
2.5106
 20
37.4791375
 30
0.0
 11
3.9038
 21
34.18773749999999
 31
0.0
  0
LINE
  5
69
330
1E
100
AcDbEntity
  8
0
100
AcDbLine
 10
3.995499999999999
 20
34.2284375
 30
0.0
 11
5.372899999999999
 21
31.5801375
 31
0.0
  0
LINE
  5
6A
330
1E
100
AcDbEntity
  8
0
100
AcDbLine
 10
3.9038
 20
34.18773749999999
 30
0.0
 11
5.288199999999999
 21
31.5299375
 31
0.0
  0
LINE
  5
6B
330
1E
100
AcDbEntity
  8
0
100
AcDbLine
 10
1.653399999999999
 20
37.1792375
 30
0.0
 11
2.8288
 21
33.0631375
 31
0.0
  0
LINE
  5
6C
330
1E
100
AcDbEntity
  8
0
100
AcDbLine
 10
1.2208
 20
42.0265375
 30
0.0
 11
1.847499999999999
 21
39.7440375
 31
0.0
  0
LINE
  5
6D
330
1E
100
AcDbEntity
  8
0
100
AcDbLine
 10
1.1223
 20
42.0053375
 30
0.0
 11
1.748899999999999
 21
39.72543749999999
 31
0.0
  0
LINE
  5
6E
330
1E
100
AcDbEntity
  8
0
100
AcDbLine
 10
0.7311
 20
44.33783749999999
 30
0.0
 11
1.2208
 21
42.0265375
 31
0.0
  0
LINE
  5
6F
330
1E
100
AcDbEntity
  8
0
100
AcDbLine
 10
0.6326000000000001
 20
44.3136375
 30
0.0
 11
1.1223
 21
42.0053375
 31
0.0
  0
LINE
  5
70
330
1E
100
AcDbEntity
  8
0
100
AcDbLine
 10
0.1705
 20
49.0058375
 30
0.0
 11
0.3813
 21
46.66683749999999
 31
0.0
  0
LINE
  5
71
330
1E
100
AcDbEntity
  8
0
100
AcDbLine
 10
0.0
 20
51.3565375
 30
0.0
 11
0.1803
 21
55.2257375
 31
0.0
  0
LINE
  5
72
330
1E
100
AcDbEntity
  8
0
100
AcDbLine
 10
0.1015
 20
51.3600375
 30
0.0
 11
0.1054
 21
51.8580375
 31
0.0
  0
LINE
  5
73
330
1E
100
AcDbEntity
  8
0
100
AcDbLine
 10
0.1054
 20
51.8580375
 30
0.0
 11
0.1882
 21
54.0099375
 31
0.0
  0
LINE
  5
74
330
1E
100
AcDbEntity
  8
0
100
AcDbLine
 10
0.1015
 20
51.3430375
 30
0.0
 11
0.1705
 21
49.0058375
 31
0.0
  0
LINE
  5
75
330
1E
100
AcDbEntity
  8
0
100
AcDbLine
 10
0.0
 20
51.3400375
 30
0.0
 11
0.0709
 21
48.9867375
 31
0.0
  0
LINE
  5
76
330
1E
100
AcDbEntity
  8
0
100
AcDbLine
 10
0.1803
 20
55.2257375
 30
0.0
 11
0.7252
 21
59.17383749999999
 31
0.0
  0
LINE
  5
77
330
1E
100
AcDbEntity
  8
0
100
AcDbLine
 10
0.1882
 20
54.0099375
 30
0.0
 11
0.3803
 21
56.16333749999999
 31
0.0
  0
LINE
  5
78
330
1E
100
AcDbEntity
  8
0
100
AcDbLine
 10
0.3803
 20
56.16333749999999
 30
0.0
 11
0.6799
 21
58.3165375
 31
0.0
  0
LINE
  5
79
330
1E
100
AcDbEntity
  8
0
100
AcDbLine
 10
0.3803
 20
56.16333749999999
 30
0.0
 11
0.534
 21
57.1772375
 31
0.0
  0
LINE
  5
7A
330
1E
100
AcDbEntity
  8
0
100
AcDbLine
 10
0.1803
 20
55.2257375
 30
0.0
 11
0.7252
 21
59.17383749999999
 31
0.0
  0
LINE
  5
7B
330
1E
100
AcDbEntity
  8
0
100
AcDbLine
 10
0.6799
 20
58.3165375
 30
0.0
 11
0.9695999999999999
 21
59.83433749999999
 31
0.0
  0
LINE
  5
7C
330
1E
100
AcDbEntity
  8
0
100
AcDbLine
 10
0.7252
 20
59.17383749999999
 30
0.0
 11
1.408999999999999
 21
62.2738375
 31
0.0
  0
LINE
  5
7D
330
1E
100
AcDbEntity
  8
0
100
AcDbLine
 10
1.345967162450359
 20
61.49360943615389
 30
0.0
 11
1.4878
 21
62.1701375
 31
0.0
  0
LINE
  5
7E
330
1E
100
AcDbEntity
  8
0
100
AcDbLine
 10
1.4878
 20
62.1701375
 30
0.0
 11
1.570599999999999
 21
62.4839375
 31
0.0
  0
LINE
  5
7F
330
1E
100
AcDbEntity
  8
0
100
AcDbLine
 10
1.4878
 20
62.1701375
 30
0.0
 11
1.53417163021734
 21
62.3233374857302
 31
0.0
  0
LINE
  5
80
330
1E
100
AcDbEntity
  8
0
100
AcDbLine
 10
1.4878
 20
62.1701375
 30
0.0
 11
1.53417163021734
 21
62.3233374857302
 31
0.0
  0
LINE
  5
81
330
1E
100
AcDbEntity
  8
0
100
AcDbLine
 10
1.408999999999999
 20
62.2738375
 30
0.0
 11
2.5579
 21
66.0243375
 31
0.0
  0
LINE
  5
82
330
1E
100
AcDbEntity
  8
0
100
AcDbLine
 10
1.345967162450359
 20
61.49360943615389
 30
0.0
 11
1.4878
 21
62.1701375
 31
0.0
  0
LINE
  5
83
330
1E
100
AcDbEntity
  8
0
100
AcDbLine
 10
0.9695999999999999
 20
59.83433749999999
 30
0.0
 11
1.570599999999999
 21
62.4839375
 31
0.0
  0
LINE
  5
84
330
1E
100
AcDbEntity
  8
0
100
AcDbLine
 10
2.57799671985018
 20
65.77186815172339
 30
0.0
 11
2.596299999999999
 21
65.83233749999999
 31
0.0
  0
LINE
  5
85
330
1E
100
AcDbEntity
  8
0
100
AcDbLine
 10
2.57799671985018
 20
65.77186815172339
 30
0.0
 11
2.596299999999999
 21
65.83233749999999
 31
0.0
  0
LINE
  5
86
330
1E
100
AcDbEntity
  8
0
100
AcDbLine
 10
2.278099999999999
 20
64.92443749999999
 30
0.0
 11
2.596299999999999
 21
65.83233749999999
 31
0.0
  0
LINE
  5
87
330
1E
100
AcDbEntity
  8
0
100
AcDbLine
 10
3.832467911799509
 20
68.9105442069972
 30
0.0
 11
4.0437
 21
69.4365375
 31
0.0
  0
LINE
  5
88
330
1E
100
AcDbEntity
  8
0
100
AcDbLine
 10
3.832467911799509
 20
68.9105442069972
 30
0.0
 11
4.0437
 21
69.4365375
 31
0.0
  0
LINE
  5
89
330
1E
100
AcDbEntity
  8
0
100
AcDbLine
 10
3.1343
 20
67.34383750000001
 30
0.0
 11
4.0437
 21
69.4365375
 31
0.0
  0
LINE
  5
8A
330
1E
100
AcDbEntity
  8
0
100
AcDbLine
 10
2.5579
 20
66.0243375
 30
0.0
 11
4.0319
 21
69.6480375
 31
0.0
  0
LINE
  5
8B
330
1E
100
AcDbEntity
  8
0
100
AcDbLine
 10
4.0437
 20
69.4365375
 30
0.0
 11
4.306073137864729
 21
69.9733264855938
 31
0.0
  0
LINE
  5
8C
330
1E
100
AcDbEntity
  8
0
100
AcDbLine
 10
4.0437
 20
69.4365375
 30
0.0
 11
4.895999999999999
 21
71.2971375
 31
0.0
  0
LINE
  5
8D
330
1E
100
AcDbEntity
  8
0
100
AcDbLine
 10
4.0437
 20
69.4365375
 30
0.0
 11
4.306073137864729
 21
69.9733264855938
 31
0.0
  0
LINE
  5
8E
330
1E
100
AcDbEntity
  8
0
100
AcDbLine
 10
4.0319
 20
69.6480375
 30
0.0
 11
4.5354
 21
70.7033375
 31
0.0
  0
LINE
  5
8F
330
1E
100
AcDbEntity
  8
0
100
AcDbLine
 10
2.596299999999999
 20
65.83233749999999
 30
0.0
 11
3.1343
 21
67.34383750000001
 31
0.0
  0
LINE
  5
90
330
1E
100
AcDbEntity
  8
0
100
AcDbLine
 10
2.596299999999999
 20
65.83233749999999
 30
0.0
 11
2.622368082564779
 21
65.8972501593754
 31
0.0
  0
LINE
  5
91
330
1E
100
AcDbEntity
  8
0
100
AcDbLine
 10
2.596299999999999
 20
65.83233749999999
 30
0.0
 11
2.622368082564779
 21
65.8972501593754
 31
0.0
  0
LINE
  5
92
330
1E
100
AcDbEntity
  8
0
100
AcDbLine
 10
4.5354
 20
70.7033375
 30
0.0
 11
4.877299999999999
 21
71.3797375
 31
0.0
  0
LINE
  5
93
330
1E
100
AcDbEntity
  8
0
100
AcDbLine
 10
4.877299999999999
 20
71.3797375
 30
0.0
 11
6.2469
 21
73.8372375
 31
0.0
  0
LINE
  5
94
330
1E
100
AcDbEntity
  8
0
100
AcDbLine
 10
6.27255387936942
 20
73.67735037095329
 30
0.0
 11
7.0864
 21
75.1195375
 31
0.0
  0
LINE
  5
95
330
1E
100
AcDbEntity
  8
0
100
AcDbLine
 10
6.272553879369429
 20
73.67735037095329
 30
0.0
 11
7.0864
 21
75.1195375
 31
0.0
  0
LINE
  5
96
330
1E
100
AcDbEntity
  8
0
100
AcDbLine
 10
6.2469
 20
73.8372375
 30
0.0
 11
7.04670072933032
 21
75.0502595178014
 31
0.0
  0
LINE
  5
97
330
1E
100
AcDbEntity
  8
0
100
AcDbLine
 10
8.3003
 20
76.9515375
 30
0.0
 11
9.484121889073179
 21
78.46923793152228
 31
0.0
  0
LINE
  5
98
330
1E
100
AcDbEntity
  8
0
100
AcDbLine
 10
7.162205209833329
 20
75.2254400007227
 30
0.0
 11
8.3003
 21
76.9515375
 31
0.0
  0
LINE
  5
99
330
1E
100
AcDbEntity
  8
0
100
AcDbLine
 10
7.162205209833329
 20
75.2254400007227
 30
0.0
 11
8.3003
 21
76.9515375
 31
0.0
  0
LINE
  5
9A
330
1E
100
AcDbEntity
  8
0
100
AcDbLine
 10
7.0864
 20
75.1195375
 30
0.0
 11
9.6965
 21
78.76593750000001
 31
0.0
  0
LINE
  5
9B
330
1E
100
AcDbEntity
  8
0
100
AcDbLine
 10
9.87002269053463
 20
78.96397604906249
 30
0.0
 11
10.4316
 21
79.6839375
 31
0.0
  0
LINE
  5
9C
330
1E
100
AcDbEntity
  8
0
100
AcDbLine
 10
9.87002269053463
 20
78.96397604906249
 30
0.0
 11
10.4316
 21
79.6839375
 31
0.0
  0
LINE
  5
9D
330
1E
100
AcDbEntity
  8
0
100
AcDbLine
 10
10.4316
 20
79.6839375
 30
0.0
 11
12.0918341784917
 21
81.49969239837471
 31
0.0
  0
LINE
  5
9E
330
1E
100
AcDbEntity
  8
0
100
AcDbLine
 10
10.4316
 20
79.6839375
 30
0.0
 11
12.0918341784917
 21
81.49969239837471
 31
0.0
  0
LINE
  5
9F
330
1E
100
AcDbEntity
  8
0
100
AcDbLine
 10
12.9143205948192
 20
82.3992243792488
 30
0.0
 11
13.1442
 21
82.65063750000001
 31
0.0
  0
LINE
  5
A0
330
1E
100
AcDbEntity
  8
0
100
AcDbLine
 10
12.7214
 20
82.21603749999999
 30
0.0
 11
15.9996
 21
85.32883750000001
 31
0.0
  0
LINE
  5
A1
330
1E
100
AcDbEntity
  8
0
100
AcDbLine
 10
13.1442
 20
82.65063750000001
 30
0.0
 11
15.9474
 21
85.28153749999999
 31
0.0
  0
LINE
  5
A2
330
1E
100
AcDbEntity
  8
0
100
AcDbLine
 10
12.9143205948192
 20
82.3992243792488
 30
0.0
 11
13.1442
 21
82.65063750000001
 31
0.0
  0
LINE
  5
A3
330
1E
100
AcDbEntity
  8
0
100
AcDbLine
 10
16.0666
 20
85.34993749999999
 30
0.0
 11
16.3996
 21
85.68183750000001
 31
0.0
  0
LINE
  5
A4
330
1E
100
AcDbEntity
  8
0
100
AcDbLine
 10
16.3179
 20
85.6073375
 30
0.0
 11
16.3703815619691
 21
85.65271557933199
 31
0.0
  0
LINE
  5
A7
330
1E
100
AcDbEntity
  8
0
100
AcDbLine
 10
16.3996
 20
85.68183750000001
 30
0.0
 11
19.52799999999999
 21
88.38923749999999
 31
0.0
  0
LINE
  5
A8
330
1E
100
AcDbEntity
  8
0
100
AcDbLine
 10
19.52799999999999
 20
88.38923749999999
 30
0.0
 11
22.5855
 21
91.1114375
 31
0.0
  0
LINE
  5
A9
330
1E
100
AcDbEntity
  8
0
100
AcDbLine
 10
19.1424965008897
 20
88.0556125883867
 30
0.0
 11
19.835944590923
 21
88.6634114216388
 31
0.0
  0
LINE
  5
AA
330
1E
100
AcDbEntity
  8
0
100
AcDbLine
 10
19.1424965008897
 20
88.0556125883867
 30
0.0
 11
19.83594459092289
 21
88.6634114216387
 31
0.0
  0
LINE
  5
AD
330
1E
100
AcDbEntity
  8
0
100
AcDbLine
 10
24.5472
 20
92.9703375
 30
0.0
 11
26.4095
 21
94.88633749999999
 31
0.0
  0
LINE
  5
AE
330
1E
100
AcDbEntity
  8
0
100
AcDbLine
 10
26.4095
 20
94.88633749999999
 30
0.0
 11
28.1328
 21
96.86893750000001
 31
0.0
  0
LINE
  5
AF
330
1E
100
AcDbEntity
  8
0
100
AcDbLine
 10
22.5855
 20
91.1114375
 30
0.0
 11
24.5472
 21
92.9703375
 31
0.0
  0
LINE
  5
B0
330
1E
100
AcDbEntity
  8
0
100
AcDbLine
 10
16.082937405594
 20
85.40072261941309
 30
0.0
 11
16.3179
 21
85.6073375
 31
0.0
  0
LINE
  5
B1
330
1E
100
AcDbEntity
  8
0
100
AcDbLine
 10
15.9996
 20
85.32883750000001
 30
0.0
 11
16.3401872272742
 21
85.62262098568259
 31
0.0
  0
LINE
  5
B2
330
1E
100
AcDbEntity
  8
0
100
AcDbLine
 10
9.6965
 20
78.76593750000001
 30
0.0
 11
12.6919
 21
82.1845375
 31
0.0
  0
LINE
  5
B3
330
1E
100
AcDbEntity
  8
0
100
AcDbLine
 10
4.895999999999999
 20
71.2971375
 30
0.0
 11
7.0864
 21
75.1195375
 31
0.0
  0
LINE
  5
B4
330
1E
100
AcDbEntity
  8
0
100
AcDbLine
 10
1.570599999999999
 20
62.4839375
 30
0.0
 11
2.278099999999999
 21
64.92443749999999
 31
0.0
  0
LINE
  5
B5
330
1E
100
AcDbEntity
  8
0
100
AcDbLine
 10
0.534
 20
57.1772375
 30
0.0
 11
0.9695999999999999
 21
59.83433749999999
 31
0.0
  0
LINE
  5
B6
330
1E
100
AcDbEntity
  8
0
100
AcDbLine
 10
0.1705
 20
49.0058375
 30
0.0
 11
0.3813
 21
46.66683749999999
 31
0.0
  0
LINE
  5
B7
330
1E
100
AcDbEntity
  8
0
100
AcDbLine
 10
0.0709
 20
48.9867375
 30
0.0
 11
0.2818
 21
46.64333749999999
 31
0.0
  0
LINE
  5
B8
330
1E
100
AcDbEntity
  8
0
100
AcDbLine
 10
31.9937973912621
 20
5.344808750989339
 30
0.0
 11
37.45599999999999
 21
3.390097499999999
 31
0.0
  0
LINE
  5
B9
330
1E
100
AcDbEntity
  8
0
100
AcDbLine
 10
31.9937973912621
 20
5.344808750989339
 30
0.0
 11
37.45599999999999
 21
3.390097499999999
 31
0.0
  0
LINE
  5
BB
330
1E
100
AcDbEntity
  8
0
100
AcDbLine
 10
37.554
 20
1.491607499999999
 30
0.0
 11
50.0
 21
-0.0672374999999984
 31
0.0
  0
LINE
  5
BC
330
1E
100
AcDbEntity
  8
0
100
AcDbLine
 10
37.45599999999999
 20
3.390097499999999
 30
0.0
 11
50.0
 21
1.831247499999999
 31
0.0
  0
LINE
  5
BD
330
1E
100
AcDbEntity
  8
0
100
AcDbLine
 10
37.554
 20
1.491607499999999
 30
0.0
 11
50.0
 21
-0.0672374999999983
 31
0.0
  0
LINE
  5
BF
330
1E
100
AcDbEntity
  8
0
100
AcDbLine
 10
35.973
 20
9.086687500000008
 30
0.0
 11
38.2146
 21
8.5604375
 31
0.0
  0
LINE
  5
C0
330
1E
100
AcDbEntity
  8
0
100
AcDbLine
 10
35.9543
 20
8.996687500000009
 30
0.0
 11
38.1949
 21
8.471807499999998
 31
0.0
  0
LINE
  5
C6
330
1E
100
AcDbEntity
  8
0
100
AcDbLine
 10
40.4848
 20
8.126387499999999
 30
0.0
 11
43.75899999999999
 21
7.668967499999999
 31
0.0
  0
LINE
  5
C7
330
1E
100
AcDbEntity
  8
0
100
AcDbLine
 10
40.4611
 20
8.0381175
 30
0.0
 11
43.7344
 21
7.5798475
 31
0.0
  0
LINE
  5
F6
330
1E
100
AcDbEntity
  8
0
100
AcDbLine
 10
47.0529
 20
7.402207499999999
 30
0.0
 11
50.0
 21
7.3266475
 31
0.0
  0
LINE
  5
F7
330
1E
100
AcDbEntity
  8
0
100
AcDbLine
 10
47.0342
 20
7.3127175
 30
0.0
 11
50.0
 21
7.235737499999999
 31
0.0
  0
LINE
  5
F8
330
1E
100
AcDbEntity
  8
0
100
AcDbLine
 10
43.75899999999999
 20
7.668967499999999
 30
0.0
 11
47.0529
 21
7.402207499999999
 31
0.0
  0
LINE
  5
FA
330
1E
100
AcDbEntity
  8
0
100
AcDbLine
 10
43.7344
 20
7.5798475
 30
0.0
 11
47.0342
 21
7.3127175
 31
0.0
  0
LINE
  5
101
330
1E
100
AcDbEntity
  8
0
100
AcDbLine
 10
38.2146
 20
8.5604375
 30
0.0
 11
40.4848
 21
8.126387499999999
 31
0.0
  0
LINE
  5
102
330
1E
100
AcDbEntity
  8
0
100
AcDbLine
 10
38.1949
 20
8.471807499999998
 30
0.0
 11
40.4611
 21
8.0381175
 31
0.0
  0
LINE
  5
103
330
1E
100
AcDbEntity
  8
0
100
AcDbLine
 10
27.988
 20
11.8109375
 30
0.0
 11
30.3833
 21
10.8448375
 31
0.0
  0
LINE
  5
104
330
1E
100
AcDbEntity
  8
0
100
AcDbLine
 10
30.3833
 20
10.8448375
 30
0.0
 11
33.7659
 21
9.702367500000001
 31
0.0
  0
LINE
  5
105
330
1E
100
AcDbEntity
  8
0
100
AcDbLine
 10
30.3409
 20
10.7622375
 30
0.0
 11
33.7432
 21
9.6137475
 31
0.0
  0
LINE
  5
11C
330
1E
100
AcDbEntity
  8
0
100
AcDbLine
 10
33.7659
 20
9.702367500000001
 30
0.0
 11
35.973
 21
9.086687500000008
 31
0.0
  0
LINE
  5
11D
330
1E
100
AcDbEntity
  8
0
100
AcDbLine
 10
33.7432
 20
9.6137475
 30
0.0
 11
35.9543
 21
8.996687500000009
 31
0.0
  0
LINE
  5
11E
330
1E
100
AcDbEntity
  8
0
100
AcDbLine
 10
27.0973
 20
12.1032375
 30
0.0
 11
30.3409
 21
10.7622375
 31
0.0
  0
LINE
  5
120
330
1E
100
AcDbEntity
  8
0
100
AcDbLine
 10
28.3092
 20
97.08853750000001
 30
0.0
 11
30.1655
 21
99.6178375
 31
0.0
  0
LINE
  5
121
330
1E
100
AcDbEntity
  8
0
100
AcDbLine
 10
30.1655
 20
99.6178375
 30
0.0
 11
31.747
 21
102.2482375
 31
0.0
  0
LINE
  5
122
330
1E
100
AcDbEntity
  8
0
100
AcDbLine
 10
31.747
 20
102.2482375
 30
0.0
 11
33.0427
 21
104.9402374999999
 31
0.0
  0
LINE
  5
124
330
1E
100
AcDbEntity
  8
0
100
AcDbLine
 10
33.75644667713939
 20
106.796117684281
 30
0.0
 11
34.35309999999999
 21
108.7792375
 31
0.0
  0
LINE
  5
126
330
1E
100
AcDbEntity
  8
0
100
AcDbLine
 10
34.83
 20
110.8352375
 30
0.0
 11
35.1631
 21
112.7172375
 31
0.0
  0
LINE
  5
127
330
1E
100
AcDbEntity
  8
0
100
AcDbLine
 10
34.4349
 20
109.0952375
 30
0.0
 11
34.83
 21
110.8352375
 31
0.0
  0
LINE
  5
128
330
1E
100
AcDbEntity
  8
0
100
AcDbLine
 10
34.35309999999999
 20
108.7792375
 30
0.0
 11
34.4349
 21
109.0952375
 31
0.0
  0
LINE
  5
129
330
1E
100
AcDbEntity
  8
0
100
AcDbLine
 10
35.1631
 20
112.7172375
 30
0.0
 11
35.5326
 21
115.9002375
 31
0.0
  0
LINE
  5
12B
330
1E
100
AcDbEntity
  8
0
100
AcDbLine
 10
35.20739999999999
 20
150.1632374999999
 30
0.0
 11
35.23699999999999
 21
145.6282375
 31
0.0
  0
LINE
  5
12C
330
1E
100
AcDbEntity
  8
0
100
AcDbLine
 10
35.23699999999999
 20
145.6282375
 30
0.0
 11
35.36509999999999
 21
137.0362375
 31
0.0
  0
LINE
  5
130
330
1E
100
AcDbEntity
  8
0
100
AcDbLine
 10
33.2352043374442
 20
105.438472527133
 30
0.0
 11
33.7826
 21
106.8642375
 31
0.0
  0
LINE
  5
131
330
1E
100
AcDbEntity
  8
0
100
AcDbLine
 10
28.1328
 20
96.86893750000001
 30
0.0
 11
28.3092
 21
97.08853750000001
 31
0.0
  0
LINE
  5
132
330
1E
100
AcDbEntity
  8
0
100
AcDbLine
 10
35.26749999999999
 20
162.4622374999999
 30
0.0
 11
35.4124
 21
169.7732375
 31
0.0
  0
LINE
  5
133
330
1E
100
AcDbEntity
  8
0
100
AcDbLine
 10
35.26059999999999
 20
161.9742374999999
 30
0.0
 11
35.26749999999999
 21
162.4622374999999
 31
0.0
  0
LINE
  5
134
330
1E
100
AcDbEntity
  8
0
100
AcDbLine
 10
35.2035
 20
154.3442374999999
 30
0.0
 11
35.20739999999999
 21
150.1632374999999
 31
0.0
  0
LINE
  5
135
330
1E
100
AcDbEntity
  8
0
100
AcDbLine
 10
35.2035
 20
154.3442374999999
 30
0.0
 11
35.26059999999999
 21
161.9742374999999
 31
0.0
  0
LINE
  5
136
330
1E
100
AcDbEntity
  8
0
100
AcDbLine
 10
35.5907
 20
128.1102375
 30
0.0
 11
35.6488
 21
126.2272375
 31
0.0
  0
LINE
  5
13B
330
1E
100
AcDbEntity
  8
0
100
AcDbLine
 10
35.36509999999999
 20
137.0362375
 30
0.0
 11
35.5887
 21
128.1542374999999
 31
0.0
  0
LINE
  5
13E
330
1E
100
AcDbEntity
  8
0
100
AcDbLine
 10
35.4124
 20
169.7732375
 30
0.0
 11
35.63499999999999
 21
176.7722374999999
 31
0.0
  0
LINE
  5
140
330
1E
100
AcDbEntity
  8
0
100
AcDbLine
 10
35.7099
 20
119.2402375
 30
0.0
 11
35.7346
 21
120.5902374999999
 31
0.0
  0
LINE
  5
142
330
1E
100
AcDbEntity
  8
0
100
AcDbLine
 10
35.6488
 20
126.2272375
 30
0.0
 11
35.6991
 21
124.3922374999999
 31
0.0
  0
LINE
  5
144
330
1E
100
AcDbEntity
  8
0
100
AcDbLine
 10
35.63499999999999
 20
176.7722374999999
 30
0.0
 11
35.83209999999999
 21
181.3742374999999
 31
0.0
  0
LINE
  5
149
330
1E
100
AcDbEntity
  8
0
100
AcDbLine
 10
35.83209999999999
 20
181.3742374999999
 30
0.0
 11
36.11979999999999
 21
184.8832375
 31
0.0
  0
LINE
  5
14A
330
1E
100
AcDbEntity
  8
0
100
AcDbLine
 10
36.4745
 20
190.5382375
 30
0.0
 11
36.55429999999999
 21
190.7222375
 31
0.0
  0
LINE
  5
14B
330
1E
100
AcDbEntity
  8
0
100
AcDbLine
 10
36.443
 20
190.3282375
 30
0.0
 11
36.4745
 21
190.5382375
 31
0.0
  0
LINE
  5
14C
330
1E
100
AcDbEntity
  8
0
100
AcDbLine
 10
36.3602
 20
189.1622375
 30
0.0
 11
36.443
 21
190.3282375
 31
0.0
  0
LINE
  5
14D
330
1E
100
AcDbEntity
  8
0
100
AcDbLine
 10
36.11979999999999
 20
184.8832375
 30
0.0
 11
36.3602
 21
189.1622375
 31
0.0
  0
LINE
  5
14E
330
1E
100
AcDbEntity
  8
0
100
AcDbLine
 10
35.6991
 20
124.3922374999999
 30
0.0
 11
35.7346
 21
120.5902374999999
 31
0.0
  0
LINE
  5
151
330
1E
100
AcDbEntity
  8
0
100
AcDbLine
 10
35.5326
 20
115.9002375
 30
0.0
 11
35.7099
 21
119.2402375
 31
0.0
  0
LINE
  5
154
330
1E
100
AcDbEntity
  8
0
100
AcDbLine
 10
36.55429999999999
 20
190.7222375
 30
0.0
 11
36.6007
 21
190.8122374999999
 31
0.0
  0
LINE
  5
15D
330
1E
100
AcDbEntity
  8
0
100
AcDbLine
 10
36.64009999999999
 20
190.8862375
 30
0.0
 11
36.71889999999999
 21
191.0072375
 31
0.0
  0
LINE
  5
15E
330
1E
100
AcDbEntity
  8
0
100
AcDbLine
 10
36.71889999999999
 20
191.0072375
 30
0.0
 11
36.8194
 21
191.1132375
 31
0.0
  0
LINE
  5
20A
330
1E
100
AcDbEntity
  8
0
100
AcDbLine
 10
39.9798545231052
 20
192.406277248588
 30
0.0
 11
40.5231
 21
193.4952375
 31
0.0
  0
LINE
  5
20C
330
1E
100
AcDbEntity
  8
0
100
AcDbLine
 10
42.4111797079233
 20
193.1180680122
 30
0.0
 11
44.5
 21
194.4072375
 31
0.0
  0
LINE
  5
20D
330
1E
100
AcDbEntity
  8
0
100
AcDbLine
 10
41.3395972657033
 20
192.812945415166
 30
0.0
 11
42.2154
 21
193.7962374999999
 31
0.0
  0
LINE
  5
20E
330
1E
100
AcDbEntity
  8
0
100
AcDbLine
 10
40.5231
 20
192.6952374999999
 30
0.0
 11
42.2154
 21
194.5962375
 31
0.0
  0
LINE
  5
20F
330
1E
100
AcDbEntity
  8
0
100
AcDbLine
 10
40.4563236114972
 20
192.561441899763
 30
0.0
 11
40.5231
 21
192.6952374999999
 31
0.0
  0
LINE
  5
213
330
1E
100
AcDbEntity
  8
0
100
AcDbLine
 10
40.1606
 20
192.4772375
 30
0.0
 11
43.3284
 21
193.3792374999999
 31
0.0
  0
LINE
  5
214
330
1E
100
AcDbEntity
  8
0
100
AcDbLine
 10
42.2154
 20
193.7962374999999
 30
0.0
 11
44.5
 21
195.2072375
 31
0.0
  0
LINE
  5
215
330
1E
100
AcDbEntity
  8
0
100
AcDbLine
 10
42.2154
 20
194.5962375
 30
0.0
 11
44.5
 21
196.0062374999999
 31
0.0
  0
LINE
  5
216
330
1E
100
AcDbEntity
  8
0
100
AcDbLine
 10
44.5
 20
193.6072375
 30
0.0
 11
47.1231
 21
194.5182375
 31
0.0
  0
LINE
  5
217
330
1E
100
AcDbEntity
  8
0
100
AcDbLine
 10
44.4448453519318
 20
193.573197381915
 30
0.0
 11
44.5
 21
193.6072375
 31
0.0
  0
LINE
  5
218
330
1E
100
AcDbEntity
  8
0
100
AcDbLine
 10
44.5
 20
194.4072375
 30
0.0
 11
47.1231
 21
195.3172375
 31
0.0
  0
LINE
  5
219
330
1E
100
AcDbEntity
  8
0
100
AcDbLine
 10
44.5
 20
195.2072375
 30
0.0
 11
47.1231
 21
196.1172374999999
 31
0.0
  0
LINE
  5
21A
330
1E
100
AcDbEntity
  8
0
100
AcDbLine
 10
44.5
 20
196.0062374999999
 30
0.0
 11
47.1231
 21
196.9172375
 31
0.0
  0
LINE
  5
21B
330
1E
100
AcDbEntity
  8
0
100
AcDbLine
 10
44.5
 20
196.8062375
 30
0.0
 11
47.1231
 21
197.7162374999999
 31
0.0
  0
LINE
  5
21C
330
1E
100
AcDbEntity
  8
0
100
AcDbLine
 10
42.2154
 20
195.3962375
 30
0.0
 11
44.5
 21
196.8062375
 31
0.0
  0
LINE
  5
21D
330
1E
100
AcDbEntity
  8
0
100
AcDbLine
 10
40.5231
 20
193.4952375
 30
0.0
 11
42.2154
 21
195.3962375
 31
0.0
  0
LINE
  5
221
330
1E
100
AcDbEntity
  8
0
100
AcDbLine
 10
47.1231
 20
194.5182375
 30
0.0
 11
50.0
 21
194.8692375
 31
0.0
  0
LINE
  5
222
330
1E
100
AcDbEntity
  8
0
100
AcDbLine
 10
47.1231
 20
195.3172375
 30
0.0
 11
50.0
 21
195.6682374999999
 31
0.0
  0
LINE
  5
223
330
1E
100
AcDbEntity
  8
0
100
AcDbLine
 10
47.1231
 20
196.1172374999999
 30
0.0
 11
50.0
 21
196.4682374999999
 31
0.0
  0
LINE
  5
224
330
1E
100
AcDbEntity
  8
0
100
AcDbLine
 10
47.1231
 20
196.9172375
 30
0.0
 11
50.0
 21
197.2682374999999
 31
0.0
  0
LINE
  5
236
330
1E
100
AcDbEntity
  8
0
100
AcDbLine
 10
47.1231
 20
197.7162374999999
 30
0.0
 11
50.0
 21
198.0672375
 31
0.0
  0
LINE
  5
238
330
1E
100
AcDbEntity
  8
0
100
AcDbLine
 10
46.6213
 20
193.9502375
 30
0.0
 11
50.0
 21
194.1492374999999
 31
0.0
  0
LINE
  5
239
330
1E
100
AcDbEntity
  8
0
100
AcDbLine
 10
43.3284
 20
193.3792374999999
 30
0.0
 11
46.60359999999999
 21
193.9482375
 31
0.0
  0
LINE
  5
23A
330
1E
100
AcDbEntity
  8
0
100
AcDbLine
 10
37.0913
 20
191.2722374999999
 30
0.0
 11
40.1606
 21
192.4772375
 31
0.0
  0
LINE
  5
23B
330
1E
100
AcDbEntity
  8
0
100
AcDbLine
 10
36.8194
 20
191.1132375
 30
0.0
 11
37.0913
 21
191.2722374999999
 31
0.0
  0
LINE
  5
23C
330
1E
100
AcDbEntity
  8
0
100
AcDbLine
 10
36.6007
 20
190.8122374999999
 30
0.0
 11
36.64009999999999
 21
190.8862375
 31
0.0
  0
LINE
  5
243
330
1E
100
AcDbEntity
  8
0
100
AcDbLine
 10
9.625552295644231
 20
20.8491716854945
 30
0.0
 11
11.01089999999999
 21
19.1601375
 31
0.0
  0
LINE
  5
244
330
1E
100
AcDbEntity
  8
0
100
AcDbLine
 10
90.37444770435577
 20
20.8491716854945
 30
0.0
 11
88.9891
 21
19.1601375
 31
0.0
  0
LINE
  5
245
330
1E
100
AcDbEntity
  8
0
100
AcDbLine
 10
63.39929999999999
 20
190.8122374999999
 30
0.0
 11
63.3599
 21
190.8862375
 31
0.0
  0
LINE
  5
246
330
1E
100
AcDbEntity
  8
0
100
AcDbLine
 10
63.1806
 20
191.1132375
 30
0.0
 11
62.9087
 21
191.2722374999999
 31
0.0
  0
LINE
  5
247
330
1E
100
AcDbEntity
  8
0
100
AcDbLine
 10
62.9087
 20
191.2722374999999
 30
0.0
 11
59.8394
 21
192.4772375
 31
0.0
  0
LINE
  5
248
330
1E
100
AcDbEntity
  8
0
100
AcDbLine
 10
56.67159999999999
 20
193.3792374999999
 30
0.0
 11
53.3964
 21
193.9482375
 31
0.0
  0
LINE
  5
249
330
1E
100
AcDbEntity
  8
0
100
AcDbLine
 10
53.3787
 20
193.9502375
 30
0.0
 11
50.0
 21
194.1492374999999
 31
0.0
  0
LINE
  5
24A
330
1E
100
AcDbEntity
  8
0
100
AcDbLine
 10
52.8769
 20
197.7162374999999
 30
0.0
 11
50.0
 21
198.0672375
 31
0.0
  0
LINE
  5
24B
330
1E
100
AcDbEntity
  8
0
100
AcDbLine
 10
52.8769
 20
196.9172375
 30
0.0
 11
50.0
 21
197.2682374999999
 31
0.0
  0
LINE
  5
24C
330
1E
100
AcDbEntity
  8
0
100
AcDbLine
 10
52.8769
 20
196.1172374999999
 30
0.0
 11
50.0
 21
196.4682374999999
 31
0.0
  0
LINE
  5
24D
330
1E
100
AcDbEntity
  8
0
100
AcDbLine
 10
52.8769
 20
195.3172375
 30
0.0
 11
50.0
 21
195.6682374999999
 31
0.0
  0
LINE
  5
24E
330
1E
100
AcDbEntity
  8
0
100
AcDbLine
 10
52.8769
 20
194.5182375
 30
0.0
 11
50.0
 21
194.8692375
 31
0.0
  0
LINE
  5
24F
330
1E
100
AcDbEntity
  8
0
100
AcDbLine
 10
59.4769
 20
193.4952375
 30
0.0
 11
57.78459999999999
 21
195.3962375
 31
0.0
  0
LINE
  5
250
330
1E
100
AcDbEntity
  8
0
100
AcDbLine
 10
57.78459999999999
 20
195.3962375
 30
0.0
 11
55.5
 21
196.8062375
 31
0.0
  0
LINE
  5
251
330
1E
100
AcDbEntity
  8
0
100
AcDbLine
 10
55.5
 20
196.8062375
 30
0.0
 11
52.8769
 21
197.7162374999999
 31
0.0
  0
LINE
  5
252
330
1E
100
AcDbEntity
  8
0
100
AcDbLine
 10
55.5
 20
196.0062374999999
 30
0.0
 11
52.8769
 21
196.9172375
 31
0.0
  0
LINE
  5
253
330
1E
100
AcDbEntity
  8
0
100
AcDbLine
 10
55.5
 20
195.2072375
 30
0.0
 11
52.8769
 21
196.1172374999999
 31
0.0
  0
LINE
  5
254
330
1E
100
AcDbEntity
  8
0
100
AcDbLine
 10
55.5
 20
194.4072375
 30
0.0
 11
52.8769
 21
195.3172375
 31
0.0
  0
LINE
  5
255
330
1E
100
AcDbEntity
  8
0
100
AcDbLine
 10
55.5551546480682
 20
193.573197381915
 30
0.0
 11
55.5
 21
193.6072375
 31
0.0
  0
LINE
  5
256
330
1E
100
AcDbEntity
  8
0
100
AcDbLine
 10
55.5
 20
193.6072375
 30
0.0
 11
52.8769
 21
194.5182375
 31
0.0
  0
LINE
  5
257
330
1E
100
AcDbEntity
  8
0
100
AcDbLine
 10
57.78459999999999
 20
194.5962375
 30
0.0
 11
55.5
 21
196.0062374999999
 31
0.0
  0
LINE
  5
258
330
1E
100
AcDbEntity
  8
0
100
AcDbLine
 10
57.78459999999999
 20
193.7962374999999
 30
0.0
 11
55.5
 21
195.2072375
 31
0.0
  0
LINE
  5
259
330
1E
100
AcDbEntity
  8
0
100
AcDbLine
 10
59.8394
 20
192.4772375
 30
0.0
 11
56.67159999999999
 21
193.3792374999999
 31
0.0
  0
LINE
  5
25A
330
1E
100
AcDbEntity
  8
0
100
AcDbLine
 10
59.54367638850279
 20
192.561441899763
 30
0.0
 11
59.4769
 21
192.6952374999999
 31
0.0
  0
LINE
  5
25B
330
1E
100
AcDbEntity
  8
0
100
AcDbLine
 10
59.4769
 20
192.6952374999999
 30
0.0
 11
57.78459999999999
 21
194.5962375
 31
0.0
  0
LINE
  5
25C
330
1E
100
AcDbEntity
  8
0
100
AcDbLine
 10
58.6604027342967
 20
192.812945415166
 30
0.0
 11
57.78459999999999
 21
193.7962374999999
 31
0.0
  0
LINE
  5
25D
330
1E
100
AcDbEntity
  8
0
100
AcDbLine
 10
57.5888202920767
 20
193.1180680122
 30
0.0
 11
55.5
 21
194.4072375
 31
0.0
  0
LINE
  5
25E
330
1E
100
AcDbEntity
  8
0
100
AcDbLine
 10
60.0201454768948
 20
192.406277248588
 30
0.0
 11
59.4769
 21
193.4952375
 31
0.0
  0
LINE
  5
25F
330
1E
100
AcDbEntity
  8
0
100
AcDbLine
 10
63.2811
 20
191.0072375
 30
0.0
 11
63.1806
 21
191.1132375
 31
0.0
  0
LINE
  5
260
330
1E
100
AcDbEntity
  8
0
100
AcDbLine
 10
63.3599
 20
190.8862375
 30
0.0
 11
63.2811
 21
191.0072375
 31
0.0
  0
LINE
  5
261
330
1E
100
AcDbEntity
  8
0
100
AcDbLine
 10
63.4457
 20
190.7222375
 30
0.0
 11
63.39929999999999
 21
190.8122374999999
 31
0.0
  0
LINE
  5
262
330
1E
100
AcDbEntity
  8
0
100
AcDbLine
 10
64.4674
 20
115.9002375
 30
0.0
 11
64.29009999999999
 21
119.2402375
 31
0.0
  0
LINE
  5
263
330
1E
100
AcDbEntity
  8
0
100
AcDbLine
 10
64.30089999999999
 20
124.3922374999999
 30
0.0
 11
64.2654
 21
120.5902374999999
 31
0.0
  0
LINE
  5
264
330
1E
100
AcDbEntity
  8
0
100
AcDbLine
 10
63.8802
 20
184.8832375
 30
0.0
 11
63.6398
 21
189.1622375
 31
0.0
  0
LINE
  5
265
330
1E
100
AcDbEntity
  8
0
100
AcDbLine
 10
63.6398
 20
189.1622375
 30
0.0
 11
63.55699999999999
 21
190.3282375
 31
0.0
  0
LINE
  5
266
330
1E
100
AcDbEntity
  8
0
100
AcDbLine
 10
63.55699999999999
 20
190.3282375
 30
0.0
 11
63.5255
 21
190.5382375
 31
0.0
  0
LINE
  5
267
330
1E
100
AcDbEntity
  8
0
100
AcDbLine
 10
63.5255
 20
190.5382375
 30
0.0
 11
63.4457
 21
190.7222375
 31
0.0
  0
LINE
  5
268
330
1E
100
AcDbEntity
  8
0
100
AcDbLine
 10
64.1679
 20
181.3742374999999
 30
0.0
 11
63.8802
 21
184.8832375
 31
0.0
  0
LINE
  5
269
330
1E
100
AcDbEntity
  8
0
100
AcDbLine
 10
64.36500000000001
 20
176.7722374999999
 30
0.0
 11
64.1679
 21
181.3742374999999
 31
0.0
  0
LINE
  5
26A
330
1E
100
AcDbEntity
  8
0
100
AcDbLine
 10
64.35120000000001
 20
126.2272375
 30
0.0
 11
64.30089999999999
 21
124.3922374999999
 31
0.0
  0
LINE
  5
26B
330
1E
100
AcDbEntity
  8
0
100
AcDbLine
 10
64.29009999999999
 20
119.2402375
 30
0.0
 11
64.2654
 21
120.5902374999999
 31
0.0
  0
LINE
  5
26C
330
1E
100
AcDbEntity
  8
0
100
AcDbLine
 10
64.58760000000001
 20
169.7732375
 30
0.0
 11
64.36500000000001
 21
176.7722374999999
 31
0.0
  0
LINE
  5
26D
330
1E
100
AcDbEntity
  8
0
100
AcDbLine
 10
64.6349
 20
137.0362375
 30
0.0
 11
64.4113
 21
128.1542374999999
 31
0.0
  0
LINE
  5
26E
330
1E
100
AcDbEntity
  8
0
100
AcDbLine
 10
64.4093
 20
128.1102375
 30
0.0
 11
64.35120000000001
 21
126.2272375
 31
0.0
  0
LINE
  5
26F
330
1E
100
AcDbEntity
  8
0
100
AcDbLine
 10
64.79650000000001
 20
154.3442374999999
 30
0.0
 11
64.7394
 21
161.9742374999999
 31
0.0
  0
LINE
  5
270
330
1E
100
AcDbEntity
  8
0
100
AcDbLine
 10
64.79650000000001
 20
154.3442374999999
 30
0.0
 11
64.7926
 21
150.1632374999999
 31
0.0
  0
LINE
  5
271
330
1E
100
AcDbEntity
  8
0
100
AcDbLine
 10
64.7394
 20
161.9742374999999
 30
0.0
 11
64.7325
 21
162.4622374999999
 31
0.0
  0
LINE
  5
272
330
1E
100
AcDbEntity
  8
0
100
AcDbLine
 10
64.7325
 20
162.4622374999999
 30
0.0
 11
64.58760000000001
 21
169.7732375
 31
0.0
  0
LINE
  5
273
330
1E
100
AcDbEntity
  8
0
100
AcDbLine
 10
71.8672
 20
96.86893750000001
 30
0.0
 11
71.6908
 21
97.08853750000001
 31
0.0
  0
LINE
  5
274
330
1E
100
AcDbEntity
  8
0
100
AcDbLine
 10
66.76479566255579
 20
105.438472527133
 30
0.0
 11
66.21739999999999
 21
106.8642375
 31
0.0
  0
LINE
  5
275
330
1E
100
AcDbEntity
  8
0
100
AcDbLine
 10
64.76300000000001
 20
145.6282375
 30
0.0
 11
64.6349
 21
137.0362375
 31
0.0
  0
LINE
  5
276
330
1E
100
AcDbEntity
  8
0
100
AcDbLine
 10
64.7926
 20
150.1632374999999
 30
0.0
 11
64.76300000000001
 21
145.6282375
 31
0.0
  0
LINE
  5
277
330
1E
100
AcDbEntity
  8
0
100
AcDbLine
 10
64.8369
 20
112.7172375
 30
0.0
 11
64.4674
 21
115.9002375
 31
0.0
  0
LINE
  5
278
330
1E
100
AcDbEntity
  8
0
100
AcDbLine
 10
65.6469
 20
108.7792375
 30
0.0
 11
65.5651
 21
109.0952375
 31
0.0
  0
LINE
  5
279
330
1E
100
AcDbEntity
  8
0
100
AcDbLine
 10
65.5651
 20
109.0952375
 30
0.0
 11
65.17
 21
110.8352375
 31
0.0
  0
LINE
  5
27A
330
1E
100
AcDbEntity
  8
0
100
AcDbLine
 10
65.17
 20
110.8352375
 30
0.0
 11
64.8369
 21
112.7172375
 31
0.0
  0
LINE
  5
27B
330
1E
100
AcDbEntity
  8
0
100
AcDbLine
 10
66.24355332286061
 20
106.796117684281
 30
0.0
 11
65.6469
 21
108.7792375
 31
0.0
  0
LINE
  5
27C
330
1E
100
AcDbEntity
  8
0
100
AcDbLine
 10
68.253
 20
102.2482375
 30
0.0
 11
66.95730000000001
 21
104.9402374999999
 31
0.0
  0
LINE
  5
27D
330
1E
100
AcDbEntity
  8
0
100
AcDbLine
 10
69.83449999999999
 20
99.6178375
 30
0.0
 11
68.253
 21
102.2482375
 31
0.0
  0
LINE
  5
27E
330
1E
100
AcDbEntity
  8
0
100
AcDbLine
 10
71.6908
 20
97.08853750000001
 30
0.0
 11
69.83449999999999
 21
99.6178375
 31
0.0
  0
LINE
  5
27F
330
1E
100
AcDbEntity
  8
0
100
AcDbLine
 10
72.90269999999999
 20
12.1032375
 30
0.0
 11
69.6591
 21
10.7622375
 31
0.0
  0
LINE
  5
280
330
1E
100
AcDbEntity
  8
0
100
AcDbLine
 10
66.2568
 20
9.6137475
 30
0.0
 11
64.04569999999999
 21
8.996687500000009
 31
0.0
  0
LINE
  5
281
330
1E
100
AcDbEntity
  8
0
100
AcDbLine
 10
66.23409999999999
 20
9.702367500000001
 30
0.0
 11
64.027
 21
9.086687500000008
 31
0.0
  0
LINE
  5
282
330
1E
100
AcDbEntity
  8
0
100
AcDbLine
 10
69.6591
 20
10.7622375
 30
0.0
 11
66.2568
 21
9.6137475
 31
0.0
  0
LINE
  5
283
330
1E
100
AcDbEntity
  8
0
100
AcDbLine
 10
69.61670000000001
 20
10.8448375
 30
0.0
 11
66.23409999999999
 21
9.702367500000001
 31
0.0
  0
LINE
  5
284
330
1E
100
AcDbEntity
  8
0
100
AcDbLine
 10
72.012
 20
11.8109375
 30
0.0
 11
69.61670000000001
 21
10.8448375
 31
0.0
  0
LINE
  5
285
330
1E
100
AcDbEntity
  8
0
100
AcDbLine
 10
61.8051
 20
8.471807499999998
 30
0.0
 11
59.5389
 21
8.0381175
 31
0.0
  0
LINE
  5
286
330
1E
100
AcDbEntity
  8
0
100
AcDbLine
 10
61.7854
 20
8.5604375
 30
0.0
 11
59.5152
 21
8.126387499999999
 31
0.0
  0
LINE
  5
287
330
1E
100
AcDbEntity
  8
0
100
AcDbLine
 10
56.2656
 20
7.5798475
 30
0.0
 11
52.9658
 21
7.3127175
 31
0.0
  0
LINE
  5
288
330
1E
100
AcDbEntity
  8
0
100
AcDbLine
 10
56.24100000000001
 20
7.668967499999999
 30
0.0
 11
52.9471
 21
7.402207499999999
 31
0.0
  0
LINE
  5
289
330
1E
100
AcDbEntity
  8
0
100
AcDbLine
 10
52.9658
 20
7.3127175
 30
0.0
 11
50.0
 21
7.235737499999999
 31
0.0
  0
LINE
  5
28A
330
1E
100
AcDbEntity
  8
0
100
AcDbLine
 10
52.9471
 20
7.402207499999999
 30
0.0
 11
50.0
 21
7.3266475
 31
0.0
  0
LINE
  5
28B
330
1E
100
AcDbEntity
  8
0
100
AcDbLine
 10
59.5389
 20
8.0381175
 30
0.0
 11
56.2656
 21
7.5798475
 31
0.0
  0
LINE
  5
28C
330
1E
100
AcDbEntity
  8
0
100
AcDbLine
 10
59.5152
 20
8.126387499999999
 30
0.0
 11
56.24100000000001
 21
7.668967499999999
 31
0.0
  0
LINE
  5
28D
330
1E
100
AcDbEntity
  8
0
100
AcDbLine
 10
64.04569999999999
 20
8.996687500000009
 30
0.0
 11
61.8051
 21
8.471807499999998
 31
0.0
  0
LINE
  5
28E
330
1E
100
AcDbEntity
  8
0
100
AcDbLine
 10
64.027
 20
9.086687500000008
 30
0.0
 11
61.7854
 21
8.5604375
 31
0.0
  0
LINE
  5
28F
330
1E
100
AcDbEntity
  8
0
100
AcDbLine
 10
62.446
 20
1.491607499999999
 30
0.0
 11
50.0
 21
-0.0672374999999983
 31
0.0
  0
LINE
  5
290
330
1E
100
AcDbEntity
  8
0
100
AcDbLine
 10
62.544
 20
3.390097499999999
 30
0.0
 11
50.0
 21
1.831247499999999
 31
0.0
  0
LINE
  5
291
330
1E
100
AcDbEntity
  8
0
100
AcDbLine
 10
62.446
 20
1.491607499999999
 30
0.0
 11
50.0
 21
-0.0672374999999984
 31
0.0
  0
LINE
  5
292
330
1E
100
AcDbEntity
  8
0
100
AcDbLine
 10
68.00620260873789
 20
5.344808750989339
 30
0.0
 11
62.544
 21
3.390097499999999
 31
0.0
  0
LINE
  5
293
330
1E
100
AcDbEntity
  8
0
100
AcDbLine
 10
68.00620260873789
 20
5.344808750989339
 30
0.0
 11
62.544
 21
3.390097499999999
 31
0.0
  0
LINE
  5
294
330
1E
100
AcDbEntity
  8
0
100
AcDbLine
 10
99.92910000000001
 20
48.9867375
 30
0.0
 11
99.71820000000001
 21
46.64333749999999
 31
0.0
  0
LINE
  5
295
330
1E
100
AcDbEntity
  8
0
100
AcDbLine
 10
99.8295
 20
49.0058375
 30
0.0
 11
99.61870000000001
 21
46.66683749999999
 31
0.0
  0
LINE
  5
296
330
1E
100
AcDbEntity
  8
0
100
AcDbLine
 10
99.466
 20
57.1772375
 30
0.0
 11
99.0304
 21
59.83433749999999
 31
0.0
  0
LINE
  5
297
330
1E
100
AcDbEntity
  8
0
100
AcDbLine
 10
98.4294
 20
62.4839375
 30
0.0
 11
97.72190000000001
 21
64.92443749999999
 31
0.0
  0
LINE
  5
298
330
1E
100
AcDbEntity
  8
0
100
AcDbLine
 10
95.104
 20
71.2971375
 30
0.0
 11
92.9136
 21
75.1195375
 31
0.0
  0
LINE
  5
299
330
1E
100
AcDbEntity
  8
0
100
AcDbLine
 10
90.3035
 20
78.76593750000001
 30
0.0
 11
87.30809999999999
 21
82.1845375
 31
0.0
  0
LINE
  5
29A
330
1E
100
AcDbEntity
  8
0
100
AcDbLine
 10
84.0004
 20
85.32883750000001
 30
0.0
 11
83.65981277272579
 21
85.62262098568259
 31
0.0
  0
LINE
  5
29B
330
1E
100
AcDbEntity
  8
0
100
AcDbLine
 10
83.91706259440599
 20
85.40072261941309
 30
0.0
 11
83.68209999999999
 21
85.6073375
 31
0.0
  0
LINE
  5
29C
330
1E
100
AcDbEntity
  8
0
100
AcDbLine
 10
77.4145
 20
91.1114375
 30
0.0
 11
75.45279999999999
 21
92.9703375
 31
0.0
  0
LINE
  5
29D
330
1E
100
AcDbEntity
  8
0
100
AcDbLine
 10
73.59049999999999
 20
94.88633749999999
 30
0.0
 11
71.8672
 21
96.86893750000001
 31
0.0
  0
LINE
  5
29E
330
1E
100
AcDbEntity
  8
0
100
AcDbLine
 10
75.45279999999999
 20
92.9703375
 30
0.0
 11
73.59049999999999
 21
94.88633749999999
 31
0.0
  0
LINE
  5
29F
330
1E
100
AcDbEntity
  8
0
100
AcDbLine
 10
80.85750349911029
 20
88.0556125883867
 30
0.0
 11
80.1640554090771
 21
88.6634114216387
 31
0.0
  0
LINE
  5
2A0
330
1E
100
AcDbEntity
  8
0
100
AcDbLine
 10
80.85750349911029
 20
88.0556125883867
 30
0.0
 11
80.16405540907701
 21
88.6634114216388
 31
0.0
  0
LINE
  5
2A1
330
1E
100
AcDbEntity
  8
0
100
AcDbLine
 10
80.47200000000001
 20
88.38923749999999
 30
0.0
 11
77.4145
 21
91.1114375
 31
0.0
  0
LINE
  5
2A2
330
1E
100
AcDbEntity
  8
0
100
AcDbLine
 10
83.60040000000001
 20
85.68183750000001
 30
0.0
 11
80.47200000000001
 21
88.38923749999999
 31
0.0
  0
LINE
  5
2A3
330
1E
100
AcDbEntity
  8
0
100
AcDbLine
 10
83.68209999999999
 20
85.6073375
 30
0.0
 11
83.62961843803089
 21
85.65271557933199
 31
0.0
  0
LINE
  5
2A4
330
1E
100
AcDbEntity
  8
0
100
AcDbLine
 10
83.9334
 20
85.34993749999999
 30
0.0
 11
83.60040000000001
 21
85.68183750000001
 31
0.0
  0
LINE
  5
2A5
330
1E
100
AcDbEntity
  8
0
100
AcDbLine
 10
87.08567940518079
 20
82.3992243792488
 30
0.0
 11
86.85579999999999
 21
82.65063750000001
 31
0.0
  0
LINE
  5
2A6
330
1E
100
AcDbEntity
  8
0
100
AcDbLine
 10
86.85579999999999
 20
82.65063750000001
 30
0.0
 11
84.0526
 21
85.28153749999999
 31
0.0
  0
LINE
  5
2A7
330
1E
100
AcDbEntity
  8
0
100
AcDbLine
 10
87.27859999999999
 20
82.21603749999999
 30
0.0
 11
84.0004
 21
85.32883750000001
 31
0.0
  0
LINE
  5
2A8
330
1E
100
AcDbEntity
  8
0
100
AcDbLine
 10
87.08567940518079
 20
82.3992243792488
 30
0.0
 11
86.85579999999999
 21
82.65063750000001
 31
0.0
  0
LINE
  5
2A9
330
1E
100
AcDbEntity
  8
0
100
AcDbLine
 10
89.56839999999999
 20
79.6839375
 30
0.0
 11
87.9081658215083
 21
81.49969239837471
 31
0.0
  0
LINE
  5
2AA
330
1E
100
AcDbEntity
  8
0
100
AcDbLine
 10
89.56839999999999
 20
79.6839375
 30
0.0
 11
87.9081658215083
 21
81.49969239837471
 31
0.0
  0
LINE
  5
2AB
330
1E
100
AcDbEntity
  8
0
100
AcDbLine
 10
90.12997730946537
 20
78.96397604906249
 30
0.0
 11
89.56839999999999
 21
79.6839375
 31
0.0
  0
LINE
  5
2AC
330
1E
100
AcDbEntity
  8
0
100
AcDbLine
 10
90.12997730946537
 20
78.96397604906249
 30
0.0
 11
89.56839999999999
 21
79.6839375
 31
0.0
  0
LINE
  5
2AD
330
1E
100
AcDbEntity
  8
0
100
AcDbLine
 10
92.9136
 20
75.1195375
 30
0.0
 11
90.3035
 21
78.76593750000001
 31
0.0
  0
LINE
  5
2AE
330
1E
100
AcDbEntity
  8
0
100
AcDbLine
 10
92.83779479016667
 20
75.2254400007227
 30
0.0
 11
91.69970000000001
 21
76.9515375
 31
0.0
  0
LINE
  5
2AF
330
1E
100
AcDbEntity
  8
0
100
AcDbLine
 10
92.83779479016667
 20
75.2254400007227
 30
0.0
 11
91.69970000000001
 21
76.9515375
 31
0.0
  0
LINE
  5
2B0
330
1E
100
AcDbEntity
  8
0
100
AcDbLine
 10
91.69970000000001
 20
76.9515375
 30
0.0
 11
90.51587811092682
 21
78.46923793152228
 31
0.0
  0
LINE
  5
2B1
330
1E
100
AcDbEntity
  8
0
100
AcDbLine
 10
93.7531
 20
73.8372375
 30
0.0
 11
92.95329927066967
 21
75.0502595178014
 31
0.0
  0
LINE
  5
2B2
330
1E
100
AcDbEntity
  8
0
100
AcDbLine
 10
93.72744612063057
 20
73.67735037095329
 30
0.0
 11
92.9136
 21
75.1195375
 31
0.0
  0
LINE
  5
2B3
330
1E
100
AcDbEntity
  8
0
100
AcDbLine
 10
93.72744612063057
 20
73.67735037095329
 30
0.0
 11
92.9136
 21
75.1195375
 31
0.0
  0
LINE
  5
2B4
330
1E
100
AcDbEntity
  8
0
100
AcDbLine
 10
95.12269999999999
 20
71.3797375
 30
0.0
 11
93.7531
 21
73.8372375
 31
0.0
  0
LINE
  5
2B5
330
1E
100
AcDbEntity
  8
0
100
AcDbLine
 10
95.46460000000001
 20
70.7033375
 30
0.0
 11
95.12269999999999
 21
71.3797375
 31
0.0
  0
LINE
  5
2B6
330
1E
100
AcDbEntity
  8
0
100
AcDbLine
 10
97.4037
 20
65.83233749999999
 30
0.0
 11
97.37763191743523
 21
65.8972501593754
 31
0.0
  0
LINE
  5
2B7
330
1E
100
AcDbEntity
  8
0
100
AcDbLine
 10
97.4037
 20
65.83233749999999
 30
0.0
 11
97.37763191743523
 21
65.8972501593754
 31
0.0
  0
LINE
  5
2B8
330
1E
100
AcDbEntity
  8
0
100
AcDbLine
 10
97.4037
 20
65.83233749999999
 30
0.0
 11
96.86570000000001
 21
67.34383750000001
 31
0.0
  0
LINE
  5
2B9
330
1E
100
AcDbEntity
  8
0
100
AcDbLine
 10
95.96809999999999
 20
69.6480375
 30
0.0
 11
95.46460000000001
 21
70.7033375
 31
0.0
  0
LINE
  5
2BA
330
1E
100
AcDbEntity
  8
0
100
AcDbLine
 10
95.95629999999999
 20
69.4365375
 30
0.0
 11
95.69392686213527
 21
69.9733264855938
 31
0.0
  0
LINE
  5
2BB
330
1E
100
AcDbEntity
  8
0
100
AcDbLine
 10
95.95629999999999
 20
69.4365375
 30
0.0
 11
95.104
 21
71.2971375
 31
0.0
  0
LINE
  5
2BC
330
1E
100
AcDbEntity
  8
0
100
AcDbLine
 10
95.95629999999999
 20
69.4365375
 30
0.0
 11
95.69392686213527
 21
69.9733264855938
 31
0.0
  0
LINE
  5
2BD
330
1E
100
AcDbEntity
  8
0
100
AcDbLine
 10
97.4421
 20
66.0243375
 30
0.0
 11
95.96809999999999
 21
69.6480375
 31
0.0
  0
LINE
  5
2BE
330
1E
100
AcDbEntity
  8
0
100
AcDbLine
 10
96.86570000000001
 20
67.34383750000001
 30
0.0
 11
95.95629999999999
 21
69.4365375
 31
0.0
  0
LINE
  5
2BF
330
1E
100
AcDbEntity
  8
0
100
AcDbLine
 10
96.1675320882005
 20
68.9105442069972
 30
0.0
 11
95.95629999999999
 21
69.4365375
 31
0.0
  0
LINE
  5
2C0
330
1E
100
AcDbEntity
  8
0
100
AcDbLine
 10
96.1675320882005
 20
68.9105442069972
 30
0.0
 11
95.95629999999999
 21
69.4365375
 31
0.0
  0
LINE
  5
2C1
330
1E
100
AcDbEntity
  8
0
100
AcDbLine
 10
97.72190000000001
 20
64.92443749999999
 30
0.0
 11
97.4037
 21
65.83233749999999
 31
0.0
  0
LINE
  5
2C2
330
1E
100
AcDbEntity
  8
0
100
AcDbLine
 10
97.42200328014982
 20
65.77186815172339
 30
0.0
 11
97.4037
 21
65.83233749999999
 31
0.0
  0
LINE
  5
2C3
330
1E
100
AcDbEntity
  8
0
100
AcDbLine
 10
97.42200328014982
 20
65.77186815172339
 30
0.0
 11
97.4037
 21
65.83233749999999
 31
0.0
  0
LINE
  5
2C4
330
1E
100
AcDbEntity
  8
0
100
AcDbLine
 10
99.0304
 20
59.83433749999999
 30
0.0
 11
98.4294
 21
62.4839375
 31
0.0
  0
LINE
  5
2C5
330
1E
100
AcDbEntity
  8
0
100
AcDbLine
 10
98.65403283754965
 20
61.49360943615389
 30
0.0
 11
98.51220000000001
 21
62.1701375
 31
0.0
  0
LINE
  5
2C6
330
1E
100
AcDbEntity
  8
0
100
AcDbLine
 10
98.59099999999999
 20
62.2738375
 30
0.0
 11
97.4421
 21
66.0243375
 31
0.0
  0
LINE
  5
2C7
330
1E
100
AcDbEntity
  8
0
100
AcDbLine
 10
98.51220000000001
 20
62.1701375
 30
0.0
 11
98.46582836978265
 21
62.3233374857302
 31
0.0
  0
LINE
  5
2C8
330
1E
100
AcDbEntity
  8
0
100
AcDbLine
 10
98.51220000000001
 20
62.1701375
 30
0.0
 11
98.46582836978265
 21
62.3233374857302
 31
0.0
  0
LINE
  5
2C9
330
1E
100
AcDbEntity
  8
0
100
AcDbLine
 10
98.51220000000001
 20
62.1701375
 30
0.0
 11
98.4294
 21
62.4839375
 31
0.0
  0
LINE
  5
2CA
330
1E
100
AcDbEntity
  8
0
100
AcDbLine
 10
98.65403283754965
 20
61.49360943615389
 30
0.0
 11
98.51220000000001
 21
62.1701375
 31
0.0
  0
LINE
  5
2CB
330
1E
100
AcDbEntity
  8
0
100
AcDbLine
 10
99.2748
 20
59.17383749999999
 30
0.0
 11
98.59099999999999
 21
62.2738375
 31
0.0
  0
LINE
  5
2CC
330
1E
100
AcDbEntity
  8
0
100
AcDbLine
 10
99.3201
 20
58.3165375
 30
0.0
 11
99.0304
 21
59.83433749999999
 31
0.0
  0
LINE
  5
2CD
330
1E
100
AcDbEntity
  8
0
100
AcDbLine
 10
99.8197
 20
55.2257375
 30
0.0
 11
99.2748
 21
59.17383749999999
 31
0.0
  0
LINE
  5
2CE
330
1E
100
AcDbEntity
  8
0
100
AcDbLine
 10
99.6197
 20
56.16333749999999
 30
0.0
 11
99.466
 21
57.1772375
 31
0.0
  0
LINE
  5
2CF
330
1E
100
AcDbEntity
  8
0
100
AcDbLine
 10
99.6197
 20
56.16333749999999
 30
0.0
 11
99.3201
 21
58.3165375
 31
0.0
  0
LINE
  5
2D0
330
1E
100
AcDbEntity
  8
0
100
AcDbLine
 10
99.81180000000001
 20
54.0099375
 30
0.0
 11
99.6197
 21
56.16333749999999
 31
0.0
  0
LINE
  5
2D1
330
1E
100
AcDbEntity
  8
0
100
AcDbLine
 10
99.8197
 20
55.2257375
 30
0.0
 11
99.2748
 21
59.17383749999999
 31
0.0
  0
LINE
  5
2D2
330
1E
100
AcDbEntity
  8
0
100
AcDbLine
 10
100.0
 20
51.3400375
 30
0.0
 11
99.92910000000001
 21
48.9867375
 31
0.0
  0
LINE
  5
2D3
330
1E
100
AcDbEntity
  8
0
100
AcDbLine
 10
99.8985
 20
51.3430375
 30
0.0
 11
99.8295
 21
49.0058375
 31
0.0
  0
LINE
  5
2D4
330
1E
100
AcDbEntity
  8
0
100
AcDbLine
 10
99.89460000000001
 20
51.8580375
 30
0.0
 11
99.81180000000001
 21
54.0099375
 31
0.0
  0
LINE
  5
2D5
330
1E
100
AcDbEntity
  8
0
100
AcDbLine
 10
99.8985
 20
51.3600375
 30
0.0
 11
99.89460000000001
 21
51.8580375
 31
0.0
  0
LINE
  5
2D6
330
1E
100
AcDbEntity
  8
0
100
AcDbLine
 10
100.0
 20
51.3565375
 30
0.0
 11
99.8197
 21
55.2257375
 31
0.0
  0
LINE
  5
2D7
330
1E
100
AcDbEntity
  8
0
100
AcDbLine
 10
99.8295
 20
49.0058375
 30
0.0
 11
99.61870000000001
 21
46.66683749999999
 31
0.0
  0
LINE
  5
2D8
330
1E
100
AcDbEntity
  8
0
100
AcDbLine
 10
99.3674
 20
44.3136375
 30
0.0
 11
98.87770000000001
 21
42.0053375
 31
0.0
  0
LINE
  5
2D9
330
1E
100
AcDbEntity
  8
0
100
AcDbLine
 10
99.2689
 20
44.33783749999999
 30
0.0
 11
98.77920000000001
 21
42.0265375
 31
0.0
  0
LINE
  5
2DA
330
1E
100
AcDbEntity
  8
0
100
AcDbLine
 10
98.87770000000001
 20
42.0053375
 30
0.0
 11
98.2511
 21
39.72543749999999
 31
0.0
  0
LINE
  5
2DB
330
1E
100
AcDbEntity
  8
0
100
AcDbLine
 10
98.77920000000001
 20
42.0265375
 30
0.0
 11
98.1525
 21
39.7440375
 31
0.0
  0
LINE
  5
2DC
330
1E
100
AcDbEntity
  8
0
100
AcDbLine
 10
98.34659999999999
 20
37.1792375
 30
0.0
 11
97.17120000000001
 21
33.0631375
 31
0.0
  0
LINE
  5
2DD
330
1E
100
AcDbEntity
  8
0
100
AcDbLine
 10
96.09619999999999
 20
34.18773749999999
 30
0.0
 11
94.7118
 21
31.5299375
 31
0.0
  0
LINE
  5
2DE
330
1E
100
AcDbEntity
  8
0
100
AcDbLine
 10
96.00450000000002
 20
34.2284375
 30
0.0
 11
94.62709999999999
 21
31.5801375
 31
0.0
  0
LINE
  5
2DF
330
1E
100
AcDbEntity
  8
0
100
AcDbLine
 10
97.48940000000001
 20
37.4791375
 30
0.0
 11
96.09619999999999
 21
34.18773749999999
 31
0.0
  0
LINE
  5
2E0
330
1E
100
AcDbEntity
  8
0
100
AcDbLine
 10
97.3909
 20
37.5025375
 30
0.0
 11
96.00450000000002
 21
34.2284375
 31
0.0
  0
LINE
  5
2E1
330
1E
100
AcDbEntity
  8
0
100
AcDbLine
 10
98.2511
 20
39.72543749999999
 30
0.0
 11
97.48940000000001
 21
37.4791375
 31
0.0
  0
LINE
  5
2E2
330
1E
100
AcDbEntity
  8
0
100
AcDbLine
 10
98.1525
 20
39.7440375
 30
0.0
 11
97.3909
 21
37.5025375
 31
0.0
  0
LINE
  5
2E3
330
1E
100
AcDbEntity
  8
0
100
AcDbLine
 10
97.17120000000001
 20
33.0631375
 30
0.0
 11
95.53650000000001
 21
29.0570375
 31
0.0
  0
LINE
  5
2E4
330
1E
100
AcDbEntity
  8
0
100
AcDbLine
 10
93.13129999999999
 20
28.96013749999999
 30
0.0
 11
91.72920000000001
 21
26.9761375
 31
0.0
  0
LINE
  5
2E5
330
1E
100
AcDbEntity
  8
0
100
AcDbLine
 10
93.04959999999999
 20
29.01463749999999
 30
0.0
 11
91.64750000000001
 21
27.02843749999999
 31
0.0
  0
LINE
  5
2E6
330
1E
100
AcDbEntity
  8
0
100
AcDbLine
 10
95.53650000000001
 20
29.0570375
 30
0.0
 11
93.46239999999999
 21
25.2160375
 31
0.0
  0
LINE
  5
2E7
330
1E
100
AcDbEntity
  8
0
100
AcDbLine
 10
94.7118
 20
31.5299375
 30
0.0
 11
93.13129999999999
 21
28.96013749999999
 31
0.0
  0
LINE
  5
2E8
330
1E
100
AcDbEntity
  8
0
100
AcDbLine
 10
94.62709999999999
 20
31.5801375
 30
0.0
 11
93.04959999999999
 21
29.01463749999999
 31
0.0
  0
LINE
  5
2E9
330
1E
100
AcDbEntity
  8
0
100
AcDbLine
 10
96.74599999999999
 20
31.8025375
 30
0.0
 11
95.90475370589901
 21
29.95950350061299
 31
0.0
  0
LINE
  5
2EA
330
1E
100
AcDbEntity
  8
0
100
AcDbLine
 10
96.74599999999999
 20
31.8025375
 30
0.0
 11
95.90475370589901
 21
29.95950350061299
 31
0.0
  0
LINE
  5
2EB
330
1E
100
AcDbEntity
  8
0
100
AcDbLine
 10
93.42789999999999
 20
25.1556375
 30
0.0
 11
90.941
 21
21.5190375
 31
0.0
  0
LINE
  5
2EC
330
1E
100
AcDbEntity
  8
0
100
AcDbLine
 10
88.5792
 20
23.22013749999999
 30
0.0
 11
86.8391
 21
21.4588375
 31
0.0
  0
LINE
  5
2ED
330
1E
100
AcDbEntity
  8
0
100
AcDbLine
 10
88.49439999999999
 20
23.2715375
 30
0.0
 11
86.75929999999999
 21
21.5151375
 31
0.0
  0
LINE
  5
2EE
330
1E
100
AcDbEntity
  8
0
100
AcDbLine
 10
90.21179999999999
 20
25.0606375
 30
0.0
 11
88.5792
 21
23.22013749999999
 31
0.0
  0
LINE
  5
2EF
330
1E
100
AcDbEntity
  8
0
100
AcDbLine
 10
90.1271
 20
25.1116375
 30
0.0
 11
88.49439999999999
 21
23.2715375
 31
0.0
  0
LINE
  5
2F0
330
1E
100
AcDbEntity
  8
0
100
AcDbLine
 10
91.72920000000001
 20
26.9761375
 30
0.0
 11
90.21179999999999
 21
25.0606375
 31
0.0
  0
LINE
  5
2F1
330
1E
100
AcDbEntity
  8
0
100
AcDbLine
 10
91.64750000000001
 20
27.02843749999999
 30
0.0
 11
90.1271
 21
25.1116375
 31
0.0
  0
LINE
  5
2F2
330
1E
100
AcDbEntity
  8
0
100
AcDbLine
 10
86.8391
 20
21.4588375
 30
0.0
 11
84.9956
 21
19.7820375
 31
0.0
  0
LINE
  5
2F3
330
1E
100
AcDbEntity
  8
0
100
AcDbLine
 10
78.89639999999999
 20
15.3028375
 30
0.0
 11
76.69329999999999
 21
14.0079375
 31
0.0
  0
LINE
  5
2F4
330
1E
100
AcDbEntity
  8
0
100
AcDbLine
 10
78.84229999999999
 20
15.3794375
 30
0.0
 11
76.63509999999999
 21
14.0818375
 31
0.0
  0
LINE
  5
2F5
330
1E
100
AcDbEntity
  8
0
100
AcDbLine
 10
82.0475
 20
17.43563749999999
 30
0.0
 11
78.89639999999999
 21
15.3028375
 31
0.0
  0
LINE
  5
2F6
330
1E
100
AcDbEntity
  8
0
100
AcDbLine
 10
81.9923
 20
17.5126375
 30
0.0
 11
78.84229999999999
 21
15.3794375
 31
0.0
  0
LINE
  5
2F7
330
1E
100
AcDbEntity
  8
0
100
AcDbLine
 10
84.9956
 20
19.7820375
 30
0.0
 11
82.0475
 21
17.43563749999999
 31
0.0
  0
LINE
  5
2F8
330
1E
100
AcDbEntity
  8
0
100
AcDbLine
 10
86.75929999999999
 20
21.5151375
 30
0.0
 11
85.1443
 21
20.0372375
 31
0.0
  0
LINE
  5
2F9
330
1E
100
AcDbEntity
  8
0
100
AcDbLine
 10
85.1443
 20
20.0372375
 30
0.0
 11
81.9923
 21
17.5126375
 31
0.0
  0
LINE
  5
2FA
330
1E
100
AcDbEntity
  8
0
100
AcDbLine
 10
81.23359999999999
 20
12.1258375
 30
0.0
 11
77.09357469333049
 21
9.463270327887199
 31
0.0
  0
LINE
  5
2FB
330
1E
100
AcDbEntity
  8
0
100
AcDbLine
 10
76.63509999999999
 20
14.0818375
 30
0.0
 11
74.3561
 21
12.8912375
 31
0.0
  0
LINE
  5
2FC
330
1E
100
AcDbEntity
  8
0
100
AcDbLine
 10
74.3561
 20
12.8912375
 30
0.0
 11
72.012
 21
11.8109375
 31
0.0
  0
LINE
  5
2FD
330
1E
100
AcDbEntity
  8
0
100
AcDbLine
 10
74.402
 20
7.6336175
 30
0.0
 11
68.00620260873789
 21
5.344808750989339
 31
0.0
  0
LINE
  5
2FE
330
1E
100
AcDbEntity
  8
0
100
AcDbLine
 10
74.402
 20
7.6336175
 30
0.0
 11
68.00620260873789
 21
5.344808750989339
 31
0.0
  0
LINE
  5
2FF
330
1E
100
AcDbEntity
  8
0
100
AcDbLine
 10
76.69329999999999
 20
14.0079375
 30
0.0
 11
72.90269999999999
 21
12.1032375
 31
0.0
  0
LINE
  5
300
330
1E
100
AcDbEntity
  8
0
100
AcDbLine
 10
77.09357469333049
 20
9.463270327887199
 30
0.0
 11
74.402
 21
7.6336175
 31
0.0
  0
LINE
  5
301
330
1E
100
AcDbEntity
  8
0
100
AcDbLine
 10
74.108
 20
5.6485275
 30
0.0
 11
62.446
 21
1.491607499999999
 31
0.0
  0
LINE
  5
302
330
1E
100
AcDbEntity
  8
0
100
AcDbLine
 10
74.108
 20
5.6485275
 30
0.0
 11
62.446
 21
1.491607499999999
 31
0.0
  0
LINE
  5
303
330
1E
100
AcDbEntity
  8
0
100
AcDbLine
 10
84.81430000000001
 20
14.9723375
 30
0.0
 11
81.23359999999999
 21
12.1258375
 31
0.0
  0
LINE
  5
304
330
1E
100
AcDbEntity
  8
0
100
AcDbLine
 10
84.29999999999999
 20
12.4901375
 30
0.0
 11
74.108
 21
5.6485275
 31
0.0
  0
LINE
  5
305
330
1E
100
AcDbEntity
  8
0
100
AcDbLine
 10
84.29999999999999
 20
12.4901375
 30
0.0
 11
74.108
 21
5.6485275
 31
0.0
  0
LINE
  5
306
330
1E
100
AcDbEntity
  8
0
100
AcDbLine
 10
90.941
 20
21.5190375
 30
0.0
 11
90.37444770435577
 21
20.8491716854945
 31
0.0
  0
LINE
  5
307
330
1E
100
AcDbEntity
  8
0
100
AcDbLine
 10
90.941
 20
21.5190375
 30
0.0
 11
90.37444770435577
 21
20.8491716854945
 31
0.0
  0
LINE
  5
308
330
1E
100
AcDbEntity
  8
0
100
AcDbLine
 10
88.9891
 20
19.1601375
 30
0.0
 11
88.06090000000001
 21
18.11373749999999
 31
0.0
  0
LINE
  5
309
330
1E
100
AcDbEntity
  8
0
100
AcDbLine
 10
88.06090000000001
 20
18.11373749999999
 30
0.0
 11
86.9879
 21
17.0350375
 31
0.0
  0
LINE
  5
30A
330
1E
100
AcDbEntity
  8
0
100
AcDbLine
 10
86.9879
 20
17.0350375
 30
0.0
 11
84.81430000000001
 21
14.9723375
 31
0.0
  0
LINE
  5
30B
330
1E
100
AcDbEntity
  8
0
100
AcDbLine
 10
92.042
 20
21.4968375
 30
0.0
 11
84.29999999999999
 21
12.4901375
 31
0.0
  0
LINE
  5
30C
330
1E
100
AcDbEntity
  8
0
100
AcDbLine
 10
93.46239999999999
 20
25.2160375
 30
0.0
 11
93.42789999999999
 21
25.1556375
 31
0.0
  0
LINE
  5
30D
330
1E
100
AcDbEntity
  8
0
100
AcDbLine
 10
95.25421076724864
 20
28.5342695799393
 30
0.0
 11
92.042
 21
21.4968375
 31
0.0
  0
LINE
  5
30E
330
1E
100
AcDbEntity
  8
0
100
AcDbLine
 10
95.25421076724864
 20
28.5342695799393
 30
0.0
 11
92.042
 21
21.4968375
 31
0.0
  0
LINE
  5
30F
330
1E
100
AcDbEntity
  8
0
100
AcDbLine
 10
97.23600000000001
 20
32.88143749999999
 30
0.0
 11
96.74599999999999
 21
31.8025375
 31
0.0
  0
LINE
  5
310
330
1E
100
AcDbEntity
  8
0
100
AcDbLine
 10
97.38286992064978
 20
33.8043784055526
 30
0.0
 11
97.23600000000001
 21
32.88143749999999
 31
0.0
  0
LINE
  5
311
330
1E
100
AcDbEntity
  8
0
100
AcDbLine
 10
97.38286992064978
 20
33.8043784055526
 30
0.0
 11
97.23600000000001
 21
32.88143749999999
 31
0.0
  0
LINE
  5
312
330
1E
100
AcDbEntity
  8
0
100
AcDbLine
 10
99.059
 20
41.3972375
 30
0.0
 11
98.34659999999999
 21
37.1792375
 31
0.0
  0
LINE
  5
313
330
1E
100
AcDbEntity
  8
0
100
AcDbLine
 10
99.71820000000001
 20
46.64333749999999
 30
0.0
 11
99.059
 21
41.3972375
 31
0.0
  0
LINE
  5
314
330
1E
100
AcDbEntity
  8
0
100
AcDbLine
 10
99.71820000000001
 20
46.64333749999999
 30
0.0
 11
99.3674
 21
44.3136375
 31
0.0
  0
LINE
  5
315
330
1E
100
AcDbEntity
  8
0
100
AcDbLine
 10
99.61870000000001
 20
46.66683749999999
 30
0.0
 11
99.2689
 21
44.33783749999999
 31
0.0
  0
LINE
  5
316
330
1E
100
AcDbEntity
  8
0
100
AcDbLine
 10
99.92910000000001
 20
48.9867375
 30
0.0
 11
99.71820000000001
 21
46.64333749999999
 31
0.0
  0
LINE
  5
317
330
1E
100
AcDbEntity
  8
0
100
AcDbLine
 10
99.71820000000001
 20
46.64333749999999
 30
0.0
 11
99.059
 21
41.3972375
 31
0.0
  0
ENDSEC
  0
SECTION
  2
OBJECTS
  0
DICTIONARY
  5
C
330
0
100
AcDbDictionary
281
     1
  3
ACAD_GROUP
350
D
  3
ACAD_LAYOUT
350
19
  3
ACAD_MLINESTYLE
350
16
  3
ACAD_PLOTSETTINGS
350
18
  3
ACAD_PLOTSTYLENAME
350
E
  3
AcDbVariableDictionary
350
319
  0
DICTIONARY
  5
D
102
{ACAD_REACTORS
330
C
102
}
330
C
100
AcDbDictionary
281
     1
  0
DICTIONARY
  5
19
102
{ACAD_REACTORS
330
C
102
}
330
C
100
AcDbDictionary
281
     1
  3
Layout1
350
1D
  3
Model
350
21
  0
DICTIONARY
  5
16
102
{ACAD_REACTORS
330
C
102
}
330
C
100
AcDbDictionary
281
     1
  3
Standard
350
17
  0
DICTIONARY
  5
18
102
{ACAD_REACTORS
330
C
102
}
330
C
100
AcDbDictionary
281
     1
  0
ACDBDICTIONARYWDFLT
  5
E
102
{ACAD_REACTORS
330
C
102
}
330
C
100
AcDbDictionary
281
     1
  3
Normal
350
F
100
AcDbDictionaryWithDefault
340
F
  0
DICTIONARY
  5
319
102
{ACAD_REACTORS
330
C
102
}
330
C
100
AcDbDictionary
281
     1
  3
DIMASSOC
350
31A
  0
LAYOUT
  5
1D
102
{ACAD_REACTORS
330
19
102
}
330
19
100
AcDbPlotSettings
  1

  2
C:\Programme\AutoCAD LT 2002 Deu\plotters\DWF ePlot (optimized for plotting).pc3
  4

  6

 40
0.0
 41
0.0
 42
0.0
 43
0.0
 44
0.0
 45
0.0
 46
0.0
 47
0.0
 48
0.0
 49
0.0
140
0.0
141
0.0
142
1.0
143
1.0
 70
   688
 72
     0
 73
     0
 74
     5
  7

 75
    16
147
1.0
148
0.0
149
0.0
100
AcDbLayout
  1
Layout1
 70
     1
 71
     1
 10
0.0
 20
0.0
 11
12.0
 21
9.0
 12
0.0
 22
0.0
 32
0.0
 14
1.000000000000000E+20
 24
1.000000000000000E+20
 34
1.000000000000000E+20
 15
-1.000000000000000E+20
 25
-1.000000000000000E+20
 35
-1.000000000000000E+20
146
0.0
 13
0.0
 23
0.0
 33
0.0
 16
1.0
 26
0.0
 36
0.0
 17
0.0
 27
1.0
 37
0.0
 76
     0
330
1A
  0
LAYOUT
  5
21
102
{ACAD_REACTORS
330
19
102
}
330
19
100
AcDbPlotSettings
  1

  2
C:\Programme\AutoCAD LT 2002 Deu\plotters\DWF ePlot (optimized for plotting).pc3
  4

  6

 40
0.0
 41
0.0
 42
0.0
 43
0.0
 44
0.0
 45
0.0
 46
0.0
 47
0.0
 48
0.0
 49
0.0
140
0.0
141
0.0
142
1.0
143
1.0
 70
  1712
 72
     0
 73
     0
 74
     0
  7

 75
     0
147
1.0
148
0.0
149
0.0
100
AcDbLayout
  1
Model
 70
     1
 71
     0
 10
0.0
 20
0.0
 11
12.0
 21
9.0
 12
0.0
 22
0.0
 32
0.0
 14
0.0
 24
0.0
 34
0.0
 15
0.0
 25
0.0
 35
0.0
146
0.0
 13
0.0
 23
0.0
 33
0.0
 16
1.0
 26
0.0
 36
0.0
 17
0.0
 27
1.0
 37
0.0
 76
     0
330
1E
  0
MLINESTYLE
  5
17
102
{ACAD_REACTORS
330
16
102
}
330
16
100
AcDbMlineStyle
  2
STANDARD
 70
     0
  3

 62
   256
 51
90.0
 52
90.0
 71
     2
 49
0.5
 62
   256
  6
BYLAYER
 49
-0.5
 62
   256
  6
BYLAYER
  0
ACDBPLACEHOLDER
  5
F
102
{ACAD_REACTORS
330
E
102
}
330
E
  0
DICTIONARYVAR
  5
31A
102
{ACAD_REACTORS
330
319
102
}
330
319
100
DictionaryVariables
280
     0
  1
1
  0
ENDSEC
  0
EOF
