  0
SECTION
  2
HEADER
  9
$ACADVER
  1
AC1015
  9
$ACADMAINTVER
 70
    13
  9
$DWGCODEPAGE
  3
ANSI_1252
  9
$INSBASE
 10
0.0
 20
0.0
 30
0.0
  9
$EXTMIN
 10
0.0767650000000113
 20
-0.0414999999999743
 30
0.0
  9
$EXTMAX
 10
139.9232349999999
 20
260.0414999999999
 30
0.0
  9
$LIMMIN
 10
0.0
 20
0.0
  9
$LIMMAX
 10
12.0
 20
9.0
  9
$ORTHOMODE
 70
     0
  9
$REGENMODE
 70
     1
  9
$FILLMODE
 70
     1
  9
$QTEXTMODE
 70
     0
  9
$MIRRTEXT
 70
     1
  9
$LTSCALE
 40
1.0
  9
$ATTMODE
 70
     1
  9
$TEXTSIZE
 40
0.2
  9
$TRACEWID
 40
0.05
  9
$TEXTSTYLE
  7
Standard
  9
$CLAYER
  8
0
  9
$CELTYPE
  6
Continuous
  9
$CECOLOR
 62
   256
  9
$CELTSCALE
 40
1.0
  9
$DISPSILH
 70
     0
  9
$DIMSCALE
 40
1.0
  9
$DIMASZ
 40
0.18
  9
$DIMEXO
 40
0.0625
  9
$DIMDLI
 40
0.38
  9
$DIMRND
 40
0.0
  9
$DIMDLE
 40
0.0
  9
$DIMEXE
 40
0.18
  9
$DIMTP
 40
0.0
  9
$DIMTM
 40
0.0
  9
$DIMTXT
 40
0.18
  9
$DIMCEN
 40
0.09
  9
$DIMTSZ
 40
0.0
  9
$DIMTOL
 70
     0
  9
$DIMLIM
 70
     0
  9
$DIMTIH
 70
     1
  9
$DIMTOH
 70
     1
  9
$DIMSE1
 70
     0
  9
$DIMSE2
 70
     0
  9
$DIMTAD
 70
     0
  9
$DIMZIN
 70
     0
  9
$DIMBLK
  1

  9
$DIMASO
 70
     1
  9
$DIMSHO
 70
     1
  9
$DIMPOST
  1

  9
$DIMAPOST
  1

  9
$DIMALT
 70
     0
  9
$DIMALTD
 70
     2
  9
$DIMALTF
 40
25.4
  9
$DIMLFAC
 40
1.0
  9
$DIMTOFL
 70
     0
  9
$DIMTVP
 40
0.0
  9
$DIMTIX
 70
     0
  9
$DIMSOXD
 70
     0
  9
$DIMSAH
 70
     0
  9
$DIMBLK1
  1

  9
$DIMBLK2
  1

  9
$DIMSTYLE
  2
Standard
  9
$DIMCLRD
 70
     0
  9
$DIMCLRE
 70
     0
  9
$DIMCLRT
 70
     0
  9
$DIMTFAC
 40
1.0
  9
$DIMGAP
 40
0.09
  9
$DIMJUST
 70
     0
  9
$DIMSD1
 70
     0
  9
$DIMSD2
 70
     0
  9
$DIMTOLJ
 70
     1
  9
$DIMTZIN
 70
     0
  9
$DIMALTZ
 70
     0
  9
$DIMALTTZ
 70
     0
  9
$DIMUPT
 70
     0
  9
$DIMDEC
 70
     4
  9
$DIMTDEC
 70
     4
  9
$DIMALTU
 70
     2
  9
$DIMALTTD
 70
     2
  9
$DIMTXSTY
  7
Standard
  9
$DIMAUNIT
 70
     0
  9
$DIMADEC
 70
     0
  9
$DIMALTRND
 40
0.0
  9
$DIMAZIN
 70
     0
  9
$DIMDSEP
 70
    46
  9
$DIMATFIT
 70
     3
  9
$DIMFRAC
 70
     0
  9
$DIMLDRBLK
  1

  9
$DIMLUNIT
 70
     2
  9
$DIMLWD
 70
    -2
  9
$DIMLWE
 70
    -2
  9
$DIMTMOVE
 70
     0
  9
$LUNITS
 70
     2
  9
$LUPREC
 70
     4
  9
$SKETCHINC
 40
0.1
  9
$FILLETRAD
 40
0.0
  9
$AUNITS
 70
     0
  9
$AUPREC
 70
     0
  9
$MENU
  1
.
  9
$ELEVATION
 40
0.0
  9
$PELEVATION
 40
0.0
  9
$THICKNESS
 40
0.0
  9
$LIMCHECK
 70
     0
  9
$CHAMFERA
 40
0.0
  9
$CHAMFERB
 40
0.0
  9
$CHAMFERC
 40
0.0
  9
$CHAMFERD
 40
0.0
  9
$SKPOLY
 70
     0
  9
$TDCREATE
 40
2455656.845858043
  9
$TDUCREATE
 40
2455656.762524710
  9
$TDUPDATE
 40
2455656.860248055
  9
$TDUUPDATE
 40
2455656.776914722
  9
$TDINDWG
 40
0.0143901968
  9
$TDUSRTIMER
 40
0.0143901968
  9
$USRTIMER
 70
     1
  9
$ANGBASE
 50
0.0
  9
$ANGDIR
 70
     0
  9
$PDMODE
 70
     0
  9
$PDSIZE
 40
0.0
  9
$PLINEWID
 40
0.0
  9
$SPLFRAME
 70
     0
  9
$SPLINETYPE
 70
     6
  9
$SPLINESEGS
 70
     8
  9
$HANDSEED
  5
4BC
  9
$SURFTAB1
 70
     6
  9
$SURFTAB2
 70
     6
  9
$SURFTYPE
 70
     6
  9
$SURFU
 70
     6
  9
$SURFV
 70
     6
  9
$UCSBASE
  2

  9
$UCSNAME
  2

  9
$UCSORG
 10
0.0
 20
0.0
 30
0.0
  9
$UCSXDIR
 10
1.0
 20
0.0
 30
0.0
  9
$UCSYDIR
 10
0.0
 20
1.0
 30
0.0
  9
$UCSORTHOREF
  2

  9
$UCSORTHOVIEW
 70
     1
  9
$UCSORGTOP
 10
0.0
 20
0.0
 30
0.0
  9
$UCSORGBOTTOM
 10
0.0
 20
0.0
 30
0.0
  9
$UCSORGLEFT
 10
0.0
 20
0.0
 30
0.0
  9
$UCSORGRIGHT
 10
0.0
 20
0.0
 30
0.0
  9
$UCSORGFRONT
 10
0.0
 20
0.0
 30
0.0
  9
$UCSORGBACK
 10
0.0
 20
0.0
 30
0.0
  9
$PUCSBASE
  2

  9
$PUCSNAME
  2

  9
$PUCSORG
 10
0.0
 20
0.0
 30
0.0
  9
$PUCSXDIR
 10
1.0
 20
0.0
 30
0.0
  9
$PUCSYDIR
 10
0.0
 20
1.0
 30
0.0
  9
$PUCSORTHOREF
  2

  9
$PUCSORTHOVIEW
 70
     0
  9
$PUCSORGTOP
 10
0.0
 20
0.0
 30
0.0
  9
$PUCSORGBOTTOM
 10
0.0
 20
0.0
 30
0.0
  9
$PUCSORGLEFT
 10
0.0
 20
0.0
 30
0.0
  9
$PUCSORGRIGHT
 10
0.0
 20
0.0
 30
0.0
  9
$PUCSORGFRONT
 10
0.0
 20
0.0
 30
0.0
  9
$PUCSORGBACK
 10
0.0
 20
0.0
 30
0.0
  9
$USERI1
 70
     0
  9
$USERI2
 70
     0
  9
$USERI3
 70
     0
  9
$USERI4
 70
     0
  9
$USERI5
 70
     0
  9
$USERR1
 40
0.0
  9
$USERR2
 40
0.0
  9
$USERR3
 40
0.0
  9
$USERR4
 40
0.0
  9
$USERR5
 40
0.0
  9
$WORLDVIEW
 70
     1
  9
$SHADEDGE
 70
     3
  9
$SHADEDIF
 70
    70
  9
$TILEMODE
 70
     1
  9
$MAXACTVP
 70
    64
  9
$PINSBASE
 10
0.0
 20
0.0
 30
0.0
  9
$PLIMCHECK
 70
     0
  9
$PEXTMIN
 10
1.000000000000000E+20
 20
1.000000000000000E+20
 30
1.000000000000000E+20
  9
$PEXTMAX
 10
-1.000000000000000E+20
 20
-1.000000000000000E+20
 30
-1.000000000000000E+20
  9
$PLIMMIN
 10
0.0
 20
0.0
  9
$PLIMMAX
 10
12.0
 20
9.0
  9
$UNITMODE
 70
     0
  9
$VISRETAIN
 70
     1
  9
$PLINEGEN
 70
     0
  9
$PSLTSCALE
 70
     1
  9
$TREEDEPTH
 70
  3020
  9
$CMLSTYLE
  2
Standard
  9
$CMLJUST
 70
     0
  9
$CMLSCALE
 40
1.0
  9
$PROXYGRAPHICS
 70
     1
  9
$MEASUREMENT
 70
     0
  9
$CELWEIGHT
370
    -1
  9
$ENDCAPS
280
     0
  9
$JOINSTYLE
280
     0
  9
$LWDISPLAY
290
     0
  9
$INSUNITS
 70
     0
  9
$HYPERLINKBASE
  1

  9
$STYLESHEET
  1

  9
$XEDIT
290
     1
  9
$CEPSNTYPE
380
     0
  9
$PSTYLEMODE
290
     1
  9
$FINGERPRINTGUID
  2
{58D9504E-2DC6-4982-81A5-10F1C40B530B}
  9
$VERSIONGUID
  2
{6288FF9A-94A7-4B12-88A7-0F92EC313811}
  9
$EXTNAMES
290
     1
  9
$PSVPSCALE
 40
0.0
  9
$OLESTARTUP
290
     0
  0
ENDSEC
  0
SECTION
  2
CLASSES
  0
CLASS
  1
ACDBDICTIONARYWDFLT
  2
AcDbDictionaryWithDefault
  3
AutoCAD 2000
 90
        0
280
     0
281
     0
  0
CLASS
  1
ACDBPLACEHOLDER
  2
AcDbPlaceHolder
  3
AutoCAD 2000
 90
        0
280
     0
281
     0
  0
CLASS
  1
LAYOUT
  2
AcDbLayout
  3
AutoCAD 2000
 90
        0
280
     0
281
     0
  0
CLASS
  1
DICTIONARYVAR
  2
AcDbDictionaryVar
  3
AutoCAD 2000
 90
        0
280
     0
281
     0
  0
ENDSEC
  0
SECTION
  2
TABLES
  0
TABLE
  2
VPORT
  5
8
330
0
100
AcDbSymbolTable
 70
     3
  0
VPORT
  5
4BB
330
8
100
AcDbSymbolTableRecord
100
AcDbViewportTableRecord
  2
*Active
 70
     0
 10
0.0
 20
0.0
 11
1.0
 21
1.0
 12
69.99999999999999
 22
130.0
 13
0.0
 23
0.0
 14
1.0
 24
1.0
 15
0.0
 25
0.0
 16
0.0
 26
0.0
 36
1.0
 17
0.0
 27
0.0
 37
0.0
 40
261.8422987598646
 41
2.073363431151241
 42
50.0
 43
0.0
 44
0.0
 50
0.0
 51
0.0
 71
     0
 72
   100
 73
     1
 74
     3
 75
     0
 76
     0
 77
     0
 78
     0
281
     0
 65
     1
110
0.0
120
0.0
130
0.0
111
1.0
121
0.0
131
0.0
112
0.0
122
1.0
132
0.0
 79
     1
146
0.0
  0
ENDTAB
  0
TABLE
  2
LTYPE
  5
5
330
0
100
AcDbSymbolTable
 70
     1
  0
LTYPE
  5
13
330
5
100
AcDbSymbolTableRecord
100
AcDbLinetypeTableRecord
  2
ByBlock
 70
     0
  3

 72
    65
 73
     0
 40
0.0
  0
LTYPE
  5
14
330
5
100
AcDbSymbolTableRecord
100
AcDbLinetypeTableRecord
  2
ByLayer
 70
     0
  3

 72
    65
 73
     0
 40
0.0
  0
LTYPE
  5
15
330
5
100
AcDbSymbolTableRecord
100
AcDbLinetypeTableRecord
  2
Continuous
 70
     0
  3
Solid line
 72
    65
 73
     0
 40
0.0
  0
ENDTAB
  0
TABLE
  2
LAYER
  5
2
330
0
100
AcDbSymbolTable
 70
     1
  0
LAYER
  5
10
330
2
100
AcDbSymbolTableRecord
100
AcDbLayerTableRecord
  2
0
 70
     0
 62
     7
  6
Continuous
370
    -3
390
F
  0
ENDTAB
  0
TABLE
  2
STYLE
  5
3
330
0
100
AcDbSymbolTable
 70
     1
  0
STYLE
  5
11
330
3
100
AcDbSymbolTableRecord
100
AcDbTextStyleTableRecord
  2
Standard
 70
     0
 40
0.0
 41
1.0
 50
0.0
 71
     0
 42
0.2
  3
txt
  4

  0
ENDTAB
  0
TABLE
  2
VIEW
  5
6
330
0
100
AcDbSymbolTable
 70
     0
  0
ENDTAB
  0
TABLE
  2
UCS
  5
7
330
0
100
AcDbSymbolTable
 70
     0
  0
ENDTAB
  0
TABLE
  2
APPID
  5
9
330
0
100
AcDbSymbolTable
 70
     1
  0
APPID
  5
12
330
9
100
AcDbSymbolTableRecord
100
AcDbRegAppTableRecord
  2
ACAD
 70
     0
  0
ENDTAB
  0
TABLE
  2
DIMSTYLE
  5
A
330
0
100
AcDbSymbolTable
 70
     1
100
AcDbDimStyleTable
 71
     0
  0
DIMSTYLE
105
408
330
A
100
AcDbSymbolTableRecord
100
AcDbDimStyleTableRecord
  2
Standard
 70
     0
340
11
  0
ENDTAB
  0
TABLE
  2
BLOCK_RECORD
  5
1
330
0
100
AcDbSymbolTable
 70
     0
  0
BLOCK_RECORD
  5
1E
330
1
100
AcDbSymbolTableRecord
100
AcDbBlockTableRecord
  2
*Model_Space
340
21
  0
BLOCK_RECORD
  5
1A
330
1
100
AcDbSymbolTableRecord
100
AcDbBlockTableRecord
  2
*Paper_Space
340
1D
  0
ENDTAB
  0
ENDSEC
  0
SECTION
  2
BLOCKS
  0
BLOCK
  5
1F
330
1E
100
AcDbEntity
  8
0
100
AcDbBlockBegin
  2
*Model_Space
 70
     0
 10
0.0
 20
0.0
 30
0.0
  3
*Model_Space
  1

  0
ENDBLK
  5
20
330
1E
100
AcDbEntity
  8
0
100
AcDbBlockEnd
  0
BLOCK
  5
1B
330
1A
100
AcDbEntity
 67
     1
  8
0
100
AcDbBlockBegin
  2
*Paper_Space
 70
     0
 10
0.0
 20
0.0
 30
0.0
  3
*Paper_Space
  1

  0
ENDBLK
  5
1C
330
1A
100
AcDbEntity
 67
     1
  8
0
100
AcDbBlockEnd
  0
ENDSEC
  0
SECTION
  2
ENTITIES
  0
LINE
  5
22
330
1E
100
AcDbEntity
  8
0
100
AcDbLine
 10
40.30453499999999
 20
46.6925
 30
0.0
 11
40.654335
 21
44.3635
 31
0.0
  0
LINE
  5
23
330
1E
100
AcDbEntity
  8
0
100
AcDbLine
 10
40.20503499999999
 20
46.6685
 30
0.0
 11
40.555835
 21
44.3385
 31
0.0
  0
LINE
  5
24
330
1E
100
AcDbEntity
  8
0
100
AcDbLine
 10
40.20503499999999
 20
46.6685
 30
0.0
 11
40.864235
 21
41.42249999999999
 31
0.0
  0
LINE
  5
25
330
1E
100
AcDbEntity
  8
0
100
AcDbLine
 10
40.864235
 20
41.42249999999999
 30
0.0
 11
41.57663499999999
 21
37.2045
 31
0.0
  0
LINE
  5
26
330
1E
100
AcDbEntity
  8
0
100
AcDbLine
 10
42.54026073213829
 20
33.8300882988931
 30
0.0
 11
42.687235
 21
32.9065
 31
0.0
  0
LINE
  5
27
330
1E
100
AcDbEntity
  8
0
100
AcDbLine
 10
42.687235
 20
32.9065
 30
0.0
 11
43.17723499999999
 21
31.8275
 31
0.0
  0
LINE
  5
28
330
1E
100
AcDbEntity
  8
0
100
AcDbLine
 10
42.687235
 20
32.9065
 30
0.0
 11
42.687235
 21
33.3154157733538
 31
0.0
  0
LINE
  5
29
330
1E
100
AcDbEntity
  8
0
100
AcDbLine
 10
44.6682036702901
 20
28.5612516693582
 30
0.0
 11
47.881235
 21
21.5225000000001
 31
0.0
  0
LINE
  5
2A
330
1E
100
AcDbEntity
  8
0
100
AcDbLine
 10
44.6682036702901
 20
28.5612516693582
 30
0.0
 11
47.881235
 21
21.5225000000001
 31
0.0
  0
LINE
  5
2B
330
1E
100
AcDbEntity
  8
0
100
AcDbLine
 10
46.46083499999999
 20
25.2415
 30
0.0
 11
46.49533499999999
 21
25.1805
 31
0.0
  0
LINE
  5
2C
330
1E
100
AcDbEntity
  8
0
100
AcDbLine
 10
47.881235
 20
21.5225000000001
 30
0.0
 11
55.623235
 21
12.51549999999999
 31
0.0
  0
LINE
  5
31
330
1E
100
AcDbEntity
  8
0
100
AcDbLine
 10
48.982235
 20
21.5445
 30
0.0
 11
49.55200028489709
 21
20.87089464078519
 31
0.0
  0
LINE
  5
32
330
1E
100
AcDbEntity
  8
0
100
AcDbLine
 10
48.982235
 20
21.5445
 30
0.0
 11
49.55200028489709
 21
20.87089464078519
 31
0.0
  0
LINE
  5
33
330
1E
100
AcDbEntity
  8
0
100
AcDbLine
 10
48.27573499999999
 20
27.0535
 30
0.0
 11
49.796135
 21
25.13749999999999
 31
0.0
  0
LINE
  5
34
330
1E
100
AcDbEntity
  8
0
100
AcDbLine
 10
48.19403499999999
 20
27.0015
 30
0.0
 11
49.711435
 21
25.0855
 31
0.0
  0
LINE
  5
35
330
1E
100
AcDbEntity
  8
0
100
AcDbLine
 10
49.796135
 20
25.13749999999999
 30
0.0
 11
51.42883499999999
 21
23.2965
 31
0.0
  0
LINE
  5
36
330
1E
100
AcDbEntity
  8
0
100
AcDbLine
 10
49.711435
 20
25.0855
 30
0.0
 11
51.344035
 21
23.24549999999999
 31
0.0
  0
LINE
  5
37
330
1E
100
AcDbEntity
  8
0
100
AcDbLine
 10
46.49533499999999
 20
25.1805
 30
0.0
 11
48.982235
 21
21.5445
 31
0.0
  0
LINE
  5
38
330
1E
100
AcDbEntity
  8
0
100
AcDbLine
 10
43.17723499999999
 20
31.8275
 30
0.0
 11
44.0198366945017
 21
29.9816219256292
 31
0.0
  0
LINE
  5
39
330
1E
100
AcDbEntity
  8
0
100
AcDbLine
 10
45.29613499999999
 20
31.6055
 30
0.0
 11
46.873635
 21
29.0395
 31
0.0
  0
LINE
  5
3A
330
1E
100
AcDbEntity
  8
0
100
AcDbLine
 10
45.21143499999999
 20
31.55549999999999
 30
0.0
 11
46.79193499999999
 21
28.9855
 31
0.0
  0
LINE
  5
3B
330
1E
100
AcDbEntity
  8
0
100
AcDbLine
 10
44.38673499999999
 20
29.0825
 30
0.0
 11
46.46083499999999
 21
25.2415
 31
0.0
  0
LINE
  5
3C
330
1E
100
AcDbEntity
  8
0
100
AcDbLine
 10
46.873635
 20
29.0395
 30
0.0
 11
48.27573499999999
 21
27.0535
 31
0.0
  0
LINE
  5
3D
330
1E
100
AcDbEntity
  8
0
100
AcDbLine
 10
46.79193499999999
 20
28.9855
 30
0.0
 11
48.19403499999999
 21
27.0015
 31
0.0
  0
LINE
  5
3E
330
1E
100
AcDbEntity
  8
0
100
AcDbLine
 10
42.75203499999999
 20
33.0885
 30
0.0
 11
44.38673499999999
 21
29.0825
 31
0.0
  0
LINE
  5
3F
330
1E
100
AcDbEntity
  8
0
100
AcDbLine
 10
41.77073499999999
 20
39.7695
 30
0.0
 11
42.53233499999999
 21
37.5275
 31
0.0
  0
LINE
  5
40
330
1E
100
AcDbEntity
  8
0
100
AcDbLine
 10
41.67213499999999
 20
39.7505
 30
0.0
 11
42.43383499999999
 21
37.5045
 31
0.0
  0
LINE
  5
41
330
1E
100
AcDbEntity
  8
0
100
AcDbLine
 10
42.53233499999999
 20
37.5275
 30
0.0
 11
43.91873499999999
 21
34.2535
 31
0.0
  0
LINE
  5
42
330
1E
100
AcDbEntity
  8
0
100
AcDbLine
 10
42.43383499999999
 20
37.5045
 30
0.0
 11
43.82703499999999
 21
34.2135
 31
0.0
  0
LINE
  5
43
330
1E
100
AcDbEntity
  8
0
100
AcDbLine
 10
43.91873499999999
 20
34.2535
 30
0.0
 11
45.29613499999999
 21
31.6055
 31
0.0
  0
LINE
  5
44
330
1E
100
AcDbEntity
  8
0
100
AcDbLine
 10
43.82703499999999
 20
34.2135
 30
0.0
 11
45.21143499999999
 21
31.55549999999999
 31
0.0
  0
LINE
  5
45
330
1E
100
AcDbEntity
  8
0
100
AcDbLine
 10
41.57663499999999
 20
37.2045
 30
0.0
 11
42.75203499999999
 21
33.0885
 31
0.0
  0
LINE
  5
46
330
1E
100
AcDbEntity
  8
0
100
AcDbLine
 10
41.14403499999999
 20
42.05149999999999
 30
0.0
 11
41.77073499999999
 21
39.7695
 31
0.0
  0
LINE
  5
47
330
1E
100
AcDbEntity
  8
0
100
AcDbLine
 10
41.045535
 20
42.0305
 30
0.0
 11
41.67213499999999
 21
39.7505
 31
0.0
  0
LINE
  5
48
330
1E
100
AcDbEntity
  8
0
100
AcDbLine
 10
40.654335
 20
44.3635
 30
0.0
 11
41.14403499999999
 21
42.05149999999999
 31
0.0
  0
LINE
  5
49
330
1E
100
AcDbEntity
  8
0
100
AcDbLine
 10
40.555835
 20
44.3385
 30
0.0
 11
41.045535
 21
42.0305
 31
0.0
  0
LINE
  5
4A
330
1E
100
AcDbEntity
  8
0
100
AcDbLine
 10
39.92323499999999
 20
51.3815
 30
0.0
 11
40.10353499999999
 21
55.2515
 31
0.0
  0
LINE
  5
4B
330
1E
100
AcDbEntity
  8
0
100
AcDbLine
 10
5.223235000000009
 20
123.0415
 30
0.0
 11
8.323235000000009
 21
116.6414999999999
 31
0.0
  0
LINE
  5
4C
330
1E
100
AcDbEntity
  8
0
100
AcDbLine
 10
1.52323500000001
 20
151.2415
 30
0.0
 11
2.923235000000009
 21
158.2415
 31
0.0
  0
LINE
  5
4D
330
1E
100
AcDbEntity
  8
0
100
AcDbLine
 10
4.823235000000009
 20
130.3414999999999
 30
0.0
 11
7.023235000000009
 21
123.8415
 31
0.0
  0
LINE
  5
4E
330
1E
100
AcDbEntity
  8
0
100
AcDbLine
 10
3.423235000000009
 20
137.1415
 30
0.0
 11
4.823235000000009
 21
130.3414999999999
 31
0.0
  0
LINE
  5
4F
330
1E
100
AcDbEntity
  8
0
100
AcDbLine
 10
4.823235000000009
 20
157.7415
 30
0.0
 11
7.023235000000009
 21
164.2414999999999
 31
0.0
  0
LINE
  5
50
330
1E
100
AcDbEntity
  8
0
100
AcDbLine
 10
3.423235000000009
 20
150.9414999999999
 30
0.0
 11
4.823235000000009
 21
157.7415
 31
0.0
  0
LINE
  5
51
330
1E
100
AcDbEntity
  8
0
100
AcDbLine
 10
5.223235000000009
 20
165.0415
 30
0.0
 11
8.323235000000009
 21
171.4414999999999
 31
0.0
  0
LINE
  5
52
330
1E
100
AcDbEntity
  8
0
100
AcDbLine
 10
2.923235000000009
 20
158.2415
 30
0.0
 11
5.223235000000009
 21
165.0415
 31
0.0
  0
LINE
  5
53
330
1E
100
AcDbEntity
  8
0
100
AcDbLine
 10
2.923235000000009
 20
144.0415
 30
0.0
 11
3.423235000000009
 21
137.1415
 31
0.0
  0
LINE
  5
54
330
1E
100
AcDbEntity
  8
0
100
AcDbLine
 10
2.923235000000009
 20
144.0415
 30
0.0
 11
3.423235000000009
 21
150.9414999999999
 31
0.0
  0
LINE
  5
55
330
1E
100
AcDbEntity
  8
0
100
AcDbLine
 10
1.52323500000001
 20
136.8414999999999
 30
0.0
 11
2.923235000000009
 21
129.8415
 31
0.0
  0
LINE
  5
56
330
1E
100
AcDbEntity
  8
0
100
AcDbLine
 10
2.923235000000009
 20
129.8415
 30
0.0
 11
5.223235000000009
 21
123.0415
 31
0.0
  0
LINE
  5
57
330
1E
100
AcDbEntity
  8
0
100
AcDbLine
 10
0.923235000000011
 20
144.0415
 30
0.0
 11
1.52323500000001
 21
136.8414999999999
 31
0.0
  0
LINE
  5
58
330
1E
100
AcDbEntity
  8
0
100
AcDbLine
 10
0.923235000000011
 20
144.0415
 30
0.0
 11
1.52323500000001
 21
151.2415
 31
0.0
  0
LINE
  5
59
330
1E
100
AcDbEntity
  8
0
100
AcDbLine
 10
5.923235000000009
 20
199.1202999999999
 30
0.0
 11
5.923235000000009
 21
200.8272
 31
0.0
  0
LINE
  5
5A
330
1E
100
AcDbEntity
  8
0
100
AcDbLine
 10
5.923235000000009
 20
199.1202999999999
 30
0.0
 11
5.923235000000009
 21
198.5287999999999
 31
0.0
  0
LINE
  5
5B
330
1E
100
AcDbEntity
  8
0
100
AcDbLine
 10
5.923235000000009
 20
199.1245999999999
 30
0.0
 11
5.923235000000009
 21
198.5287999999999
 31
0.0
  0
LINE
  5
5C
330
1E
100
AcDbEntity
  8
0
100
AcDbLine
 10
5.923235000000009
 20
199.1245999999999
 30
0.0
 11
5.923235000000009
 21
200.9006999999999
 31
0.0
  0
LINE
  5
5D
330
1E
100
AcDbEntity
  8
0
100
AcDbLine
 10
5.923235000000009
 20
198.5287999999999
 30
0.0
 11
6.677081000000009
 21
198.0466999999999
 31
0.0
  0
LINE
  5
5E
330
1E
100
AcDbEntity
  8
0
100
AcDbLine
 10
5.923235000000009
 20
198.5287999999999
 30
0.0
 11
5.923235000000009
 21
199.1202999999999
 31
0.0
  0
LINE
  5
5F
330
1E
100
AcDbEntity
  8
0
100
AcDbLine
 10
5.923235000000009
 20
198.5287999999999
 30
0.0
 11
5.923235000000009
 21
199.1245999999999
 31
0.0
  0
LINE
  5
60
330
1E
100
AcDbEntity
  8
0
100
AcDbLine
 10
5.923235000000009
 20
200.9006999999999
 30
0.0
 11
5.923235000000009
 21
199.1245999999999
 31
0.0
  0
LINE
  5
61
330
1E
100
AcDbEntity
  8
0
100
AcDbLine
 10
5.923235000000009
 20
200.9006999999999
 30
0.0
 11
5.923235000000009
 21
203.6532
 31
0.0
  0
LINE
  5
62
330
1E
100
AcDbEntity
  8
0
100
AcDbLine
 10
5.923235000000009
 20
203.6532
 30
0.0
 11
5.923235000000009
 21
200.9006999999999
 31
0.0
  0
LINE
  5
63
330
1E
100
AcDbEntity
  8
0
100
AcDbLine
 10
5.923235000000009
 20
203.6532
 30
0.0
 11
5.923235000000009
 21
207.2575
 31
0.0
  0
LINE
  5
64
330
1E
100
AcDbEntity
  8
0
100
AcDbLine
 10
5.923235000000009
 20
200.8272
 30
0.0
 11
5.923235000000009
 21
203.6563
 31
0.0
  0
LINE
  5
65
330
1E
100
AcDbEntity
  8
0
100
AcDbLine
 10
5.923235000000009
 20
200.8272
 30
0.0
 11
5.923235000000009
 21
199.1202999999999
 31
0.0
  0
LINE
  5
66
330
1E
100
AcDbEntity
  8
0
100
AcDbLine
 10
5.923235000000009
 20
207.2575
 30
0.0
 11
5.923235000000009
 21
203.6532
 31
0.0
  0
LINE
  5
67
330
1E
100
AcDbEntity
  8
0
100
AcDbLine
 10
5.923235000000009
 20
207.2575
 30
0.0
 11
5.923235000000009
 21
211.5098
 31
0.0
  0
LINE
  5
68
330
1E
100
AcDbEntity
  8
0
100
AcDbLine
 10
5.923235000000009
 20
203.6563
 30
0.0
 11
5.923235000000009
 21
207.2408
 31
0.0
  0
LINE
  5
69
330
1E
100
AcDbEntity
  8
0
100
AcDbLine
 10
5.923235000000009
 20
203.6563
 30
0.0
 11
5.923235000000009
 21
200.8272
 31
0.0
  0
LINE
  5
6A
330
1E
100
AcDbEntity
  8
0
100
AcDbLine
 10
5.923235000000009
 20
207.2408
 30
0.0
 11
5.923235000000009
 21
211.5086
 31
0.0
  0
LINE
  5
6B
330
1E
100
AcDbEntity
  8
0
100
AcDbLine
 10
5.923235000000009
 20
207.2408
 30
0.0
 11
5.923235000000009
 21
203.6563
 31
0.0
  0
LINE
  5
6C
330
1E
100
AcDbEntity
  8
0
100
AcDbLine
 10
2.11777500000001
 20
213.2214999999999
 30
0.0
 11
2.311705000000009
 21
213.1495
 31
0.0
  0
LINE
  5
6D
330
1E
100
AcDbEntity
  8
0
100
AcDbLine
 10
2.11777500000001
 20
213.2214999999999
 30
0.0
 11
2.828185000000009
 21
213.1135
 31
0.0
  0
LINE
  5
6E
330
1E
100
AcDbEntity
  8
0
100
AcDbLine
 10
1.46374500000001
 20
213.5095
 30
0.0
 11
2.11777500000001
 21
213.2214999999999
 31
0.0
  0
LINE
  5
6F
330
1E
100
AcDbEntity
  8
0
100
AcDbLine
 10
0.888655000000012
 20
213.9774999999999
 30
0.0
 11
1.46374500000001
 21
213.5095
 31
0.0
  0
LINE
  5
70
330
1E
100
AcDbEntity
  8
0
100
AcDbLine
 10
0.448875000000011
 20
214.5894999999999
 30
0.0
 11
0.888655000000012
 21
213.9774999999999
 31
0.0
  0
LINE
  5
71
330
1E
100
AcDbEntity
  8
0
100
AcDbLine
 10
0.178245000000012
 20
215.2855
 30
0.0
 11
0.448875000000011
 21
214.5894999999999
 31
0.0
  0
LINE
  5
72
330
1E
100
AcDbEntity
  8
0
100
AcDbLine
 10
2.311705000000009
 20
213.1495
 30
0.0
 11
3.033395000000009
 21
213.0415
 31
0.0
  0
LINE
  5
73
330
1E
100
AcDbEntity
  8
0
100
AcDbLine
 10
1.46374500000001
 20
218.5735
 30
0.0
 11
2.11777500000001
 21
218.8614999999999
 31
0.0
  0
LINE
  5
74
330
1E
100
AcDbEntity
  8
0
100
AcDbLine
 10
2.11777500000001
 20
218.8614999999999
 30
0.0
 11
2.311705000000009
 21
218.9335
 31
0.0
  0
LINE
  5
75
330
1E
100
AcDbEntity
  8
0
100
AcDbLine
 10
2.11777500000001
 20
218.8614999999999
 30
0.0
 11
2.828185000000009
 21
218.9694999999999
 31
0.0
  0
LINE
  5
76
330
1E
100
AcDbEntity
  8
0
100
AcDbLine
 10
0.888655000000012
 20
218.1055
 30
0.0
 11
1.46374500000001
 21
218.5735
 31
0.0
  0
LINE
  5
77
330
1E
100
AcDbEntity
  8
0
100
AcDbLine
 10
0.448875000000011
 20
217.4935
 30
0.0
 11
0.888655000000012
 21
218.1055
 31
0.0
  0
LINE
  5
78
330
1E
100
AcDbEntity
  8
0
100
AcDbLine
 10
0.178245000000012
 20
216.7975
 30
0.0
 11
0.448875000000011
 21
217.4935
 31
0.0
  0
LINE
  5
79
330
1E
100
AcDbEntity
  8
0
100
AcDbLine
 10
0.0767650000000113
 20
216.0414999999999
 30
0.0
 11
0.178245000000012
 21
216.7975
 31
0.0
  0
LINE
  5
7A
330
1E
100
AcDbEntity
  8
0
100
AcDbLine
 10
0.0767650000000113
 20
216.0414999999999
 30
0.0
 11
0.178245000000012
 21
215.2855
 31
0.0
  0
LINE
  5
7B
330
1E
100
AcDbEntity
  8
0
100
AcDbLine
 10
3.033395000000009
 20
213.0415
 30
0.0
 11
6.677081000000009
 21
213.0415
 31
0.0
  0
LINE
  5
7C
330
1E
100
AcDbEntity
  8
0
100
AcDbLine
 10
2.828185000000009
 20
213.1135
 30
0.0
 11
3.538595000000009
 21
213.2214999999999
 31
0.0
  0
LINE
  5
7D
330
1E
100
AcDbEntity
  8
0
100
AcDbLine
 10
3.033395000000009
 20
213.0415
 30
0.0
 11
6.677081000000009
 21
213.0415
 31
0.0
  0
LINE
  5
7E
330
1E
100
AcDbEntity
  8
0
100
AcDbLine
 10
2.311705000000009
 20
218.9335
 30
0.0
 11
3.033395000000009
 21
219.0415
 31
0.0
  0
LINE
  5
7F
330
1E
100
AcDbEntity
  8
0
100
AcDbLine
 10
3.033395000000009
 20
219.0415
 30
0.0
 11
6.677081000000009
 21
219.0415
 31
0.0
  0
LINE
  5
80
330
1E
100
AcDbEntity
  8
0
100
AcDbLine
 10
2.828185000000009
 20
218.9694999999999
 30
0.0
 11
3.538595000000009
 21
218.8614999999999
 31
0.0
  0
LINE
  5
81
330
1E
100
AcDbEntity
  8
0
100
AcDbLine
 10
3.538595000000009
 20
213.2214999999999
 30
0.0
 11
4.192615000000009
 21
213.5095
 31
0.0
  0
LINE
  5
82
330
1E
100
AcDbEntity
  8
0
100
AcDbLine
 10
4.192615000000009
 20
213.5095
 30
0.0
 11
4.767705000000009
 21
213.9774999999999
 31
0.0
  0
LINE
  5
83
330
1E
100
AcDbEntity
  8
0
100
AcDbLine
 10
4.767705000000009
 20
213.9774999999999
 30
0.0
 11
5.207484000000009
 21
214.5894999999999
 31
0.0
  0
LINE
  5
84
330
1E
100
AcDbEntity
  8
0
100
AcDbLine
 10
5.207484000000009
 20
214.5894999999999
 30
0.0
 11
5.478115000000009
 21
215.2855
 31
0.0
  0
LINE
  5
85
330
1E
100
AcDbEntity
  8
0
100
AcDbLine
 10
5.478115000000009
 20
215.2855
 30
0.0
 11
5.579602000000009
 21
216.0414999999999
 31
0.0
  0
LINE
  5
86
330
1E
100
AcDbEntity
  8
0
100
AcDbLine
 10
3.538595000000009
 20
218.8614999999999
 30
0.0
 11
4.192615000000009
 21
218.5735
 31
0.0
  0
LINE
  5
87
330
1E
100
AcDbEntity
  8
0
100
AcDbLine
 10
4.192615000000009
 20
218.5735
 30
0.0
 11
4.767705000000009
 21
218.1055
 31
0.0
  0
LINE
  5
88
330
1E
100
AcDbEntity
  8
0
100
AcDbLine
 10
4.767705000000009
 20
218.1055
 30
0.0
 11
5.207484000000009
 21
217.4935
 31
0.0
  0
LINE
  5
89
330
1E
100
AcDbEntity
  8
0
100
AcDbLine
 10
5.207484000000009
 20
217.4935
 30
0.0
 11
5.478115000000009
 21
216.7975
 31
0.0
  0
LINE
  5
8A
330
1E
100
AcDbEntity
  8
0
100
AcDbLine
 10
5.478115000000009
 20
216.7975
 30
0.0
 11
5.579602000000009
 21
216.0414999999999
 31
0.0
  0
LINE
  5
8B
330
1E
100
AcDbEntity
  8
0
100
AcDbLine
 10
3.033395000000009
 20
219.0415
 30
0.0
 11
6.677081000000009
 21
219.0415
 31
0.0
  0
LINE
  5
8C
330
1E
100
AcDbEntity
  8
0
100
AcDbLine
 10
5.923235000000009
 20
211.5098
 30
0.0
 11
5.923235000000009
 21
207.2575
 31
0.0
  0
LINE
  5
8D
330
1E
100
AcDbEntity
  8
0
100
AcDbLine
 10
5.923235000000009
 20
211.5098
 30
0.0
 11
5.923235000000009
 21
213.0415
 31
0.0
  0
LINE
  5
8E
330
1E
100
AcDbEntity
  8
0
100
AcDbLine
 10
5.923235000000009
 20
213.0415
 30
0.0
 11
5.923235000000009
 21
211.5086
 31
0.0
  0
LINE
  5
8F
330
1E
100
AcDbEntity
  8
0
100
AcDbLine
 10
5.923235000000009
 20
213.0415
 30
0.0
 11
5.923235000000009
 21
211.5098
 31
0.0
  0
LINE
  5
90
330
1E
100
AcDbEntity
  8
0
100
AcDbLine
 10
5.923235000000009
 20
211.5086
 30
0.0
 11
5.923235000000009
 21
213.0415
 31
0.0
  0
LINE
  5
91
330
1E
100
AcDbEntity
  8
0
100
AcDbLine
 10
5.923235000000009
 20
211.5086
 30
0.0
 11
5.923235000000009
 21
207.2408
 31
0.0
  0
LINE
  5
92
330
1E
100
AcDbEntity
  8
0
100
AcDbLine
 10
7.023235000000009
 20
164.2414999999999
 30
0.0
 11
10.023235
 21
170.4415
 31
0.0
  0
LINE
  5
93
330
1E
100
AcDbEntity
  8
0
100
AcDbLine
 10
10.023235
 20
170.4415
 30
0.0
 11
13.923235
 21
176.2415
 31
0.0
  0
LINE
  5
94
330
1E
100
AcDbEntity
  8
0
100
AcDbLine
 10
12.323235
 20
177.4414999999999
 30
0.0
 11
17.123235
 21
182.8414999999999
 31
0.0
  0
LINE
  5
95
330
1E
100
AcDbEntity
  8
0
100
AcDbLine
 10
8.323235000000009
 20
171.4414999999999
 30
0.0
 11
12.323235
 21
177.4414999999999
 31
0.0
  0
LINE
  5
96
330
1E
100
AcDbEntity
  8
0
100
AcDbLine
 10
10.023235
 20
117.6414999999999
 30
0.0
 11
13.923235
 21
111.8414999999999
 31
0.0
  0
LINE
  5
97
330
1E
100
AcDbEntity
  8
0
100
AcDbLine
 10
7.023235000000009
 20
123.8415
 30
0.0
 11
10.023235
 21
117.6414999999999
 31
0.0
  0
LINE
  5
98
330
1E
100
AcDbEntity
  8
0
100
AcDbLine
 10
8.323235000000009
 20
116.6414999999999
 30
0.0
 11
12.323235
 21
110.6414999999999
 31
0.0
  0
LINE
  5
99
330
1E
100
AcDbEntity
  8
0
100
AcDbLine
 10
34.92323499999999
 20
93.34149999999999
 30
0.0
 11
41.723235
 21
91.0415
 31
0.0
  0
LINE
  5
9A
330
1E
100
AcDbEntity
  8
0
100
AcDbLine
 10
22.523235
 20
100.4415
 30
0.0
 11
28.52323499999999
 21
96.44150000000001
 31
0.0
  0
LINE
  5
9B
330
1E
100
AcDbEntity
  8
0
100
AcDbLine
 10
18.52323499999999
 20
106.6414999999999
 30
0.0
 11
23.72323499999999
 21
102.0415
 31
0.0
  0
LINE
  5
9C
330
1E
100
AcDbEntity
  8
0
100
AcDbLine
 10
17.123235
 20
105.2415
 30
0.0
 11
22.523235
 21
100.4415
 31
0.0
  0
LINE
  5
9D
330
1E
100
AcDbEntity
  8
0
100
AcDbLine
 10
17.123235
 20
105.2415
 30
0.0
 11
22.523235
 21
100.4415
 31
0.0
  0
LINE
  5
9E
330
1E
100
AcDbEntity
  8
0
100
AcDbLine
 10
23.72323499999999
 20
102.0415
 30
0.0
 11
29.52323499999999
 21
98.14149999999999
 31
0.0
  0
LINE
  5
9F
330
1E
100
AcDbEntity
  8
0
100
AcDbLine
 10
29.52323499999999
 20
98.14149999999999
 30
0.0
 11
35.72323499999999
 21
95.14149999999998
 31
0.0
  0
LINE
  5
A0
330
1E
100
AcDbEntity
  8
0
100
AcDbLine
 10
28.52323499999999
 20
96.44150000000001
 30
0.0
 11
34.92323499999999
 21
93.34149999999999
 31
0.0
  0
LINE
  5
A1
330
1E
100
AcDbEntity
  8
0
100
AcDbLine
 10
22.523235
 20
100.4415
 30
0.0
 11
28.52323499999999
 21
96.44150000000001
 31
0.0
  0
LINE
  5
A2
330
1E
100
AcDbEntity
  8
0
100
AcDbLine
 10
28.52323499999999
 20
96.44150000000001
 30
0.0
 11
34.92323499999999
 21
93.34149999999999
 31
0.0
  0
LINE
  5
A3
330
1E
100
AcDbEntity
  8
0
100
AcDbLine
 10
35.72323499999999
 20
95.14149999999998
 30
0.0
 11
42.22323499999999
 21
92.9415
 31
0.0
  0
LINE
  5
A4
330
1E
100
AcDbEntity
  8
0
100
AcDbLine
 10
34.92323499999999
 20
93.34149999999999
 30
0.0
 11
41.723235
 21
91.0415
 31
0.0
  0
LINE
  5
A5
330
1E
100
AcDbEntity
  8
0
100
AcDbLine
 10
18.52323499999999
 20
181.4414999999999
 30
0.0
 11
23.72323499999999
 21
186.0415
 31
0.0
  0
LINE
  5
A6
330
1E
100
AcDbEntity
  8
0
100
AcDbLine
 10
23.72323499999999
 20
186.0415
 30
0.0
 11
29.52323499999999
 21
189.9414999999999
 31
0.0
  0
LINE
  5
A7
330
1E
100
AcDbEntity
  8
0
100
AcDbLine
 10
17.123235
 20
182.8414999999999
 30
0.0
 11
22.523235
 21
187.6415
 31
0.0
  0
LINE
  5
A8
330
1E
100
AcDbEntity
  8
0
100
AcDbLine
 10
22.523235
 20
187.6415
 30
0.0
 11
28.52323499999999
 21
191.6415
 31
0.0
  0
LINE
  5
A9
330
1E
100
AcDbEntity
  8
0
100
AcDbLine
 10
29.52323499999999
 20
189.9414999999999
 30
0.0
 11
35.72323499999999
 21
192.9414999999999
 31
0.0
  0
LINE
  5
AA
330
1E
100
AcDbEntity
  8
0
100
AcDbLine
 10
35.72323499999999
 20
192.9414999999999
 30
0.0
 11
42.39443499999999
 21
195.9275
 31
0.0
  0
LINE
  5
AB
330
1E
100
AcDbEntity
  8
0
100
AcDbLine
 10
28.52323499999999
 20
191.6415
 30
0.0
 11
34.92323499999999
 21
194.7415
 31
0.0
  0
LINE
  5
AC
330
1E
100
AcDbEntity
  8
0
100
AcDbLine
 10
34.92323499999999
 20
194.7415
 30
0.0
 11
40.21155499999999
 21
198.0466999999999
 31
0.0
  0
LINE
  5
AD
330
1E
100
AcDbEntity
  8
0
100
AcDbLine
 10
13.923235
 20
176.2415
 30
0.0
 11
18.52323499999999
 21
181.4414999999999
 31
0.0
  0
LINE
  5
AE
330
1E
100
AcDbEntity
  8
0
100
AcDbLine
 10
13.923235
 20
111.8414999999999
 30
0.0
 11
18.52323499999999
 21
106.6414999999999
 31
0.0
  0
LINE
  5
AF
330
1E
100
AcDbEntity
  8
0
100
AcDbLine
 10
12.323235
 20
110.6414999999999
 30
0.0
 11
17.123235
 21
105.2415
 31
0.0
  0
LINE
  5
B0
330
1E
100
AcDbEntity
  8
0
100
AcDbLine
 10
37.83603499999999
 20
198.0466999999999
 30
0.0
 11
38.589935
 21
198.5287999999999
 31
0.0
  0
LINE
  5
B1
330
1E
100
AcDbEntity
  8
0
100
AcDbLine
 10
6.677081000000009
 20
198.0466999999999
 30
0.0
 11
37.83603499999999
 21
198.0466999999999
 31
0.0
  0
LINE
  5
B2
330
1E
100
AcDbEntity
  8
0
100
AcDbLine
 10
6.677081000000009
 20
198.0466999999999
 30
0.0
 11
37.83603499999999
 21
198.0466999999999
 31
0.0
  0
LINE
  5
B3
330
1E
100
AcDbEntity
  8
0
100
AcDbLine
 10
5.923235000000009
 20
219.0415
 30
0.0
 11
5.923235000000009
 21
220.5732
 31
0.0
  0
LINE
  5
B4
330
1E
100
AcDbEntity
  8
0
100
AcDbLine
 10
5.923235000000009
 20
219.0415
 30
0.0
 11
5.923235000000009
 21
220.5744
 31
0.0
  0
LINE
  5
B5
330
1E
100
AcDbEntity
  8
0
100
AcDbLine
 10
5.923235000000009
 20
228.4267
 30
0.0
 11
5.923235000000009
 21
224.8422
 31
0.0
  0
LINE
  5
B6
330
1E
100
AcDbEntity
  8
0
100
AcDbLine
 10
5.923235000000009
 20
228.4267
 30
0.0
 11
5.923235000000009
 21
231.2558
 31
0.0
  0
LINE
  5
B7
330
1E
100
AcDbEntity
  8
0
100
AcDbLine
 10
5.923235000000009
 20
224.8422
 30
0.0
 11
5.923235000000009
 21
220.5744
 31
0.0
  0
LINE
  5
B8
330
1E
100
AcDbEntity
  8
0
100
AcDbLine
 10
5.923235000000009
 20
224.8422
 30
0.0
 11
5.923235000000009
 21
228.4267
 31
0.0
  0
LINE
  5
B9
330
1E
100
AcDbEntity
  8
0
100
AcDbLine
 10
5.923235000000009
 20
220.5744
 30
0.0
 11
5.923235000000009
 21
219.0415
 31
0.0
  0
LINE
  5
BA
330
1E
100
AcDbEntity
  8
0
100
AcDbLine
 10
5.923235000000009
 20
220.5744
 30
0.0
 11
5.923235000000009
 21
224.8422
 31
0.0
  0
LINE
  5
BB
330
1E
100
AcDbEntity
  8
0
100
AcDbLine
 10
5.923235000000009
 20
231.2558
 30
0.0
 11
5.923235000000009
 21
232.9627
 31
0.0
  0
LINE
  5
BC
330
1E
100
AcDbEntity
  8
0
100
AcDbLine
 10
5.923235000000009
 20
231.2558
 30
0.0
 11
5.923235000000009
 21
228.4267
 31
0.0
  0
LINE
  5
BD
330
1E
100
AcDbEntity
  8
0
100
AcDbLine
 10
5.923235000000009
 20
232.9627
 30
0.0
 11
5.923235000000009
 21
231.2558
 31
0.0
  0
LINE
  5
BE
330
1E
100
AcDbEntity
  8
0
100
AcDbLine
 10
5.923235000000009
 20
232.9627
 30
0.0
 11
5.923235000000009
 21
233.5542
 31
0.0
  0
LINE
  5
BF
330
1E
100
AcDbEntity
  8
0
100
AcDbLine
 10
5.923235000000009
 20
232.9584
 30
0.0
 11
5.923235000000009
 21
233.5542
 31
0.0
  0
LINE
  5
C0
330
1E
100
AcDbEntity
  8
0
100
AcDbLine
 10
5.923235000000009
 20
232.9584
 30
0.0
 11
5.923235000000009
 21
231.1822999999999
 31
0.0
  0
LINE
  5
C1
330
1E
100
AcDbEntity
  8
0
100
AcDbLine
 10
5.923235000000009
 20
233.5542
 30
0.0
 11
6.677081000000009
 21
234.0362999999999
 31
0.0
  0
LINE
  5
C2
330
1E
100
AcDbEntity
  8
0
100
AcDbLine
 10
5.923235000000009
 20
233.5542
 30
0.0
 11
5.923235000000009
 21
232.9627
 31
0.0
  0
LINE
  5
C3
330
1E
100
AcDbEntity
  8
0
100
AcDbLine
 10
5.923235000000009
 20
233.5542
 30
0.0
 11
5.923235000000009
 21
232.9584
 31
0.0
  0
LINE
  5
C4
330
1E
100
AcDbEntity
  8
0
100
AcDbLine
 10
5.923235000000009
 20
231.1822999999999
 30
0.0
 11
5.923235000000009
 21
232.9584
 31
0.0
  0
LINE
  5
C5
330
1E
100
AcDbEntity
  8
0
100
AcDbLine
 10
5.923235000000009
 20
231.1822999999999
 30
0.0
 11
5.923235000000009
 21
228.4298
 31
0.0
  0
LINE
  5
C6
330
1E
100
AcDbEntity
  8
0
100
AcDbLine
 10
5.923235000000009
 20
228.4298
 30
0.0
 11
5.923235000000009
 21
231.1822999999999
 31
0.0
  0
LINE
  5
C7
330
1E
100
AcDbEntity
  8
0
100
AcDbLine
 10
5.923235000000009
 20
228.4298
 30
0.0
 11
5.923235000000009
 21
224.8254999999999
 31
0.0
  0
LINE
  5
C8
330
1E
100
AcDbEntity
  8
0
100
AcDbLine
 10
6.677081000000009
 20
234.0362999999999
 30
0.0
 11
37.83603499999999
 21
234.0362999999999
 31
0.0
  0
LINE
  5
C9
330
1E
100
AcDbEntity
  8
0
100
AcDbLine
 10
6.677081000000009
 20
234.0362999999999
 30
0.0
 11
37.83603499999999
 21
234.0362999999999
 31
0.0
  0
LINE
  5
CA
330
1E
100
AcDbEntity
  8
0
100
AcDbLine
 10
5.923235000000009
 20
224.8254999999999
 30
0.0
 11
5.923235000000009
 21
220.5732
 31
0.0
  0
LINE
  5
CB
330
1E
100
AcDbEntity
  8
0
100
AcDbLine
 10
5.923235000000009
 20
224.8254999999999
 30
0.0
 11
5.923235000000009
 21
228.4298
 31
0.0
  0
LINE
  5
CC
330
1E
100
AcDbEntity
  8
0
100
AcDbLine
 10
5.923235000000009
 20
220.5732
 30
0.0
 11
5.923235000000009
 21
224.8254999999999
 31
0.0
  0
LINE
  5
CD
330
1E
100
AcDbEntity
  8
0
100
AcDbLine
 10
5.923235000000009
 20
220.5732
 30
0.0
 11
5.923235000000009
 21
219.0415
 31
0.0
  0
LINE
  5
CE
330
1E
100
AcDbEntity
  8
0
100
AcDbLine
 10
38.589935
 20
198.5287999999999
 30
0.0
 11
38.589935
 21
199.1245999999999
 31
0.0
  0
LINE
  5
CF
330
1E
100
AcDbEntity
  8
0
100
AcDbLine
 10
38.589935
 20
198.5287999999999
 30
0.0
 11
39.34373499999999
 21
198.0466999999999
 31
0.0
  0
LINE
  5
D0
330
1E
100
AcDbEntity
  8
0
100
AcDbLine
 10
38.589935
 20
199.1245999999999
 30
0.0
 11
38.589935
 21
200.9006999999999
 31
0.0
  0
LINE
  5
D1
330
1E
100
AcDbEntity
  8
0
100
AcDbLine
 10
38.589935
 20
199.1245999999999
 30
0.0
 11
38.589935
 21
198.5287999999999
 31
0.0
  0
LINE
  5
D2
330
1E
100
AcDbEntity
  8
0
100
AcDbLine
 10
38.589935
 20
200.9006999999999
 30
0.0
 11
38.589935
 21
203.6532
 31
0.0
  0
LINE
  5
D3
330
1E
100
AcDbEntity
  8
0
100
AcDbLine
 10
38.589935
 20
200.9006999999999
 30
0.0
 11
38.589935
 21
199.1245999999999
 31
0.0
  0
LINE
  5
D4
330
1E
100
AcDbEntity
  8
0
100
AcDbLine
 10
38.589935
 20
228.4267
 30
0.0
 11
38.589935
 21
231.2558
 31
0.0
  0
LINE
  5
D5
330
1E
100
AcDbEntity
  8
0
100
AcDbLine
 10
38.589935
 20
228.4267
 30
0.0
 11
38.589935
 21
224.8422
 31
0.0
  0
LINE
  5
D6
330
1E
100
AcDbEntity
  8
0
100
AcDbLine
 10
38.589935
 20
224.8422
 30
0.0
 11
38.589935
 21
228.4267
 31
0.0
  0
LINE
  5
D7
330
1E
100
AcDbEntity
  8
0
100
AcDbLine
 10
38.589935
 20
224.8422
 30
0.0
 11
38.589935
 21
220.5744
 31
0.0
  0
LINE
  5
D8
330
1E
100
AcDbEntity
  8
0
100
AcDbLine
 10
38.589935
 20
220.5744
 30
0.0
 11
38.589935
 21
224.8422
 31
0.0
  0
LINE
  5
D9
330
1E
100
AcDbEntity
  8
0
100
AcDbLine
 10
38.589935
 20
220.5744
 30
0.0
 11
38.589935
 21
215.9902999999999
 31
0.0
  0
LINE
  5
DA
330
1E
100
AcDbEntity
  8
0
100
AcDbLine
 10
38.589935
 20
215.9902999999999
 30
0.0
 11
38.589935
 21
220.5744
 31
0.0
  0
LINE
  5
DB
330
1E
100
AcDbEntity
  8
0
100
AcDbLine
 10
38.589935
 20
215.9902999999999
 30
0.0
 11
38.589935
 21
211.5098
 31
0.0
  0
LINE
  5
DC
330
1E
100
AcDbEntity
  8
0
100
AcDbLine
 10
38.589935
 20
211.5098
 30
0.0
 11
38.589935
 21
215.9902999999999
 31
0.0
  0
LINE
  5
DD
330
1E
100
AcDbEntity
  8
0
100
AcDbLine
 10
38.589935
 20
211.5098
 30
0.0
 11
38.589935
 21
207.2575
 31
0.0
  0
LINE
  5
DE
330
1E
100
AcDbEntity
  8
0
100
AcDbLine
 10
38.589935
 20
207.2575
 30
0.0
 11
38.589935
 21
203.6532
 31
0.0
  0
LINE
  5
DF
330
1E
100
AcDbEntity
  8
0
100
AcDbLine
 10
38.589935
 20
207.2575
 30
0.0
 11
38.589935
 21
211.5098
 31
0.0
  0
LINE
  5
E0
330
1E
100
AcDbEntity
  8
0
100
AcDbLine
 10
38.589935
 20
203.6532
 30
0.0
 11
38.589935
 21
207.2575
 31
0.0
  0
LINE
  5
E1
330
1E
100
AcDbEntity
  8
0
100
AcDbLine
 10
38.589935
 20
203.6532
 30
0.0
 11
38.589935
 21
200.9006999999999
 31
0.0
  0
LINE
  5
E2
330
1E
100
AcDbEntity
  8
0
100
AcDbLine
 10
39.34373499999999
 20
198.0466999999999
 30
0.0
 11
75.92323499999999
 21
198.0466999999999
 31
0.0
  0
LINE
  5
E3
330
1E
100
AcDbEntity
  8
0
100
AcDbLine
 10
38.589935
 20
231.2558
 30
0.0
 11
38.589935
 21
232.9627
 31
0.0
  0
LINE
  5
E4
330
1E
100
AcDbEntity
  8
0
100
AcDbLine
 10
38.589935
 20
231.2558
 30
0.0
 11
38.589935
 21
228.4267
 31
0.0
  0
LINE
  5
E5
330
1E
100
AcDbEntity
  8
0
100
AcDbLine
 10
39.34373499999999
 20
234.0362999999999
 30
0.0
 11
44.923235
 21
234.0362999999999
 31
0.0
  0
LINE
  5
E6
330
1E
100
AcDbEntity
  8
0
100
AcDbLine
 10
38.589935
 20
233.5542
 30
0.0
 11
38.589935
 21
232.9627
 31
0.0
  0
LINE
  5
E7
330
1E
100
AcDbEntity
  8
0
100
AcDbLine
 10
38.589935
 20
233.5542
 30
0.0
 11
39.34373499999999
 21
234.0362999999999
 31
0.0
  0
LINE
  5
E8
330
1E
100
AcDbEntity
  8
0
100
AcDbLine
 10
38.589935
 20
232.9627
 30
0.0
 11
38.589935
 21
233.5542
 31
0.0
  0
LINE
  5
E9
330
1E
100
AcDbEntity
  8
0
100
AcDbLine
 10
38.589935
 20
232.9627
 30
0.0
 11
38.589935
 21
231.2558
 31
0.0
  0
LINE
  5
EA
330
1E
100
AcDbEntity
  8
0
100
AcDbLine
 10
37.83603499999999
 20
234.0362999999999
 30
0.0
 11
38.589935
 21
233.5542
 31
0.0
  0
LINE
  5
EB
330
1E
100
AcDbEntity
  8
0
100
AcDbLine
 10
40.02473499999999
 20
51.3855
 30
0.0
 11
40.02863499999999
 21
51.88349999999999
 31
0.0
  0
LINE
  5
EC
330
1E
100
AcDbEntity
  8
0
100
AcDbLine
 10
40.02863499999999
 20
51.88349999999999
 30
0.0
 11
40.111435
 21
54.0355
 31
0.0
  0
LINE
  5
ED
330
1E
100
AcDbEntity
  8
0
100
AcDbLine
 10
40.02473499999999
 20
51.36849999999999
 30
0.0
 11
40.09373499999999
 21
49.0315
 31
0.0
  0
LINE
  5
EE
330
1E
100
AcDbEntity
  8
0
100
AcDbLine
 10
39.92323499999999
 20
51.36549999999999
 30
0.0
 11
39.994135
 21
49.0125
 31
0.0
  0
LINE
  5
EF
330
1E
100
AcDbEntity
  8
0
100
AcDbLine
 10
40.111435
 20
54.0355
 30
0.0
 11
40.30353499999999
 21
56.1885
 31
0.0
  0
LINE
  5
F0
330
1E
100
AcDbEntity
  8
0
100
AcDbLine
 10
40.30353499999999
 20
56.1885
 30
0.0
 11
40.60313499999999
 21
58.34150000000001
 31
0.0
  0
LINE
  5
F1
330
1E
100
AcDbEntity
  8
0
100
AcDbLine
 10
40.30353499999999
 20
56.1885
 30
0.0
 11
40.457235
 21
57.2025
 31
0.0
  0
LINE
  5
F2
330
1E
100
AcDbEntity
  8
0
100
AcDbLine
 10
40.10353499999999
 20
55.2515
 30
0.0
 11
40.648435
 21
59.1995
 31
0.0
  0
LINE
  5
F3
330
1E
100
AcDbEntity
  8
0
100
AcDbLine
 10
40.60313499999999
 20
58.34150000000001
 30
0.0
 11
40.89283499999999
 21
59.85949999999999
 31
0.0
  0
LINE
  5
F4
330
1E
100
AcDbEntity
  8
0
100
AcDbLine
 10
40.648435
 20
59.1995
 30
0.0
 11
41.33223499999999
 21
62.2995
 31
0.0
  0
LINE
  5
F5
330
1E
100
AcDbEntity
  8
0
100
AcDbLine
 10
41.41103499999999
 20
62.1955
 30
0.0
 11
41.49383499999999
 21
62.5095
 31
0.0
  0
LINE
  5
F6
330
1E
100
AcDbEntity
  8
0
100
AcDbLine
 10
41.41103499999999
 20
62.1955
 30
0.0
 11
41.4572401182155
 21
62.3481415362249
 31
0.0
  0
LINE
  5
F7
330
1E
100
AcDbEntity
  8
0
100
AcDbLine
 10
41.33223499999999
 20
62.2995
 30
0.0
 11
42.48113499999999
 21
66.0497
 31
0.0
  0
LINE
  5
F8
330
1E
100
AcDbEntity
  8
0
100
AcDbLine
 10
41.2695364892852
 20
61.5204965833707
 30
0.0
 11
41.41103499999999
 21
62.1955
 31
0.0
  0
LINE
  5
F9
330
1E
100
AcDbEntity
  8
0
100
AcDbLine
 10
40.89283499999999
 20
59.85949999999999
 30
0.0
 11
41.49383499999999
 21
62.5095
 31
0.0
  0
LINE
  5
FA
330
1E
100
AcDbEntity
  8
0
100
AcDbLine
 10
42.5012354417247
 20
65.79704624952249
 30
0.0
 11
42.51953499999999
 21
65.8575
 31
0.0
  0
LINE
  5
FB
330
1E
100
AcDbEntity
  8
0
100
AcDbLine
 10
42.201335
 20
64.9495
 30
0.0
 11
42.51953499999999
 21
65.8575
 31
0.0
  0
LINE
  5
FC
330
1E
100
AcDbEntity
  8
0
100
AcDbLine
 10
43.75582144923479
 20
68.9361727080434
 30
0.0
 11
43.966935
 21
69.4619
 31
0.0
  0
LINE
  5
FD
330
1E
100
AcDbEntity
  8
0
100
AcDbLine
 10
43.75582144923479
 20
68.9361727080434
 30
0.0
 11
43.966935
 21
69.4619
 31
0.0
  0
LINE
  5
FE
330
1E
100
AcDbEntity
  8
0
100
AcDbLine
 10
43.05753499999999
 20
67.36920000000001
 30
0.0
 11
43.966935
 21
69.4619
 31
0.0
  0
LINE
  5
FF
330
1E
100
AcDbEntity
  8
0
100
AcDbLine
 10
42.48113499999999
 20
66.0497
 30
0.0
 11
43.95513499999999
 21
69.6734
 31
0.0
  0
LINE
  5
100
330
1E
100
AcDbEntity
  8
0
100
AcDbLine
 10
43.966935
 20
69.4619
 30
0.0
 11
44.2293081378648
 21
69.9986889855939
 31
0.0
  0
LINE
  5
101
330
1E
100
AcDbEntity
  8
0
100
AcDbLine
 10
43.966935
 20
69.4619
 30
0.0
 11
44.81923499999999
 21
71.3225
 31
0.0
  0
LINE
  5
102
330
1E
100
AcDbEntity
  8
0
100
AcDbLine
 10
43.966935
 20
69.4619
 30
0.0
 11
44.2293081378648
 21
69.9986889855939
 31
0.0
  0
LINE
  5
103
330
1E
100
AcDbEntity
  8
0
100
AcDbLine
 10
43.95513499999999
 20
69.6734
 30
0.0
 11
44.458635
 21
70.7287
 31
0.0
  0
LINE
  5
104
330
1E
100
AcDbEntity
  8
0
100
AcDbLine
 10
42.51953499999999
 20
65.8575
 30
0.0
 11
43.05753499999999
 21
67.36920000000001
 31
0.0
  0
LINE
  5
105
330
1E
100
AcDbEntity
  8
0
100
AcDbLine
 10
42.51953499999999
 20
65.8575
 30
0.0
 11
42.5455523894252
 21
65.92229002241539
 31
0.0
  0
LINE
  5
106
330
1E
100
AcDbEntity
  8
0
100
AcDbLine
 10
44.458635
 20
70.7287
 30
0.0
 11
44.80053499999999
 21
71.405
 31
0.0
  0
LINE
  5
107
330
1E
100
AcDbEntity
  8
0
100
AcDbLine
 10
44.80053499999999
 20
71.405
 30
0.0
 11
46.17013499999999
 21
73.8626
 31
0.0
  0
LINE
  5
109
330
1E
100
AcDbEntity
  8
0
100
AcDbLine
 10
46.17013499999999
 20
73.8626
 30
0.0
 11
47.08462825337729
 21
75.24957104265749
 31
0.0
  0
LINE
  5
10A
330
1E
100
AcDbEntity
  8
0
100
AcDbLine
 10
41.723235
 20
91.0415
 30
0.0
 11
48.723235
 21
89.6415
 31
0.0
  0
LINE
  5
10B
330
1E
100
AcDbEntity
  8
0
100
AcDbLine
 10
42.39443499999999
 20
195.9275
 30
0.0
 11
46.42323499999999
 21
197.0415
 31
0.0
  0
LINE
  5
10C
330
1E
100
AcDbEntity
  8
0
100
AcDbLine
 10
42.22323499999999
 20
92.9415
 30
0.0
 11
49.023235
 21
91.54149999999999
 31
0.0
  0
LINE
  5
10D
330
1E
100
AcDbEntity
  8
0
100
AcDbLine
 10
41.723235
 20
91.0415
 30
0.0
 11
48.723235
 21
89.6415
 31
0.0
  0
LINE
  5
10E
330
1E
100
AcDbEntity
  8
0
100
AcDbLine
 10
44.923235
 20
216.0414999999999
 30
0.0
 11
44.923235
 21
260.0414999999999
 31
0.0
  0
LINE
  5
10F
330
1E
100
AcDbEntity
  8
0
100
AcDbLine
 10
44.923235
 20
216.0414999999999
 30
0.0
 11
45.32323499999999
 21
213.2414999999999
 31
0.0
  0
LINE
  5
110
330
1E
100
AcDbEntity
  8
0
100
AcDbLine
 10
46.42323499999999
 20
197.0415
 30
0.0
 11
55.923235
 21
197.0415
 31
0.0
  0
LINE
  5
111
330
1E
100
AcDbEntity
  8
0
100
AcDbLine
 10
46.42323499999999
 20
210.5415
 30
0.0
 11
48.123235
 21
208.2415
 31
0.0
  0
LINE
  5
113
330
1E
100
AcDbEntity
  8
0
100
AcDbLine
 10
46.42323499999999
 20
210.5415
 30
0.0
 11
48.123235
 21
208.2415
 31
0.0
  0
LINE
  5
119
330
1E
100
AcDbEntity
  8
0
100
AcDbLine
 10
45.32323499999999
 20
213.2414999999999
 30
0.0
 11
46.42323499999999
 21
210.5415
 31
0.0
  0
LINE
  5
11A
330
1E
100
AcDbEntity
  8
0
100
AcDbLine
 10
45.32323499999999
 20
213.2414999999999
 30
0.0
 11
46.42323499999999
 21
210.5415
 31
0.0
  0
LINE
  5
11B
330
1E
100
AcDbEntity
  8
0
100
AcDbLine
 10
44.923235
 20
234.0362999999999
 30
0.0
 11
44.923235
 21
260.0414999999999
 31
0.0
  0
LINE
  5
11C
330
1E
100
AcDbEntity
  8
0
100
AcDbLine
 10
44.923235
 20
260.0414999999999
 30
0.0
 11
44.923235
 21
216.0414999999999
 31
0.0
  0
LINE
  5
11D
330
1E
100
AcDbEntity
  8
0
100
AcDbLine
 10
44.923235
 20
260.0414999999999
 30
0.0
 11
55.923235
 21
260.0414999999999
 31
0.0
  0
LINE
  5
11F
330
1E
100
AcDbEntity
  8
0
100
AcDbLine
 10
44.923235
 20
260.0414999999999
 30
0.0
 11
44.923235
 21
234.0362999999999
 31
0.0
  0
LINE
  5
120
330
1E
100
AcDbEntity
  8
0
100
AcDbLine
 10
48.123235
 20
208.2415
 30
0.0
 11
50.423235
 21
206.5415
 31
0.0
  0
LINE
  5
122
330
1E
100
AcDbEntity
  8
0
100
AcDbLine
 10
48.223535
 20
76.9769
 30
0.0
 11
49.619735
 21
78.7913
 31
0.0
  0
LINE
  5
123
330
1E
100
AcDbEntity
  8
0
100
AcDbLine
 10
47.08462825337729
 20
75.24957104265749
 30
0.0
 11
48.223535
 21
76.9769
 31
0.0
  0
LINE
  5
124
330
1E
100
AcDbEntity
  8
0
100
AcDbLine
 10
48.723235
 20
89.6415
 30
0.0
 11
55.923235
 21
89.04149999999999
 31
0.0
  0
LINE
  5
125
330
1E
100
AcDbEntity
  8
0
100
AcDbLine
 10
49.023235
 20
91.54149999999999
 30
0.0
 11
55.923235
 21
91.0415
 31
0.0
  0
LINE
  5
126
330
1E
100
AcDbEntity
  8
0
100
AcDbLine
 10
48.723235
 20
89.6415
 30
0.0
 11
55.923235
 21
89.04149999999999
 31
0.0
  0
LINE
  5
129
330
1E
100
AcDbEntity
  8
0
100
AcDbLine
 10
49.619735
 20
78.7913
 30
0.0
 11
52.61513499999999
 21
82.2099
 31
0.0
  0
LINE
  5
12B
330
1E
100
AcDbEntity
  8
0
100
AcDbLine
 10
41.49383499999999
 20
62.5095
 30
0.0
 11
42.201335
 21
64.9495
 31
0.0
  0
LINE
  5
12C
330
1E
100
AcDbEntity
  8
0
100
AcDbLine
 10
40.457235
 20
57.2025
 30
0.0
 11
40.89283499999999
 21
59.85949999999999
 31
0.0
  0
LINE
  5
12D
330
1E
100
AcDbEntity
  8
0
100
AcDbLine
 10
40.09373499999999
 20
49.0315
 30
0.0
 11
40.30453499999999
 21
46.6925
 31
0.0
  0
LINE
  5
12E
330
1E
100
AcDbEntity
  8
0
100
AcDbLine
 10
39.994135
 20
49.0125
 30
0.0
 11
40.20503499999999
 21
46.6685
 31
0.0
  0
LINE
  5
131
330
1E
100
AcDbEntity
  8
0
100
AcDbLine
 10
50.934135
 20
19.1855
 30
0.0
 11
51.862335
 21
18.1395
 31
0.0
  0
LINE
  5
133
330
1E
100
AcDbEntity
  8
0
100
AcDbLine
 10
52.93533499999999
 20
17.0605
 30
0.0
 11
55.10893499999999
 21
14.9975
 31
0.0
  0
LINE
  5
134
330
1E
100
AcDbEntity
  8
0
100
AcDbLine
 10
51.862335
 20
18.1395
 30
0.0
 11
52.93533499999999
 21
17.0605
 31
0.0
  0
LINE
  5
139
330
1E
100
AcDbEntity
  8
0
100
AcDbLine
 10
55.623235
 20
12.51549999999999
 30
0.0
 11
65.815235
 21
5.67349999999999
 31
0.0
  0
LINE
  5
13B
330
1E
100
AcDbEntity
  8
0
100
AcDbLine
 10
55.10893499999999
 20
14.9975
 30
0.0
 11
58.68963499999999
 21
12.1515
 31
0.0
  0
LINE
  5
13E
330
1E
100
AcDbEntity
  8
0
100
AcDbLine
 10
65.815235
 20
5.67349999999999
 30
0.0
 11
77.47723499999999
 21
1.51650000000001
 31
0.0
  0
LINE
  5
145
330
1E
100
AcDbEntity
  8
0
100
AcDbLine
 10
65.023235
 20
8.31949999999999
 30
0.0
 11
66.715035
 21
7.4455
 31
0.0
  0
LINE
  5
146
330
1E
100
AcDbEntity
  8
0
100
AcDbLine
 10
62.570835
 20
9.624499999999999
 30
0.0
 11
65.023235
 21
8.31949999999999
 31
0.0
  0
LINE
  5
147
330
1E
100
AcDbEntity
  8
0
100
AcDbLine
 10
62.570835
 20
9.624499999999999
 30
0.0
 11
65.023235
 21
8.31949999999999
 31
0.0
  0
LINE
  5
14B
330
1E
100
AcDbEntity
  8
0
100
AcDbLine
 10
71.081935
 20
5.632500000000029
 30
0.0
 11
75.63213499999999
 21
4.2045
 31
0.0
  0
LINE
  5
14D
330
1E
100
AcDbEntity
  8
0
100
AcDbLine
 10
77.47723499999999
 20
1.51650000000001
 30
0.0
 11
89.92323499999999
 21
-0.0414999999999743
 31
0.0
  0
LINE
  5
14E
330
1E
100
AcDbEntity
  8
0
100
AcDbLine
 10
75.63213499999999
 20
4.2045
 30
0.0
 11
80.31933499999999
 21
3.1745
 31
0.0
  0
LINE
  5
14F
330
1E
100
AcDbEntity
  8
0
100
AcDbLine
 10
75.896235
 20
9.112500000000018
 30
0.0
 11
78.13783499999999
 21
8.58549999999998
 31
0.0
  0
LINE
  5
150
330
1E
100
AcDbEntity
  8
0
100
AcDbLine
 10
75.87753499999999
 20
9.022500000000039
 30
0.0
 11
78.11813499999999
 21
8.497500000000018
 31
0.0
  0
LINE
  5
151
330
1E
100
AcDbEntity
  8
0
100
AcDbLine
 10
82.699835
 20
2.861499999999999
 30
0.0
 11
85.09813499999999
 21
2.55349999999998
 31
0.0
  0
LINE
  5
154
330
1E
100
AcDbEntity
  8
0
100
AcDbLine
 10
80.31933499999999
 20
3.1745
 30
0.0
 11
82.699835
 21
2.861499999999999
 31
0.0
  0
LINE
  5
155
330
1E
100
AcDbEntity
  8
0
100
AcDbLine
 10
80.31933499999999
 20
3.1745
 30
0.0
 11
82.699835
 21
2.861499999999999
 31
0.0
  0
LINE
  5
158
330
1E
100
AcDbEntity
  8
0
100
AcDbLine
 10
80.408035
 20
8.151499999999989
 30
0.0
 11
83.68223499999999
 21
7.69449999999999
 31
0.0
  0
LINE
  5
159
330
1E
100
AcDbEntity
  8
0
100
AcDbLine
 10
80.384335
 20
8.06349999999999
 30
0.0
 11
83.65763499999999
 21
7.60549999999999
 31
0.0
  0
LINE
  5
15B
330
1E
100
AcDbEntity
  8
0
100
AcDbLine
 10
87.511135
 20
2.44750000000001
 30
0.0
 11
89.92263499999999
 21
2.345500000000009
 31
0.0
  0
LINE
  5
15C
330
1E
100
AcDbEntity
  8
0
100
AcDbLine
 10
85.09813499999999
 20
2.55349999999998
 30
0.0
 11
87.42021280766659
 21
2.45338761861443
 31
0.0
  0
LINE
  5
15D
330
1E
100
AcDbEntity
  8
0
100
AcDbLine
 10
85.09813499999999
 20
2.55349999999998
 30
0.0
 11
87.42021280766659
 21
2.45338761861443
 31
0.0
  0
LINE
  5
160
330
1E
100
AcDbEntity
  8
0
100
AcDbLine
 10
86.976135
 20
7.42750000000004
 30
0.0
 11
89.92323499999999
 21
7.351500000000009
 31
0.0
  0
LINE
  5
161
330
1E
100
AcDbEntity
  8
0
100
AcDbLine
 10
86.957435
 20
7.33850000000004
 30
0.0
 11
89.92323499999999
 21
7.261499999999999
 31
0.0
  0
LINE
  5
162
330
1E
100
AcDbEntity
  8
0
100
AcDbLine
 10
83.68223499999999
 20
7.69449999999999
 30
0.0
 11
86.976135
 21
7.42750000000004
 31
0.0
  0
LINE
  5
165
330
1E
100
AcDbEntity
  8
0
100
AcDbLine
 10
83.65763499999999
 20
7.60549999999999
 30
0.0
 11
86.957435
 21
7.33850000000004
 31
0.0
  0
LINE
  5
166
330
1E
100
AcDbEntity
  8
0
100
AcDbLine
 10
78.13783499999999
 20
8.58549999999998
 30
0.0
 11
80.408035
 21
8.151499999999989
 31
0.0
  0
LINE
  5
167
330
1E
100
AcDbEntity
  8
0
100
AcDbLine
 10
78.11813499999999
 20
8.497500000000018
 30
0.0
 11
80.384335
 21
8.06349999999999
 31
0.0
  0
LINE
  5
168
330
1E
100
AcDbEntity
  8
0
100
AcDbLine
 10
67.91123499999999
 20
11.83649999999999
 30
0.0
 11
70.30653499999999
 21
10.8705
 31
0.0
  0
LINE
  5
169
330
1E
100
AcDbEntity
  8
0
100
AcDbLine
 10
70.30653499999999
 20
10.8705
 30
0.0
 11
73.68913499999999
 21
9.727500000000009
 31
0.0
  0
LINE
  5
16A
330
1E
100
AcDbEntity
  8
0
100
AcDbLine
 10
70.264135
 20
10.7875
 30
0.0
 11
73.66643499999999
 21
9.639499999999991
 31
0.0
  0
LINE
  5
16B
330
1E
100
AcDbEntity
  8
0
100
AcDbLine
 10
73.68913499999999
 20
9.727500000000009
 30
0.0
 11
75.896235
 21
9.112500000000018
 31
0.0
  0
LINE
  5
16C
330
1E
100
AcDbEntity
  8
0
100
AcDbLine
 10
73.66643499999999
 20
9.639499999999991
 30
0.0
 11
75.87753499999999
 21
9.022500000000039
 31
0.0
  0
LINE
  5
16D
330
1E
100
AcDbEntity
  8
0
100
AcDbLine
 10
66.715035
 20
7.4455
 30
0.0
 11
71.081935
 21
5.632500000000029
 31
0.0
  0
LINE
  5
16E
330
1E
100
AcDbEntity
  8
0
100
AcDbLine
 10
63.22993499999999
 20
14.0335
 30
0.0
 11
67.02053499999999
 21
12.1285
 31
0.0
  0
LINE
  5
16F
330
1E
100
AcDbEntity
  8
0
100
AcDbLine
 10
65.56713499999999
 20
12.91649999999999
 30
0.0
 11
67.91123499999999
 21
11.83649999999999
 31
0.0
  0
LINE
  5
170
330
1E
100
AcDbEntity
  8
0
100
AcDbLine
 10
63.28813499999999
 20
14.1075
 30
0.0
 11
65.56713499999999
 21
12.91649999999999
 31
0.0
  0
LINE
  5
171
330
1E
100
AcDbEntity
  8
0
100
AcDbLine
 10
67.02053499999999
 20
12.1285
 30
0.0
 11
70.264135
 21
10.7875
 31
0.0
  0
LINE
  5
172
330
1E
100
AcDbEntity
  8
0
100
AcDbLine
 10
58.68963499999999
 20
12.1515
 30
0.0
 11
62.570835
 21
9.624499999999999
 31
0.0
  0
LINE
  5
174
330
1E
100
AcDbEntity
  8
0
100
AcDbLine
 10
54.778935
 20
20.0625
 30
0.0
 11
57.930935
 21
17.53849999999999
 31
0.0
  0
LINE
  5
175
330
1E
100
AcDbEntity
  8
0
100
AcDbLine
 10
53.163935
 20
21.5405
 30
0.0
 11
54.778935
 21
20.0625
 31
0.0
  0
LINE
  5
176
330
1E
100
AcDbEntity
  8
0
100
AcDbLine
 10
54.92763499999999
 20
19.8075
 30
0.0
 11
57.875735
 21
17.4605
 31
0.0
  0
LINE
  5
177
330
1E
100
AcDbEntity
  8
0
100
AcDbLine
 10
57.930935
 20
17.53849999999999
 30
0.0
 11
61.08093499999999
 21
15.4045
 31
0.0
  0
LINE
  5
178
330
1E
100
AcDbEntity
  8
0
100
AcDbLine
 10
57.875735
 20
17.4605
 30
0.0
 11
61.026835
 21
15.3285
 31
0.0
  0
LINE
  5
179
330
1E
100
AcDbEntity
  8
0
100
AcDbLine
 10
61.08093499999999
 20
15.4045
 30
0.0
 11
63.28813499999999
 21
14.1075
 31
0.0
  0
LINE
  5
17A
330
1E
100
AcDbEntity
  8
0
100
AcDbLine
 10
61.026835
 20
15.3285
 30
0.0
 11
63.22993499999999
 21
14.0335
 31
0.0
  0
LINE
  5
17B
330
1E
100
AcDbEntity
  8
0
100
AcDbLine
 10
53.084135
 20
21.48449999999999
 30
0.0
 11
54.92763499999999
 21
19.8075
 31
0.0
  0
LINE
  5
17C
330
1E
100
AcDbEntity
  8
0
100
AcDbLine
 10
51.42883499999999
 20
23.2965
 30
0.0
 11
53.163935
 21
21.5405
 31
0.0
  0
LINE
  5
17D
330
1E
100
AcDbEntity
  8
0
100
AcDbLine
 10
51.344035
 20
23.24549999999999
 30
0.0
 11
53.084135
 21
21.48449999999999
 31
0.0
  0
LINE
  5
17E
330
1E
100
AcDbEntity
  8
0
100
AcDbLine
 10
52.8368617694387
 20
82.42382806049329
 30
0.0
 11
53.06743499999999
 21
82.67599999999999
 31
0.0
  0
LINE
  5
182
330
1E
100
AcDbEntity
  8
0
100
AcDbLine
 10
53.06743499999999
 20
82.67599999999999
 30
0.0
 11
55.870635
 21
85.3068
 31
0.0
  0
LINE
  5
183
330
1E
100
AcDbEntity
  8
0
100
AcDbLine
 10
52.8368617694387
 20
82.42382806049329
 30
0.0
 11
53.06743499999999
 21
82.67599999999999
 31
0.0
  0
LINE
  5
247
330
1E
100
AcDbEntity
  8
0
100
AcDbLine
 10
55.870635
 20
85.3068
 30
0.0
 11
59.451235
 21
88.41459999999999
 31
0.0
  0
LINE
  5
248
330
1E
100
AcDbEntity
  8
0
100
AcDbLine
 10
59.0658177173859
 20
88.08103738247101
 30
0.0
 11
59.7576348720763
 21
88.68738858275682
 31
0.0
  0
LINE
  5
249
330
1E
100
AcDbEntity
  8
0
100
AcDbLine
 10
55.923235
 20
91.0415
 30
0.0
 11
62.823235
 21
91.54149999999999
 31
0.0
  0
LINE
  5
24A
330
1E
100
AcDbEntity
  8
0
100
AcDbLine
 10
55.923235
 20
89.04149999999999
 30
0.0
 11
60.59241857724511
 21
89.43059863143709
 31
0.0
  0
LINE
  5
24B
330
1E
100
AcDbEntity
  8
0
100
AcDbLine
 10
55.923235
 20
89.04149999999999
 30
0.0
 11
60.59241857724511
 21
89.43059863143709
 31
0.0
  0
LINE
  5
24C
330
1E
100
AcDbEntity
  8
0
100
AcDbLine
 10
55.923235
 20
197.0415
 30
0.0
 11
65.42323499999999
 21
197.0415
 31
0.0
  0
LINE
  5
24D
330
1E
100
AcDbEntity
  8
0
100
AcDbLine
 10
53.123235
 20
205.4415
 30
0.0
 11
55.923235
 21
205.0415
 31
0.0
  0
LINE
  5
250
330
1E
100
AcDbEntity
  8
0
100
AcDbLine
 10
50.423235
 20
206.5415
 30
0.0
 11
53.123235
 21
205.4415
 31
0.0
  0
LINE
  5
254
330
1E
100
AcDbEntity
  8
0
100
AcDbLine
 10
55.923235
 20
205.0415
 30
0.0
 11
58.723235
 21
205.4415
 31
0.0
  0
LINE
  5
256
330
1E
100
AcDbEntity
  8
0
100
AcDbLine
 10
58.723235
 20
205.4415
 30
0.0
 11
61.42323499999999
 21
206.5415
 31
0.0
  0
LINE
  5
257
330
1E
100
AcDbEntity
  8
0
100
AcDbLine
 10
55.923235
 20
260.0414999999999
 30
0.0
 11
66.92323499999999
 21
260.0414999999999
 31
0.0
  0
LINE
  5
258
330
1E
100
AcDbEntity
  8
0
100
AcDbLine
 10
61.42323499999999
 20
206.5415
 30
0.0
 11
63.723235
 21
208.2415
 31
0.0
  0
LINE
  5
259
330
1E
100
AcDbEntity
  8
0
100
AcDbLine
 10
59.451235
 20
88.41459999999999
 30
0.0
 11
62.50873499999999
 21
91.1367
 31
0.0
  0
LINE
  5
25A
330
1E
100
AcDbEntity
  8
0
100
AcDbLine
 10
59.0658177173859
 20
88.08103738247101
 30
0.0
 11
59.7576348720763
 21
88.68738858275682
 31
0.0
  0
LINE
  5
25B
330
1E
100
AcDbEntity
  8
0
100
AcDbLine
 10
62.823235
 20
91.54149999999999
 30
0.0
 11
62.96716854179249
 21
91.57113337625141
 31
0.0
  0
LINE
  5
25E
330
1E
100
AcDbEntity
  8
0
100
AcDbLine
 10
64.47043499999999
 20
92.99570000000001
 30
0.0
 11
66.332735
 21
94.9116
 31
0.0
  0
LINE
  5
25F
330
1E
100
AcDbEntity
  8
0
100
AcDbLine
 10
66.332735
 20
94.9116
 30
0.0
 11
68.056035
 21
96.8942
 31
0.0
  0
LINE
  5
260
330
1E
100
AcDbEntity
  8
0
100
AcDbLine
 10
68.232435
 20
97.1138
 30
0.0
 11
70.08873499999999
 21
99.64310000000001
 31
0.0
  0
LINE
  5
261
330
1E
100
AcDbEntity
  8
0
100
AcDbLine
 10
71.67023499999999
 20
102.2731999999999
 30
0.0
 11
72.965935
 21
104.9655999999999
 31
0.0
  0
LINE
  5
262
330
1E
100
AcDbEntity
  8
0
100
AcDbLine
 10
72.965935
 20
104.9655999999999
 30
0.0
 11
73.70583499999999
 21
106.8894999999999
 31
0.0
  0
LINE
  5
263
330
1E
100
AcDbEntity
  8
0
100
AcDbLine
 10
70.08873499999999
 20
99.64310000000001
 30
0.0
 11
71.67023499999999
 21
102.2731999999999
 31
0.0
  0
LINE
  5
264
330
1E
100
AcDbEntity
  8
0
100
AcDbLine
 10
73.679986817919
 20
106.8221716557619
 30
0.0
 11
74.276335
 21
108.805
 31
0.0
  0
LINE
  5
265
330
1E
100
AcDbEntity
  8
0
100
AcDbLine
 10
73.679986817919
 20
106.8221716557619
 30
0.0
 11
74.276335
 21
108.805
 31
0.0
  0
LINE
  5
269
330
1E
100
AcDbEntity
  8
0
100
AcDbLine
 10
74.753235
 20
110.8608
 30
0.0
 11
75.08633499999999
 21
112.7423
 31
0.0
  0
LINE
  5
26A
330
1E
100
AcDbEntity
  8
0
100
AcDbLine
 10
74.358135
 20
109.1209
 30
0.0
 11
74.753235
 21
110.8608
 31
0.0
  0
LINE
  5
26B
330
1E
100
AcDbEntity
  8
0
100
AcDbLine
 10
74.276335
 20
108.805
 30
0.0
 11
74.358135
 21
109.1209
 31
0.0
  0
LINE
  5
26C
330
1E
100
AcDbEntity
  8
0
100
AcDbLine
 10
75.08633499999999
 20
112.7423
 30
0.0
 11
75.45583499999999
 21
115.9252
 31
0.0
  0
LINE
  5
26F
330
1E
100
AcDbEntity
  8
0
100
AcDbLine
 10
72.965935
 20
104.9655999999999
 30
0.0
 11
73.70583499999999
 21
106.8894999999999
 31
0.0
  0
LINE
  5
270
330
1E
100
AcDbEntity
  8
0
100
AcDbLine
 10
68.056035
 20
96.8942
 30
0.0
 11
68.232435
 21
97.1138
 31
0.0
  0
LINE
  5
273
330
1E
100
AcDbEntity
  8
0
100
AcDbLine
 10
75.130635
 20
150.1883999999999
 30
0.0
 11
75.160235
 21
145.6533
 31
0.0
  0
LINE
  5
274
330
1E
100
AcDbEntity
  8
0
100
AcDbLine
 10
75.160235
 20
145.6533
 30
0.0
 11
75.28833500000001
 21
137.0612999999999
 31
0.0
  0
LINE
  5
276
330
1E
100
AcDbEntity
  8
0
100
AcDbLine
 10
75.28833500000001
 20
137.0612999999999
 30
0.0
 11
75.511935
 21
128.1795
 31
0.0
  0
LINE
  5
29B
330
1E
100
AcDbEntity
  8
0
100
AcDbLine
 10
75.57203499999999
 20
126.2527999999999
 30
0.0
 11
75.62233499999999
 21
124.4175999999999
 31
0.0
  0
LINE
  5
29C
330
1E
100
AcDbEntity
  8
0
100
AcDbLine
 10
75.513935
 20
128.1355
 30
0.0
 11
75.57203499999999
 21
126.2527999999999
 31
0.0
  0
LINE
  5
2A0
330
1E
100
AcDbEntity
  8
0
100
AcDbLine
 10
75.63313499999999
 20
119.2652999999999
 30
0.0
 11
75.65783499999999
 21
120.6158999999999
 31
0.0
  0
LINE
  5
2A5
330
1E
100
AcDbEntity
  8
0
100
AcDbLine
 10
104.2706983215339
 20
118.184650083166
 30
0.0
 11
106.623235
 21
123.0415
 31
0.0
  0
LINE
  5
2A7
330
1E
100
AcDbEntity
  8
0
100
AcDbLine
 10
104.206860385785
 20
122.5676591306209
 30
0.0
 11
104.8232349999999
 21
123.8415
 31
0.0
  0
LINE
  5
2A8
330
1E
100
AcDbEntity
  8
0
100
AcDbLine
 10
104.8232349999999
 20
123.8415
 30
0.0
 11
107.023235
 21
130.3414999999999
 31
0.0
  0
LINE
  5
2A9
330
1E
100
AcDbEntity
  8
0
100
AcDbLine
 10
106.623235
 20
123.0415
 30
0.0
 11
108.923235
 21
129.8415
 31
0.0
  0
LINE
  5
2BE
330
1E
100
AcDbEntity
  8
0
100
AcDbLine
 10
107.023235
 20
130.3414999999999
 30
0.0
 11
108.423235
 21
137.1415
 31
0.0
  0
LINE
  5
2BF
330
1E
100
AcDbEntity
  8
0
100
AcDbLine
 10
108.923235
 20
129.8415
 30
0.0
 11
110.323235
 21
136.8414999999999
 31
0.0
  0
LINE
  5
2C0
330
1E
100
AcDbEntity
  8
0
100
AcDbLine
 10
108.423235
 20
137.1415
 30
0.0
 11
108.923235
 21
144.0415
 31
0.0
  0
LINE
  5
2C1
330
1E
100
AcDbEntity
  8
0
100
AcDbLine
 10
110.323235
 20
136.8414999999999
 30
0.0
 11
110.923235
 21
144.0415
 31
0.0
  0
LINE
  5
2C3
330
1E
100
AcDbEntity
  8
0
100
AcDbLine
 10
108.423235
 20
150.9414999999999
 30
0.0
 11
108.923235
 21
144.0415
 31
0.0
  0
LINE
  5
2C4
330
1E
100
AcDbEntity
  8
0
100
AcDbLine
 10
110.323235
 20
151.2415
 30
0.0
 11
110.923235
 21
144.0415
 31
0.0
  0
LINE
  5
2C8
330
1E
100
AcDbEntity
  8
0
100
AcDbLine
 10
75.62233499999999
 20
124.4175999999999
 30
0.0
 11
75.65783499999999
 21
120.6158999999999
 31
0.0
  0
LINE
  5
2CA
330
1E
100
AcDbEntity
  8
0
100
AcDbLine
 10
75.45583499999999
 20
115.9252
 30
0.0
 11
75.63313499999999
 21
119.2652999999999
 31
0.0
  0
LINE
  5
2CC
330
1E
100
AcDbEntity
  8
0
100
AcDbLine
 10
75.19073500000001
 20
162.48751
 30
0.0
 11
75.33563499999999
 21
169.7986699999999
 31
0.0
  0
LINE
  5
2CE
330
1E
100
AcDbEntity
  8
0
100
AcDbLine
 10
75.183835
 20
161.9993199999999
 30
0.0
 11
75.19073500000001
 21
162.48751
 31
0.0
  0
LINE
  5
2D0
330
1E
100
AcDbEntity
  8
0
100
AcDbLine
 10
75.33563499999999
 20
169.7986699999999
 30
0.0
 11
75.55823499999999
 21
176.7978
 31
0.0
  0
LINE
  5
2D1
330
1E
100
AcDbEntity
  8
0
100
AcDbLine
 10
75.55823499999999
 20
176.7978
 30
0.0
 11
75.755335
 21
181.3995999999999
 31
0.0
  0
LINE
  5
2D6
330
1E
100
AcDbEntity
  8
0
100
AcDbLine
 10
75.92323499999999
 20
184.0415
 30
0.0
 11
75.95576819542259
 21
183.844299777746
 31
0.0
  0
LINE
  5
2D7
330
1E
100
AcDbEntity
  8
0
100
AcDbLine
 10
75.92323499999999
 20
184.0415
 30
0.0
 11
75.92323499999999
 21
206.0415
 31
0.0
  0
LINE
  5
2D8
330
1E
100
AcDbEntity
  8
0
100
AcDbLine
 10
75.92323499999999
 20
184.0415
 30
0.0
 11
76.0200460187656
 21
184.628301550054
 31
0.0
  0
LINE
  5
2D9
330
1E
100
AcDbEntity
  8
0
100
AcDbLine
 10
75.755335
 20
181.3995999999999
 30
0.0
 11
76.043035
 21
184.9087
 31
0.0
  0
LINE
  5
2DA
330
1E
100
AcDbEntity
  8
0
100
AcDbLine
 10
76.397735
 20
190.5636
 30
0.0
 11
76.477535
 21
190.7476
 31
0.0
  0
LINE
  5
2DB
330
1E
100
AcDbEntity
  8
0
100
AcDbLine
 10
76.366235
 20
190.3534
 30
0.0
 11
76.397735
 21
190.5636
 31
0.0
  0
LINE
  5
2DC
330
1E
100
AcDbEntity
  8
0
100
AcDbLine
 10
76.28343499999999
 20
189.1873
 30
0.0
 11
76.366235
 21
190.3534
 31
0.0
  0
LINE
  5
2DD
330
1E
100
AcDbEntity
  8
0
100
AcDbLine
 10
76.043035
 20
184.9087
 30
0.0
 11
76.28343499999999
 21
189.1873
 31
0.0
  0
LINE
  5
2E4
330
1E
100
AcDbEntity
  8
0
100
AcDbLine
 10
104.5190199379699
 20
169.3856859345129
 30
0.0
 11
106.623235
 21
165.0415
 31
0.0
  0
LINE
  5
2E5
330
1E
100
AcDbEntity
  8
0
100
AcDbLine
 10
104.612334298173
 20
164.677361450442
 30
0.0
 11
104.8232349999999
 21
164.2414999999999
 31
0.0
  0
LINE
  5
2E9
330
1E
100
AcDbEntity
  8
0
100
AcDbLine
 10
103.826423981234
 20
184.628301550054
 30
0.0
 11
103.923235
 21
184.0415
 31
0.0
  0
LINE
  5
2EA
330
1E
100
AcDbEntity
  8
0
100
AcDbLine
 10
103.923235
 20
184.0415
 30
0.0
 11
103.923235
 21
215.0415
 31
0.0
  0
LINE
  5
2EB
330
1E
100
AcDbEntity
  8
0
100
AcDbLine
 10
103.890701804577
 20
183.844299777746
 30
0.0
 11
103.923235
 21
184.0415
 31
0.0
  0
LINE
  5
2EF
330
1E
100
AcDbEntity
  8
0
100
AcDbLine
 10
107.023235
 20
157.7415
 30
0.0
 11
108.423235
 21
150.9414999999999
 31
0.0
  0
LINE
  5
2F0
330
1E
100
AcDbEntity
  8
0
100
AcDbLine
 10
108.923235
 20
158.2415
 30
0.0
 11
110.323235
 21
151.2415
 31
0.0
  0
LINE
  5
2F1
330
1E
100
AcDbEntity
  8
0
100
AcDbLine
 10
104.8232349999999
 20
164.2414999999999
 30
0.0
 11
107.023235
 21
157.7415
 31
0.0
  0
LINE
  5
2F2
330
1E
100
AcDbEntity
  8
0
100
AcDbLine
 10
106.623235
 20
165.0415
 30
0.0
 11
108.923235
 21
158.2415
 31
0.0
  0
LINE
  5
2F5
330
1E
100
AcDbEntity
  8
0
100
AcDbLine
 10
103.8034349999999
 20
184.9087
 30
0.0
 11
104.091135
 21
181.3995999999999
 31
0.0
  0
LINE
  5
2F6
330
1E
100
AcDbEntity
  8
0
100
AcDbLine
 10
103.5630349999999
 20
189.1873
 30
0.0
 11
103.8034349999999
 21
184.9087
 31
0.0
  0
LINE
  5
2F7
330
1E
100
AcDbEntity
  8
0
100
AcDbLine
 10
103.3689349999999
 20
190.7476
 30
0.0
 11
103.448735
 21
190.5636
 31
0.0
  0
LINE
  5
2F8
330
1E
100
AcDbEntity
  8
0
100
AcDbLine
 10
103.448735
 20
190.5636
 30
0.0
 11
103.4802349999999
 21
190.3534
 31
0.0
  0
LINE
  5
2F9
330
1E
100
AcDbEntity
  8
0
100
AcDbLine
 10
103.4802349999999
 20
190.3534
 30
0.0
 11
103.5630349999999
 21
189.1873
 31
0.0
  0
LINE
  5
2FD
330
1E
100
AcDbEntity
  8
0
100
AcDbLine
 10
75.126735
 20
154.3696999999999
 30
0.0
 11
75.130635
 21
150.1883999999999
 31
0.0
  0
LINE
  5
2FE
330
1E
100
AcDbEntity
  8
0
100
AcDbLine
 10
75.126735
 20
154.3696999999999
 30
0.0
 11
75.183835
 21
161.9993199999999
 31
0.0
  0
LINE
  5
300
330
1E
100
AcDbEntity
  8
0
100
AcDbLine
 10
69.45203499999999
 20
195.9275
 30
0.0
 11
76.12323499999999
 21
192.9414999999999
 31
0.0
  0
LINE
  5
301
330
1E
100
AcDbEntity
  8
0
100
AcDbLine
 10
65.42323499999999
 20
197.0415
 30
0.0
 11
69.45203499999999
 21
195.9275
 31
0.0
  0
LINE
  5
303
330
1E
100
AcDbEntity
  8
0
100
AcDbLine
 10
75.92323499999999
 20
198.0466999999999
 30
0.0
 11
75.92323499999999
 21
198.6328999999999
 31
0.0
  0
LINE
  5
304
330
1E
100
AcDbEntity
  8
0
100
AcDbLine
 10
75.92323499999999
 20
198.0466999999999
 30
0.0
 11
79.849615
 21
198.0466999999999
 31
0.0
  0
LINE
  5
305
330
1E
100
AcDbEntity
  8
0
100
AcDbLine
 10
75.92323499999999
 20
198.6328999999999
 30
0.0
 11
75.92323499999999
 21
200.4976
 31
0.0
  0
LINE
  5
306
330
1E
100
AcDbEntity
  8
0
100
AcDbLine
 10
75.92323499999999
 20
198.6328999999999
 30
0.0
 11
75.92323499999999
 21
198.0466999999999
 31
0.0
  0
LINE
  5
309
330
1E
100
AcDbEntity
  8
0
100
AcDbLine
 10
76.12323499999999
 20
192.9414999999999
 30
0.0
 11
78.39809985877741
 21
191.8407589393009
 31
0.0
  0
LINE
  5
30A
330
1E
100
AcDbEntity
  8
0
100
AcDbLine
 10
75.92323499999999
 20
200.4976
 30
0.0
 11
75.92323499999999
 21
203.3748999999999
 31
0.0
  0
LINE
  5
30B
330
1E
100
AcDbEntity
  8
0
100
AcDbLine
 10
75.92323499999999
 20
200.4976
 30
0.0
 11
75.92323499999999
 21
198.6328999999999
 31
0.0
  0
LINE
  5
30D
330
1E
100
AcDbEntity
  8
0
100
AcDbLine
 10
75.92323499999999
 20
206.0415
 30
0.0
 11
75.92323499999999
 21
184.0415
 31
0.0
  0
LINE
  5
310
330
1E
100
AcDbEntity
  8
0
100
AcDbLine
 10
75.92323499999999
 20
206.0415
 30
0.0
 11
75.92323499999999
 21
207.0415
 31
0.0
  0
LINE
  5
313
330
1E
100
AcDbEntity
  8
0
100
AcDbLine
 10
75.92323499999999
 20
207.0415
 30
0.0
 11
75.92323499999999
 21
211.3560999999999
 31
0.0
  0
LINE
  5
314
330
1E
100
AcDbEntity
  8
0
100
AcDbLine
 10
75.92323499999999
 20
207.0415
 30
0.0
 11
75.92323499999999
 21
206.0415
 31
0.0
  0
LINE
  5
315
330
1E
100
AcDbEntity
  8
0
100
AcDbLine
 10
75.92323499999999
 20
207.0415
 30
0.0
 11
75.92323499999999
 21
203.3748999999999
 31
0.0
  0
LINE
  5
316
330
1E
100
AcDbEntity
  8
0
100
AcDbLine
 10
75.92323499999999
 20
203.3748999999999
 30
0.0
 11
75.92323499999999
 21
207.0415
 31
0.0
  0
LINE
  5
317
330
1E
100
AcDbEntity
  8
0
100
AcDbLine
 10
75.92323499999999
 20
203.3748999999999
 30
0.0
 11
75.92323499999999
 21
200.4976
 31
0.0
  0
LINE
  5
318
330
1E
100
AcDbEntity
  8
0
100
AcDbLine
 10
63.723235
 20
208.2415
 30
0.0
 11
65.42323499999999
 21
210.5415
 31
0.0
  0
LINE
  5
319
330
1E
100
AcDbEntity
  8
0
100
AcDbLine
 10
63.723235
 20
208.2415
 30
0.0
 11
65.42323499999999
 21
210.5415
 31
0.0
  0
LINE
  5
31B
330
1E
100
AcDbEntity
  8
0
100
AcDbLine
 10
65.42323499999999
 20
210.5415
 30
0.0
 11
66.523235
 21
213.2414999999999
 31
0.0
  0
LINE
  5
31E
330
1E
100
AcDbEntity
  8
0
100
AcDbLine
 10
66.92323499999999
 20
234.0362999999999
 30
0.0
 11
75.92323499999999
 21
234.0362999999999
 31
0.0
  0
LINE
  5
31F
330
1E
100
AcDbEntity
  8
0
100
AcDbLine
 10
66.92323499999999
 20
260.0414999999999
 30
0.0
 11
66.92323499999999
 21
216.0414999999999
 31
0.0
  0
LINE
  5
322
330
1E
100
AcDbEntity
  8
0
100
AcDbLine
 10
66.523235
 20
213.2414999999999
 30
0.0
 11
66.92323499999999
 21
216.0414999999999
 31
0.0
  0
LINE
  5
325
330
1E
100
AcDbEntity
  8
0
100
AcDbLine
 10
75.92323499999999
 20
228.7648
 30
0.0
 11
75.92323499999999
 21
231.63
 31
0.0
  0
LINE
  5
326
330
1E
100
AcDbEntity
  8
0
100
AcDbLine
 10
75.92323499999999
 20
228.7648
 30
0.0
 11
75.92323499999999
 21
225.1083
 31
0.0
  0
LINE
  5
327
330
1E
100
AcDbEntity
  8
0
100
AcDbLine
 10
75.92323499999999
 20
225.1083
 30
0.0
 11
75.92323499999999
 21
228.7648
 31
0.0
  0
LINE
  5
328
330
1E
100
AcDbEntity
  8
0
100
AcDbLine
 10
75.92323499999999
 20
225.1083
 30
0.0
 11
75.92323499999999
 21
220.7060999999999
 31
0.0
  0
LINE
  5
329
330
1E
100
AcDbEntity
  8
0
100
AcDbLine
 10
75.92323499999999
 20
220.7060999999999
 30
0.0
 11
75.92323499999999
 21
225.1083
 31
0.0
  0
LINE
  5
32A
330
1E
100
AcDbEntity
  8
0
100
AcDbLine
 10
75.92323499999999
 20
220.7060999999999
 30
0.0
 11
75.92323499999999
 21
215.9613999999999
 31
0.0
  0
LINE
  5
32B
330
1E
100
AcDbEntity
  8
0
100
AcDbLine
 10
75.92323499999999
 20
215.9613999999999
 30
0.0
 11
75.92323499999999
 21
220.7060999999999
 31
0.0
  0
LINE
  5
32C
330
1E
100
AcDbEntity
  8
0
100
AcDbLine
 10
75.92323499999999
 20
215.9613999999999
 30
0.0
 11
75.92323499999999
 21
211.3560999999999
 31
0.0
  0
LINE
  5
32D
330
1E
100
AcDbEntity
  8
0
100
AcDbLine
 10
75.92323499999999
 20
211.3560999999999
 30
0.0
 11
75.92323499999999
 21
215.9613999999999
 31
0.0
  0
LINE
  5
32E
330
1E
100
AcDbEntity
  8
0
100
AcDbLine
 10
75.92323499999999
 20
211.3560999999999
 30
0.0
 11
75.92323499999999
 21
207.0415
 31
0.0
  0
LINE
  5
331
330
1E
100
AcDbEntity
  8
0
100
AcDbLine
 10
75.92323499999999
 20
231.63
 30
0.0
 11
75.92323499999999
 21
233.3728
 31
0.0
  0
LINE
  5
332
330
1E
100
AcDbEntity
  8
0
100
AcDbLine
 10
75.92323499999999
 20
231.63
 30
0.0
 11
75.92323499999999
 21
228.7648
 31
0.0
  0
LINE
  5
333
330
1E
100
AcDbEntity
  8
0
100
AcDbLine
 10
75.92323499999999
 20
234.0362999999999
 30
0.0
 11
75.92323499999999
 21
233.3728
 31
0.0
  0
LINE
  5
334
330
1E
100
AcDbEntity
  8
0
100
AcDbLine
 10
75.92323499999999
 20
234.0362999999999
 30
0.0
 11
78.92323499999999
 21
234.0362999999999
 31
0.0
  0
LINE
  5
335
330
1E
100
AcDbEntity
  8
0
100
AcDbLine
 10
75.92323499999999
 20
233.3728
 30
0.0
 11
75.92323499999999
 21
234.0362999999999
 31
0.0
  0
LINE
  5
336
330
1E
100
AcDbEntity
  8
0
100
AcDbLine
 10
75.92323499999999
 20
233.3728
 30
0.0
 11
75.92323499999999
 21
231.63
 31
0.0
  0
LINE
  5
337
330
1E
100
AcDbEntity
  8
0
100
AcDbLine
 10
66.92323499999999
 20
216.0414999999999
 30
0.0
 11
66.92323499999999
 21
260.0414999999999
 31
0.0
  0
LINE
  5
338
330
1E
100
AcDbEntity
  8
0
100
AcDbLine
 10
65.42323499999999
 20
210.5415
 30
0.0
 11
66.523235
 21
213.2414999999999
 31
0.0
  0
LINE
  5
339
330
1E
100
AcDbEntity
  8
0
100
AcDbLine
 10
76.56333499999999
 20
190.9119
 30
0.0
 11
76.64213499999999
 21
191.0327999999999
 31
0.0
  0
LINE
  5
33A
330
1E
100
AcDbEntity
  8
0
100
AcDbLine
 10
103.1038349999999
 20
191.1384999999999
 30
0.0
 11
103.2043349999999
 21
191.0327999999999
 31
0.0
  0
LINE
  5
33B
330
1E
100
AcDbEntity
  8
0
100
AcDbLine
 10
103.2043349999999
 20
191.0327999999999
 30
0.0
 11
103.2831349999999
 21
190.9119
 31
0.0
  0
LINE
  5
33C
330
1E
100
AcDbEntity
  8
0
100
AcDbLine
 10
76.64213499999999
 20
191.0327999999999
 30
0.0
 11
76.74263499999999
 21
191.1384999999999
 31
0.0
  0
LINE
  5
33D
330
1E
100
AcDbEntity
  8
0
100
AcDbLine
 10
103.2831349999999
 20
190.9119
 30
0.0
 11
103.3225349999999
 21
190.8377999999999
 31
0.0
  0
LINE
  5
33E
330
1E
100
AcDbEntity
  8
0
100
AcDbLine
 10
103.3225349999999
 20
190.8377999999999
 30
0.0
 11
103.3689349999999
 21
190.7476
 31
0.0
  0
LINE
  5
340
330
1E
100
AcDbEntity
  8
0
100
AcDbLine
 10
78.92323499999999
 20
192.0468402208969
 30
0.0
 11
78.92323499999999
 21
206.0415
 31
0.0
  0
LINE
  5
342
330
1E
100
AcDbEntity
  8
0
100
AcDbLine
 10
80.011235
 20
192.4903999999999
 30
0.0
 11
82.97923500000001
 21
194.3996999999999
 31
0.0
  0
LINE
  5
345
330
1E
100
AcDbEntity
  8
0
100
AcDbLine
 10
102.831935
 20
191.2978
 30
0.0
 11
103.1038349999999
 21
191.1384999999999
 31
0.0
  0
LINE
  5
346
330
1E
100
AcDbEntity
  8
0
100
AcDbLine
 10
99.76263500000001
 20
192.5022999999999
 30
0.0
 11
102.831935
 21
191.2978
 31
0.0
  0
LINE
  5
348
330
1E
100
AcDbEntity
  8
0
100
AcDbLine
 10
96.594835
 20
193.4046999999999
 30
0.0
 11
99.76263500000001
 21
192.5022999999999
 31
0.0
  0
LINE
  5
349
330
1E
100
AcDbEntity
  8
0
100
AcDbLine
 10
80.08383499999998
 20
192.5022999999999
 30
0.0
 11
83.251635
 21
193.4046999999999
 31
0.0
  0
LINE
  5
34F
330
1E
100
AcDbEntity
  8
0
100
AcDbLine
 10
78.92323499999999
 20
203.3748999999999
 30
0.0
 11
78.92323499999999
 21
207.0415
 31
0.0
  0
LINE
  5
350
330
1E
100
AcDbEntity
  8
0
100
AcDbLine
 10
78.92323499999999
 20
203.3748999999999
 30
0.0
 11
78.92323499999999
 21
220.7269
 31
0.0
  0
LINE
  5
351
330
1E
100
AcDbEntity
  8
0
100
AcDbLine
 10
78.92323499999999
 20
207.0415
 30
0.0
 11
78.92323499999999
 21
211.3560999999999
 31
0.0
  0
LINE
  5
352
330
1E
100
AcDbEntity
  8
0
100
AcDbLine
 10
78.92323499999999
 20
207.0415
 30
0.0
 11
78.92323499999999
 21
216.0414999999999
 31
0.0
  0
LINE
  5
353
330
1E
100
AcDbEntity
  8
0
100
AcDbLine
 10
78.92323499999999
 20
207.0415
 30
0.0
 11
78.92323499999999
 21
203.3748999999999
 31
0.0
  0
LINE
  5
354
330
1E
100
AcDbEntity
  8
0
100
AcDbLine
 10
78.92323499999999
 20
211.3560999999999
 30
0.0
 11
78.92323499999999
 21
215.9613999999999
 31
0.0
  0
LINE
  5
355
330
1E
100
AcDbEntity
  8
0
100
AcDbLine
 10
78.92323499999999
 20
211.3560999999999
 30
0.0
 11
78.92323499999999
 21
207.0415
 31
0.0
  0
LINE
  5
359
330
1E
100
AcDbEntity
  8
0
100
AcDbLine
 10
78.92323499999999
 20
206.0415
 30
0.0
 11
78.92323499999999
 21
192.0468402208969
 31
0.0
  0
LINE
  5
35C
330
1E
100
AcDbEntity
  8
0
100
AcDbLine
 10
78.92323499999999
 20
206.0415
 30
0.0
 11
78.92323499999999
 21
221.0415
 31
0.0
  0
LINE
  5
35D
330
1E
100
AcDbEntity
  8
0
100
AcDbLine
 10
78.92323499999999
 20
216.0414999999999
 30
0.0
 11
78.92323499999999
 21
225.0415
 31
0.0
  0
LINE
  5
35E
330
1E
100
AcDbEntity
  8
0
100
AcDbLine
 10
78.92323499999999
 20
215.9613999999999
 30
0.0
 11
78.92323499999999
 21
220.7060999999999
 31
0.0
  0
LINE
  5
35F
330
1E
100
AcDbEntity
  8
0
100
AcDbLine
 10
78.92323499999999
 20
215.9613999999999
 30
0.0
 11
78.92323499999999
 21
211.3560999999999
 31
0.0
  0
LINE
  5
361
330
1E
100
AcDbEntity
  8
0
100
AcDbLine
 10
78.92323499999999
 20
220.7269
 30
0.0
 11
78.92323499999999
 21
225.0415
 31
0.0
  0
LINE
  5
362
330
1E
100
AcDbEntity
  8
0
100
AcDbLine
 10
78.92323499999999
 20
220.7269
 30
0.0
 11
78.92323499999999
 21
203.3748999999999
 31
0.0
  0
LINE
  5
363
330
1E
100
AcDbEntity
  8
0
100
AcDbLine
 10
78.92323499999999
 20
220.7060999999999
 30
0.0
 11
78.92323499999999
 21
225.1083
 31
0.0
  0
LINE
  5
364
330
1E
100
AcDbEntity
  8
0
100
AcDbLine
 10
78.92323499999999
 20
220.7060999999999
 30
0.0
 11
78.92323499999999
 21
215.9613999999999
 31
0.0
  0
LINE
  5
366
330
1E
100
AcDbEntity
  8
0
100
AcDbLine
 10
78.92323499999999
 20
225.0415
 30
0.0
 11
78.92323499999999
 21
228.7081
 31
0.0
  0
LINE
  5
367
330
1E
100
AcDbEntity
  8
0
100
AcDbLine
 10
78.92323499999999
 20
225.0415
 30
0.0
 11
78.92323499999999
 21
220.7269
 31
0.0
  0
LINE
  5
368
330
1E
100
AcDbEntity
  8
0
100
AcDbLine
 10
78.92323499999999
 20
225.0415
 30
0.0
 11
78.92323499999999
 21
207.0415
 31
0.0
  0
LINE
  5
369
330
1E
100
AcDbEntity
  8
0
100
AcDbLine
 10
78.92323499999999
 20
228.7081
 30
0.0
 11
78.92323499999999
 21
225.0415
 31
0.0
  0
LINE
  5
36A
330
1E
100
AcDbEntity
  8
0
100
AcDbLine
 10
78.92323499999999
 20
228.7081
 30
0.0
 11
78.92323499999999
 21
231.5853999999999
 31
0.0
  0
LINE
  5
36B
330
1E
100
AcDbEntity
  8
0
100
AcDbLine
 10
78.92323499999999
 20
225.1083
 30
0.0
 11
78.92323499999999
 21
228.7648
 31
0.0
  0
LINE
  5
36C
330
1E
100
AcDbEntity
  8
0
100
AcDbLine
 10
78.92323499999999
 20
225.1083
 30
0.0
 11
78.92323499999999
 21
220.7060999999999
 31
0.0
  0
LINE
  5
36D
330
1E
100
AcDbEntity
  8
0
100
AcDbLine
 10
78.92323499999999
 20
231.5853999999999
 30
0.0
 11
78.92323499999999
 21
228.7081
 31
0.0
  0
LINE
  5
36E
330
1E
100
AcDbEntity
  8
0
100
AcDbLine
 10
78.92323499999999
 20
231.5853999999999
 30
0.0
 11
78.92323499999999
 21
233.4500999999999
 31
0.0
  0
LINE
  5
36F
330
1E
100
AcDbEntity
  8
0
100
AcDbLine
 10
78.92323499999999
 20
233.4500999999999
 30
0.0
 11
78.92323499999999
 21
231.5853999999999
 31
0.0
  0
LINE
  5
370
330
1E
100
AcDbEntity
  8
0
100
AcDbLine
 10
78.92323499999999
 20
233.4500999999999
 30
0.0
 11
78.92323499999999
 21
234.0362999999999
 31
0.0
  0
LINE
  5
371
330
1E
100
AcDbEntity
  8
0
100
AcDbLine
 10
78.92323499999999
 20
234.0362999999999
 30
0.0
 11
78.92323499999999
 21
233.4500999999999
 31
0.0
  0
LINE
  5
372
330
1E
100
AcDbEntity
  8
0
100
AcDbLine
 10
78.92323499999999
 20
234.0362999999999
 30
0.0
 11
78.92323499999999
 21
233.3728
 31
0.0
  0
LINE
  5
373
330
1E
100
AcDbEntity
  8
0
100
AcDbLine
 10
78.92323499999999
 20
233.3728
 30
0.0
 11
78.92323499999999
 21
234.0362999999999
 31
0.0
  0
LINE
  5
374
330
1E
100
AcDbEntity
  8
0
100
AcDbLine
 10
78.92323499999999
 20
233.3728
 30
0.0
 11
78.92323499999999
 21
231.63
 31
0.0
  0
LINE
  5
375
330
1E
100
AcDbEntity
  8
0
100
AcDbLine
 10
78.92323499999999
 20
231.63
 30
0.0
 11
78.92323499999999
 21
228.7648
 31
0.0
  0
LINE
  5
376
330
1E
100
AcDbEntity
  8
0
100
AcDbLine
 10
78.92323499999999
 20
231.63
 30
0.0
 11
78.92323499999999
 21
233.3728
 31
0.0
  0
LINE
  5
377
330
1E
100
AcDbEntity
  8
0
100
AcDbLine
 10
78.92323499999999
 20
228.7648
 30
0.0
 11
78.92323499999999
 21
231.63
 31
0.0
  0
LINE
  5
378
330
1E
100
AcDbEntity
  8
0
100
AcDbLine
 10
78.92323499999999
 20
228.7648
 30
0.0
 11
78.92323499999999
 21
225.1083
 31
0.0
  0
LINE
  5
37B
330
1E
100
AcDbEntity
  8
0
100
AcDbLine
 10
78.92323499999999
 20
221.0415
 30
0.0
 11
78.92323499999999
 21
206.0415
 31
0.0
  0
LINE
  5
387
330
1E
100
AcDbEntity
  8
0
100
AcDbLine
 10
81.11303499999999
 20
233.5242
 30
0.0
 11
81.37613499999998
 21
230.3812
 31
0.0
  0
LINE
  5
388
330
1E
100
AcDbEntity
  8
0
100
AcDbLine
 10
81.11303499999999
 20
233.5242
 30
0.0
 11
82.149035
 21
236.4302
 31
0.0
  0
LINE
  5
397
330
1E
100
AcDbEntity
  8
0
100
AcDbLine
 10
82.97923500000001
 20
194.3996999999999
 30
0.0
 11
86.33923499999999
 21
195.5453
 31
0.0
  0
LINE
  5
398
330
1E
100
AcDbEntity
  8
0
100
AcDbLine
 10
86.33923499999999
 20
195.5453
 30
0.0
 11
89.92323499999999
 21
195.9749
 31
0.0
  0
LINE
  5
39B
330
1E
100
AcDbEntity
  8
0
100
AcDbLine
 10
82.149035
 20
236.4302
 30
0.0
 11
84.086935
 21
238.8222
 31
0.0
  0
LINE
  5
39C
330
1E
100
AcDbEntity
  8
0
100
AcDbLine
 10
82.931535
 20
230.8786
 30
0.0
 11
86.256035
 21
231.4629
 31
0.0
  0
LINE
  5
3A1
330
1E
100
AcDbEntity
  8
0
100
AcDbLine
 10
86.256035
 20
231.4629
 30
0.0
 11
90.164535
 21
231.1068
 31
0.0
  0
LINE
  5
3A4
330
1E
100
AcDbEntity
  8
0
100
AcDbLine
 10
84.086935
 20
238.8222
 30
0.0
 11
86.88473499999998
 21
240.2512
 31
0.0
  0
LINE
  5
3AA
330
1E
100
AcDbEntity
  8
0
100
AcDbLine
 10
93.31963499999998
 20
193.9738
 30
0.0
 11
96.594835
 21
193.4046999999999
 31
0.0
  0
LINE
  5
3AB
330
1E
100
AcDbEntity
  8
0
100
AcDbLine
 10
86.88473499999998
 20
240.2512
 30
0.0
 11
90.02853499999998
 21
240.5142
 31
0.0
  0
LINE
  5
3AD
330
1E
100
AcDbEntity
  8
0
100
AcDbLine
 10
96.86723499999999
 20
194.3996999999999
 30
0.0
 11
99.835235
 21
192.4903999999999
 31
0.0
  0
LINE
  5
3AE
330
1E
100
AcDbEntity
  8
0
100
AcDbLine
 10
89.92323499999999
 20
195.9749
 30
0.0
 11
93.50723499999999
 21
195.5453
 31
0.0
  0
LINE
  5
3AF
330
1E
100
AcDbEntity
  8
0
100
AcDbLine
 10
93.50723499999999
 20
195.5453
 30
0.0
 11
96.86723499999999
 21
194.3996999999999
 31
0.0
  0
LINE
  5
3B9
330
1E
100
AcDbEntity
  8
0
100
AcDbLine
 10
90.164535
 20
231.1068
 30
0.0
 11
93.668735
 21
229.8014999999999
 31
0.0
  0
LINE
  5
3BA
330
1E
100
AcDbEntity
  8
0
100
AcDbLine
 10
90.02853499999998
 20
240.5142
 30
0.0
 11
93.162035
 21
239.5791999999999
 31
0.0
  0
LINE
  5
3BF
330
1E
100
AcDbEntity
  8
0
100
AcDbLine
 10
93.668735
 20
229.8014999999999
 30
0.0
 11
96.993135
 21
227.8027999999999
 31
0.0
  0
LINE
  5
3C3
330
1E
100
AcDbEntity
  8
0
100
AcDbLine
 10
93.162035
 20
239.5791999999999
 30
0.0
 11
95.64593499999999
 21
237.7581999999999
 31
0.0
  0
LINE
  5
3CC
330
1E
100
AcDbEntity
  8
0
100
AcDbLine
 10
96.993135
 20
227.8027999999999
 30
0.0
 11
99.86843499999999
 21
224.9954999999999
 31
0.0
  0
LINE
  5
3CE
330
1E
100
AcDbEntity
  8
0
100
AcDbLine
 10
95.64593499999999
 20
237.7581999999999
 30
0.0
 11
97.424835
 21
235.2422
 31
0.0
  0
LINE
  5
3D5
330
1E
100
AcDbEntity
  8
0
100
AcDbLine
 10
97.424835
 20
235.2422
 30
0.0
 11
97.99903499999999
 21
232.1382
 31
0.0
  0
LINE
  5
3DB
330
1E
100
AcDbEntity
  8
0
100
AcDbLine
 10
97.982835
 20
230.2372
 30
0.0
 11
97.99903499999999
 21
232.1382
 31
0.0
  0
LINE
  5
3DC
330
1E
100
AcDbEntity
  8
0
100
AcDbLine
 10
97.95383499999999
 20
226.9381999999999
 30
0.0
 11
97.982835
 21
230.2372
 31
0.0
  0
LINE
  5
3F5
330
1E
100
AcDbEntity
  8
0
100
AcDbLine
 10
99.86843499999999
 20
224.9954999999999
 30
0.0
 11
102.384235
 21
221.5899999999999
 31
0.0
  0
LINE
  5
3F6
330
1E
100
AcDbEntity
  8
0
100
AcDbLine
 10
102.384235
 20
221.5899999999999
 30
0.0
 11
103.5532349999999
 21
218.3014
 31
0.0
  0
LINE
  5
3F7
330
1E
100
AcDbEntity
  8
0
100
AcDbLine
 10
103.5532349999999
 20
218.3014
 30
0.0
 11
103.923235
 21
215.0415
 31
0.0
  0
LINE
  5
3F8
330
1E
100
AcDbEntity
  8
0
100
AcDbLine
 10
103.923235
 20
215.0415
 30
0.0
 11
103.923235
 21
184.0415
 31
0.0
  0
LINE
  5
3FE
330
1E
100
AcDbEntity
  8
0
100
AcDbLine
 10
89.92323499999999
 20
194.1746
 30
0.0
 11
93.301935
 21
193.9754
 31
0.0
  0
LINE
  5
3FF
330
1E
100
AcDbEntity
  8
0
100
AcDbLine
 10
86.544535
 20
193.9754
 30
0.0
 11
89.92323499999999
 21
194.1746
 31
0.0
  0
LINE
  5
400
330
1E
100
AcDbEntity
  8
0
100
AcDbLine
 10
83.251635
 20
193.4046999999999
 30
0.0
 11
86.526835
 21
193.9738
 31
0.0
  0
LINE
  5
401
330
1E
100
AcDbEntity
  8
0
100
AcDbLine
 10
77.01453499999999
 20
191.2978
 30
0.0
 11
80.08383499999998
 21
192.5022999999999
 31
0.0
  0
LINE
  5
402
330
1E
100
AcDbEntity
  8
0
100
AcDbLine
 10
76.74263499999999
 20
191.1384999999999
 30
0.0
 11
77.01453499999999
 21
191.2978
 31
0.0
  0
LINE
  5
403
330
1E
100
AcDbEntity
  8
0
100
AcDbLine
 10
76.52393499999999
 20
190.8377999999999
 30
0.0
 11
76.56333499999999
 21
190.9119
 31
0.0
  0
LINE
  5
404
330
1E
100
AcDbEntity
  8
0
100
AcDbLine
 10
76.477535
 20
190.7476
 30
0.0
 11
76.52393499999999
 21
190.8377999999999
 31
0.0
  0
LINE
  5
405
330
1E
100
AcDbEntity
  8
0
100
AcDbLine
 10
62.50873499999999
 20
91.1367
 30
0.0
 11
64.47043499999999
 21
92.99570000000001
 31
0.0
  0
LINE
  5
40C
330
1E
100
AcDbEntity
  8
0
100
AcDbLine
 10
82.931535
 20
230.8786
 30
0.0
 11
78.92323499999999
 21
228.7648
 31
0.0
  0
LINE
  5
40D
330
1E
100
AcDbEntity
  8
0
100
AcDbLine
 10
49.55200028489709
 20
20.87089464078519
 30
0.0
 11
50.934135
 21
19.1855
 31
0.0
  0
LINE
  5
40E
330
1E
100
AcDbEntity
  8
0
100
AcDbLine
 10
112.8259349999999
 20
12.1285
 30
0.0
 11
109.5823349999999
 21
10.7875
 31
0.0
  0
LINE
  5
40F
330
1E
100
AcDbEntity
  8
0
100
AcDbLine
 10
113.1314349999999
 20
7.4455
 30
0.0
 11
108.7645349999999
 21
5.632500000000029
 31
0.0
  0
LINE
  5
410
330
1E
100
AcDbEntity
  8
0
100
AcDbLine
 10
111.9352349999999
 20
11.83649999999999
 30
0.0
 11
109.5399349999999
 21
10.8705
 31
0.0
  0
LINE
  5
411
330
1E
100
AcDbEntity
  8
0
100
AcDbLine
 10
114.0312349999999
 20
5.67349999999999
 30
0.0
 11
102.3692349999999
 21
1.51650000000001
 31
0.0
  0
LINE
  5
412
330
1E
100
AcDbEntity
  8
0
100
AcDbLine
 10
139.8523349999999
 20
49.0125
 30
0.0
 11
139.641435
 21
46.6685
 31
0.0
  0
LINE
  5
413
330
1E
100
AcDbEntity
  8
0
100
AcDbLine
 10
139.7527349999999
 20
49.0315
 30
0.0
 11
139.541935
 21
46.6925
 31
0.0
  0
LINE
  5
414
330
1E
100
AcDbEntity
  8
0
100
AcDbLine
 10
133.0545349999999
 20
28.9855
 30
0.0
 11
131.6524349999999
 21
27.0015
 31
0.0
  0
LINE
  5
415
330
1E
100
AcDbEntity
  8
0
100
AcDbLine
 10
132.9728349999999
 20
29.0395
 30
0.0
 11
131.5707349999999
 21
27.0535
 31
0.0
  0
LINE
  5
416
330
1E
100
AcDbEntity
  8
0
100
AcDbLine
 10
133.3511349999999
 20
25.1805
 30
0.0
 11
130.8642349999999
 21
21.5445
 31
0.0
  0
LINE
  5
417
330
1E
100
AcDbEntity
  8
0
100
AcDbLine
 10
131.9652349999999
 20
21.5225000000001
 30
0.0
 11
124.2232349999999
 21
12.51549999999999
 31
0.0
  0
LINE
  5
418
330
1E
100
AcDbEntity
  8
0
100
AcDbLine
 10
135.4597349999999
 20
29.0825
 30
0.0
 11
133.3856349999999
 21
25.2415
 31
0.0
  0
LINE
  5
419
330
1E
100
AcDbEntity
  8
0
100
AcDbLine
 10
135.1782663297098
 20
28.5612516693582
 30
0.0
 11
131.9652349999999
 21
21.5225000000001
 31
0.0
  0
LINE
  5
41A
330
1E
100
AcDbEntity
  8
0
100
AcDbLine
 10
135.1782663297098
 20
28.5612516693582
 30
0.0
 11
131.9652349999999
 21
21.5225000000001
 31
0.0
  0
LINE
  5
41B
330
1E
100
AcDbEntity
  8
0
100
AcDbLine
 10
133.3856349999999
 20
25.2415
 30
0.0
 11
133.3511349999999
 21
25.1805
 31
0.0
  0
LINE
  5
41C
330
1E
100
AcDbEntity
  8
0
100
AcDbLine
 10
138.269835
 20
37.2045
 30
0.0
 11
137.0944349999999
 21
33.0885
 31
0.0
  0
LINE
  5
41D
330
1E
100
AcDbEntity
  8
0
100
AcDbLine
 10
137.412635
 20
37.5045
 30
0.0
 11
136.0194349999999
 21
34.2135
 31
0.0
  0
LINE
  5
41E
330
1E
100
AcDbEntity
  8
0
100
AcDbLine
 10
137.314135
 20
37.5275
 30
0.0
 11
135.9277349999999
 21
34.2535
 31
0.0
  0
LINE
  5
41F
330
1E
100
AcDbEntity
  8
0
100
AcDbLine
 10
137.3062092678616
 20
33.8300882988931
 30
0.0
 11
137.1592349999999
 21
32.9065
 31
0.0
  0
LINE
  5
420
330
1E
100
AcDbEntity
  8
0
100
AcDbLine
 10
138.1743349999999
 20
39.7505
 30
0.0
 11
137.412635
 21
37.5045
 31
0.0
  0
LINE
  5
421
330
1E
100
AcDbEntity
  8
0
100
AcDbLine
 10
138.0757349999999
 20
39.7695
 30
0.0
 11
137.314135
 21
37.5275
 31
0.0
  0
LINE
  5
422
330
1E
100
AcDbEntity
  8
0
100
AcDbLine
 10
138.9822349999999
 20
41.42249999999999
 30
0.0
 11
138.269835
 21
37.2045
 31
0.0
  0
LINE
  5
423
330
1E
100
AcDbEntity
  8
0
100
AcDbLine
 10
139.2906349999999
 20
44.3385
 30
0.0
 11
138.8009349999999
 21
42.0305
 31
0.0
  0
LINE
  5
424
330
1E
100
AcDbEntity
  8
0
100
AcDbLine
 10
139.1921349999999
 20
44.3635
 30
0.0
 11
138.7024349999999
 21
42.05149999999999
 31
0.0
  0
LINE
  5
425
330
1E
100
AcDbEntity
  8
0
100
AcDbLine
 10
139.641435
 20
46.6685
 30
0.0
 11
138.9822349999999
 21
41.42249999999999
 31
0.0
  0
LINE
  5
426
330
1E
100
AcDbEntity
  8
0
100
AcDbLine
 10
138.8009349999999
 20
42.0305
 30
0.0
 11
138.1743349999999
 21
39.7505
 31
0.0
  0
LINE
  5
427
330
1E
100
AcDbEntity
  8
0
100
AcDbLine
 10
138.7024349999999
 20
42.05149999999999
 30
0.0
 11
138.0757349999999
 21
39.7695
 31
0.0
  0
LINE
  5
428
330
1E
100
AcDbEntity
  8
0
100
AcDbLine
 10
139.641435
 20
46.6685
 30
0.0
 11
139.2906349999999
 21
44.3385
 31
0.0
  0
LINE
  5
429
330
1E
100
AcDbEntity
  8
0
100
AcDbLine
 10
139.541935
 20
46.6925
 30
0.0
 11
139.1921349999999
 21
44.3635
 31
0.0
  0
LINE
  5
42A
330
1E
100
AcDbEntity
  8
0
100
AcDbLine
 10
134.6350349999999
 20
31.55549999999999
 30
0.0
 11
133.0545349999999
 21
28.9855
 31
0.0
  0
LINE
  5
42B
330
1E
100
AcDbEntity
  8
0
100
AcDbLine
 10
134.5503349999999
 20
31.6055
 30
0.0
 11
132.9728349999999
 21
29.0395
 31
0.0
  0
LINE
  5
42C
330
1E
100
AcDbEntity
  8
0
100
AcDbLine
 10
136.0194349999999
 20
34.2135
 30
0.0
 11
134.6350349999999
 21
31.55549999999999
 31
0.0
  0
LINE
  5
42D
330
1E
100
AcDbEntity
  8
0
100
AcDbLine
 10
135.9277349999999
 20
34.2535
 30
0.0
 11
134.5503349999999
 21
31.6055
 31
0.0
  0
LINE
  5
42E
330
1E
100
AcDbEntity
  8
0
100
AcDbLine
 10
137.0944349999999
 20
33.0885
 30
0.0
 11
135.4597349999999
 21
29.0825
 31
0.0
  0
LINE
  5
42F
330
1E
100
AcDbEntity
  8
0
100
AcDbLine
 10
136.6692349999999
 20
31.8275
 30
0.0
 11
135.8266333054982
 21
29.9816219256292
 31
0.0
  0
LINE
  5
430
330
1E
100
AcDbEntity
  8
0
100
AcDbLine
 10
137.1592349999999
 20
32.9065
 30
0.0
 11
137.1592349999999
 21
33.3154157733538
 31
0.0
  0
LINE
  5
431
330
1E
100
AcDbEntity
  8
0
100
AcDbLine
 10
137.1592349999999
 20
32.9065
 30
0.0
 11
136.6692349999999
 21
31.8275
 31
0.0
  0
LINE
  5
432
330
1E
100
AcDbEntity
  8
0
100
AcDbLine
 10
114.8232349999999
 20
8.31949999999999
 30
0.0
 11
113.1314349999999
 21
7.4455
 31
0.0
  0
LINE
  5
433
330
1E
100
AcDbEntity
  8
0
100
AcDbLine
 10
124.2232349999999
 20
12.51549999999999
 30
0.0
 11
114.0312349999999
 21
5.67349999999999
 31
0.0
  0
LINE
  5
434
330
1E
100
AcDbEntity
  8
0
100
AcDbLine
 10
121.9707349999999
 20
17.4605
 30
0.0
 11
118.8196349999999
 21
15.3285
 31
0.0
  0
LINE
  5
435
330
1E
100
AcDbEntity
  8
0
100
AcDbLine
 10
121.9155349999999
 20
17.53849999999999
 30
0.0
 11
118.7655349999999
 21
15.4045
 31
0.0
  0
LINE
  5
436
330
1E
100
AcDbEntity
  8
0
100
AcDbLine
 10
121.1568349999999
 20
12.1515
 30
0.0
 11
117.275635
 21
9.624499999999999
 31
0.0
  0
LINE
  5
437
330
1E
100
AcDbEntity
  8
0
100
AcDbLine
 10
126.7623349999999
 20
21.48449999999999
 30
0.0
 11
124.9188349999999
 21
19.8075
 31
0.0
  0
LINE
  5
438
330
1E
100
AcDbEntity
  8
0
100
AcDbLine
 10
126.6825349999999
 20
21.5405
 30
0.0
 11
125.0675349999999
 21
20.0625
 31
0.0
  0
LINE
  5
439
330
1E
100
AcDbEntity
  8
0
100
AcDbLine
 10
126.9111349999999
 20
17.0605
 30
0.0
 11
124.7375349999999
 21
14.9975
 31
0.0
  0
LINE
  5
43A
330
1E
100
AcDbEntity
  8
0
100
AcDbLine
 10
128.9123349999999
 20
19.1855
 30
0.0
 11
127.9841349999999
 21
18.1395
 31
0.0
  0
LINE
  5
43B
330
1E
100
AcDbEntity
  8
0
100
AcDbLine
 10
127.9841349999999
 20
18.1395
 30
0.0
 11
126.9111349999999
 21
17.0605
 31
0.0
  0
LINE
  5
43C
330
1E
100
AcDbEntity
  8
0
100
AcDbLine
 10
130.2944697151028
 20
20.87089464078519
 30
0.0
 11
128.9123349999999
 21
19.1855
 31
0.0
  0
LINE
  5
43D
330
1E
100
AcDbEntity
  8
0
100
AcDbLine
 10
130.1350349999999
 20
25.0855
 30
0.0
 11
128.502435
 21
23.24549999999999
 31
0.0
  0
LINE
  5
43E
330
1E
100
AcDbEntity
  8
0
100
AcDbLine
 10
130.0503349999999
 20
25.13749999999999
 30
0.0
 11
128.4176349999999
 21
23.2965
 31
0.0
  0
LINE
  5
43F
330
1E
100
AcDbEntity
  8
0
100
AcDbLine
 10
130.8642349999999
 20
21.5445
 30
0.0
 11
130.2944697151028
 21
20.87089464078519
 31
0.0
  0
LINE
  5
440
330
1E
100
AcDbEntity
  8
0
100
AcDbLine
 10
130.8642349999999
 20
21.5445
 30
0.0
 11
130.2944697151028
 21
20.87089464078519
 31
0.0
  0
LINE
  5
441
330
1E
100
AcDbEntity
  8
0
100
AcDbLine
 10
131.6524349999999
 20
27.0015
 30
0.0
 11
130.1350349999999
 21
25.0855
 31
0.0
  0
LINE
  5
442
330
1E
100
AcDbEntity
  8
0
100
AcDbLine
 10
131.5707349999999
 20
27.0535
 30
0.0
 11
130.0503349999999
 21
25.13749999999999
 31
0.0
  0
LINE
  5
443
330
1E
100
AcDbEntity
  8
0
100
AcDbLine
 10
128.502435
 20
23.24549999999999
 30
0.0
 11
126.7623349999999
 21
21.48449999999999
 31
0.0
  0
LINE
  5
444
330
1E
100
AcDbEntity
  8
0
100
AcDbLine
 10
128.4176349999999
 20
23.2965
 30
0.0
 11
126.6825349999999
 21
21.5405
 31
0.0
  0
LINE
  5
445
330
1E
100
AcDbEntity
  8
0
100
AcDbLine
 10
124.9188349999999
 20
19.8075
 30
0.0
 11
121.9707349999999
 21
17.4605
 31
0.0
  0
LINE
  5
446
330
1E
100
AcDbEntity
  8
0
100
AcDbLine
 10
125.0675349999999
 20
20.0625
 30
0.0
 11
121.9155349999999
 21
17.53849999999999
 31
0.0
  0
LINE
  5
447
330
1E
100
AcDbEntity
  8
0
100
AcDbLine
 10
124.7375349999999
 20
14.9975
 30
0.0
 11
121.1568349999999
 21
12.1515
 31
0.0
  0
LINE
  5
448
330
1E
100
AcDbEntity
  8
0
100
AcDbLine
 10
117.275635
 20
9.624499999999999
 30
0.0
 11
114.8232349999999
 21
8.31949999999999
 31
0.0
  0
LINE
  5
449
330
1E
100
AcDbEntity
  8
0
100
AcDbLine
 10
117.275635
 20
9.624499999999999
 30
0.0
 11
114.8232349999999
 21
8.31949999999999
 31
0.0
  0
LINE
  5
44A
330
1E
100
AcDbEntity
  8
0
100
AcDbLine
 10
116.5583349999999
 20
14.1075
 30
0.0
 11
114.2793349999999
 21
12.91649999999999
 31
0.0
  0
LINE
  5
44B
330
1E
100
AcDbEntity
  8
0
100
AcDbLine
 10
116.6165349999999
 20
14.0335
 30
0.0
 11
112.8259349999999
 21
12.1285
 31
0.0
  0
LINE
  5
44C
330
1E
100
AcDbEntity
  8
0
100
AcDbLine
 10
118.8196349999999
 20
15.3285
 30
0.0
 11
116.6165349999999
 21
14.0335
 31
0.0
  0
LINE
  5
44D
330
1E
100
AcDbEntity
  8
0
100
AcDbLine
 10
118.7655349999999
 20
15.4045
 30
0.0
 11
116.5583349999999
 21
14.1075
 31
0.0
  0
LINE
  5
44E
330
1E
100
AcDbEntity
  8
0
100
AcDbLine
 10
114.2793349999999
 20
12.91649999999999
 30
0.0
 11
111.9352349999999
 21
11.83649999999999
 31
0.0
  0
LINE
  5
44F
330
1E
100
AcDbEntity
  8
0
100
AcDbLine
 10
132.7618417466226
 20
75.24957104265749
 30
0.0
 11
131.6229349999999
 21
76.9769
 31
0.0
  0
LINE
  5
450
330
1E
100
AcDbEntity
  8
0
100
AcDbLine
 10
137.3653349999999
 20
66.0497
 30
0.0
 11
135.8913349999999
 21
69.6734
 31
0.0
  0
LINE
  5
451
330
1E
100
AcDbEntity
  8
0
100
AcDbLine
 10
136.7889349999999
 20
67.36920000000001
 30
0.0
 11
135.8795349999999
 21
69.4619
 31
0.0
  0
LINE
  5
452
330
1E
100
AcDbEntity
  8
0
100
AcDbLine
 10
136.0906485507652
 20
68.9361727080434
 30
0.0
 11
135.8795349999999
 21
69.4619
 31
0.0
  0
LINE
  5
453
330
1E
100
AcDbEntity
  8
0
100
AcDbLine
 10
136.0906485507652
 20
68.9361727080434
 30
0.0
 11
135.8795349999999
 21
69.4619
 31
0.0
  0
LINE
  5
454
330
1E
100
AcDbEntity
  8
0
100
AcDbLine
 10
137.3269349999999
 20
65.8575
 30
0.0
 11
136.7889349999999
 21
67.36920000000001
 31
0.0
  0
LINE
  5
455
330
1E
100
AcDbEntity
  8
0
100
AcDbLine
 10
139.3892349999999
 20
57.2025
 30
0.0
 11
138.9536349999999
 21
59.85949999999999
 31
0.0
  0
LINE
  5
456
330
1E
100
AcDbEntity
  8
0
100
AcDbLine
 10
139.243335
 20
58.34150000000001
 30
0.0
 11
138.9536349999999
 21
59.85949999999999
 31
0.0
  0
LINE
  5
457
330
1E
100
AcDbEntity
  8
0
100
AcDbLine
 10
139.7429349999999
 20
55.2515
 30
0.0
 11
139.1980349999999
 21
59.1995
 31
0.0
  0
LINE
  5
458
330
1E
100
AcDbEntity
  8
0
100
AcDbLine
 10
139.817835
 20
51.88349999999999
 30
0.0
 11
139.7350349999999
 21
54.0355
 31
0.0
  0
LINE
  5
459
330
1E
100
AcDbEntity
  8
0
100
AcDbLine
 10
139.9232349999999
 20
51.3815
 30
0.0
 11
139.7429349999999
 21
55.2515
 31
0.0
  0
LINE
  5
45A
330
1E
100
AcDbEntity
  8
0
100
AcDbLine
 10
139.9232349999999
 20
51.36549999999999
 30
0.0
 11
139.8523349999999
 21
49.0125
 31
0.0
  0
LINE
  5
45B
330
1E
100
AcDbEntity
  8
0
100
AcDbLine
 10
139.8217349999999
 20
51.36849999999999
 30
0.0
 11
139.7527349999999
 21
49.0315
 31
0.0
  0
LINE
  5
45C
330
1E
100
AcDbEntity
  8
0
100
AcDbLine
 10
139.8217349999999
 20
51.3855
 30
0.0
 11
139.817835
 21
51.88349999999999
 31
0.0
  0
LINE
  5
45D
330
1E
100
AcDbEntity
  8
0
100
AcDbLine
 10
139.542935
 20
56.1885
 30
0.0
 11
139.3892349999999
 21
57.2025
 31
0.0
  0
LINE
  5
45E
330
1E
100
AcDbEntity
  8
0
100
AcDbLine
 10
139.542935
 20
56.1885
 30
0.0
 11
139.243335
 21
58.34150000000001
 31
0.0
  0
LINE
  5
45F
330
1E
100
AcDbEntity
  8
0
100
AcDbLine
 10
139.7350349999999
 20
54.0355
 30
0.0
 11
139.542935
 21
56.1885
 31
0.0
  0
LINE
  5
460
330
1E
100
AcDbEntity
  8
0
100
AcDbLine
 10
138.3526349999999
 20
62.5095
 30
0.0
 11
137.6451349999999
 21
64.9495
 31
0.0
  0
LINE
  5
461
330
1E
100
AcDbEntity
  8
0
100
AcDbLine
 10
138.5142349999999
 20
62.2995
 30
0.0
 11
137.3653349999999
 21
66.0497
 31
0.0
  0
LINE
  5
462
330
1E
100
AcDbEntity
  8
0
100
AcDbLine
 10
138.9536349999999
 20
59.85949999999999
 30
0.0
 11
138.3526349999999
 21
62.5095
 31
0.0
  0
LINE
  5
463
330
1E
100
AcDbEntity
  8
0
100
AcDbLine
 10
139.1980349999999
 20
59.1995
 30
0.0
 11
138.5142349999999
 21
62.2995
 31
0.0
  0
LINE
  5
464
330
1E
100
AcDbEntity
  8
0
100
AcDbLine
 10
138.5769335107147
 20
61.5204965833707
 30
0.0
 11
138.4354349999999
 21
62.1955
 31
0.0
  0
LINE
  5
465
330
1E
100
AcDbEntity
  8
0
100
AcDbLine
 10
138.4354349999999
 20
62.1955
 30
0.0
 11
138.3892298817844
 21
62.3481415362249
 31
0.0
  0
LINE
  5
466
330
1E
100
AcDbEntity
  8
0
100
AcDbLine
 10
138.4354349999999
 20
62.1955
 30
0.0
 11
138.3526349999999
 21
62.5095
 31
0.0
  0
LINE
  5
467
330
1E
100
AcDbEntity
  8
0
100
AcDbLine
 10
137.3269349999999
 20
65.8575
 30
0.0
 11
137.3009176105747
 21
65.92229002241539
 31
0.0
  0
LINE
  5
468
330
1E
100
AcDbEntity
  8
0
100
AcDbLine
 10
137.6451349999999
 20
64.9495
 30
0.0
 11
137.3269349999999
 21
65.8575
 31
0.0
  0
LINE
  5
469
330
1E
100
AcDbEntity
  8
0
100
AcDbLine
 10
137.3452345582752
 20
65.79704624952249
 30
0.0
 11
137.3269349999999
 21
65.8575
 31
0.0
  0
LINE
  5
46A
330
1E
100
AcDbEntity
  8
0
100
AcDbLine
 10
135.0459349999999
 20
71.405
 30
0.0
 11
133.676335
 21
73.8626
 31
0.0
  0
LINE
  5
46B
330
1E
100
AcDbEntity
  8
0
100
AcDbLine
 10
135.8913349999999
 20
69.6734
 30
0.0
 11
135.387835
 21
70.7287
 31
0.0
  0
LINE
  5
46C
330
1E
100
AcDbEntity
  8
0
100
AcDbLine
 10
135.8795349999999
 20
69.4619
 30
0.0
 11
135.6171618621351
 21
69.9986889855939
 31
0.0
  0
LINE
  5
46D
330
1E
100
AcDbEntity
  8
0
100
AcDbLine
 10
135.8795349999999
 20
69.4619
 30
0.0
 11
135.027235
 21
71.3225
 31
0.0
  0
LINE
  5
46E
330
1E
100
AcDbEntity
  8
0
100
AcDbLine
 10
135.8795349999999
 20
69.4619
 30
0.0
 11
135.6171618621351
 21
69.9986889855939
 31
0.0
  0
LINE
  5
46F
330
1E
100
AcDbEntity
  8
0
100
AcDbLine
 10
135.387835
 20
70.7287
 30
0.0
 11
135.0459349999999
 21
71.405
 31
0.0
  0
LINE
  5
470
330
1E
100
AcDbEntity
  8
0
100
AcDbLine
 10
133.676335
 20
73.8626
 30
0.0
 11
132.7618417466226
 21
75.24957104265749
 31
0.0
  0
LINE
  5
471
330
1E
100
AcDbEntity
  8
0
100
AcDbLine
 10
123.975835
 20
85.3068
 30
0.0
 11
120.3952349999999
 21
88.41459999999999
 31
0.0
  0
LINE
  5
472
330
1E
100
AcDbEntity
  8
0
100
AcDbLine
 10
126.779035
 20
82.67599999999999
 30
0.0
 11
123.975835
 21
85.3068
 31
0.0
  0
LINE
  5
473
330
1E
100
AcDbEntity
  8
0
100
AcDbLine
 10
130.2267349999999
 20
78.7913
 30
0.0
 11
127.2313349999999
 21
82.2099
 31
0.0
  0
LINE
  5
474
330
1E
100
AcDbEntity
  8
0
100
AcDbLine
 10
131.6229349999999
 20
76.9769
 30
0.0
 11
130.2267349999999
 21
78.7913
 31
0.0
  0
LINE
  5
475
330
1E
100
AcDbEntity
  8
0
100
AcDbLine
 10
127.0096082305612
 20
82.42382806049329
 30
0.0
 11
126.779035
 21
82.67599999999999
 31
0.0
  0
LINE
  5
476
330
1E
100
AcDbEntity
  8
0
100
AcDbLine
 10
127.0096082305612
 20
82.42382806049329
 30
0.0
 11
126.779035
 21
82.67599999999999
 31
0.0
  0
LINE
  5
477
330
1E
100
AcDbEntity
  8
0
100
AcDbLine
 10
120.780652282614
 20
88.08103738247101
 30
0.0
 11
120.0888351279236
 21
88.68738858275682
 31
0.0
  0
LINE
  5
478
330
1E
100
AcDbEntity
  8
0
100
AcDbLine
 10
120.780652282614
 20
88.08103738247101
 30
0.0
 11
120.0888351279236
 21
88.68738858275682
 31
0.0
  0
LINE
  5
479
330
1E
100
AcDbEntity
  8
0
100
AcDbLine
 10
101.7283349999999
 20
8.497500000000018
 30
0.0
 11
99.46213499999998
 21
8.06349999999999
 31
0.0
  0
LINE
  5
47A
330
1E
100
AcDbEntity
  8
0
100
AcDbLine
 10
99.43843499999999
 20
8.151499999999989
 30
0.0
 11
96.16423499999999
 21
7.69449999999999
 31
0.0
  0
LINE
  5
47B
330
1E
100
AcDbEntity
  8
0
100
AcDbLine
 10
99.52713499999999
 20
3.1745
 30
0.0
 11
97.146635
 21
2.861499999999999
 31
0.0
  0
LINE
  5
47C
330
1E
100
AcDbEntity
  8
0
100
AcDbLine
 10
99.52713499999999
 20
3.1745
 30
0.0
 11
97.146635
 21
2.861499999999999
 31
0.0
  0
LINE
  5
47D
330
1E
100
AcDbEntity
  8
0
100
AcDbLine
 10
99.46213499999998
 20
8.06349999999999
 30
0.0
 11
96.18883499999999
 21
7.60549999999999
 31
0.0
  0
LINE
  5
47E
330
1E
100
AcDbEntity
  8
0
100
AcDbLine
 10
102.3692349999999
 20
1.51650000000001
 30
0.0
 11
89.92323499999999
 21
-0.0414999999999743
 31
0.0
  0
LINE
  5
47F
330
1E
100
AcDbEntity
  8
0
100
AcDbLine
 10
108.7645349999999
 20
5.632500000000029
 30
0.0
 11
104.2143349999999
 21
4.2045
 31
0.0
  0
LINE
  5
480
330
1E
100
AcDbEntity
  8
0
100
AcDbLine
 10
104.2143349999999
 20
4.2045
 30
0.0
 11
99.52713499999999
 21
3.1745
 31
0.0
  0
LINE
  5
481
330
1E
100
AcDbEntity
  8
0
100
AcDbLine
 10
96.18883499999999
 20
7.60549999999999
 30
0.0
 11
92.88903499999998
 21
7.33850000000004
 31
0.0
  0
LINE
  5
482
330
1E
100
AcDbEntity
  8
0
100
AcDbLine
 10
96.16423499999999
 20
7.69449999999999
 30
0.0
 11
92.87033499999997
 21
7.42750000000004
 31
0.0
  0
LINE
  5
483
330
1E
100
AcDbEntity
  8
0
100
AcDbLine
 10
94.74833499999999
 20
2.55349999999998
 30
0.0
 11
92.42625719233339
 21
2.45338761861443
 31
0.0
  0
LINE
  5
484
330
1E
100
AcDbEntity
  8
0
100
AcDbLine
 10
94.74833499999999
 20
2.55349999999998
 30
0.0
 11
92.42625719233339
 21
2.45338761861443
 31
0.0
  0
LINE
  5
485
330
1E
100
AcDbEntity
  8
0
100
AcDbLine
 10
97.146635
 20
2.861499999999999
 30
0.0
 11
94.74833499999999
 21
2.55349999999998
 31
0.0
  0
LINE
  5
486
330
1E
100
AcDbEntity
  8
0
100
AcDbLine
 10
92.88903499999998
 20
7.33850000000004
 30
0.0
 11
89.92323499999999
 21
7.261499999999999
 31
0.0
  0
LINE
  5
487
330
1E
100
AcDbEntity
  8
0
100
AcDbLine
 10
92.87033499999997
 20
7.42750000000004
 30
0.0
 11
89.92323499999999
 21
7.351500000000009
 31
0.0
  0
LINE
  5
488
330
1E
100
AcDbEntity
  8
0
100
AcDbLine
 10
92.33533499999998
 20
2.44750000000001
 30
0.0
 11
89.92383499999998
 21
2.345500000000009
 31
0.0
  0
LINE
  5
489
330
1E
100
AcDbEntity
  8
0
100
AcDbLine
 10
106.1800349999999
 20
9.639499999999991
 30
0.0
 11
103.9689349999999
 21
9.022500000000039
 31
0.0
  0
LINE
  5
48A
330
1E
100
AcDbEntity
  8
0
100
AcDbLine
 10
106.1573349999999
 20
9.727500000000009
 30
0.0
 11
103.9502349999999
 21
9.112500000000018
 31
0.0
  0
LINE
  5
48B
330
1E
100
AcDbEntity
  8
0
100
AcDbLine
 10
109.5823349999999
 20
10.7875
 30
0.0
 11
106.1800349999999
 21
9.639499999999991
 31
0.0
  0
LINE
  5
48C
330
1E
100
AcDbEntity
  8
0
100
AcDbLine
 10
109.5399349999999
 20
10.8705
 30
0.0
 11
106.1573349999999
 21
9.727500000000009
 31
0.0
  0
LINE
  5
48D
330
1E
100
AcDbEntity
  8
0
100
AcDbLine
 10
101.7086349999999
 20
8.58549999999998
 30
0.0
 11
99.43843499999999
 21
8.151499999999989
 31
0.0
  0
LINE
  5
48E
330
1E
100
AcDbEntity
  8
0
100
AcDbLine
 10
103.9689349999999
 20
9.022500000000039
 30
0.0
 11
101.7283349999999
 21
8.497500000000018
 31
0.0
  0
LINE
  5
48F
330
1E
100
AcDbEntity
  8
0
100
AcDbLine
 10
103.9502349999999
 20
9.112500000000018
 30
0.0
 11
101.7086349999999
 21
8.58549999999998
 31
0.0
  0
LINE
  5
490
330
1E
100
AcDbEntity
  8
0
100
AcDbLine
 10
111.614035
 20
97.1138
 30
0.0
 11
109.7577349999999
 21
99.64310000000001
 31
0.0
  0
LINE
  5
491
330
1E
100
AcDbEntity
  8
0
100
AcDbLine
 10
120.3952349999999
 20
88.41459999999999
 30
0.0
 11
117.3377349999999
 21
91.1367
 31
0.0
  0
LINE
  5
495
330
1E
100
AcDbEntity
  8
0
100
AcDbLine
 10
115.3760349999999
 20
92.99570000000001
 30
0.0
 11
113.5137349999999
 21
94.9116
 31
0.0
  0
LINE
  5
496
330
1E
100
AcDbEntity
  8
0
100
AcDbLine
 10
117.3377349999999
 20
91.1367
 30
0.0
 11
115.3760349999999
 21
92.99570000000001
 31
0.0
  0
LINE
  5
497
330
1E
100
AcDbEntity
  8
0
100
AcDbLine
 10
117.0232349999999
 20
91.54149999999999
 30
0.0
 11
116.8793014582074
 21
91.57113337625141
 31
0.0
  0
LINE
  5
498
330
1E
100
AcDbEntity
  8
0
100
AcDbLine
 10
113.5137349999999
 20
94.9116
 30
0.0
 11
111.7904349999999
 21
96.8942
 31
0.0
  0
LINE
  5
499
330
1E
100
AcDbEntity
  8
0
100
AcDbLine
 10
111.7904349999999
 20
96.8942
 30
0.0
 11
111.614035
 21
97.1138
 31
0.0
  0
LINE
  5
49A
330
1E
100
AcDbEntity
  8
0
100
AcDbLine
 10
105.4883349999999
 20
109.1209
 30
0.0
 11
105.0932349999999
 21
110.8608
 31
0.0
  0
LINE
  5
49B
330
1E
100
AcDbEntity
  8
0
100
AcDbLine
 10
108.1762349999999
 20
102.2731999999999
 30
0.0
 11
106.8805349999999
 21
104.9655999999999
 31
0.0
  0
LINE
  5
49C
330
1E
100
AcDbEntity
  8
0
100
AcDbLine
 10
109.7577349999999
 20
99.64310000000001
 30
0.0
 11
108.1762349999999
 21
102.2731999999999
 31
0.0
  0
LINE
  5
49D
330
1E
100
AcDbEntity
  8
0
100
AcDbLine
 10
106.1664831820809
 20
106.8221716557619
 30
0.0
 11
105.5701349999999
 21
108.805
 31
0.0
  0
LINE
  5
49E
330
1E
100
AcDbEntity
  8
0
100
AcDbLine
 10
106.1664831820809
 20
106.8221716557619
 30
0.0
 11
105.5701349999999
 21
108.805
 31
0.0
  0
LINE
  5
49F
330
1E
100
AcDbEntity
  8
0
100
AcDbLine
 10
106.8805349999999
 20
104.9655999999999
 30
0.0
 11
106.1406349999999
 21
106.8894999999999
 31
0.0
  0
LINE
  5
4A0
330
1E
100
AcDbEntity
  8
0
100
AcDbLine
 10
106.8805349999999
 20
104.9655999999999
 30
0.0
 11
106.1406349999999
 21
106.8894999999999
 31
0.0
  0
LINE
  5
4A1
330
1E
100
AcDbEntity
  8
0
100
AcDbLine
 10
105.5701349999999
 20
108.805
 30
0.0
 11
105.4883349999999
 21
109.1209
 31
0.0
  0
LINE
  5
4A2
330
1E
100
AcDbEntity
  8
0
100
AcDbLine
 10
105.0932349999999
 20
110.8608
 30
0.0
 11
104.7601349999999
 21
112.7423
 31
0.0
  0
LINE
  5
4A3
330
1E
100
AcDbEntity
  8
0
100
AcDbLine
 10
104.5581349999999
 20
137.0612999999999
 30
0.0
 11
104.3345349999999
 21
128.1795
 31
0.0
  0
LINE
  5
4A4
330
1E
100
AcDbEntity
  8
0
100
AcDbLine
 10
104.7601349999999
 20
112.7423
 30
0.0
 11
104.3906349999999
 21
115.9252
 31
0.0
  0
LINE
  5
4A5
330
1E
100
AcDbEntity
  8
0
100
AcDbLine
 10
104.2133349999999
 20
119.2652999999999
 30
0.0
 11
104.1886349999999
 21
120.6158999999999
 31
0.0
  0
LINE
  5
4A6
330
1E
100
AcDbEntity
  8
0
100
AcDbLine
 10
104.3906349999999
 20
115.9252
 30
0.0
 11
104.2133349999999
 21
119.2652999999999
 31
0.0
  0
LINE
  5
4A7
330
1E
100
AcDbEntity
  8
0
100
AcDbLine
 10
104.2744349999999
 20
126.2527999999999
 30
0.0
 11
104.2241349999999
 21
124.4175999999999
 31
0.0
  0
LINE
  5
4A8
330
1E
100
AcDbEntity
  8
0
100
AcDbLine
 10
104.2241349999999
 20
124.4175999999999
 30
0.0
 11
104.1886349999999
 21
120.6158999999999
 31
0.0
  0
LINE
  5
4A9
330
1E
100
AcDbEntity
  8
0
100
AcDbLine
 10
104.3325349999999
 20
128.1355
 30
0.0
 11
104.2744349999999
 21
126.2527999999999
 31
0.0
  0
LINE
  5
4AA
330
1E
100
AcDbEntity
  8
0
100
AcDbLine
 10
104.5108349999999
 20
169.7986699999999
 30
0.0
 11
104.2882349999999
 21
176.7978
 31
0.0
  0
LINE
  5
4AB
330
1E
100
AcDbEntity
  8
0
100
AcDbLine
 10
104.7197349999999
 20
154.3696999999999
 30
0.0
 11
104.7158349999999
 21
150.1883999999999
 31
0.0
  0
LINE
  5
4AC
330
1E
100
AcDbEntity
  8
0
100
AcDbLine
 10
104.6862349999999
 20
145.6533
 30
0.0
 11
104.5581349999999
 21
137.0612999999999
 31
0.0
  0
LINE
  5
4AD
330
1E
100
AcDbEntity
  8
0
100
AcDbLine
 10
104.7158349999999
 20
150.1883999999999
 30
0.0
 11
104.6862349999999
 21
145.6533
 31
0.0
  0
LINE
  5
4AE
330
1E
100
AcDbEntity
  8
0
100
AcDbLine
 10
104.7197349999999
 20
154.3696999999999
 30
0.0
 11
104.6626349999999
 21
161.9993199999999
 31
0.0
  0
LINE
  5
4AF
330
1E
100
AcDbEntity
  8
0
100
AcDbLine
 10
104.6557349999999
 20
162.48751
 30
0.0
 11
104.5108349999999
 21
169.7986699999999
 31
0.0
  0
LINE
  5
4B0
330
1E
100
AcDbEntity
  8
0
100
AcDbLine
 10
104.6626349999999
 20
161.9993199999999
 30
0.0
 11
104.6557349999999
 21
162.48751
 31
0.0
  0
LINE
  5
4B1
330
1E
100
AcDbEntity
  8
0
100
AcDbLine
 10
103.923235
 20
206.0415
 30
0.0
 11
103.923235
 21
184.0415
 31
0.0
  0
LINE
  5
4B2
330
1E
100
AcDbEntity
  8
0
100
AcDbLine
 10
103.923235
 20
184.0415
 30
0.0
 11
103.923235
 21
206.0415
 31
0.0
  0
LINE
  5
4B3
330
1E
100
AcDbEntity
  8
0
100
AcDbLine
 10
104.2882349999999
 20
176.7978
 30
0.0
 11
104.0911349999999
 21
181.3995999999999
 31
0.0
  0
LINE
  5
4B4
330
1E
100
AcDbEntity
  8
0
100
AcDbLine
 10
103.8034349999999
 20
184.9087
 30
0.0
 11
103.5630349999999
 21
189.1873
 31
0.0
  0
LINE
  5
4B5
330
1E
100
AcDbEntity
  8
0
100
AcDbLine
 10
104.0911349999999
 20
181.3995999999999
 30
0.0
 11
103.8034349999999
 21
184.9087
 31
0.0
  0
LINE
  5
4B6
330
1E
100
AcDbEntity
  8
0
100
AcDbLine
 10
103.923235
 20
184.0415
 30
0.0
 11
103.8264239812343
 21
184.628301550054
 31
0.0
  0
LINE
  5
4B7
330
1E
100
AcDbEntity
  8
0
100
AcDbLine
 10
103.923235
 20
184.0415
 30
0.0
 11
103.8907018045774
 21
183.844299777746
 31
0.0
  0
ENDSEC
  0
SECTION
  2
OBJECTS
  0
DICTIONARY
  5
C
330
0
100
AcDbDictionary
281
     1
  3
ACAD_GROUP
350
D
  3
ACAD_LAYOUT
350
19
  3
ACAD_MLINESTYLE
350
16
  3
ACAD_PLOTSETTINGS
350
18
  3
ACAD_PLOTSTYLENAME
350
E
  3
AcDbVariableDictionary
350
4B9
  0
DICTIONARY
  5
D
102
{ACAD_REACTORS
330
C
102
}
330
C
100
AcDbDictionary
281
     1
  0
DICTIONARY
  5
19
102
{ACAD_REACTORS
330
C
102
}
330
C
100
AcDbDictionary
281
     1
  3
Layout1
350
1D
  3
Model
350
21
  0
DICTIONARY
  5
16
102
{ACAD_REACTORS
330
C
102
}
330
C
100
AcDbDictionary
281
     1
  3
Standard
350
17
  0
DICTIONARY
  5
18
102
{ACAD_REACTORS
330
C
102
}
330
C
100
AcDbDictionary
281
     1
  0
ACDBDICTIONARYWDFLT
  5
E
102
{ACAD_REACTORS
330
C
102
}
330
C
100
AcDbDictionary
281
     1
  3
Normal
350
F
100
AcDbDictionaryWithDefault
340
F
  0
DICTIONARY
  5
4B9
102
{ACAD_REACTORS
330
C
102
}
330
C
100
AcDbDictionary
281
     1
  3
DIMASSOC
350
4BA
  0
LAYOUT
  5
1D
102
{ACAD_REACTORS
330
19
102
}
330
19
100
AcDbPlotSettings
  1

  2
C:\Programme\AutoCAD LT 2002 Deu\plotters\DWF ePlot (optimized for plotting).pc3
  4

  6

 40
0.0
 41
0.0
 42
0.0
 43
0.0
 44
0.0
 45
0.0
 46
0.0
 47
0.0
 48
0.0
 49
0.0
140
0.0
141
0.0
142
1.0
143
1.0
 70
   688
 72
     0
 73
     0
 74
     5
  7

 75
    16
147
1.0
148
0.0
149
0.0
100
AcDbLayout
  1
Layout1
 70
     1
 71
     1
 10
0.0
 20
0.0
 11
12.0
 21
9.0
 12
0.0
 22
0.0
 32
0.0
 14
1.000000000000000E+20
 24
1.000000000000000E+20
 34
1.000000000000000E+20
 15
-1.000000000000000E+20
 25
-1.000000000000000E+20
 35
-1.000000000000000E+20
146
0.0
 13
0.0
 23
0.0
 33
0.0
 16
1.0
 26
0.0
 36
0.0
 17
0.0
 27
1.0
 37
0.0
 76
     0
330
1A
  0
LAYOUT
  5
21
102
{ACAD_REACTORS
330
19
102
}
330
19
100
AcDbPlotSettings
  1

  2
C:\Programme\AutoCAD LT 2002 Deu\plotters\DWF ePlot (optimized for plotting).pc3
  4

  6

 40
0.0
 41
0.0
 42
0.0
 43
0.0
 44
0.0
 45
0.0
 46
0.0
 47
0.0
 48
0.0
 49
0.0
140
0.0
141
0.0
142
1.0
143
1.0
 70
  1712
 72
     0
 73
     0
 74
     0
  7

 75
     0
147
1.0
148
0.0
149
0.0
100
AcDbLayout
  1
Model
 70
     1
 71
     0
 10
0.0
 20
0.0
 11
12.0
 21
9.0
 12
0.0
 22
0.0
 32
0.0
 14
0.0
 24
0.0
 34
0.0
 15
0.0
 25
0.0
 35
0.0
146
0.0
 13
0.0
 23
0.0
 33
0.0
 16
1.0
 26
0.0
 36
0.0
 17
0.0
 27
1.0
 37
0.0
 76
     0
330
1E
  0
MLINESTYLE
  5
17
102
{ACAD_REACTORS
330
16
102
}
330
16
100
AcDbMlineStyle
  2
STANDARD
 70
     0
  3

 62
   256
 51
90.0
 52
90.0
 71
     2
 49
0.5
 62
   256
  6
BYLAYER
 49
-0.5
 62
   256
  6
BYLAYER
  0
ACDBPLACEHOLDER
  5
F
102
{ACAD_REACTORS
330
E
102
}
330
E
  0
DICTIONARYVAR
  5
4BA
102
{ACAD_REACTORS
330
4B9
102
}
330
4B9
100
DictionaryVariables
280
     0
  1
1
  0
ENDSEC
  0
EOF
