  0
SECTION
  2
HEADER
  9
$ACADVER
  1
AC1015
  9
$ACADMAINTVER
 70
    13
  9
$DWGCODEPAGE
  3
ANSI_1252
  9
$INSBASE
 10
0.0
 20
0.0
 30
0.0
  9
$EXTMIN
 10
1.642917737428547
 20
100.1449999999999
 30
0.0
  9
$EXTMAX
 10
260.0414999999999
 20
996.855
 30
0.0
  9
$LIMMIN
 10
0.0
 20
0.0
  9
$LIMMAX
 10
12.0
 20
9.0
  9
$ORTHOMODE
 70
     0
  9
$REGENMODE
 70
     1
  9
$FILLMODE
 70
     1
  9
$QTEXTMODE
 70
     0
  9
$MIRRTEXT
 70
     1
  9
$LTSCALE
 40
1.0
  9
$ATTMODE
 70
     1
  9
$TEXTSIZE
 40
0.2
  9
$TRACEWID
 40
0.05
  9
$TEXTSTYLE
  7
Standard
  9
$CLAYER
  8
0
  9
$CELTYPE
  6
Continuous
  9
$CECOLOR
 62
   256
  9
$CELTSCALE
 40
1.0
  9
$DISPSILH
 70
     0
  9
$DIMSCALE
 40
1.0
  9
$DIMASZ
 40
0.18
  9
$DIMEXO
 40
0.0625
  9
$DIMDLI
 40
0.38
  9
$DIMRND
 40
0.0
  9
$DIMDLE
 40
0.0
  9
$DIMEXE
 40
0.18
  9
$DIMTP
 40
0.0
  9
$DIMTM
 40
0.0
  9
$DIMTXT
 40
0.18
  9
$DIMCEN
 40
0.09
  9
$DIMTSZ
 40
0.0
  9
$DIMTOL
 70
     0
  9
$DIMLIM
 70
     0
  9
$DIMTIH
 70
     1
  9
$DIMTOH
 70
     1
  9
$DIMSE1
 70
     0
  9
$DIMSE2
 70
     0
  9
$DIMTAD
 70
     0
  9
$DIMZIN
 70
     0
  9
$DIMBLK
  1

  9
$DIMASO
 70
     1
  9
$DIMSHO
 70
     1
  9
$DIMPOST
  1

  9
$DIMAPOST
  1

  9
$DIMALT
 70
     0
  9
$DIMALTD
 70
     2
  9
$DIMALTF
 40
25.4
  9
$DIMLFAC
 40
1.0
  9
$DIMTOFL
 70
     0
  9
$DIMTVP
 40
0.0
  9
$DIMTIX
 70
     0
  9
$DIMSOXD
 70
     0
  9
$DIMSAH
 70
     0
  9
$DIMBLK1
  1

  9
$DIMBLK2
  1

  9
$DIMSTYLE
  2
Standard
  9
$DIMCLRD
 70
     0
  9
$DIMCLRE
 70
     0
  9
$DIMCLRT
 70
     0
  9
$DIMTFAC
 40
1.0
  9
$DIMGAP
 40
0.09
  9
$DIMJUST
 70
     0
  9
$DIMSD1
 70
     0
  9
$DIMSD2
 70
     0
  9
$DIMTOLJ
 70
     1
  9
$DIMTZIN
 70
     0
  9
$DIMALTZ
 70
     0
  9
$DIMALTTZ
 70
     0
  9
$DIMUPT
 70
     0
  9
$DIMDEC
 70
     4
  9
$DIMTDEC
 70
     4
  9
$DIMALTU
 70
     2
  9
$DIMALTTD
 70
     2
  9
$DIMTXSTY
  7
Standard
  9
$DIMAUNIT
 70
     0
  9
$DIMADEC
 70
     0
  9
$DIMALTRND
 40
0.0
  9
$DIMAZIN
 70
     0
  9
$DIMDSEP
 70
    46
  9
$DIMATFIT
 70
     3
  9
$DIMFRAC
 70
     0
  9
$DIMLDRBLK
  1

  9
$DIMLUNIT
 70
     2
  9
$DIMLWD
 70
    -2
  9
$DIMLWE
 70
    -2
  9
$DIMTMOVE
 70
     0
  9
$LUNITS
 70
     2
  9
$LUPREC
 70
     4
  9
$SKETCHINC
 40
0.1
  9
$FILLETRAD
 40
0.0
  9
$AUNITS
 70
     0
  9
$AUPREC
 70
     0
  9
$MENU
  1
.
  9
$ELEVATION
 40
0.0
  9
$PELEVATION
 40
0.0
  9
$THICKNESS
 40
0.0
  9
$LIMCHECK
 70
     0
  9
$CHAMFERA
 40
0.0
  9
$CHAMFERB
 40
0.0
  9
$CHAMFERC
 40
0.0
  9
$CHAMFERD
 40
0.0
  9
$SKPOLY
 70
     0
  9
$TDCREATE
 40
2455656.845866724
  9
$TDUCREATE
 40
2455656.762533391
  9
$TDUPDATE
 40
2455656.851446516
  9
$TDUUPDATE
 40
2455656.768113183
  9
$TDINDWG
 40
0.0055797917
  9
$TDUSRTIMER
 40
0.0055797917
  9
$USRTIMER
 70
     1
  9
$ANGBASE
 50
0.0
  9
$ANGDIR
 70
     0
  9
$PDMODE
 70
     0
  9
$PDSIZE
 40
0.0
  9
$PLINEWID
 40
0.0
  9
$SPLFRAME
 70
     0
  9
$SPLINETYPE
 70
     6
  9
$SPLINESEGS
 70
     8
  9
$HANDSEED
  5
1DAF
  9
$SURFTAB1
 70
     6
  9
$SURFTAB2
 70
     6
  9
$SURFTYPE
 70
     6
  9
$SURFU
 70
     6
  9
$SURFV
 70
     6
  9
$UCSBASE
  2

  9
$UCSNAME
  2

  9
$UCSORG
 10
0.0
 20
0.0
 30
0.0
  9
$UCSXDIR
 10
1.0
 20
0.0
 30
0.0
  9
$UCSYDIR
 10
0.0
 20
1.0
 30
0.0
  9
$UCSORTHOREF
  2

  9
$UCSORTHOVIEW
 70
     1
  9
$UCSORGTOP
 10
0.0
 20
0.0
 30
0.0
  9
$UCSORGBOTTOM
 10
0.0
 20
0.0
 30
0.0
  9
$UCSORGLEFT
 10
0.0
 20
0.0
 30
0.0
  9
$UCSORGRIGHT
 10
0.0
 20
0.0
 30
0.0
  9
$UCSORGFRONT
 10
0.0
 20
0.0
 30
0.0
  9
$UCSORGBACK
 10
0.0
 20
0.0
 30
0.0
  9
$PUCSBASE
  2

  9
$PUCSNAME
  2

  9
$PUCSORG
 10
0.0
 20
0.0
 30
0.0
  9
$PUCSXDIR
 10
1.0
 20
0.0
 30
0.0
  9
$PUCSYDIR
 10
0.0
 20
1.0
 30
0.0
  9
$PUCSORTHOREF
  2

  9
$PUCSORTHOVIEW
 70
     0
  9
$PUCSORGTOP
 10
0.0
 20
0.0
 30
0.0
  9
$PUCSORGBOTTOM
 10
0.0
 20
0.0
 30
0.0
  9
$PUCSORGLEFT
 10
0.0
 20
0.0
 30
0.0
  9
$PUCSORGRIGHT
 10
0.0
 20
0.0
 30
0.0
  9
$PUCSORGFRONT
 10
0.0
 20
0.0
 30
0.0
  9
$PUCSORGBACK
 10
0.0
 20
0.0
 30
0.0
  9
$USERI1
 70
     0
  9
$USERI2
 70
     0
  9
$USERI3
 70
     0
  9
$USERI4
 70
     0
  9
$USERI5
 70
     0
  9
$USERR1
 40
0.0
  9
$USERR2
 40
0.0
  9
$USERR3
 40
0.0
  9
$USERR4
 40
0.0
  9
$USERR5
 40
0.0
  9
$WORLDVIEW
 70
     1
  9
$SHADEDGE
 70
     3
  9
$SHADEDIF
 70
    70
  9
$TILEMODE
 70
     1
  9
$MAXACTVP
 70
    64
  9
$PINSBASE
 10
0.0
 20
0.0
 30
0.0
  9
$PLIMCHECK
 70
     0
  9
$PEXTMIN
 10
1.000000000000000E+20
 20
1.000000000000000E+20
 30
1.000000000000000E+20
  9
$PEXTMAX
 10
-1.000000000000000E+20
 20
-1.000000000000000E+20
 30
-1.000000000000000E+20
  9
$PLIMMIN
 10
0.0
 20
0.0
  9
$PLIMMAX
 10
12.0
 20
9.0
  9
$UNITMODE
 70
     0
  9
$VISRETAIN
 70
     1
  9
$PLINEGEN
 70
     0
  9
$PSLTSCALE
 70
     1
  9
$TREEDEPTH
 70
  3020
  9
$CMLSTYLE
  2
Standard
  9
$CMLJUST
 70
     0
  9
$CMLSCALE
 40
1.0
  9
$PROXYGRAPHICS
 70
     1
  9
$MEASUREMENT
 70
     0
  9
$CELWEIGHT
370
    -1
  9
$ENDCAPS
280
     0
  9
$JOINSTYLE
280
     0
  9
$LWDISPLAY
290
     0
  9
$INSUNITS
 70
     0
  9
$HYPERLINKBASE
  1

  9
$STYLESHEET
  1

  9
$XEDIT
290
     1
  9
$CEPSNTYPE
380
     0
  9
$PSTYLEMODE
290
     1
  9
$FINGERPRINTGUID
  2
{B5BA6F82-F894-47CB-8EAB-3F717C0F5098}
  9
$VERSIONGUID
  2
{C4C06792-AF53-4C69-A017-43366E627911}
  9
$EXTNAMES
290
     1
  9
$PSVPSCALE
 40
0.0
  9
$OLESTARTUP
290
     0
  0
ENDSEC
  0
SECTION
  2
CLASSES
  0
CLASS
  1
ACDBDICTIONARYWDFLT
  2
AcDbDictionaryWithDefault
  3
AutoCAD 2000
 90
        0
280
     0
281
     0
  0
CLASS
  1
ACDBPLACEHOLDER
  2
AcDbPlaceHolder
  3
AutoCAD 2000
 90
        0
280
     0
281
     0
  0
CLASS
  1
LAYOUT
  2
AcDbLayout
  3
AutoCAD 2000
 90
        0
280
     0
281
     0
  0
CLASS
  1
DICTIONARYVAR
  2
AcDbDictionaryVar
  3
AutoCAD 2000
 90
        0
280
     0
281
     0
  0
ENDSEC
  0
SECTION
  2
TABLES
  0
TABLE
  2
VPORT
  5
8
330
0
100
AcDbSymbolTable
 70
     4
  0
VPORT
  5
1DAE
330
8
100
AcDbSymbolTableRecord
100
AcDbViewportTableRecord
  2
*Active
 70
     0
 10
0.0
 20
0.0
 11
1.0
 21
1.0
 12
130.8422088687142
 22
548.5
 13
0.0
 23
0.0
 14
1.0
 24
1.0
 15
0.0
 25
0.0
 16
0.0
 26
0.0
 36
1.0
 17
0.0
 27
0.0
 37
0.0
 40
902.775682074408
 41
2.073363431151241
 42
50.0
 43
0.0
 44
0.0
 50
0.0
 51
0.0
 71
     0
 72
   100
 73
     1
 74
     3
 75
     0
 76
     0
 77
     0
 78
     0
281
     0
 65
     1
110
0.0
120
0.0
130
0.0
111
1.0
121
0.0
131
0.0
112
0.0
122
1.0
132
0.0
 79
     1
146
0.0
  0
ENDTAB
  0
TABLE
  2
LTYPE
  5
5
330
0
100
AcDbSymbolTable
 70
     1
  0
LTYPE
  5
13
330
5
100
AcDbSymbolTableRecord
100
AcDbLinetypeTableRecord
  2
ByBlock
 70
     0
  3

 72
    65
 73
     0
 40
0.0
  0
LTYPE
  5
14
330
5
100
AcDbSymbolTableRecord
100
AcDbLinetypeTableRecord
  2
ByLayer
 70
     0
  3

 72
    65
 73
     0
 40
0.0
  0
LTYPE
  5
15
330
5
100
AcDbSymbolTableRecord
100
AcDbLinetypeTableRecord
  2
Continuous
 70
     0
  3
Solid line
 72
    65
 73
     0
 40
0.0
  0
ENDTAB
  0
TABLE
  2
LAYER
  5
2
330
0
100
AcDbSymbolTable
 70
     1
  0
LAYER
  5
10
330
2
100
AcDbSymbolTableRecord
100
AcDbLayerTableRecord
  2
0
 70
     0
 62
     7
  6
Continuous
370
    -3
390
F
  0
ENDTAB
  0
TABLE
  2
STYLE
  5
3
330
0
100
AcDbSymbolTable
 70
     1
  0
STYLE
  5
11
330
3
100
AcDbSymbolTableRecord
100
AcDbTextStyleTableRecord
  2
Standard
 70
     0
 40
0.0
 41
1.0
 50
0.0
 71
     0
 42
0.2
  3
txt
  4

  0
ENDTAB
  0
TABLE
  2
VIEW
  5
6
330
0
100
AcDbSymbolTable
 70
     0
  0
ENDTAB
  0
TABLE
  2
UCS
  5
7
330
0
100
AcDbSymbolTable
 70
     0
  0
ENDTAB
  0
TABLE
  2
APPID
  5
9
330
0
100
AcDbSymbolTable
 70
     1
  0
APPID
  5
12
330
9
100
AcDbSymbolTableRecord
100
AcDbRegAppTableRecord
  2
ACAD
 70
     0
  0
ENDTAB
  0
TABLE
  2
DIMSTYLE
  5
A
330
0
100
AcDbSymbolTable
 70
     1
100
AcDbDimStyleTable
 71
     0
  0
DIMSTYLE
105
695
330
A
100
AcDbSymbolTableRecord
100
AcDbDimStyleTableRecord
  2
Standard
 70
     0
340
11
  0
ENDTAB
  0
TABLE
  2
BLOCK_RECORD
  5
1
330
0
100
AcDbSymbolTable
 70
     2
  0
BLOCK_RECORD
  5
1E
330
1
100
AcDbSymbolTableRecord
100
AcDbBlockTableRecord
  2
*Model_Space
340
21
  0
BLOCK_RECORD
  5
1A
330
1
100
AcDbSymbolTableRecord
100
AcDbBlockTableRecord
  2
*Paper_Space
340
1D
  0
ENDTAB
  0
ENDSEC
  0
SECTION
  2
BLOCKS
  0
BLOCK
  5
1F
330
1E
100
AcDbEntity
  8
0
100
AcDbBlockBegin
  2
*Model_Space
 70
     0
 10
0.0
 20
0.0
 30
0.0
  3
*Model_Space
  1

  0
ENDBLK
  5
20
330
1E
100
AcDbEntity
  8
0
100
AcDbBlockEnd
  0
BLOCK
  5
1B
330
1A
100
AcDbEntity
 67
     1
  8
0
100
AcDbBlockBegin
  2
*Paper_Space
 70
     0
 10
0.0
 20
0.0
 30
0.0
  3
*Paper_Space
  1

  0
ENDBLK
  5
1C
330
1A
100
AcDbEntity
 67
     1
  8
0
100
AcDbBlockEnd
  0
ENDSEC
  0
SECTION
  2
ENTITIES
  0
LINE
  5
2A3
330
1E
100
AcDbEntity
  8
0
100
AcDbLine
 10
100.4415
 20
428.8549999999999
 30
0.0
 11
105.2415
 21
428.8549999999999
 31
0.0
  0
LINE
  5
2A4
330
1E
100
AcDbEntity
  8
0
100
AcDbLine
 10
96.4414999999999
 20
428.8549999999999
 30
0.0
 11
100.4415
 21
428.8549999999999
 31
0.0
  0
LINE
  5
2A5
330
1E
100
AcDbEntity
  8
0
100
AcDbLine
 10
93.34149999999992
 20
428.8549999999999
 30
0.0
 11
96.4414999999999
 21
428.8549999999999
 31
0.0
  0
LINE
  5
2A6
330
1E
100
AcDbEntity
  8
0
100
AcDbLine
 10
91.04149999999989
 20
428.8549999999999
 30
0.0
 11
93.34149999999992
 21
428.8549999999999
 31
0.0
  0
LINE
  5
2A7
330
1E
100
AcDbEntity
  8
0
100
AcDbLine
 10
89.64149999999991
 20
428.8549999999999
 30
0.0
 11
91.04149999999989
 21
428.8549999999999
 31
0.0
  0
LINE
  5
2A8
330
1E
100
AcDbEntity
  8
0
100
AcDbLine
 10
89.0414999999999
 20
428.8549999999999
 30
0.0
 11
89.64149999999991
 21
428.8549999999999
 31
0.0
  0
LINE
  5
2A9
330
1E
100
AcDbEntity
  8
0
100
AcDbLine
 10
89.0414999999999
 20
428.8549999999999
 30
0.0
 11
89.04149999999999
 21
451.855
 31
0.0
  0
LINE
  5
2AA
330
1E
100
AcDbEntity
  8
0
100
AcDbLine
 10
105.2415
 20
428.8549999999999
 30
0.0
 11
110.6414999999999
 21
428.8549999999999
 31
0.0
  0
LINE
  5
2AB
330
1E
100
AcDbEntity
  8
0
100
AcDbLine
 10
110.6414999999999
 20
428.8549999999999
 30
0.0
 11
116.6414999999999
 21
428.8549999999999
 31
0.0
  0
LINE
  5
2AC
330
1E
100
AcDbEntity
  8
0
100
AcDbLine
 10
116.6414999999999
 20
428.8549999999999
 30
0.0
 11
123.0415
 21
428.8549999999999
 31
0.0
  0
LINE
  5
2AD
330
1E
100
AcDbEntity
  8
0
100
AcDbLine
 10
123.0415
 20
428.8549999999999
 30
0.0
 11
129.8415
 21
428.8549999999999
 31
0.0
  0
LINE
  5
2AE
330
1E
100
AcDbEntity
  8
0
100
AcDbLine
 10
171.4414999999999
 20
428.8549999999999
 30
0.0
 11
177.4414999999999
 21
428.8549999999999
 31
0.0
  0
LINE
  5
2AF
330
1E
100
AcDbEntity
  8
0
100
AcDbLine
 10
165.0415
 20
428.8549999999999
 30
0.0
 11
171.4414999999999
 21
428.8549999999999
 31
0.0
  0
LINE
  5
2B0
330
1E
100
AcDbEntity
  8
0
100
AcDbLine
 10
158.2415
 20
428.8549999999999
 30
0.0
 11
165.0415
 21
428.8549999999999
 31
0.0
  0
LINE
  5
2B1
330
1E
100
AcDbEntity
  8
0
100
AcDbLine
 10
151.2415
 20
428.8549999999999
 30
0.0
 11
158.2415
 21
428.8549999999999
 31
0.0
  0
LINE
  5
2B2
330
1E
100
AcDbEntity
  8
0
100
AcDbLine
 10
144.0415
 20
428.8549999999999
 30
0.0
 11
151.2415
 21
428.8549999999999
 31
0.0
  0
LINE
  5
2B3
330
1E
100
AcDbEntity
  8
0
100
AcDbLine
 10
129.8415
 20
428.8549999999999
 30
0.0
 11
136.8414999999999
 21
428.8549999999999
 31
0.0
  0
LINE
  5
2B4
330
1E
100
AcDbEntity
  8
0
100
AcDbLine
 10
105.2415
 20
451.855
 30
0.0
 11
110.6414999999999
 21
451.855
 31
0.0
  0
LINE
  5
2B5
330
1E
100
AcDbEntity
  8
0
100
AcDbLine
 10
110.6414999999999
 20
451.855
 30
0.0
 11
116.6414999999999
 21
451.855
 31
0.0
  0
LINE
  5
2B6
330
1E
100
AcDbEntity
  8
0
100
AcDbLine
 10
116.6414999999999
 20
451.855
 30
0.0
 11
123.0415
 21
451.855
 31
0.0
  0
LINE
  5
2B7
330
1E
100
AcDbEntity
  8
0
100
AcDbLine
 10
123.0415
 20
451.855
 30
0.0
 11
129.8415
 21
451.855
 31
0.0
  0
LINE
  5
2B8
330
1E
100
AcDbEntity
  8
0
100
AcDbLine
 10
129.8415
 20
451.855
 30
0.0
 11
136.8414999999999
 21
451.855
 31
0.0
  0
LINE
  5
2B9
330
1E
100
AcDbEntity
  8
0
100
AcDbLine
 10
171.4414999999999
 20
451.855
 30
0.0
 11
177.4414999999999
 21
451.855
 31
0.0
  0
LINE
  5
2BA
330
1E
100
AcDbEntity
  8
0
100
AcDbLine
 10
165.0415
 20
451.855
 30
0.0
 11
171.4414999999999
 21
451.855
 31
0.0
  0
LINE
  5
2BB
330
1E
100
AcDbEntity
  8
0
100
AcDbLine
 10
158.2415
 20
451.855
 30
0.0
 11
165.0415
 21
451.855
 31
0.0
  0
LINE
  5
2BC
330
1E
100
AcDbEntity
  8
0
100
AcDbLine
 10
151.2415
 20
451.855
 30
0.0
 11
158.2415
 21
451.855
 31
0.0
  0
LINE
  5
2BD
330
1E
100
AcDbEntity
  8
0
100
AcDbLine
 10
144.0415
 20
451.855
 30
0.0
 11
151.2415
 21
451.855
 31
0.0
  0
LINE
  5
2BE
330
1E
100
AcDbEntity
  8
0
100
AcDbLine
 10
136.8414999999999
 20
451.855
 30
0.0
 11
144.0415
 21
451.855
 31
0.0
  0
LINE
  5
2BF
330
1E
100
AcDbEntity
  8
0
100
AcDbLine
 10
100.4415
 20
451.855
 30
0.0
 11
105.2415
 21
451.855
 31
0.0
  0
LINE
  5
2C0
330
1E
100
AcDbEntity
  8
0
100
AcDbLine
 10
96.44150000000001
 20
451.855
 30
0.0
 11
100.4415
 21
451.855
 31
0.0
  0
LINE
  5
2C1
330
1E
100
AcDbEntity
  8
0
100
AcDbLine
 10
93.34149999999999
 20
451.855
 30
0.0
 11
96.44150000000001
 21
451.855
 31
0.0
  0
LINE
  5
2C2
330
1E
100
AcDbEntity
  8
0
100
AcDbLine
 10
91.0415
 20
451.855
 30
0.0
 11
93.34149999999999
 21
451.855
 31
0.0
  0
LINE
  5
2C3
330
1E
100
AcDbEntity
  8
0
100
AcDbLine
 10
89.6415
 20
451.855
 30
0.0
 11
91.0415
 21
451.855
 31
0.0
  0
LINE
  5
2C4
330
1E
100
AcDbEntity
  8
0
100
AcDbLine
 10
89.04149999999999
 20
451.855
 30
0.0
 11
89.6415
 21
451.855
 31
0.0
  0
LINE
  5
2C5
330
1E
100
AcDbEntity
  8
0
100
AcDbLine
 10
136.8414999999999
 20
428.8549999999999
 30
0.0
 11
144.0415
 21
428.8549999999999
 31
0.0
  0
LINE
  5
2C6
330
1E
100
AcDbEntity
  8
0
100
AcDbLine
 10
173.9789599999999
 20
794.9099999999999
 30
0.0
 11
174.1454399999999
 21
795.026
 31
0.0
  0
LINE
  5
2C7
330
1E
100
AcDbEntity
  8
0
100
AcDbLine
 10
173.8086
 20
794.8409999999999
 30
0.0
 11
173.9789599999999
 21
794.9099999999999
 31
0.0
  0
LINE
  5
2CE
330
1E
100
AcDbEntity
  8
0
100
AcDbLine
 10
177.4414999999999
 20
451.855
 30
0.0
 11
182.8414999999999
 21
451.855
 31
0.0
  0
LINE
  5
2CF
330
1E
100
AcDbEntity
  8
0
100
AcDbLine
 10
177.4414999999999
 20
428.8549999999999
 30
0.0
 11
182.8414999999999
 21
428.8549999999999
 31
0.0
  0
LINE
  5
2D0
330
1E
100
AcDbEntity
  8
0
100
AcDbLine
 10
177.236920069706
 20
791.625149538085
 30
0.0
 11
196.3243
 21
758.5650000000001
 31
0.0
  0
LINE
  5
2D8
330
1E
100
AcDbEntity
  8
0
100
AcDbLine
 10
175.5926199999999
 20
797.4029999999999
 30
0.0
 11
178.1225
 21
798.863
 31
0.0
  0
LINE
  5
2D9
330
1E
100
AcDbEntity
  8
0
100
AcDbLine
 10
174.32426
 20
796.6699999999999
 30
0.0
 11
175.1065163616519
 21
797.121621281703
 31
0.0
  0
LINE
  5
2DA
330
1E
100
AcDbEntity
  8
0
100
AcDbLine
 10
174.32426
 20
796.6699999999999
 30
0.0
 11
196.3243
 21
758.5650000000001
 31
0.0
  0
LINE
  5
2DB
330
1E
100
AcDbEntity
  8
0
100
AcDbLine
 10
174.32426
 20
796.6699999999999
 30
0.0
 11
175.5926199999999
 21
797.4029999999999
 31
0.0
  0
LINE
  5
2DD
330
1E
100
AcDbEntity
  8
0
100
AcDbLine
 10
178.1225
 20
798.863
 30
0.0
 11
180.9865
 21
800.5169999999999
 31
0.0
  0
LINE
  5
2E2
330
1E
100
AcDbEntity
  8
0
100
AcDbLine
 10
180.9865
 20
800.5169999999999
 30
0.0
 11
184.0415
 21
802.2810000000001
 31
0.0
  0
LINE
  5
2E4
330
1E
100
AcDbEntity
  8
0
100
AcDbLine
 10
182.8414999999999
 20
451.855
 30
0.0
 11
187.6415
 21
451.855
 31
0.0
  0
LINE
  5
2E5
330
1E
100
AcDbEntity
  8
0
100
AcDbLine
 10
182.8414999999999
 20
428.8549999999999
 30
0.0
 11
187.6415
 21
428.8549999999999
 31
0.0
  0
LINE
  5
2E7
330
1E
100
AcDbEntity
  8
0
100
AcDbLine
 10
184.0415
 20
802.2810000000001
 30
0.0
 11
187.0963999999999
 21
804.044
 31
0.0
  0
LINE
  5
2E9
330
1E
100
AcDbEntity
  8
0
100
AcDbLine
 10
187.6415
 20
428.8549999999999
 30
0.0
 11
191.6415
 21
428.8549999999999
 31
0.0
  0
LINE
  5
2EA
330
1E
100
AcDbEntity
  8
0
100
AcDbLine
 10
187.6415
 20
451.855
 30
0.0
 11
191.6415
 21
451.855
 31
0.0
  0
LINE
  5
2F3
330
1E
100
AcDbEntity
  8
0
100
AcDbLine
 10
191.6415
 20
451.855
 30
0.0
 11
194.7415
 21
451.855
 31
0.0
  0
LINE
  5
2F4
330
1E
100
AcDbEntity
  8
0
100
AcDbLine
 10
194.7415
 20
451.855
 30
0.0
 11
198.2414999999999
 21
451.855
 31
0.0
  0
LINE
  5
2F5
330
1E
100
AcDbEntity
  8
0
100
AcDbLine
 10
191.6415
 20
428.8549999999999
 30
0.0
 11
194.7415
 21
428.8549999999999
 31
0.0
  0
LINE
  5
2F6
330
1E
100
AcDbEntity
  8
0
100
AcDbLine
 10
196.3243
 20
758.5650000000001
 30
0.0
 11
197.0360876745069
 21
758.976369837904
 31
0.0
  0
LINE
  5
2F7
330
1E
100
AcDbEntity
  8
0
100
AcDbLine
 10
196.3243
 20
758.5650000000001
 30
0.0
 11
197.036234545957
 21
758.976027354412
 31
0.0
  0
LINE
  5
2F8
330
1E
100
AcDbEntity
  8
0
100
AcDbLine
 10
196.3243
 20
758.5650000000001
 30
0.0
 11
199.5632999999999
 21
760.4349999999999
 31
0.0
  0
LINE
  5
2F9
330
1E
100
AcDbEntity
  8
0
100
AcDbLine
 10
196.3243
 20
758.5650000000001
 30
0.0
 11
197.5926
 21
759.2979999999999
 31
0.0
  0
LINE
  5
2FA
330
1E
100
AcDbEntity
  8
0
100
AcDbLine
 10
196.3243
 20
758.5650000000001
 30
0.0
 11
199.777373850061
 21
752.584077375458
 31
0.0
  0
LINE
  5
2FB
330
1E
100
AcDbEntity
  8
0
100
AcDbLine
 10
196.3243
 20
758.5650000000001
 30
0.0
 11
207.4056999999999
 21
739.372
 31
0.0
  0
LINE
  5
2FD
330
1E
100
AcDbEntity
  8
0
100
AcDbLine
 10
194.7415
 20
428.8549999999999
 30
0.0
 11
198.2414999999999
 21
428.8549999999999
 31
0.0
  0
LINE
  5
300
330
1E
100
AcDbEntity
  8
0
100
AcDbLine
 10
197.5926
 20
759.2979999999999
 30
0.0
 11
200.1225
 21
760.758
 31
0.0
  0
LINE
  5
301
330
1E
100
AcDbEntity
  8
0
100
AcDbLine
 10
197.5926
 20
759.2979999999999
 30
0.0
 11
199.5632999999999
 21
760.4349999999999
 31
0.0
  0
LINE
  5
302
330
1E
100
AcDbEntity
  8
0
100
AcDbLine
 10
205.0415
 20
329.355
 30
0.0
 11
205.0415
 21
380.355
 31
0.0
  0
LINE
  5
303
330
1E
100
AcDbEntity
  8
0
100
AcDbLine
 10
205.0415
 20
329.355
 30
0.0
 11
205.5414999999999
 21
328.855
 31
0.0
  0
LINE
  5
304
330
1E
100
AcDbEntity
  8
0
100
AcDbLine
 10
205.0415
 20
329.355
 30
0.0
 11
205.4415
 21
329.355
 31
0.0
  0
LINE
  5
305
330
1E
100
AcDbEntity
  8
0
100
AcDbLine
 10
205.5414999999999
 20
328.855
 30
0.0
 11
205.9414999999999
 21
328.855
 31
0.0
  0
LINE
  5
306
330
1E
100
AcDbEntity
  8
0
100
AcDbLine
 10
205.9414999999999
 20
328.855
 30
0.0
 11
206.9414999999999
 21
328.855
 31
0.0
  0
LINE
  5
307
330
1E
100
AcDbEntity
  8
0
100
AcDbLine
 10
206.9414999999999
 20
328.855
 30
0.0
 11
208.6415
 21
328.855
 31
0.0
  0
LINE
  5
308
330
1E
100
AcDbEntity
  8
0
100
AcDbLine
 10
208.6415
 20
328.855
 30
0.0
 11
210.8414999999999
 21
328.855
 31
0.0
  0
LINE
  5
309
330
1E
100
AcDbEntity
  8
0
100
AcDbLine
 10
210.8414999999999
 20
328.855
 30
0.0
 11
213.3414999999999
 21
328.855
 31
0.0
  0
LINE
  5
30A
330
1E
100
AcDbEntity
  8
0
100
AcDbLine
 10
236.4302
 20
100.653
 30
0.0
 11
238.8222
 21
101.6039999999999
 31
0.0
  0
LINE
  5
30B
330
1E
100
AcDbEntity
  8
0
100
AcDbLine
 10
233.5242
 20
100.1449999999999
 30
0.0
 11
236.4302
 21
100.653
 31
0.0
  0
LINE
  5
30C
330
1E
100
AcDbEntity
  8
0
100
AcDbLine
 10
230.3812
 20
100.2739999999999
 30
0.0
 11
233.5242
 21
100.1449999999999
 31
0.0
  0
LINE
  5
30D
330
1E
100
AcDbEntity
  8
0
100
AcDbLine
 10
240.2512
 20
102.9779999999999
 30
0.0
 11
240.5142
 21
104.5199999999999
 31
0.0
  0
LINE
  5
30E
330
1E
100
AcDbEntity
  8
0
100
AcDbLine
 10
238.8222
 20
101.6039999999999
 30
0.0
 11
240.2512
 21
102.9779999999999
 31
0.0
  0
LINE
  5
30F
330
1E
100
AcDbEntity
  8
0
100
AcDbLine
 10
227.5822
 20
100.976
 30
0.0
 11
230.3812
 21
100.2739999999999
 31
0.0
  0
LINE
  5
310
330
1E
100
AcDbEntity
  8
0
100
AcDbLine
 10
225.6422
 20
102.153
 30
0.0
 11
227.5822
 21
100.976
 31
0.0
  0
LINE
  5
311
330
1E
100
AcDbEntity
  8
0
100
AcDbLine
 10
239.4842
 20
105.947
 30
0.0
 11
240.5142
 21
104.5199999999999
 31
0.0
  0
LINE
  5
312
330
1E
100
AcDbEntity
  8
0
100
AcDbLine
 10
237.5482
 20
107.123
 30
0.0
 11
239.4842
 21
105.947
 31
0.0
  0
LINE
  5
313
330
1E
100
AcDbEntity
  8
0
100
AcDbLine
 10
234.7542
 20
107.827
 30
0.0
 11
237.5482
 21
107.123
 31
0.0
  0
LINE
  5
314
330
1E
100
AcDbEntity
  8
0
100
AcDbLine
 10
231.6111999999999
 20
107.9579999999999
 30
0.0
 11
234.7542
 21
107.827
 31
0.0
  0
LINE
  5
315
330
1E
100
AcDbEntity
  8
0
100
AcDbLine
 10
228.7012
 20
107.453
 30
0.0
 11
231.6111999999999
 21
107.9579999999999
 31
0.0
  0
LINE
  5
316
330
1E
100
AcDbEntity
  8
0
100
AcDbLine
 10
226.3062
 20
106.501
 30
0.0
 11
228.7012
 21
107.453
 31
0.0
  0
LINE
  5
317
330
1E
100
AcDbEntity
  8
0
100
AcDbLine
 10
224.8731999999999
 20
105.127
 30
0.0
 11
226.3062
 21
106.501
 31
0.0
  0
LINE
  5
318
330
1E
100
AcDbEntity
  8
0
100
AcDbLine
 10
224.6082
 20
103.582
 30
0.0
 11
225.6422
 21
102.153
 31
0.0
  0
LINE
  5
319
330
1E
100
AcDbEntity
  8
0
100
AcDbLine
 10
224.6082
 20
103.582
 30
0.0
 11
224.8731999999999
 21
105.127
 31
0.0
  0
LINE
  5
31A
330
1E
100
AcDbEntity
  8
0
100
AcDbLine
 10
213.3414999999999
 20
328.855
 30
0.0
 11
216.0414999999999
 21
328.855
 31
0.0
  0
LINE
  5
31B
330
1E
100
AcDbEntity
  8
0
100
AcDbLine
 10
216.0414999999999
 20
328.855
 30
0.0
 11
224.581030791044
 21
328.855
 31
0.0
  0
LINE
  5
31C
330
1E
100
AcDbEntity
  8
0
100
AcDbLine
 10
240.493901019826
 20
328.855
 30
0.0
 11
259.5415
 21
328.855
 31
0.0
  0
LINE
  5
31D
330
1E
100
AcDbEntity
  8
0
100
AcDbLine
 10
205.4415
 20
329.355
 30
0.0
 11
206.5415
 21
329.355
 31
0.0
  0
LINE
  5
31E
330
1E
100
AcDbEntity
  8
0
100
AcDbLine
 10
205.4415
 20
380.355
 30
0.0
 11
206.5415
 21
380.355
 31
0.0
  0
LINE
  5
31F
330
1E
100
AcDbEntity
  8
0
100
AcDbLine
 10
206.5415
 20
329.355
 30
0.0
 11
208.2415
 21
329.355
 31
0.0
  0
LINE
  5
320
330
1E
100
AcDbEntity
  8
0
100
AcDbLine
 10
206.5415
 20
380.355
 30
0.0
 11
208.2415
 21
380.355
 31
0.0
  0
LINE
  5
321
330
1E
100
AcDbEntity
  8
0
100
AcDbLine
 10
205.5414999999999
 20
380.855
 30
0.0
 11
205.9414999999999
 21
380.855
 31
0.0
  0
LINE
  5
322
330
1E
100
AcDbEntity
  8
0
100
AcDbLine
 10
205.9414999999999
 20
380.855
 30
0.0
 11
206.9414999999999
 21
380.855
 31
0.0
  0
LINE
  5
323
330
1E
100
AcDbEntity
  8
0
100
AcDbLine
 10
208.2415
 20
329.355
 30
0.0
 11
210.5415
 21
329.355
 31
0.0
  0
LINE
  5
324
330
1E
100
AcDbEntity
  8
0
100
AcDbLine
 10
210.5415
 20
329.355
 30
0.0
 11
213.2414999999999
 21
329.355
 31
0.0
  0
LINE
  5
325
330
1E
100
AcDbEntity
  8
0
100
AcDbLine
 10
208.2415
 20
380.355
 30
0.0
 11
210.5415
 21
380.355
 31
0.0
  0
LINE
  5
326
330
1E
100
AcDbEntity
  8
0
100
AcDbLine
 10
210.5415
 20
380.355
 30
0.0
 11
213.2414999999999
 21
380.355
 31
0.0
  0
LINE
  5
327
330
1E
100
AcDbEntity
  8
0
100
AcDbLine
 10
206.9414999999999
 20
380.855
 30
0.0
 11
208.6415
 21
380.855
 31
0.0
  0
LINE
  5
328
330
1E
100
AcDbEntity
  8
0
100
AcDbLine
 10
208.6415
 20
380.855
 30
0.0
 11
210.8414999999999
 21
380.855
 31
0.0
  0
LINE
  5
329
330
1E
100
AcDbEntity
  8
0
100
AcDbLine
 10
213.2414999999999
 20
329.355
 30
0.0
 11
216.0414999999999
 21
329.355
 31
0.0
  0
LINE
  5
32A
330
1E
100
AcDbEntity
  8
0
100
AcDbLine
 10
216.0414999999999
 20
329.355
 30
0.0
 11
224.580645663483
 21
329.355
 31
0.0
  0
LINE
  5
32B
330
1E
100
AcDbEntity
  8
0
100
AcDbLine
 10
213.2414999999999
 20
380.355
 30
0.0
 11
216.0414999999999
 21
380.355
 31
0.0
  0
LINE
  5
32C
330
1E
100
AcDbEntity
  8
0
100
AcDbLine
 10
216.0414999999999
 20
380.355
 30
0.0
 11
224.5413626522069
 21
380.355
 31
0.0
  0
LINE
  5
32D
330
1E
100
AcDbEntity
  8
0
100
AcDbLine
 10
210.8414999999999
 20
380.855
 30
0.0
 11
213.3414999999999
 21
380.855
 31
0.0
  0
LINE
  5
32E
330
1E
100
AcDbEntity
  8
0
100
AcDbLine
 10
213.3414999999999
 20
380.855
 30
0.0
 11
216.0414999999999
 21
380.855
 31
0.0
  0
LINE
  5
32F
330
1E
100
AcDbEntity
  8
0
100
AcDbLine
 10
260.0414999999999
 20
329.355
 30
0.0
 11
260.0414999999999
 21
380.355
 31
0.0
  0
LINE
  5
330
330
1E
100
AcDbEntity
  8
0
100
AcDbLine
 10
240.49360541796
 20
329.355
 30
0.0
 11
260.0414999999999
 21
329.355
 31
0.0
  0
LINE
  5
331
330
1E
100
AcDbEntity
  8
0
100
AcDbLine
 10
260.0414999999999
 20
380.355
 30
0.0
 11
260.0414999999999
 21
329.355
 31
0.0
  0
LINE
  5
332
330
1E
100
AcDbEntity
  8
0
100
AcDbLine
 10
240.463454027575
 20
380.355
 30
0.0
 11
260.0414999999999
 21
380.355
 31
0.0
  0
LINE
  5
333
330
1E
100
AcDbEntity
  8
0
100
AcDbLine
 10
240.463158425709
 20
380.855
 30
0.0
 11
259.5415
 21
380.855
 31
0.0
  0
LINE
  5
334
330
1E
100
AcDbEntity
  8
0
100
AcDbLine
 10
216.0414999999999
 20
380.855
 30
0.0
 11
224.540977524645
 21
380.855
 31
0.0
  0
LINE
  5
335
330
1E
100
AcDbEntity
  8
0
100
AcDbLine
 10
216.0414999999999
 20
380.855
 30
0.0
 11
224.540977524645
 21
380.855
 31
0.0
  0
LINE
  5
336
330
1E
100
AcDbEntity
  8
0
100
AcDbLine
 10
259.5415
 20
328.855
 30
0.0
 11
260.0414999999999
 21
329.355
 31
0.0
  0
LINE
  5
337
330
1E
100
AcDbEntity
  8
0
100
AcDbLine
 10
205.0415
 20
380.355
 30
0.0
 11
205.5414999999999
 21
380.855
 31
0.0
  0
LINE
  5
338
330
1E
100
AcDbEntity
  8
0
100
AcDbLine
 10
205.0415
 20
380.355
 30
0.0
 11
205.4415
 21
380.355
 31
0.0
  0
LINE
  5
339
330
1E
100
AcDbEntity
  8
0
100
AcDbLine
 10
205.0415
 20
428.8549999999999
 30
0.0
 11
205.0415
 21
451.855
 31
0.0
  0
LINE
  5
33A
330
1E
100
AcDbEntity
  8
0
100
AcDbLine
 10
205.0415
 20
428.8549999999999
 30
0.0
 11
211.0415
 21
428.8549999999999
 31
0.0
  0
LINE
  5
33B
330
1E
100
AcDbEntity
  8
0
100
AcDbLine
 10
205.0415
 20
381.355
 30
0.0
 11
205.0415
 21
732.8024601406164
 31
0.0
  0
LINE
  5
33C
330
1E
100
AcDbEntity
  8
0
100
AcDbLine
 10
205.4415
 20
381.355
 30
0.0
 11
206.5415
 21
381.355
 31
0.0
  0
LINE
  5
33D
330
1E
100
AcDbEntity
  8
0
100
AcDbLine
 10
206.5415
 20
381.355
 30
0.0
 11
208.2415
 21
381.355
 31
0.0
  0
LINE
  5
33E
330
1E
100
AcDbEntity
  8
0
100
AcDbLine
 10
208.2415
 20
381.355
 30
0.0
 11
210.5415
 21
381.355
 31
0.0
  0
LINE
  5
33F
330
1E
100
AcDbEntity
  8
0
100
AcDbLine
 10
223.8414999999999
 20
191.355
 30
0.0
 11
224.540592397084
 21
191.355
 31
0.0
  0
LINE
  5
340
330
1E
100
AcDbEntity
  8
0
100
AcDbLine
 10
221.5415
 20
381.355
 30
0.0
 11
223.8414999999999
 21
381.355
 31
0.0
  0
LINE
  5
341
330
1E
100
AcDbEntity
  8
0
100
AcDbLine
 10
218.8414999999999
 20
381.355
 30
0.0
 11
221.5415
 21
381.355
 31
0.0
  0
LINE
  5
342
330
1E
100
AcDbEntity
  8
0
100
AcDbLine
 10
216.0414999999999
 20
381.355
 30
0.0
 11
218.8414999999999
 21
381.355
 31
0.0
  0
LINE
  5
343
330
1E
100
AcDbEntity
  8
0
100
AcDbLine
 10
210.5415
 20
381.355
 30
0.0
 11
213.2414999999999
 21
381.355
 31
0.0
  0
LINE
  5
344
330
1E
100
AcDbEntity
  8
0
100
AcDbLine
 10
218.8574999999999
 20
428.8549999999999
 30
0.0
 11
221.4974999999999
 21
428.8549999999999
 31
0.0
  0
LINE
  5
345
330
1E
100
AcDbEntity
  8
0
100
AcDbLine
 10
223.8414999999999
 20
428.8549999999999
 30
0.0
 11
224.504005278738
 21
428.8549999999999
 31
0.0
  0
LINE
  5
346
330
1E
100
AcDbEntity
  8
0
100
AcDbLine
 10
221.4974999999999
 20
428.8549999999999
 30
0.0
 11
223.8294999999999
 21
428.8549999999999
 31
0.0
  0
LINE
  5
347
330
1E
100
AcDbEntity
  8
0
100
AcDbLine
 10
222.4895
 20
428.8549999999999
 30
0.0
 11
224.504005278738
 21
428.8549999999999
 31
0.0
  0
LINE
  5
348
330
1E
100
AcDbEntity
  8
0
100
AcDbLine
 10
219.3694999999999
 20
428.8549999999999
 30
0.0
 11
222.4895
 21
428.8549999999999
 31
0.0
  0
LINE
  5
349
330
1E
100
AcDbEntity
  8
0
100
AcDbLine
 10
216.0414999999999
 20
428.8549999999999
 30
0.0
 11
219.3694999999999
 21
428.8549999999999
 31
0.0
  0
LINE
  5
34A
330
1E
100
AcDbEntity
  8
0
100
AcDbLine
 10
216.0414999999999
 20
428.8549999999999
 30
0.0
 11
218.8574999999999
 21
428.8549999999999
 31
0.0
  0
LINE
  5
34B
330
1E
100
AcDbEntity
  8
0
100
AcDbLine
 10
211.0415
 20
428.8549999999999
 30
0.0
 11
216.0414999999999
 21
428.8549999999999
 31
0.0
  0
LINE
  5
34C
330
1E
100
AcDbEntity
  8
0
100
AcDbLine
 10
213.2414999999999
 20
381.355
 30
0.0
 11
216.0414999999999
 21
381.355
 31
0.0
  0
LINE
  5
34D
330
1E
100
AcDbEntity
  8
0
100
AcDbLine
 10
205.0415
 20
381.355
 30
0.0
 11
205.5414999999999
 21
380.855
 31
0.0
  0
LINE
  5
34E
330
1E
100
AcDbEntity
  8
0
100
AcDbLine
 10
205.0415
 20
381.355
 30
0.0
 11
205.4415
 21
381.355
 31
0.0
  0
LINE
  5
34F
330
1E
100
AcDbEntity
  8
0
100
AcDbLine
 10
205.0415
 20
381.355
 30
0.0
 11
205.0415
 21
737.9652937855967
 31
0.0
  0
LINE
  5
350
330
1E
100
AcDbEntity
  8
0
100
AcDbLine
 10
259.5415
 20
380.855
 30
0.0
 11
260.0414999999999
 21
380.355
 31
0.0
  0
LINE
  5
351
330
1E
100
AcDbEntity
  8
0
100
AcDbLine
 10
198.2414999999999
 20
428.8549999999999
 30
0.0
 11
202.0415
 21
428.8549999999999
 31
0.0
  0
LINE
  5
352
330
1E
100
AcDbEntity
  8
0
100
AcDbLine
 10
198.6687
 20
742.1459999999999
 30
0.0
 11
200.4529999999999
 21
737.855
 31
0.0
  0
LINE
  5
354
330
1E
100
AcDbEntity
  8
0
100
AcDbLine
 10
200.4529999999999
 20
737.855
 30
0.0
 11
203.2767
 21
734.1639999999999
 31
0.0
  0
LINE
  5
355
330
1E
100
AcDbEntity
  8
0
100
AcDbLine
 10
198.6277
 20
751.5169999999999
 30
0.0
 11
199.426972368723
 21
753.4011641750639
 31
0.0
  0
LINE
  5
359
330
1E
100
AcDbEntity
  8
0
100
AcDbLine
 10
200.8061999999999
 20
750.1849999999999
 30
0.0
 11
208.7072
 21
727.389
 31
0.0
  0
LINE
  5
361
330
1E
100
AcDbEntity
  8
0
100
AcDbLine
 10
198.0466999999999
 20
746.7749999999999
 30
0.0
 11
198.6328999999999
 21
751.52
 31
0.0
  0
LINE
  5
362
330
1E
100
AcDbEntity
  8
0
100
AcDbLine
 10
198.0466999999999
 20
746.7749999999999
 30
0.0
 11
198.6687
 21
742.1459999999999
 31
0.0
  0
LINE
  5
363
330
1E
100
AcDbEntity
  8
0
100
AcDbLine
 10
198.0466999999999
 20
746.7749999999999
 30
0.0
 11
198.6277
 21
751.5169999999999
 31
0.0
  0
LINE
  5
364
330
1E
100
AcDbEntity
  8
0
100
AcDbLine
 10
199.5632999999999
 20
760.4349999999999
 30
0.0
 11
201.3908
 21
761.49
 31
0.0
  0
LINE
  5
365
330
1E
100
AcDbEntity
  8
0
100
AcDbLine
 10
200.1225
 20
760.758
 30
0.0
 11
202.9865
 21
762.4119999999999
 31
0.0
  0
LINE
  5
366
330
1E
100
AcDbEntity
  8
0
100
AcDbLine
 10
200.1225
 20
760.758
 30
0.0
 11
201.3908
 21
761.49
 31
0.0
  0
LINE
  5
36A
330
1E
100
AcDbEntity
  8
0
100
AcDbLine
 10
198.6328999999999
 20
751.52
 30
0.0
 11
199.428378078983
 21
753.3978862571359
 31
0.0
  0
LINE
  5
36B
330
1E
100
AcDbEntity
  8
0
100
AcDbLine
 10
201.3908
 20
761.49
 30
0.0
 11
203.6411999999999
 21
762.7899999999999
 31
0.0
  0
LINE
  5
36F
330
1E
100
AcDbEntity
  8
0
100
AcDbLine
 10
198.2414999999999
 20
451.855
 30
0.0
 11
202.0415
 21
451.855
 31
0.0
  0
LINE
  5
370
330
1E
100
AcDbEntity
  8
0
100
AcDbLine
 10
203.2767
 20
734.1639999999999
 30
0.0
 11
206.9747
 21
731.311
 31
0.0
  0
LINE
  5
371
330
1E
100
AcDbEntity
  8
0
100
AcDbLine
 10
205.0415
 20
451.855
 30
0.0
 11
205.0415
 21
428.8549999999999
 31
0.0
  0
LINE
  5
372
330
1E
100
AcDbEntity
  8
0
100
AcDbLine
 10
205.0415
 20
451.855
 30
0.0
 11
211.0415
 21
451.855
 31
0.0
  0
LINE
  5
373
330
1E
100
AcDbEntity
  8
0
100
AcDbLine
 10
218.8574999999999
 20
451.855
 30
0.0
 11
221.4974999999999
 21
451.855
 31
0.0
  0
LINE
  5
374
330
1E
100
AcDbEntity
  8
0
100
AcDbLine
 10
219.3694999999999
 20
451.855
 30
0.0
 11
222.4895
 21
451.855
 31
0.0
  0
LINE
  5
375
330
1E
100
AcDbEntity
  8
0
100
AcDbLine
 10
216.0414999999999
 20
451.855
 30
0.0
 11
219.3694999999999
 21
451.855
 31
0.0
  0
LINE
  5
376
330
1E
100
AcDbEntity
  8
0
100
AcDbLine
 10
216.0414999999999
 20
451.855
 30
0.0
 11
218.8574999999999
 21
451.855
 31
0.0
  0
LINE
  5
377
330
1E
100
AcDbEntity
  8
0
100
AcDbLine
 10
211.0415
 20
451.855
 30
0.0
 11
216.0414999999999
 21
451.855
 31
0.0
  0
LINE
  5
378
330
1E
100
AcDbEntity
  8
0
100
AcDbLine
 10
221.4974999999999
 20
451.855
 30
0.0
 11
223.8294999999999
 21
451.855
 31
0.0
  0
LINE
  5
379
330
1E
100
AcDbEntity
  8
0
100
AcDbLine
 10
222.4895
 20
451.855
 30
0.0
 11
224.486289410908
 21
451.855
 31
0.0
  0
LINE
  5
37A
330
1E
100
AcDbEntity
  8
0
100
AcDbLine
 10
222.4051999999999
 20
657.088
 30
0.0
 11
224.2062
 21
625.4869999999999
 31
0.0
  0
LINE
  5
37B
330
1E
100
AcDbEntity
  8
0
100
AcDbLine
 10
219.5062
 20
678.7849999999999
 30
0.0
 11
222.4051999999999
 21
657.088
 31
0.0
  0
LINE
  5
37C
330
1E
100
AcDbEntity
  8
0
100
AcDbLine
 10
214.9071999999999
 20
702.9919999999999
 30
0.0
 11
219.5062
 21
678.7849999999999
 31
0.0
  0
LINE
  5
37D
330
1E
100
AcDbEntity
  8
0
100
AcDbLine
 10
208.7072
 20
727.389
 30
0.0
 11
214.9071999999999
 21
702.9919999999999
 31
0.0
  0
LINE
  5
37E
330
1E
100
AcDbEntity
  8
0
100
AcDbLine
 10
206.9747
 20
731.311
 30
0.0
 11
207.412072995162
 21
731.1257061387538
 31
0.0
  0
LINE
  5
37F
330
1E
100
AcDbEntity
  8
0
100
AcDbLine
 10
206.9747
 20
731.311
 30
0.0
 11
207.4122833478869
 21
731.1250992281429
 31
0.0
  0
LINE
  5
380
330
1E
100
AcDbEntity
  8
0
100
AcDbLine
 10
206.9747
 20
731.311
 30
0.0
 11
207.4122833478869
 21
731.1250992281429
 31
0.0
  0
LINE
  5
381
330
1E
100
AcDbEntity
  8
0
100
AcDbLine
 10
223.8414999999999
 20
451.855
 30
0.0
 11
224.486289410908
 21
451.855
 31
0.0
  0
LINE
  5
382
330
1E
100
AcDbEntity
  8
0
100
AcDbLine
 10
227.0415
 20
760.877923451388
 30
0.0
 11
227.0415
 21
944.355
 31
0.0
  0
LINE
  5
383
330
1E
100
AcDbEntity
  8
0
100
AcDbLine
 10
224.2062
 20
625.4869999999999
 30
0.0
 11
224.6082
 21
103.582
 31
0.0
  0
LINE
  5
384
330
1E
100
AcDbEntity
  8
0
100
AcDbLine
 10
240.2061999999999
 20
625.4909999999999
 30
0.0
 11
240.5142
 21
104.5199999999999
 31
0.0
  0
LINE
  5
385
330
1E
100
AcDbEntity
  8
0
100
AcDbLine
 10
240.2061999999999
 20
625.4909999999999
 30
0.0
 11
240.5142
 21
104.5199999999999
 31
0.0
  0
LINE
  5
386
330
1E
100
AcDbEntity
  8
0
100
AcDbLine
 10
238.2061999999999
 20
659.8919999999999
 30
0.0
 11
240.2061999999999
 21
625.4909999999999
 31
0.0
  0
LINE
  5
387
330
1E
100
AcDbEntity
  8
0
100
AcDbLine
 10
234.5061999999999
 20
684.29
 30
0.0
 11
238.2061999999999
 21
659.8919999999999
 31
0.0
  0
LINE
  5
388
330
1E
100
AcDbEntity
  8
0
100
AcDbLine
 10
231.0185242411689
 20
709.687
 30
0.0
 11
234.5061999999999
 21
684.29
 31
0.0
  0
LINE
  5
38B
330
1E
100
AcDbEntity
  8
0
100
AcDbLine
 10
228.7081
 20
734.1319999999999
 30
0.0
 11
231.5853999999999
 21
737.788
 31
0.0
  0
LINE
  5
391
330
1E
100
AcDbEntity
  8
0
100
AcDbLine
 10
226.0098
 20
748.385
 30
0.0
 11
231.0185242411689
 21
709.687
 31
0.0
  0
LINE
  5
394
330
1E
100
AcDbEntity
  8
0
100
AcDbLine
 10
208.1218
 20
741.0599999999999
 30
0.0
 11
209.8574
 21
743.8969999999999
 31
0.0
  0
LINE
  5
395
330
1E
100
AcDbEntity
  8
0
100
AcDbLine
 10
209.8574
 20
743.8969999999999
 30
0.0
 11
212.2297
 21
746.4019999999999
 31
0.0
  0
LINE
  5
397
330
1E
100
AcDbEntity
  8
0
100
AcDbLine
 10
207.4056999999999
 20
739.372
 30
0.0
 11
208.1218
 21
741.0599999999999
 31
0.0
  0
LINE
  5
3A4
330
1E
100
AcDbEntity
  8
0
100
AcDbLine
 10
215.0415
 20
748.587
 30
0.0
 11
218.3014
 21
749.9959999999999
 31
0.0
  0
LINE
  5
3A5
330
1E
100
AcDbEntity
  8
0
100
AcDbLine
 10
212.2297
 20
746.4019999999999
 30
0.0
 11
215.0415
 21
748.587
 31
0.0
  0
LINE
  5
3A6
330
1E
100
AcDbEntity
  8
0
100
AcDbLine
 10
224.9954999999999
 20
750.8580000000001
 30
0.0
 11
227.8027999999999
 21
750.4049999999999
 31
0.0
  0
LINE
  5
3A7
330
1E
100
AcDbEntity
  8
0
100
AcDbLine
 10
221.5899999999999
 20
750.914
 30
0.0
 11
224.9954999999999
 21
750.8580000000001
 31
0.0
  0
LINE
  5
3A8
330
1E
100
AcDbEntity
  8
0
100
AcDbLine
 10
218.3014
 20
749.9959999999999
 30
0.0
 11
221.5899999999999
 21
750.914
 31
0.0
  0
LINE
  5
3AD
330
1E
100
AcDbEntity
  8
0
100
AcDbLine
 10
202.9865
 20
762.4119999999999
 30
0.0
 11
203.6411999999999
 21
762.7899999999999
 31
0.0
  0
LINE
  5
3AE
330
1E
100
AcDbEntity
  8
0
100
AcDbLine
 10
203.6411999999999
 20
762.7899999999999
 30
0.0
 11
206.0415
 21
764.175
 31
0.0
  0
LINE
  5
3AF
330
1E
100
AcDbEntity
  8
0
100
AcDbLine
 10
208.4417999999999
 20
765.561
 30
0.0
 11
210.6921
 21
766.8610000000001
 31
0.0
  0
LINE
  5
3B0
330
1E
100
AcDbEntity
  8
0
100
AcDbLine
 10
208.4417999999999
 20
765.561
 30
0.0
 11
209.0964
 21
765.939
 31
0.0
  0
LINE
  5
3B2
330
1E
100
AcDbEntity
  8
0
100
AcDbLine
 10
206.0415
 20
764.175
 30
0.0
 11
208.4417999999999
 21
765.561
 31
0.0
  0
LINE
  5
3B5
330
1E
100
AcDbEntity
  8
0
100
AcDbLine
 10
209.0964
 20
765.939
 30
0.0
 11
211.9603999999999
 21
767.5930000000001
 31
0.0
  0
LINE
  5
3B6
330
1E
100
AcDbEntity
  8
0
100
AcDbLine
 10
210.5626088948489
 20
766.786192891305
 30
0.0
 11
210.6921
 21
766.8610000000001
 31
0.0
  0
LINE
  5
3B7
330
1E
100
AcDbEntity
  8
0
100
AcDbLine
 10
210.6921
 20
766.8610000000001
 30
0.0
 11
212.6797999999999
 21
768.008
 31
0.0
  0
LINE
  5
3B8
330
1E
100
AcDbEntity
  8
0
100
AcDbLine
 10
210.6921
 20
766.8610000000001
 30
0.0
 11
211.9603999999999
 21
767.5930000000001
 31
0.0
  0
LINE
  5
3B9
330
1E
100
AcDbEntity
  8
0
100
AcDbLine
 10
210.5627679231639
 20
766.7858479556259
 30
0.0
 11
211.9603999999999
 21
767.5930000000001
 31
0.0
  0
LINE
  5
3BF
330
1E
100
AcDbEntity
  8
0
100
AcDbLine
 10
205.0415
 20
793.4662366818181
 30
0.0
 11
205.0415
 21
944.355
 31
0.0
  0
LINE
  5
3C2
330
1E
100
AcDbEntity
  8
0
100
AcDbLine
 10
225.1083
 20
762.3989999999999
 30
0.0
 11
228.7648
 21
759.5219999999999
 31
0.0
  0
LINE
  5
3C3
330
1E
100
AcDbEntity
  8
0
100
AcDbLine
 10
222.288538996211
 20
763.5935968543151
 30
0.0
 11
225.1083
 21
762.3989999999999
 31
0.0
  0
LINE
  5
3C4
330
1E
100
AcDbEntity
  8
0
100
AcDbLine
 10
214.1801
 20
768.8739999999999
 30
0.0
 11
215.0802
 21
769.3939999999998
 31
0.0
  0
LINE
  5
3C5
330
1E
100
AcDbEntity
  8
0
100
AcDbLine
 10
214.1801
 20
768.8739999999999
 30
0.0
 11
216.3997
 21
770.156
 31
0.0
  0
LINE
  5
3C6
330
1E
100
AcDbEntity
  8
0
100
AcDbLine
 10
212.6797999999999
 20
768.008
 30
0.0
 11
214.1801
 21
768.8739999999999
 31
0.0
  0
LINE
  5
3C7
330
1E
100
AcDbEntity
  8
0
100
AcDbLine
 10
212.6797999999999
 20
768.008
 30
0.0
 11
214.4903999999999
 21
769.0529999999999
 31
0.0
  0
LINE
  5
3C8
330
1E
100
AcDbEntity
  8
0
100
AcDbLine
 10
215.4177
 20
769.5889999999999
 30
0.0
 11
217.9749
 21
771.0650000000001
 31
0.0
  0
LINE
  5
3CA
330
1E
100
AcDbEntity
  8
0
100
AcDbLine
 10
215.0802
 20
769.3939999999998
 30
0.0
 11
215.4177
 21
769.5889999999999
 31
0.0
  0
LINE
  5
3CB
330
1E
100
AcDbEntity
  8
0
100
AcDbLine
 10
215.0802
 20
769.3939999999998
 30
0.0
 11
217.5453
 21
770.8169999999999
 31
0.0
  0
LINE
  5
3CC
330
1E
100
AcDbEntity
  8
0
100
AcDbLine
 10
217.9749
 20
771.0650000000001
 30
0.0
 11
231.1068
 21
748.32
 31
0.0
  0
LINE
  5
3CD
330
1E
100
AcDbEntity
  8
0
100
AcDbLine
 10
217.5453
 20
770.8169999999999
 30
0.0
 11
217.9749
 21
771.0650000000001
 31
0.0
  0
LINE
  5
3CE
330
1E
100
AcDbEntity
  8
0
100
AcDbLine
 10
216.3997
 20
770.156
 30
0.0
 11
217.5453
 21
770.8169999999999
 31
0.0
  0
LINE
  5
3CF
330
1E
100
AcDbEntity
  8
0
100
AcDbLine
 10
214.4903999999999
 20
769.0529999999999
 30
0.0
 11
216.3997
 21
770.156
 31
0.0
  0
LINE
  5
3D0
330
1E
100
AcDbEntity
  8
0
100
AcDbLine
 10
211.9603999999999
 20
767.5930000000001
 30
0.0
 11
214.4903999999999
 21
769.0529999999999
 31
0.0
  0
LINE
  5
3D3
330
1E
100
AcDbEntity
  8
0
100
AcDbLine
 10
227.0415
 20
760.877923451388
 30
0.0
 11
228.7648
 21
759.5219999999999
 31
0.0
  0
LINE
  5
3D9
330
1E
100
AcDbEntity
  8
0
100
AcDbLine
 10
227.8027999999999
 20
750.4049999999999
 30
0.0
 11
229.8014999999999
 21
749.5890000000001
 31
0.0
  0
LINE
  5
3DF
330
1E
100
AcDbEntity
  8
0
100
AcDbLine
 10
231.5853999999999
 20
737.788
 30
0.0
 11
233.4500999999999
 21
742.19
 31
0.0
  0
LINE
  5
3E1
330
1E
100
AcDbEntity
  8
0
100
AcDbLine
 10
229.8014999999999
 20
749.5890000000001
 30
0.0
 11
231.1068
 21
748.32
 31
0.0
  0
LINE
  5
3E2
330
1E
100
AcDbEntity
  8
0
100
AcDbLine
 10
231.1068
 20
748.32
 30
0.0
 11
231.4629
 21
746.7109999999999
 31
0.0
  0
LINE
  5
3E3
330
1E
100
AcDbEntity
  8
0
100
AcDbLine
 10
230.8786
 20
745.0779999999999
 30
0.0
 11
231.4629
 21
746.7109999999999
 31
0.0
  0
LINE
  5
3E4
330
1E
100
AcDbEntity
  8
0
100
AcDbLine
 10
229.3374
 20
743.338
 30
0.0
 11
230.8786
 21
745.0779999999999
 31
0.0
  0
LINE
  5
3E5
330
1E
100
AcDbEntity
  8
0
100
AcDbLine
 10
228.7648
 20
759.5219999999999
 30
0.0
 11
231.63
 21
755.855
 31
0.0
  0
LINE
  5
3E6
330
1E
100
AcDbEntity
  8
0
100
AcDbLine
 10
231.63
 20
755.855
 30
0.0
 11
233.3728
 21
751.5399999999999
 31
0.0
  0
LINE
  5
3E8
330
1E
100
AcDbEntity
  8
0
100
AcDbLine
 10
233.4500999999999
 20
742.19
 30
0.0
 11
234.0362999999999
 21
746.9349999999999
 31
0.0
  0
LINE
  5
3E9
330
1E
100
AcDbEntity
  8
0
100
AcDbLine
 10
233.3728
 20
751.5399999999999
 30
0.0
 11
234.0362999999999
 21
746.9349999999999
 31
0.0
  0
LINE
  5
3F0
330
1E
100
AcDbEntity
  8
0
100
AcDbLine
 10
202.0415
 20
451.855
 30
0.0
 11
202.0415
 21
428.8549999999999
 31
0.0
  0
LINE
  5
3F1
330
1E
100
AcDbEntity
  8
0
100
AcDbLine
 10
202.0415
 20
451.855
 30
0.0
 11
205.0415
 21
451.855
 31
0.0
  0
LINE
  5
3F2
330
1E
100
AcDbEntity
  8
0
100
AcDbLine
 10
202.0415
 20
451.855
 30
0.0
 11
216.0414999999999
 21
451.855
 31
0.0
  0
LINE
  5
3F3
330
1E
100
AcDbEntity
  8
0
100
AcDbLine
 10
202.0415
 20
428.8549999999999
 30
0.0
 11
202.0415
 21
451.855
 31
0.0
  0
LINE
  5
3F4
330
1E
100
AcDbEntity
  8
0
100
AcDbLine
 10
202.0415
 20
428.8549999999999
 30
0.0
 11
205.0415
 21
428.8549999999999
 31
0.0
  0
LINE
  5
3F5
330
1E
100
AcDbEntity
  8
0
100
AcDbLine
 10
202.0415
 20
428.8549999999999
 30
0.0
 11
216.0414999999999
 21
428.8549999999999
 31
0.0
  0
LINE
  5
3F7
330
1E
100
AcDbEntity
  8
0
100
AcDbLine
 10
187.0963999999999
 20
804.044
 30
0.0
 11
189.9604
 21
805.6979999999999
 31
0.0
  0
LINE
  5
3FE
330
1E
100
AcDbEntity
  8
0
100
AcDbLine
 10
189.9604
 20
805.6979999999999
 30
0.0
 11
192.4903999999999
 21
807.159
 31
0.0
  0
LINE
  5
403
330
1E
100
AcDbEntity
  8
0
100
AcDbLine
 10
192.4903999999999
 20
807.159
 30
0.0
 11
194.3996999999999
 21
808.261
 31
0.0
  0
LINE
  5
40B
330
1E
100
AcDbEntity
  8
0
100
AcDbLine
 10
194.3996999999999
 20
808.261
 30
0.0
 11
195.5453
 21
808.922
 31
0.0
  0
LINE
  5
40C
330
1E
100
AcDbEntity
  8
0
100
AcDbLine
 10
193.9508422906899
 20
808.001930605112
 30
0.0
 11
194.3996999999999
 21
808.261
 31
0.0
  0
LINE
  5
410
330
1E
100
AcDbEntity
  8
0
100
AcDbLine
 10
174.1454399999999
 20
795.026
 30
0.0
 11
174.63217
 21
795.365
 31
0.0
  0
LINE
  5
47D
330
1E
100
AcDbEntity
  8
0
100
AcDbLine
 10
195.5453
 20
808.922
 30
0.0
 11
195.9749
 21
809.1699999999999
 31
0.0
  0
LINE
  5
47E
330
1E
100
AcDbEntity
  8
0
100
AcDbLine
 10
195.9749
 20
809.1699999999999
 30
0.0
 11
217.9749
 21
771.0650000000001
 31
0.0
  0
LINE
  5
64D
330
1E
100
AcDbEntity
  8
0
100
AcDbLine
 10
205.4415
 20
944.355
 30
0.0
 11
206.5415
 21
944.355
 31
0.0
  0
LINE
  5
64E
330
1E
100
AcDbEntity
  8
0
100
AcDbLine
 10
205.0415
 20
944.355
 30
0.0
 11
205.0415
 21
793.4662366818181
 31
0.0
  0
LINE
  5
64F
330
1E
100
AcDbEntity
  8
0
100
AcDbLine
 10
205.0415
 20
944.355
 30
0.0
 11
205.5414999999999
 21
944.855
 31
0.0
  0
LINE
  5
650
330
1E
100
AcDbEntity
  8
0
100
AcDbLine
 10
205.0415
 20
944.355
 30
0.0
 11
205.4415
 21
944.355
 31
0.0
  0
LINE
  5
651
330
1E
100
AcDbEntity
  8
0
100
AcDbLine
 10
205.5414999999999
 20
944.855
 30
0.0
 11
205.9414999999999
 21
944.855
 31
0.0
  0
LINE
  5
652
330
1E
100
AcDbEntity
  8
0
100
AcDbLine
 10
206.5415
 20
944.355
 30
0.0
 11
208.2415
 21
944.355
 31
0.0
  0
LINE
  5
653
330
1E
100
AcDbEntity
  8
0
100
AcDbLine
 10
208.2415
 20
944.355
 30
0.0
 11
210.5415
 21
944.355
 31
0.0
  0
LINE
  5
654
330
1E
100
AcDbEntity
  8
0
100
AcDbLine
 10
205.9414999999999
 20
944.855
 30
0.0
 11
206.9414999999999
 21
944.855
 31
0.0
  0
LINE
  5
655
330
1E
100
AcDbEntity
  8
0
100
AcDbLine
 10
206.9414999999999
 20
944.855
 30
0.0
 11
208.6415
 21
944.855
 31
0.0
  0
LINE
  5
656
330
1E
100
AcDbEntity
  8
0
100
AcDbLine
 10
210.5415
 20
944.355
 30
0.0
 11
213.2414999999999
 21
944.355
 31
0.0
  0
LINE
  5
657
330
1E
100
AcDbEntity
  8
0
100
AcDbLine
 10
213.2414999999999
 20
944.355
 30
0.0
 11
216.0414999999999
 21
944.355
 31
0.0
  0
LINE
  5
658
330
1E
100
AcDbEntity
  8
0
100
AcDbLine
 10
208.6415
 20
944.855
 30
0.0
 11
210.8414999999999
 21
944.855
 31
0.0
  0
LINE
  5
659
330
1E
100
AcDbEntity
  8
0
100
AcDbLine
 10
210.8414999999999
 20
944.855
 30
0.0
 11
213.3414999999999
 21
944.855
 31
0.0
  0
LINE
  5
65A
330
1E
100
AcDbEntity
  8
0
100
AcDbLine
 10
226.6415
 20
944.355
 30
0.0
 11
227.0415
 21
944.355
 31
0.0
  0
LINE
  5
65B
330
1E
100
AcDbEntity
  8
0
100
AcDbLine
 10
225.5415
 20
944.355
 30
0.0
 11
226.6415
 21
944.355
 31
0.0
  0
LINE
  5
65C
330
1E
100
AcDbEntity
  8
0
100
AcDbLine
 10
223.8414999999999
 20
944.355
 30
0.0
 11
225.5415
 21
944.355
 31
0.0
  0
LINE
  5
65D
330
1E
100
AcDbEntity
  8
0
100
AcDbLine
 10
221.5415
 20
944.355
 30
0.0
 11
223.8414999999999
 21
944.355
 31
0.0
  0
LINE
  5
65E
330
1E
100
AcDbEntity
  8
0
100
AcDbLine
 10
226.1414999999999
 20
944.855
 30
0.0
 11
226.5415
 21
944.855
 31
0.0
  0
LINE
  5
65F
330
1E
100
AcDbEntity
  8
0
100
AcDbLine
 10
225.1415
 20
944.855
 30
0.0
 11
226.1414999999999
 21
944.855
 31
0.0
  0
LINE
  5
660
330
1E
100
AcDbEntity
  8
0
100
AcDbLine
 10
223.4414999999999
 20
944.855
 30
0.0
 11
225.1415
 21
944.855
 31
0.0
  0
LINE
  5
661
330
1E
100
AcDbEntity
  8
0
100
AcDbLine
 10
221.2415
 20
944.855
 30
0.0
 11
223.4414999999999
 21
944.855
 31
0.0
  0
LINE
  5
662
330
1E
100
AcDbEntity
  8
0
100
AcDbLine
 10
218.7415
 20
944.855
 30
0.0
 11
221.2415
 21
944.855
 31
0.0
  0
LINE
  5
663
330
1E
100
AcDbEntity
  8
0
100
AcDbLine
 10
218.8414999999999
 20
944.355
 30
0.0
 11
221.5415
 21
944.355
 31
0.0
  0
LINE
  5
664
330
1E
100
AcDbEntity
  8
0
100
AcDbLine
 10
216.0414999999999
 20
944.355
 30
0.0
 11
218.8414999999999
 21
944.355
 31
0.0
  0
LINE
  5
665
330
1E
100
AcDbEntity
  8
0
100
AcDbLine
 10
226.5415
 20
944.855
 30
0.0
 11
259.5415
 21
944.855
 31
0.0
  0
LINE
  5
666
330
1E
100
AcDbEntity
  8
0
100
AcDbLine
 10
226.5415
 20
944.855
 30
0.0
 11
227.0415
 21
944.355
 31
0.0
  0
LINE
  5
667
330
1E
100
AcDbEntity
  8
0
100
AcDbLine
 10
213.3414999999999
 20
944.855
 30
0.0
 11
216.0414999999999
 21
944.855
 31
0.0
  0
LINE
  5
668
330
1E
100
AcDbEntity
  8
0
100
AcDbLine
 10
205.0415
 20
945.3549999999999
 30
0.0
 11
205.4415
 21
945.3549999999999
 31
0.0
  0
LINE
  5
669
330
1E
100
AcDbEntity
  8
0
100
AcDbLine
 10
205.0415
 20
945.3549999999999
 30
0.0
 11
205.5414999999999
 21
944.855
 31
0.0
  0
LINE
  5
66A
330
1E
100
AcDbEntity
  8
0
100
AcDbLine
 10
205.0415
 20
945.3549999999999
 30
0.0
 11
205.0415
 21
996.3549999999999
 31
0.0
  0
LINE
  5
66B
330
1E
100
AcDbEntity
  8
0
100
AcDbLine
 10
205.4415
 20
945.3549999999999
 30
0.0
 11
206.5415
 21
945.3549999999999
 31
0.0
  0
LINE
  5
66C
330
1E
100
AcDbEntity
  8
0
100
AcDbLine
 10
206.5415
 20
945.3549999999999
 30
0.0
 11
208.2415
 21
945.3549999999999
 31
0.0
  0
LINE
  5
66D
330
1E
100
AcDbEntity
  8
0
100
AcDbLine
 10
208.2415
 20
945.3549999999999
 30
0.0
 11
210.5415
 21
945.3549999999999
 31
0.0
  0
LINE
  5
66E
330
1E
100
AcDbEntity
  8
0
100
AcDbLine
 10
210.5415
 20
945.3549999999999
 30
0.0
 11
213.2414999999999
 21
945.3549999999999
 31
0.0
  0
LINE
  5
66F
330
1E
100
AcDbEntity
  8
0
100
AcDbLine
 10
205.0415
 20
996.3549999999999
 30
0.0
 11
205.4415
 21
996.3549999999999
 31
0.0
  0
LINE
  5
670
330
1E
100
AcDbEntity
  8
0
100
AcDbLine
 10
205.0415
 20
996.3549999999999
 30
0.0
 11
205.5414999999999
 21
996.855
 31
0.0
  0
LINE
  5
671
330
1E
100
AcDbEntity
  8
0
100
AcDbLine
 10
205.0415
 20
996.3549999999999
 30
0.0
 11
205.0415
 21
945.3549999999999
 31
0.0
  0
LINE
  5
672
330
1E
100
AcDbEntity
  8
0
100
AcDbLine
 10
205.4415
 20
996.3549999999999
 30
0.0
 11
206.5415
 21
996.3549999999999
 31
0.0
  0
LINE
  5
673
330
1E
100
AcDbEntity
  8
0
100
AcDbLine
 10
206.5415
 20
996.3549999999999
 30
0.0
 11
208.2415
 21
996.3549999999999
 31
0.0
  0
LINE
  5
674
330
1E
100
AcDbEntity
  8
0
100
AcDbLine
 10
208.2415
 20
996.3549999999999
 30
0.0
 11
210.5415
 21
996.3549999999999
 31
0.0
  0
LINE
  5
675
330
1E
100
AcDbEntity
  8
0
100
AcDbLine
 10
210.5415
 20
996.3549999999999
 30
0.0
 11
213.2414999999999
 21
996.3549999999999
 31
0.0
  0
LINE
  5
676
330
1E
100
AcDbEntity
  8
0
100
AcDbLine
 10
205.5414999999999
 20
996.855
 30
0.0
 11
205.9414999999999
 21
996.855
 31
0.0
  0
LINE
  5
677
330
1E
100
AcDbEntity
  8
0
100
AcDbLine
 10
205.9414999999999
 20
996.855
 30
0.0
 11
206.9414999999999
 21
996.855
 31
0.0
  0
LINE
  5
678
330
1E
100
AcDbEntity
  8
0
100
AcDbLine
 10
206.9414999999999
 20
996.855
 30
0.0
 11
208.6415
 21
996.855
 31
0.0
  0
LINE
  5
679
330
1E
100
AcDbEntity
  8
0
100
AcDbLine
 10
208.6415
 20
996.855
 30
0.0
 11
210.8414999999999
 21
996.855
 31
0.0
  0
LINE
  5
67A
330
1E
100
AcDbEntity
  8
0
100
AcDbLine
 10
210.8414999999999
 20
996.855
 30
0.0
 11
213.3414999999999
 21
996.855
 31
0.0
  0
LINE
  5
67B
330
1E
100
AcDbEntity
  8
0
100
AcDbLine
 10
213.3414999999999
 20
996.855
 30
0.0
 11
216.0414999999999
 21
996.855
 31
0.0
  0
LINE
  5
67C
330
1E
100
AcDbEntity
  8
0
100
AcDbLine
 10
216.0414999999999
 20
996.855
 30
0.0
 11
259.5415
 21
996.855
 31
0.0
  0
LINE
  5
67D
330
1E
100
AcDbEntity
  8
0
100
AcDbLine
 10
213.2414999999999
 20
996.3549999999999
 30
0.0
 11
216.0414999999999
 21
996.3549999999999
 31
0.0
  0
LINE
  5
67E
330
1E
100
AcDbEntity
  8
0
100
AcDbLine
 10
216.0414999999999
 20
996.3549999999999
 30
0.0
 11
260.0414999999999
 21
996.3549999999999
 31
0.0
  0
LINE
  5
67F
330
1E
100
AcDbEntity
  8
0
100
AcDbLine
 10
213.2414999999999
 20
945.3549999999999
 30
0.0
 11
216.0414999999999
 21
945.3549999999999
 31
0.0
  0
LINE
  5
680
330
1E
100
AcDbEntity
  8
0
100
AcDbLine
 10
259.5415
 20
996.855
 30
0.0
 11
260.0414999999999
 21
996.3549999999999
 31
0.0
  0
LINE
  5
681
330
1E
100
AcDbEntity
  8
0
100
AcDbLine
 10
216.0414999999999
 20
945.3549999999999
 30
0.0
 11
260.0414999999999
 21
945.3549999999999
 31
0.0
  0
LINE
  5
682
330
1E
100
AcDbEntity
  8
0
100
AcDbLine
 10
216.0414999999999
 20
944.855
 30
0.0
 11
259.5415
 21
944.855
 31
0.0
  0
LINE
  5
683
330
1E
100
AcDbEntity
  8
0
100
AcDbLine
 10
216.0414999999999
 20
944.855
 30
0.0
 11
218.7415
 21
944.855
 31
0.0
  0
LINE
  5
684
330
1E
100
AcDbEntity
  8
0
100
AcDbLine
 10
260.0414999999999
 20
996.3549999999999
 30
0.0
 11
260.0414999999999
 21
945.3549999999999
 31
0.0
  0
LINE
  5
685
330
1E
100
AcDbEntity
  8
0
100
AcDbLine
 10
260.0414999999999
 20
945.3549999999999
 30
0.0
 11
260.0414999999999
 21
996.3549999999999
 31
0.0
  0
LINE
  5
686
330
1E
100
AcDbEntity
  8
0
100
AcDbLine
 10
259.5415
 20
944.855
 30
0.0
 11
260.0414999999999
 21
945.3549999999999
 31
0.0
  0
LINE
  5
A4B
330
1E
100
AcDbEntity
  8
0
100
AcDbLine
 10
99.69462449729457
 20
916.1607622863524
 30
0.0
 11
101.6756791042113
 21
914.6437767151432
 31
0.0
  0
LINE
  5
A4C
330
1E
100
AcDbEntity
  8
0
100
AcDbLine
 10
99.69462449729457
 20
916.1607622863524
 30
0.0
 11
101.9925890900643
 21
914.4129645233441
 31
0.0
  0
LINE
  5
A4D
330
1E
100
AcDbEntity
  8
0
100
AcDbLine
 10
99.69462449729457
 20
916.1607622863524
 30
0.0
 11
101.6756791042113
 21
914.6437767151432
 31
0.0
  0
LINE
  5
A4E
330
1E
100
AcDbEntity
  8
0
100
AcDbLine
 10
87.08720666281243
 20
924.8580762272643
 30
0.0
 11
93.30631400941348
 21
920.6906997418178
 31
0.0
  0
LINE
  5
A4F
330
1E
100
AcDbEntity
  8
0
100
AcDbLine
 10
93.30631400941348
 20
920.6906997418178
 30
0.0
 11
99.69462449729457
 21
916.1607622863524
 31
0.0
  0
LINE
  5
A50
330
1E
100
AcDbEntity
  8
0
100
AcDbLine
 10
101.9925890900643
 20
914.4129645233441
 30
0.0
 11
106.7661892712981
 21
910.7724144275859
 31
0.0
  0
LINE
  5
A51
330
1E
100
AcDbEntity
  8
0
100
AcDbLine
 10
71.39351818921148
 20
905.1289987492483
 30
0.0
 11
73.71110453650067
 21
903.7519111112024
 31
0.0
  0
LINE
  5
A52
330
1E
100
AcDbEntity
  8
0
100
AcDbLine
 10
55.50267502996234
 20
914.5760462339463
 30
0.0
 11
58.32515719143555
 21
912.8983937496203
 31
0.0
  0
LINE
  5
A53
330
1E
100
AcDbEntity
  8
0
100
AcDbLine
 10
68.96144729691286
 20
906.5747968592324
 30
0.0
 11
71.39351818921148
 21
905.1289987492483
 31
0.0
  0
LINE
  5
A54
330
1E
100
AcDbEntity
  8
0
100
AcDbLine
 10
73.46895737363297
 20
933.2493393060723
 30
0.0
 11
80.32946923643271
 21
929.148228472361
 31
0.0
  0
LINE
  5
A55
330
1E
100
AcDbEntity
  8
0
100
AcDbLine
 10
68.51312083048094
 20
935.9248398961598
 30
0.0
 11
73.46895737363297
 21
933.2493393060723
 31
0.0
  0
LINE
  5
A56
330
1E
100
AcDbEntity
  8
0
100
AcDbLine
 10
66.47856943991161
 20
937.1199827533665
 30
0.0
 11
68.51312083048094
 21
935.9248398961598
 31
0.0
  0
LINE
  5
A57
330
1E
100
AcDbEntity
  8
0
100
AcDbLine
 10
59.34315526569275
 20
940.7436760243758
 30
0.0
 11
66.47856943991161
 21
937.1199827533665
 31
0.0
  0
LINE
  5
A58
330
1E
100
AcDbEntity
  8
0
100
AcDbLine
 10
80.32946923643271
 20
929.148228472361
 30
0.0
 11
87.08720666281243
 21
924.8580762272643
 31
0.0
  0
LINE
  5
A59
330
1E
100
AcDbEntity
  8
0
100
AcDbLine
 10
67.9765432495887
 20
906.8875414476181
 30
0.0
 11
76.91581743666484
 21
901.5731110314517
 31
0.0
  0
LINE
  5
A5A
330
1E
100
AcDbEntity
  8
0
100
AcDbLine
 10
61.0962966608929
 20
911.2504656320085
 30
0.0
 11
63.80058908403964
 21
909.6426013684244
 31
0.0
  0
LINE
  5
A5B
330
1E
100
AcDbEntity
  8
0
100
AcDbLine
 10
51.59736632005331
 20
944.3166649719673
 30
0.0
 11
59.34315526569275
 21
940.7436760243758
 31
0.0
  0
LINE
  5
A5C
330
1E
100
AcDbEntity
  8
0
100
AcDbLine
 10
58.32515719143555
 20
912.8983937496203
 30
0.0
 11
61.0962966608929
 21
911.2504656320085
 31
0.0
  0
LINE
  5
A5D
330
1E
100
AcDbEntity
  8
0
100
AcDbLine
 10
63.80058908403964
 20
909.6426013684244
 30
0.0
 11
68.96144729691286
 21
906.5747968592324
 31
0.0
  0
LINE
  5
A5E
330
1E
100
AcDbEntity
  8
0
100
AcDbLine
 10
52.63877568672978
 20
916.2788356841817
 30
0.0
 11
55.50267502996234
 21
914.5760462339463
 31
0.0
  0
LINE
  5
A5F
330
1E
100
AcDbEntity
  8
0
100
AcDbLine
 10
56.7145268842388
 20
900.7464650210792
 30
0.0
 11
56.88211097056757
 21
901.0283982252243
 31
0.0
  0
LINE
  5
A60
330
1E
100
AcDbEntity
  8
0
100
AcDbLine
 10
56.7145268842388
 20
900.7464650210792
 30
0.0
 11
56.90352768123796
 21
900.6345692716797
 31
0.0
  0
LINE
  5
A61
330
1E
100
AcDbEntity
  8
0
100
AcDbLine
 10
56.90352768123796
 20
900.6345692716797
 30
0.0
 11
57.07095783351156
 21
900.9159734091353
 31
0.0
  0
LINE
  5
A62
330
1E
100
AcDbEntity
  8
0
100
AcDbLine
 10
57.07273425300389
 20
900.9149157288916
 30
0.0
 11
57.20655589691046
 21
900.8358574742805
 31
0.0
  0
LINE
  5
A63
330
1E
100
AcDbEntity
  8
0
100
AcDbLine
 10
57.20655589691046
 20
900.8358574742805
 30
0.0
 11
57.37463872735884
 21
901.1184611852689
 31
0.0
  0
LINE
  5
A64
330
1E
100
AcDbEntity
  8
0
100
AcDbLine
 10
57.28748052887931
 20
901.1701945705482
 30
0.0
 11
57.75856943576087
 21
901.9627256984378
 31
0.0
  0
LINE
  5
A65
330
1E
100
AcDbEntity
  8
0
100
AcDbLine
 10
57.28748052887931
 20
901.1701945705482
 30
0.0
 11
57.81142366421272
 21
900.8592042958818
 31
0.0
  0
LINE
  5
A66
330
1E
100
AcDbEntity
  8
0
100
AcDbLine
 10
57.43018293098981
 20
901.0854925175291
 30
0.0
 11
57.60198857473046
 21
900.9832243881797
 31
0.0
  0
LINE
  5
A67
330
1E
100
AcDbEntity
  8
0
100
AcDbLine
 10
57.43018293098981
 20
901.0854925175291
 30
0.0
 11
57.60198857473046
 21
900.9832243881797
 31
0.0
  0
LINE
  5
A68
330
1E
100
AcDbEntity
  8
0
100
AcDbLine
 10
57.60198857473046
 20
900.9832243881797
 30
0.0
 11
58.06118546876724
 21
900.7105498270364
 31
0.0
  0
LINE
  5
A69
330
1E
100
AcDbEntity
  8
0
100
AcDbLine
 10
57.60198857473046
 20
900.9832243881797
 30
0.0
 11
58.06118546876724
 21
900.7105498270364
 31
0.0
  0
LINE
  5
A6A
330
1E
100
AcDbEntity
  8
0
100
AcDbLine
 10
57.33549459572947
 20
901.05264674823
 30
0.0
 11
59.00285327550512
 21
900.1301913105786
 31
0.0
  0
LINE
  5
A6B
330
1E
100
AcDbEntity
  8
0
100
AcDbLine
 10
57.20980396389149
 20
901.2166741494157
 30
0.0
 11
57.67772216920548
 21
902.0038710831592
 31
0.0
  0
LINE
  5
A6C
330
1E
100
AcDbEntity
  8
0
100
AcDbLine
 10
57.20980396389149
 20
901.2166741494157
 30
0.0
 11
57.28748052887931
 21
901.1701945705482
 31
0.0
  0
LINE
  5
A6D
330
1E
100
AcDbEntity
  8
0
100
AcDbLine
 10
56.86162241443992
 20
901.0405570899878
 30
0.0
 11
57.25750595896432
 21
901.706752099329
 31
0.0
  0
LINE
  5
A6E
330
1E
100
AcDbEntity
  8
0
100
AcDbLine
 10
56.86162241443992
 20
901.0405570899878
 30
0.0
 11
57.20655589691046
 21
900.8358574742805
 31
0.0
  0
LINE
  5
A6F
330
1E
100
AcDbEntity
  8
0
100
AcDbLine
 10
56.88959248076992
 20
901.0239583481427
 30
0.0
 11
57.07273425300389
 21
900.9149157288916
 31
0.0
  0
LINE
  5
A70
330
1E
100
AcDbEntity
  8
0
100
AcDbLine
 10
56.88959248076992
 20
901.0239583481427
 30
0.0
 11
57.07273425300389
 21
900.9149157288916
 31
0.0
  0
LINE
  5
A71
330
1E
100
AcDbEntity
  8
0
100
AcDbLine
 10
57.81142366421272
 20
900.8592042958818
 30
0.0
 11
58.30307786797305
 21
901.6856104676836
 31
0.0
  0
LINE
  5
A72
330
1E
100
AcDbEntity
  8
0
100
AcDbLine
 10
57.81142366421272
 20
900.8592042958818
 30
0.0
 11
58.46151923777364
 21
900.4722771900382
 31
0.0
  0
LINE
  5
A73
330
1E
100
AcDbEntity
  8
0
100
AcDbLine
 10
82.62253032798538
 20
898.4548653682566
 30
0.0
 11
83.93380609635533
 21
897.6767343386184
 31
0.0
  0
LINE
  5
A74
330
1E
100
AcDbEntity
  8
0
100
AcDbLine
 10
109.3233242825868
 20
908.7876194195207
 30
0.0
 11
114.6678439944144
 21
904.3910742645284
 31
0.0
  0
LINE
  5
A75
330
1E
100
AcDbEntity
  8
0
100
AcDbLine
 10
109.3240004306652
 20
908.7878005928523
 30
0.0
 11
114.6678439944144
 21
904.3910742645284
 31
0.0
  0
LINE
  5
A76
330
1E
100
AcDbEntity
  8
0
100
AcDbLine
 10
106.7661892712981
 20
910.7724144275859
 30
0.0
 11
109.3233242825868
 21
908.7876194195207
 31
0.0
  0
LINE
  5
A77
330
1E
100
AcDbEntity
  8
0
100
AcDbLine
 10
81.18642345884182
 20
899.308252004195
 30
0.0
 11
82.62253032798538
 21
898.4548653682566
 31
0.0
  0
LINE
  5
A78
330
1E
100
AcDbEntity
  8
0
100
AcDbLine
 10
149.3054537994951
 20
870.44113109798
 30
0.0
 11
149.5774254880341
 21
870.1433768197011
 31
0.0
  0
LINE
  5
A79
330
1E
100
AcDbEntity
  8
0
100
AcDbLine
 10
155.1432719529403
 20
863.7749241234951
 30
0.0
 11
160.556043373875
 21
857.3054090744115
 31
0.0
  0
LINE
  5
A7A
330
1E
100
AcDbEntity
  8
0
100
AcDbLine
 10
149.5774254880341
 20
870.1433768197011
 30
0.0
 11
155.1432719529403
 21
863.7749241234951
 31
0.0
  0
LINE
  5
A7C
330
1E
100
AcDbEntity
  8
0
100
AcDbLine
 10
193.9410204863643
 20
809.6368088053091
 30
0.0
 11
194.6660972058443
 21
808.413316393721
 31
0.0
  0
LINE
  5
A89
330
1E
100
AcDbEntity
  8
0
100
AcDbLine
 10
173.1825573360886
 20
794.8554609815298
 30
0.0
 11
173.3841701440498
 21
794.7655795815298
 31
0.0
  0
LINE
  5
A8A
330
1E
100
AcDbEntity
  8
0
100
AcDbLine
 10
173.1825573360886
 20
794.8554609815298
 30
0.0
 11
173.398929965838
 21
794.7591817020543
 31
0.0
  0
LINE
  5
A8B
330
1E
100
AcDbEntity
  8
0
100
AcDbLine
 10
173.0506472415179
 20
794.9754072052776
 30
0.0
 11
173.1825573360886
 21
794.8554609815298
 31
0.0
  0
LINE
  5
A8C
330
1E
100
AcDbEntity
  8
0
100
AcDbLine
 10
175.853879039497
 20
837.3373864209659
 30
0.0
 11
176.0817844556956
 21
837.012295477894
 31
0.0
  0
LINE
  5
A8D
330
1E
100
AcDbEntity
  8
0
100
AcDbLine
 10
175.853879039497
 20
837.3373864209659
 30
0.0
 11
180.6290013435838
 21
830.5148051982165
 31
0.0
  0
LINE
  5
A8E
330
1E
100
AcDbEntity
  8
0
100
AcDbLine
 10
176.0817844556956
 20
837.012295477894
 30
0.0
 11
180.6290013435838
 21
830.5148051982165
 31
0.0
  0
LINE
  5
A8F
330
1E
100
AcDbEntity
  8
0
100
AcDbLine
 10
185.0178051690521
 20
823.9489863618826
 30
0.0
 11
185.2370828866938
 21
823.6205483577695
 31
0.0
  0
LINE
  5
A90
330
1E
100
AcDbEntity
  8
0
100
AcDbLine
 10
185.2370828866938
 20
823.6205483577695
 30
0.0
 11
189.6747045367838
 21
816.6588761268574
 31
0.0
  0
LINE
  5
A91
330
1E
100
AcDbEntity
  8
0
100
AcDbLine
 10
189.6747045367838
 20
816.6588761268574
 30
0.0
 11
193.9410204863643
 21
809.6368088053091
 31
0.0
  0
LINE
  5
A92
330
1E
100
AcDbEntity
  8
0
100
AcDbLine
 10
180.6290013435838
 20
830.5148051982165
 30
0.0
 11
185.0178051690521
 21
823.9489863618826
 31
0.0
  0
LINE
  5
A93
330
1E
100
AcDbEntity
  8
0
100
AcDbLine
 10
170.91436608229
 20
844.0807199108345
 30
0.0
 11
175.6190536325263
 21
837.6585526057377
 31
0.0
  0
LINE
  5
A94
330
1E
100
AcDbEntity
  8
0
100
AcDbLine
 10
165.8157109202923
 20
850.7379297758706
 30
0.0
 11
170.91436608229
 21
844.0807199108345
 31
0.0
  0
LINE
  5
A95
330
1E
100
AcDbEntity
  8
0
100
AcDbLine
 10
175.6190536325263
 20
837.6585526057377
 30
0.0
 11
175.853879039497
 21
837.3373864209659
 31
0.0
  0
LINE
  5
A96
330
1E
100
AcDbEntity
  8
0
100
AcDbLine
 10
160.8063315177784
 20
856.992527222235
 30
0.0
 11
165.8157109202923
 21
850.7379297758706
 31
0.0
  0
LINE
  5
A97
330
1E
100
AcDbEntity
  8
0
100
AcDbLine
 10
160.556043373875
 20
857.3054090744115
 30
0.0
 11
160.8063315177784
 21
856.992527222235
 31
0.0
  0
LINE
  5
A98
330
1E
100
AcDbEntity
  8
0
100
AcDbLine
 10
173.0595100370601
 20
794.9663939462014
 30
0.0
 11
173.1825573360886
 21
794.8554609815298
 31
0.0
  0
LINE
  5
A99
330
1E
100
AcDbEntity
  8
0
100
AcDbLine
 10
172.8051044123421
 20
795.304054427229
 30
0.0
 11
173.0506472415179
 21
794.9754072052776
 31
0.0
  0
LINE
  5
A9A
330
1E
100
AcDbEntity
  8
0
100
AcDbLine
 10
173.4146966258716
 20
794.7603005373364
 30
0.0
 11
173.6372940050324
 21
794.7743931733818
 31
0.0
  0
LINE
  5
A9B
330
1E
100
AcDbEntity
  8
0
100
AcDbLine
 10
173.6372940050324
 20
794.7743931733818
 30
0.0
 11
173.8086
 21
794.8409999999999
 31
0.0
  0
LINE
  5
AA4
330
1E
100
AcDbEntity
  8
0
100
AcDbLine
 10
106.9123881944048
 20
885.9577130478621
 30
0.0
 11
109.14267007038
 21
883.737293512347
 31
0.0
  0
LINE
  5
AA5
330
1E
100
AcDbEntity
  8
0
100
AcDbLine
 10
114.6678439944144
 20
904.3910742645284
 30
0.0
 11
120.292270678569
 21
899.5197983049292
 31
0.0
  0
LINE
  5
AA6
330
1E
100
AcDbEntity
  8
0
100
AcDbLine
 10
123.1663151257773
 20
896.9024725312678
 30
0.0
 11
126.1036005081276
 21
894.217199468313
 31
0.0
  0
LINE
  5
AA7
330
1E
100
AcDbEntity
  8
0
100
AcDbLine
 10
120.292270678569
 20
899.5197983049292
 30
0.0
 11
123.1663151257773
 21
896.9024725312678
 31
0.0
  0
LINE
  5
AA8
330
1E
100
AcDbEntity
  8
0
100
AcDbLine
 10
126.1036005081276
 20
894.217199468313
 30
0.0
 11
131.9954478491245
 21
888.566581637457
 31
0.0
  0
LINE
  5
AA9
330
1E
100
AcDbEntity
  8
0
100
AcDbLine
 10
126.1036005081276
 20
894.217199468313
 30
0.0
 11
131.996382816248
 21
888.5657968849622
 31
0.0
  0
LINE
  5
AAA
330
1E
100
AcDbEntity
  8
0
100
AcDbLine
 10
99.44181533987553
 20
891.7371148564551
 30
0.0
 11
101.1885195358051
 21
890.6004647555349
 31
0.0
  0
LINE
  5
AAB
330
1E
100
AcDbEntity
  8
0
100
AcDbLine
 10
83.93380609635533
 20
897.6767343386184
 30
0.0
 11
85.11696661614235
 21
896.9729789305272
 31
0.0
  0
LINE
  5
AAC
330
1E
100
AcDbEntity
  8
0
100
AcDbLine
 10
89.42528722357304
 20
894.4128190227113
 30
0.0
 11
89.69613664898441
 21
894.2400324527634
 31
0.0
  0
LINE
  5
AAD
330
1E
100
AcDbEntity
  8
0
100
AcDbLine
 10
89.21735743164351
 20
894.5506561768777
 30
0.0
 11
89.55138405768071
 21
894.0604485522857
 31
0.0
  0
LINE
  5
AAE
330
1E
100
AcDbEntity
  8
0
100
AcDbLine
 10
89.21735743164351
 20
894.5506561768777
 30
0.0
 11
89.42528722357304
 21
894.4128190227113
 31
0.0
  0
LINE
  5
AAF
330
1E
100
AcDbEntity
  8
0
100
AcDbLine
 10
88.86697195897239
 20
894.7829275410054
 30
0.0
 11
89.42528722357304
 21
894.4128190227113
 31
0.0
  0
LINE
  5
AB0
330
1E
100
AcDbEntity
  8
0
100
AcDbLine
 10
88.05576482947207
 20
895.3109640956567
 30
0.0
 11
88.86697195897239
 21
894.7829275410054
 31
0.0
  0
LINE
  5
AB1
330
1E
100
AcDbEntity
  8
0
100
AcDbLine
 10
87.0960713747171
 20
895.7919669261061
 30
0.0
 11
88.05576482947207
 21
895.3109640956567
 31
0.0
  0
LINE
  5
AB2
330
1E
100
AcDbEntity
  8
0
100
AcDbLine
 10
85.11696661614235
 20
896.9729789305272
 30
0.0
 11
87.0960713747171
 21
895.7919669261061
 31
0.0
  0
LINE
  5
AB3
330
1E
100
AcDbEntity
  8
0
100
AcDbLine
 10
88.00417710039402
 20
894.9803466941055
 30
0.0
 11
89.55138405768071
 21
894.0604485522857
 31
0.0
  0
LINE
  5
AB4
330
1E
100
AcDbEntity
  8
0
100
AcDbLine
 10
89.78483963428908
 20
894.1840840801505
 30
0.0
 11
89.94984827030487
 21
894.1775694780751
 31
0.0
  0
LINE
  5
AB5
330
1E
100
AcDbEntity
  8
0
100
AcDbLine
 10
94.87361013168174
 20
893.7317416049548
 30
0.0
 11
97.16487599474744
 21
892.8983683423952
 31
0.0
  0
LINE
  5
AB6
330
1E
100
AcDbEntity
  8
0
100
AcDbLine
 10
92.39886555612372
 20
894.2074395929118
 30
0.0
 11
94.87267516455824
 21
893.7325263574496
 31
0.0
  0
LINE
  5
AB7
330
1E
100
AcDbEntity
  8
0
100
AcDbLine
 10
89.94984827030487
 20
894.1775694780751
 30
0.0
 11
92.39818940804537
 21
894.2072584195804
 31
0.0
  0
LINE
  5
AB8
330
1E
100
AcDbEntity
  8
0
100
AcDbLine
 10
94.16373616155345
 20
894.038464014528
 30
0.0
 11
94.87361013168174
 21
893.7317416049548
 31
0.0
  0
LINE
  5
AB9
330
1E
100
AcDbEntity
  8
0
100
AcDbLine
 10
94.16373616155345
 20
894.038464014528
 30
0.0
 11
94.87267516455824
 21
893.7325263574496
 31
0.0
  0
LINE
  5
ABA
330
1E
100
AcDbEntity
  8
0
100
AcDbLine
 10
97.16487599474744
 20
892.8983683423952
 30
0.0
 11
99.44181533987553
 21
891.7371148564551
 31
0.0
  0
LINE
  5
ABB
330
1E
100
AcDbEntity
  8
0
100
AcDbLine
 10
89.69613664898441
 20
894.2400324527634
 30
0.0
 11
89.78483963428908
 21
894.1840840801505
 31
0.0
  0
LINE
  5
ABC
330
1E
100
AcDbEntity
  8
0
100
AcDbLine
 10
86.73849297236086
 20
890.3085768391099
 30
0.0
 11
88.3594831067424
 21
892.0566853094966
 31
0.0
  0
LINE
  5
ABD
330
1E
100
AcDbEntity
  8
0
100
AcDbLine
 10
88.3594831067424
 20
892.0566853094966
 30
0.0
 11
89.55138405768071
 21
894.0604485522857
 31
0.0
  0
LINE
  5
ABE
330
1E
100
AcDbEntity
  8
0
100
AcDbLine
 10
84.25745825332029
 20
889.0702425858021
 30
0.0
 11
86.73849297236086
 21
890.3085768391099
 31
0.0
  0
LINE
  5
ABF
330
1E
100
AcDbEntity
  8
0
100
AcDbLine
 10
83.79232156005537
 20
897.4845675204941
 30
0.0
 11
88.00417710039402
 21
894.9803466941055
 31
0.0
  0
LINE
  5
AC0
330
1E
100
AcDbEntity
  8
0
100
AcDbLine
 10
101.1885195358051
 20
890.6004647555349
 30
0.0
 11
102.0524600451294
 21
890.0379000869424
 31
0.0
  0
LINE
  5
AC1
330
1E
100
AcDbEntity
  8
0
100
AcDbLine
 10
102.0524600451294
 20
890.0379000869424
 30
0.0
 11
104.6041425367566
 21
888.0340443855699
 31
0.0
  0
LINE
  5
AC2
330
1E
100
AcDbEntity
  8
0
100
AcDbLine
 10
104.6041425367566
 20
888.0340443855699
 30
0.0
 11
106.9123881944048
 21
885.9577130478621
 31
0.0
  0
LINE
  5
AC3
330
1E
100
AcDbEntity
  8
0
100
AcDbLine
 10
143.8623710554014
 20
876.4014505811827
 30
0.0
 11
149.5774254880341
 21
870.1433768197011
 31
0.0
  0
LINE
  5
AC4
330
1E
100
AcDbEntity
  8
0
100
AcDbLine
 10
137.999984237615
 20
882.5444715878735
 30
0.0
 11
143.8623710554014
 21
876.4014505811827
 31
0.0
  0
LINE
  5
AC5
330
1E
100
AcDbEntity
  8
0
100
AcDbLine
 10
131.996382816248
 20
888.5657968849622
 30
0.0
 11
137.999984237615
 21
882.5444715878735
 31
0.0
  0
LINE
  5
AC6
330
1E
100
AcDbEntity
  8
0
100
AcDbLine
 10
109.14267007038
 20
883.737293512347
 30
0.0
 11
111.9772752265729
 21
880.6497373884061
 31
0.0
  0
LINE
  5
AC7
330
1E
100
AcDbEntity
  8
0
100
AcDbLine
 10
111.9772752265729
 20
880.6497373884061
 30
0.0
 11
117.0582019283258
 21
874.5613202007117
 31
0.0
  0
LINE
  5
AC8
330
1E
100
AcDbEntity
  8
0
100
AcDbLine
 10
117.0582019283258
 20
874.5613202007117
 30
0.0
 11
127.504985475941
 21
861.1035855548184
 31
0.0
  0
LINE
  5
AC9
330
1E
100
AcDbEntity
  8
0
100
AcDbLine
 10
163.2626789019236
 20
809.5610896639183
 30
0.0
 11
172.8051044123421
 21
795.304054427229
 31
0.0
  0
LINE
  5
ACA
330
1E
100
AcDbEntity
  8
0
100
AcDbLine
 10
127.504985475941
 20
861.1035855548184
 30
0.0
 11
137.4189729976322
 21
847.5227588914759
 31
0.0
  0
LINE
  5
ACB
330
1E
100
AcDbEntity
  8
0
100
AcDbLine
 10
153.2863538815342
 20
824.5000598124109
 30
0.0
 11
163.2626789019236
 21
809.5610896639183
 31
0.0
  0
LINE
  5
ACC
330
1E
100
AcDbEntity
  8
0
100
AcDbLine
 10
142.8508039830814
 20
839.7932433448513
 30
0.0
 11
153.2863538815342
 21
824.5000598124109
 31
0.0
  0
LINE
  5
ACD
330
1E
100
AcDbEntity
  8
0
100
AcDbLine
 10
137.4189729976322
 20
847.5227588914759
 30
0.0
 11
142.8508039830814
 21
839.7932433448513
 31
0.0
  0
LINE
  5
ACE
330
1E
100
AcDbEntity
  8
0
100
AcDbLine
 10
77.96018538589414
 20
901.2266064909006
 30
0.0
 11
79.62973927903459
 21
900.2349282175178
 31
0.0
  0
LINE
  5
ACF
330
1E
100
AcDbEntity
  8
0
100
AcDbLine
 10
73.71110453650067
 20
903.7519111112024
 30
0.0
 11
75.90379786561067
 21
902.4479919363772
 31
0.0
  0
LINE
  5
AD0
330
1E
100
AcDbEntity
  8
0
100
AcDbLine
 10
75.90379786561067
 20
902.4479919363772
 30
0.0
 11
77.96018538589414
 21
901.2266064909006
 31
0.0
  0
LINE
  5
AD1
330
1E
100
AcDbEntity
  8
0
100
AcDbLine
 10
76.91581743666484
 20
901.5731110314517
 30
0.0
 11
83.79232156005537
 21
897.4845675204941
 31
0.0
  0
LINE
  5
AD2
330
1E
100
AcDbEntity
  8
0
100
AcDbLine
 10
60.67430540846459
 20
898.3921083596788
 30
0.0
 11
61.05165111472524
 21
899.0269316675902
 31
0.0
  0
LINE
  5
AD3
330
1E
100
AcDbEntity
  8
0
100
AcDbLine
 10
60.67430540846459
 20
898.3921083596788
 30
0.0
 11
61.27592510878577
 21
898.0346385061451
 31
0.0
  0
LINE
  5
AD4
330
1E
100
AcDbEntity
  8
0
100
AcDbLine
 10
60.29164777654779
 20
898.6199918645903
 30
0.0
 11
60.67430540846459
 21
898.3921083596788
 31
0.0
  0
LINE
  5
AD5
330
1E
100
AcDbEntity
  8
0
100
AcDbLine
 10
60.53035623053625
 20
898.8597873459223
 30
0.0
 11
60.96024270538691
 21
899.5825709447743
 31
0.0
  0
LINE
  5
AD6
330
1E
100
AcDbEntity
  8
0
100
AcDbLine
 10
60.53035623053625
 20
898.8597873459223
 30
0.0
 11
60.77366684738405
 21
898.7148211645934
 31
0.0
  0
LINE
  5
AD7
330
1E
100
AcDbEntity
  8
0
100
AcDbLine
 10
60.96024270538691
 20
899.5825709447743
 30
0.0
 11
62.29314456207124
 21
898.9286466302933
 31
0.0
  0
LINE
  5
AD8
330
1E
100
AcDbEntity
  8
0
100
AcDbLine
 10
60.77366684738405
 20
898.7148211645934
 30
0.0
 11
61.21504025115763
 21
899.4575667596476
 31
0.0
  0
LINE
  5
AD9
330
1E
100
AcDbEntity
  8
0
100
AcDbLine
 10
59.77787017281719
 20
898.9252605689868
 30
0.0
 11
60.05792095594301
 21
898.7589707270293
 31
0.0
  0
LINE
  5
ADA
330
1E
100
AcDbEntity
  8
0
100
AcDbLine
 10
59.77787017281719
 20
898.9252605689868
 30
0.0
 11
60.05792095594301
 21
898.7589707270293
 31
0.0
  0
LINE
  5
ADB
330
1E
100
AcDbEntity
  8
0
100
AcDbLine
 10
59.18972266608125
 20
899.2749522479273
 30
0.0
 11
59.43595890916589
 21
899.1287267391212
 31
0.0
  0
LINE
  5
ADC
330
1E
100
AcDbEntity
  8
0
100
AcDbLine
 10
59.18972266608125
 20
899.2749522479273
 30
0.0
 11
59.43595890916601
 21
899.1287267391212
 31
0.0
  0
LINE
  5
ADD
330
1E
100
AcDbEntity
  8
0
100
AcDbLine
 10
59.18972266608125
 20
899.2749522479273
 30
0.0
 11
59.35755313576248
 21
899.5572758953379
 31
0.0
  0
LINE
  5
ADE
330
1E
100
AcDbEntity
  8
0
100
AcDbLine
 10
59.18972266608125
 20
899.2749522479273
 30
0.0
 11
59.84323365521129
 21
898.8868697475664
 31
0.0
  0
LINE
  5
ADF
330
1E
100
AcDbEntity
  8
0
100
AcDbLine
 10
59.43595890916589
 20
899.1287267391212
 30
0.0
 11
59.77787017281719
 21
898.9252605689868
 31
0.0
  0
LINE
  5
AE0
330
1E
100
AcDbEntity
  8
0
100
AcDbLine
 10
59.02736357984043
 20
900.5308453063177
 30
0.0
 11
59.43167166780074
 21
900.3324909504197
 31
0.0
  0
LINE
  5
AE1
330
1E
100
AcDbEntity
  8
0
100
AcDbLine
 10
59.31470715471744
 20
899.5827899285325
 30
0.0
 11
59.68630342155598
 21
900.2075681031861
 31
0.0
  0
LINE
  5
AE2
330
1E
100
AcDbEntity
  8
0
100
AcDbLine
 10
59.31470715471744
 20
899.5827899285325
 30
0.0
 11
59.92261280585807
 21
899.2207927333621
 31
0.0
  0
LINE
  5
AE3
330
1E
100
AcDbEntity
  8
0
100
AcDbLine
 10
59.07175194949719
 20
899.7268160659396
 30
0.0
 11
59.43167166780074
 21
900.3324909504197
 31
0.0
  0
LINE
  5
AE4
330
1E
100
AcDbEntity
  8
0
100
AcDbLine
 10
59.07175194949719
 20
899.7268160659396
 30
0.0
 11
59.31470715471744
 21
899.5827899285325
 31
0.0
  0
LINE
  5
AE5
330
1E
100
AcDbEntity
  8
0
100
AcDbLine
 10
59.43595890916601
 20
899.1287267391212
 30
0.0
 11
59.77787017281719
 21
898.9252605689868
 31
0.0
  0
LINE
  5
AE6
330
1E
100
AcDbEntity
  8
0
100
AcDbLine
 10
59.92261280585807
 20
899.2207927333621
 30
0.0
 11
60.32331950378
 21
899.8950467402719
 31
0.0
  0
LINE
  5
AE7
330
1E
100
AcDbEntity
  8
0
100
AcDbLine
 10
59.92261280585807
 20
899.2207927333621
 30
0.0
 11
60.53035623053625
 21
898.8597873459223
 31
0.0
  0
LINE
  5
AE8
330
1E
100
AcDbEntity
  8
0
100
AcDbLine
 10
58.71241642844347
 20
899.5590983468131
 30
0.0
 11
59.08986984619571
 21
900.1935479896969
 31
0.0
  0
LINE
  5
AE9
330
1E
100
AcDbEntity
  8
0
100
AcDbLine
 10
58.71241642844347
 20
899.5590983468131
 30
0.0
 11
59.18972266608125
 21
899.2749522479273
 31
0.0
  0
LINE
  5
AEA
330
1E
100
AcDbEntity
  8
0
100
AcDbLine
 10
58.67606045263221
 20
899.5804150778667
 30
0.0
 11
59.00285327550512
 21
900.1301913105786
 31
0.0
  0
LINE
  5
AEB
330
1E
100
AcDbEntity
  8
0
100
AcDbLine
 10
58.67606045263221
 20
899.5804150778667
 30
0.0
 11
58.91292715874119
 21
899.4397319164036
 31
0.0
  0
LINE
  5
AEC
330
1E
100
AcDbEntity
  8
0
100
AcDbLine
 10
58.67606045263221
 20
899.5804150778667
 30
0.0
 11
59.05262413690753
 21
900.2139227598803
 31
0.0
  0
LINE
  5
AED
330
1E
100
AcDbEntity
  8
0
100
AcDbLine
 10
58.67606045263221
 20
899.5804150778667
 30
0.0
 11
58.91292715874129
 21
899.4397319164036
 31
0.0
  0
LINE
  5
AEE
330
1E
100
AcDbEntity
  8
0
100
AcDbLine
 10
58.46151923777364
 20
900.4722771900382
 30
0.0
 11
58.97846796840616
 21
901.3418859770082
 31
0.0
  0
LINE
  5
AEF
330
1E
100
AcDbEntity
  8
0
100
AcDbLine
 10
58.46151923777364
 20
900.4722771900382
 30
0.0
 11
58.85380044119523
 21
900.2388533107069
 31
0.0
  0
LINE
  5
AF0
330
1E
100
AcDbEntity
  8
0
100
AcDbLine
 10
58.85380044119523
 20
900.2388533107069
 30
0.0
 11
59.38260607381744
 21
901.128483523464
 31
0.0
  0
LINE
  5
AF1
330
1E
100
AcDbEntity
  8
0
100
AcDbLine
 10
58.91292715874119
 20
899.4397319164036
 30
0.0
 11
59.18972266608125
 21
899.2749522479273
 31
0.0
  0
LINE
  5
AF2
330
1E
100
AcDbEntity
  8
0
100
AcDbLine
 10
58.91292715874119
 20
899.4397319164036
 30
0.0
 11
59.18972266608125
 21
899.2749522479273
 31
0.0
  0
LINE
  5
AF3
330
1E
100
AcDbEntity
  8
0
100
AcDbLine
 10
59.84323365521129
 20
898.8868697475664
 30
0.0
 11
60.01074809589971
 21
899.1684395309469
 31
0.0
  0
LINE
  5
AF4
330
1E
100
AcDbEntity
  8
0
100
AcDbLine
 10
59.84323365521129
 20
898.8868697475664
 30
0.0
 11
60.29153238626623
 21
898.6197977390471
 31
0.0
  0
LINE
  5
AF5
330
1E
100
AcDbEntity
  8
0
100
AcDbLine
 10
60.29153238626623
 20
898.6197977390471
 30
0.0
 11
60.45928055030879
 21
898.9020069774911
 31
0.0
  0
LINE
  5
AF6
330
1E
100
AcDbEntity
  8
0
100
AcDbLine
 10
60.05792095594301
 20
898.7589707270293
 30
0.0
 11
60.29153238626623
 21
898.6197977390471
 31
0.0
  0
LINE
  5
AF7
330
1E
100
AcDbEntity
  8
0
100
AcDbLine
 10
60.05792095594301
 20
898.7589707270293
 30
0.0
 11
60.29153238626623
 21
898.6197977390471
 31
0.0
  0
LINE
  5
AF8
330
1E
100
AcDbEntity
  8
0
100
AcDbLine
 10
61.27592510878577
 20
898.0346385061451
 30
0.0
 11
61.66465154466988
 21
898.6886080566295
 31
0.0
  0
LINE
  5
AF9
330
1E
100
AcDbEntity
  8
0
100
AcDbLine
 10
61.27592510878577
 20
898.0346385061451
 30
0.0
 11
61.53383607150772
 21
897.8811611615377
 31
0.0
  0
LINE
  5
AFA
330
1E
100
AcDbEntity
  8
0
100
AcDbLine
 10
61.53383607150772
 20
897.8811611615377
 30
0.0
 11
61.92754521767852
 21
898.5435133186715
 31
0.0
  0
LINE
  5
AFB
330
1E
100
AcDbEntity
  8
0
100
AcDbLine
 10
62.15990574982851
 20
898.2735709573981
 30
0.0
 11
62.23492228059604
 21
898.2289499706558
 31
0.0
  0
LINE
  5
AFC
330
1E
100
AcDbEntity
  8
0
100
AcDbLine
 10
62.15990574982851
 20
898.2735709573981
 30
0.0
 11
62.69695552004361
 21
899.1769936210886
 31
0.0
  0
LINE
  5
AFD
330
1E
100
AcDbEntity
  8
0
100
AcDbLine
 10
62.15990574982851
 20
898.2735709573981
 30
0.0
 11
62.74428242936756
 21
897.9259747168965
 31
0.0
  0
LINE
  5
AFE
330
1E
100
AcDbEntity
  8
0
100
AcDbLine
 10
61.97054954120154
 20
898.3864067507196
 30
0.0
 11
62.01617201923676
 21
898.4630921469449
 31
0.0
  0
LINE
  5
AFF
330
1E
100
AcDbEntity
  8
0
100
AcDbLine
 10
61.97054954120154
 20
898.3864067507196
 30
0.0
 11
62.50779961956562
 21
899.2894536018701
 31
0.0
  0
LINE
  5
B00
330
1E
100
AcDbEntity
  8
0
100
AcDbLine
 10
61.97054954120154
 20
898.3864067507196
 30
0.0
 11
62.15990574982851
 21
898.2735709573981
 31
0.0
  0
LINE
  5
B01
330
1E
100
AcDbEntity
  8
0
100
AcDbLine
 10
61.91350459609236
 20
898.5198922367501
 30
0.0
 11
62.01617201923676
 21
898.4630921469449
 31
0.0
  0
LINE
  5
B02
330
1E
100
AcDbEntity
  8
0
100
AcDbLine
 10
63.37094562390962
 20
897.5534744476261
 30
0.0
 11
63.9080010161241
 21
898.4569835507144
 31
0.0
  0
LINE
  5
B03
330
1E
100
AcDbEntity
  8
0
100
AcDbLine
 10
63.37094562390962
 20
897.5534744476261
 30
0.0
 11
63.66614752956627
 21
897.3778956194703
 31
0.0
  0
LINE
  5
B04
330
1E
100
AcDbEntity
  8
0
100
AcDbLine
 10
64.06981845685772
 20
898.0570068671127
 30
0.0
 11
66.99254417727184
 21
896.6231117880765
 31
0.0
  0
LINE
  5
B05
330
1E
100
AcDbEntity
  8
0
100
AcDbLine
 10
62.74428242936756
 20
897.9259747168965
 30
0.0
 11
63.28137011194712
 21
898.8295381433168
 31
0.0
  0
LINE
  5
B06
330
1E
100
AcDbEntity
  8
0
100
AcDbLine
 10
62.74428242936756
 20
897.9259747168965
 30
0.0
 11
63.37094562390962
 21
897.5534744476261
 31
0.0
  0
LINE
  5
B07
330
1E
100
AcDbEntity
  8
0
100
AcDbLine
 10
62.06683026172834
 20
897.9463308108469
 30
0.0
 11
62.23492228059604
 21
898.2289499706558
 31
0.0
  0
LINE
  5
B08
330
1E
100
AcDbEntity
  8
0
100
AcDbLine
 10
62.06683026172834
 20
897.9463308108469
 30
0.0
 11
62.20071753951481
 21
897.8662548666006
 31
0.0
  0
LINE
  5
B09
330
1E
100
AcDbEntity
  8
0
100
AcDbLine
 10
62.06683026172834
 20
897.9463308108469
 30
0.0
 11
62.4119259706614
 21
897.7406393874089
 31
0.0
  0
LINE
  5
B0A
330
1E
100
AcDbEntity
  8
0
100
AcDbLine
 10
62.20071753951481
 20
897.8662548666006
 30
0.0
 11
62.31466423798292
 21
897.7986114332006
 31
0.0
  0
LINE
  5
B0B
330
1E
100
AcDbEntity
  8
0
100
AcDbLine
 10
63.05244772911925
 20
897.3604644711635
 30
0.0
 11
63.22046017803717
 21
897.6429257982029
 31
0.0
  0
LINE
  5
B0C
330
1E
100
AcDbEntity
  8
0
100
AcDbLine
 10
63.05244772911925
 20
897.3604644711635
 30
0.0
 11
63.60894505436426
 21
897.0292093323426
 31
0.0
  0
LINE
  5
B0D
330
1E
100
AcDbEntity
  8
0
100
AcDbLine
 10
62.4119259706614
 20
897.7406393874089
 30
0.0
 11
62.5800953380114
 21
898.0236357251
 31
0.0
  0
LINE
  5
B0E
330
1E
100
AcDbEntity
  8
0
100
AcDbLine
 10
62.4119259706614
 20
897.7406393874089
 30
0.0
 11
63.05244772911925
 21
897.3604644711635
 31
0.0
  0
LINE
  5
B0F
330
1E
100
AcDbEntity
  8
0
100
AcDbLine
 10
62.31466423798292
 20
897.7986114332006
 30
0.0
 11
62.4119259706614
 21
897.7406393874089
 31
0.0
  0
LINE
  5
B10
330
1E
100
AcDbEntity
  8
0
100
AcDbLine
 10
62.91358389217686
 20
897.4428856331021
 30
0.0
 11
63.39783321580023
 21
897.1548506934389
 31
0.0
  0
LINE
  5
B11
330
1E
100
AcDbEntity
  8
0
100
AcDbLine
 10
79.62973927903459
 20
900.2349282175178
 30
0.0
 11
81.18642345884182
 21
899.308252004195
 31
0.0
  0
LINE
  5
B12
330
1E
100
AcDbEntity
  8
0
100
AcDbLine
 10
74.43313364112919
 20
890.9764735147021
 30
0.0
 11
74.66297350140831
 21
890.8399376078659
 31
0.0
  0
LINE
  5
B13
330
1E
100
AcDbEntity
  8
0
100
AcDbLine
 10
74.43313364112919
 20
890.9764735147021
 30
0.0
 11
74.78881374212909
 21
890.7651824659046
 31
0.0
  0
LINE
  5
B14
330
1E
100
AcDbEntity
  8
0
100
AcDbLine
 10
74.13454727860614
 20
891.1542513089152
 30
0.0
 11
74.61862988385508
 21
891.9686422392164
 31
0.0
  0
LINE
  5
B15
330
1E
100
AcDbEntity
  8
0
100
AcDbLine
 10
74.13454727860614
 20
891.1542513089152
 30
0.0
 11
74.77184680666017
 21
890.7752835509963
 31
0.0
  0
LINE
  5
B16
330
1E
100
AcDbEntity
  8
0
100
AcDbLine
 10
73.58688198650594
 20
891.4795907744416
 30
0.0
 11
73.7788671776525
 21
891.3655423576848
 31
0.0
  0
LINE
  5
B17
330
1E
100
AcDbEntity
  8
0
100
AcDbLine
 10
73.58688198650594
 20
891.4795907744416
 30
0.0
 11
74.05197207235369
 21
892.2620298531867
 31
0.0
  0
LINE
  5
B18
330
1E
100
AcDbEntity
  8
0
100
AcDbLine
 10
73.58688198650594
 20
891.4795907744416
 30
0.0
 11
74.13454727860614
 21
891.1542513089152
 31
0.0
  0
LINE
  5
B19
330
1E
100
AcDbEntity
  8
0
100
AcDbLine
 10
73.52556812319966
 20
891.5161949369021
 30
0.0
 11
73.58688198650594
 21
891.4795907744416
 31
0.0
  0
LINE
  5
B1A
330
1E
100
AcDbEntity
  8
0
100
AcDbLine
 10
73.57908151306725
 20
891.4847475771459
 30
0.0
 11
74.11638874605831
 21
892.3878904977216
 31
0.0
  0
LINE
  5
B1B
330
1E
100
AcDbEntity
  8
0
100
AcDbLine
 10
73.57908151306725
 20
891.4847475771459
 30
0.0
 11
74.11638874605831
 21
892.3878904977216
 31
0.0
  0
LINE
  5
B1C
330
1E
100
AcDbEntity
  8
0
100
AcDbLine
 10
68.16402636938892
 20
894.3208665875054
 30
0.0
 11
68.61375474748536
 21
895.0776719793706
 31
0.0
  0
LINE
  5
B1D
330
1E
100
AcDbEntity
  8
0
100
AcDbLine
 10
68.16402636938892
 20
894.3208665875054
 30
0.0
 11
68.47308683896148
 21
894.1376131123744
 31
0.0
  0
LINE
  5
B1E
330
1E
100
AcDbEntity
  8
0
100
AcDbLine
 10
67.54216556174981
 20
894.6905125477465
 30
0.0
 11
68.16402636938892
 21
894.3208665875054
 31
0.0
  0
LINE
  5
B1F
330
1E
100
AcDbEntity
  8
0
100
AcDbLine
 10
67.50277170210011
 20
895.0971732955718
 30
0.0
 11
67.79797360775683
 21
894.9215944674158
 31
0.0
  0
LINE
  5
B20
330
1E
100
AcDbEntity
  8
0
100
AcDbLine
 10
67.60861739913014
 20
895.0344302607371
 30
0.0
 11
68.14585722958804
 21
895.9374598865039
 31
0.0
  0
LINE
  5
B21
330
1E
100
AcDbEntity
  8
0
100
AcDbLine
 10
67.60861739913014
 20
895.0344302607371
 30
0.0
 11
67.79797360775683
 21
894.9215944674158
 31
0.0
  0
LINE
  5
B22
330
1E
100
AcDbEntity
  8
0
100
AcDbLine
 10
67.79797360775683
 20
894.9215944674158
 30
0.0
 11
68.33498178659005
 21
895.8250241416013
 31
0.0
  0
LINE
  5
B23
330
1E
100
AcDbEntity
  8
0
100
AcDbLine
 10
67.4338318567112
 20
895.1381524231068
 30
0.0
 11
67.50277170210011
 21
895.0971732955718
 31
0.0
  0
LINE
  5
B24
330
1E
100
AcDbEntity
  8
0
100
AcDbLine
 10
67.4338318567112
 20
895.1381524231068
 30
0.0
 11
67.50277170210011
 21
895.0971732955718
 31
0.0
  0
LINE
  5
B25
330
1E
100
AcDbEntity
  8
0
100
AcDbLine
 10
67.54828928610686
 20
894.6869770138404
 30
0.0
 11
67.64143553021233
 21
894.632219208835
 31
0.0
  0
LINE
  5
B26
330
1E
100
AcDbEntity
  8
0
100
AcDbLine
 10
67.64143553021233
 20
894.632219208835
 30
0.0
 11
68.07294813414626
 21
895.3576751112192
 31
0.0
  0
LINE
  5
B27
330
1E
100
AcDbEntity
  8
0
100
AcDbLine
 10
68.89935873021511
 20
894.8542583660962
 30
0.0
 11
69.76623103679526
 21
894.403075713498
 31
0.0
  0
LINE
  5
B28
330
1E
100
AcDbEntity
  8
0
100
AcDbLine
 10
66.96513735143913
 20
895.033866147561
 30
0.0
 11
67.54216556174981
 21
894.6905125477465
 31
0.0
  0
LINE
  5
B29
330
1E
100
AcDbEntity
  8
0
100
AcDbLine
 10
66.76079442660778
 20
895.1551095765429
 30
0.0
 11
66.96513735143913
 21
895.033866147561
 31
0.0
  0
LINE
  5
B2A
330
1E
100
AcDbEntity
  8
0
100
AcDbLine
 10
67.02449953863601
 20
895.3810605754126
 30
0.0
 11
67.56166983499202
 21
896.2847629861915
 31
0.0
  0
LINE
  5
B2B
330
1E
100
AcDbEntity
  8
0
100
AcDbLine
 10
67.02449953863601
 20
895.3810605754126
 30
0.0
 11
67.60861739913014
 21
895.0344302607371
 31
0.0
  0
LINE
  5
B2C
330
1E
100
AcDbEntity
  8
0
100
AcDbLine
 10
63.66614752956627
 20
897.3778956194703
 30
0.0
 11
64.20323396704617
 21
898.2814569512115
 31
0.0
  0
LINE
  5
B2D
330
1E
100
AcDbEntity
  8
0
100
AcDbLine
 10
63.60894505436426
 20
897.0292093323426
 30
0.0
 11
64.05945193163598
 21
897.7873247869091
 31
0.0
  0
LINE
  5
B2E
330
1E
100
AcDbEntity
  8
0
100
AcDbLine
 10
63.60894505436426
 20
897.0292093323426
 30
0.0
 11
63.74267010568826
 21
896.9501251958272
 31
0.0
  0
LINE
  5
B2F
330
1E
100
AcDbEntity
  8
0
100
AcDbLine
 10
64.00976098000706
 20
897.3991564627736
 30
0.0
 11
64.71513133885537
 21
897.0320310313184
 31
0.0
  0
LINE
  5
B30
330
1E
100
AcDbEntity
  8
0
100
AcDbLine
 10
63.74267010568826
 20
896.9501251958272
 30
0.0
 11
64.19739514478237
 21
897.7146056781251
 31
0.0
  0
LINE
  5
B31
330
1E
100
AcDbEntity
  8
0
100
AcDbLine
 10
65.51549265483038
 20
895.8960486477279
 30
0.0
 11
65.96899292222326
 21
896.6585349656803
 31
0.0
  0
LINE
  5
B32
330
1E
100
AcDbEntity
  8
0
100
AcDbLine
 10
65.51549265483038
 20
895.8960486477279
 30
0.0
 11
66.00353181856291
 21
895.6054609420979
 31
0.0
  0
LINE
  5
B33
330
1E
100
AcDbEntity
  8
0
100
AcDbLine
 10
66.39783634409406
 20
895.7535608446827
 30
0.0
 11
66.93228064029773
 21
896.6526771997434
 31
0.0
  0
LINE
  5
B34
330
1E
100
AcDbEntity
  8
0
100
AcDbLine
 10
66.39783634409406
 20
895.7535608446827
 30
0.0
 11
67.02449953863601
 21
895.3810605754126
 31
0.0
  0
LINE
  5
B35
330
1E
100
AcDbEntity
  8
0
100
AcDbLine
 10
66.10263443843729
 20
895.9291396728389
 30
0.0
 11
66.6229264006688
 21
896.8044470079004
 31
0.0
  0
LINE
  5
B36
330
1E
100
AcDbEntity
  8
0
100
AcDbLine
 10
66.10263443843729
 20
895.9291396728389
 30
0.0
 11
66.39783634409406
 21
895.7535608446827
 31
0.0
  0
LINE
  5
B37
330
1E
100
AcDbEntity
  8
0
100
AcDbLine
 10
64.86123988374209
 20
896.2849676643926
 30
0.0
 11
65.28919441415746
 21
897.0045030155484
 31
0.0
  0
LINE
  5
B38
330
1E
100
AcDbEntity
  8
0
100
AcDbLine
 10
64.86123988374209
 20
896.2849676643926
 30
0.0
 11
65.51549265483038
 21
895.8960486477279
 31
0.0
  0
LINE
  5
B39
330
1E
100
AcDbEntity
  8
0
100
AcDbLine
 10
64.42506105011574
 20
896.5438991516554
 30
0.0
 11
64.71513133885537
 21
897.0320310313184
 31
0.0
  0
LINE
  5
B3A
330
1E
100
AcDbEntity
  8
0
100
AcDbLine
 10
64.42506105011574
 20
896.5438991516554
 30
0.0
 11
64.83587068016277
 21
897.2352118599305
 31
0.0
  0
LINE
  5
B3B
330
1E
100
AcDbEntity
  8
0
100
AcDbLine
 10
64.42506105011574
 20
896.5438991516554
 30
0.0
 11
64.86123988374209
 21
896.2849676643926
 31
0.0
  0
LINE
  5
B3C
330
1E
100
AcDbEntity
  8
0
100
AcDbLine
 10
66.00353181856291
 20
895.6054609420979
 30
0.0
 11
66.17153753464669
 21
895.8881578070142
 31
0.0
  0
LINE
  5
B3D
330
1E
100
AcDbEntity
  8
0
100
AcDbLine
 10
66.02415929621128
 20
895.5933883630086
 30
0.0
 11
66.19217673058722
 21
895.8758821212283
 31
0.0
  0
LINE
  5
B3E
330
1E
100
AcDbEntity
  8
0
100
AcDbLine
 10
66.02302383872279
 20
895.5940529086483
 30
0.0
 11
66.07443946981812
 21
895.5633792953447
 31
0.0
  0
LINE
  5
B3F
330
1E
100
AcDbEntity
  8
0
100
AcDbLine
 10
66.58903665039066
 20
895.2571317129105
 30
0.0
 11
66.7571255556424
 21
895.5399926485396
 31
0.0
  0
LINE
  5
B40
330
1E
100
AcDbEntity
  8
0
100
AcDbLine
 10
66.58903665039066
 20
895.2571317129105
 30
0.0
 11
67.23671369291162
 21
894.8726623921691
 31
0.0
  0
LINE
  5
B41
330
1E
100
AcDbEntity
  8
0
100
AcDbLine
 10
66.07443946981812
 20
895.5633792953447
 30
0.0
 11
66.24240457926635
 21
895.8460078330107
 31
0.0
  0
LINE
  5
B42
330
1E
100
AcDbEntity
  8
0
100
AcDbLine
 10
66.07443946981812
 20
895.5633792953447
 30
0.0
 11
66.58903665039066
 21
895.2571317129105
 31
0.0
  0
LINE
  5
B43
330
1E
100
AcDbEntity
  8
0
100
AcDbLine
 10
67.11115790257702
 20
894.9471939044137
 30
0.0
 11
67.54828928610686
 21
894.6869770138404
 31
0.0
  0
LINE
  5
B44
330
1E
100
AcDbEntity
  8
0
100
AcDbLine
 10
67.23671369291162
 20
894.8726623921691
 30
0.0
 11
67.40485837122742
 21
895.1553460223271
 31
0.0
  0
LINE
  5
B45
330
1E
100
AcDbEntity
  8
0
100
AcDbLine
 10
67.23671369291162
 20
894.8726623921691
 30
0.0
 11
67.64143553021233
 21
894.632219208835
 31
0.0
  0
LINE
  5
B46
330
1E
100
AcDbEntity
  8
0
100
AcDbLine
 10
67.11115790257702
 20
894.9471939044137
 30
0.0
 11
67.54828928610686
 21
894.6869770138404
 31
0.0
  0
LINE
  5
B47
330
1E
100
AcDbEntity
  8
0
100
AcDbLine
 10
68.47308683896148
 20
894.1376131123744
 30
0.0
 11
68.93371244293291
 21
894.9120135821273
 31
0.0
  0
LINE
  5
B48
330
1E
100
AcDbEntity
  8
0
100
AcDbLine
 10
73.28170585378706
 20
891.6613690558538
 30
0.0
 11
73.52556812319966
 21
891.5161949369021
 31
0.0
  0
LINE
  5
B49
330
1E
100
AcDbEntity
  8
0
100
AcDbLine
 10
73.28170585378706
 20
891.6613690558538
 30
0.0
 11
73.52556812319966
 21
891.5161949369021
 31
0.0
  0
LINE
  5
B4A
330
1E
100
AcDbEntity
  8
0
100
AcDbLine
 10
73.28170585378706
 20
891.6613690558538
 30
0.0
 11
73.54262894467343
 21
891.506038426295
 31
0.0
  0
LINE
  5
B4B
330
1E
100
AcDbEntity
  8
0
100
AcDbLine
 10
73.13104160105746
 20
891.750853659839
 30
0.0
 11
73.28170585378706
 21
891.6613690558538
 31
0.0
  0
LINE
  5
B4C
330
1E
100
AcDbEntity
  8
0
100
AcDbLine
 10
73.13104160105746
 20
891.750853659839
 30
0.0
 11
73.28170585378706
 21
891.6613690558538
 31
0.0
  0
LINE
  5
B4D
330
1E
100
AcDbEntity
  8
0
100
AcDbLine
 10
73.13104160105746
 20
891.750853659839
 30
0.0
 11
73.66812144221643
 21
892.6544038943331
 31
0.0
  0
LINE
  5
B4E
330
1E
100
AcDbEntity
  8
0
100
AcDbLine
 10
73.13104160105746
 20
891.750853659839
 30
0.0
 11
73.57908151306725
 21
891.4847475771459
 31
0.0
  0
LINE
  5
B4F
330
1E
100
AcDbEntity
  8
0
100
AcDbLine
 10
72.4776272045101
 20
892.1389620421042
 30
0.0
 11
73.01487105092189
 21
893.0427881889922
 31
0.0
  0
LINE
  5
B50
330
1E
100
AcDbEntity
  8
0
100
AcDbLine
 10
72.4776272045101
 20
892.1389620421042
 30
0.0
 11
73.13104160105746
 21
891.750853659839
 31
0.0
  0
LINE
  5
B51
330
1E
100
AcDbEntity
  8
0
100
AcDbLine
 10
72.00022437428959
 20
892.4230822590855
 30
0.0
 11
72.42661400622314
 21
893.1404140641451
 31
0.0
  0
LINE
  5
B52
330
1E
100
AcDbEntity
  8
0
100
AcDbLine
 10
72.00022437428959
 20
892.4230822590855
 30
0.0
 11
72.4776272045101
 21
892.1389620421042
 31
0.0
  0
LINE
  5
B53
330
1E
100
AcDbEntity
  8
0
100
AcDbLine
 10
72.27841683237085
 20
892.2575195590985
 30
0.0
 11
72.4776272045101
 21
892.1389620421042
 31
0.0
  0
LINE
  5
B54
330
1E
100
AcDbEntity
  8
0
100
AcDbLine
 10
72.27841683237096
 20
892.2575195590985
 30
0.0
 11
72.4776272045101
 21
892.1389620421042
 31
0.0
  0
LINE
  5
B55
330
1E
100
AcDbEntity
  8
0
100
AcDbLine
 10
71.96386839847844
 20
892.4443989901392
 30
0.0
 11
72.33379047818829
 21
893.0667332433575
 31
0.0
  0
LINE
  5
B56
330
1E
100
AcDbEntity
  8
0
100
AcDbLine
 10
71.96386839847844
 20
892.4443989901392
 30
0.0
 11
72.38929085559153
 21
893.1601036795097
 31
0.0
  0
LINE
  5
B57
330
1E
100
AcDbEntity
  8
0
100
AcDbLine
 10
71.96386839847844
 20
892.4443989901392
 30
0.0
 11
72.27841683237096
 21
892.2575195590985
 31
0.0
  0
LINE
  5
B58
330
1E
100
AcDbEntity
  8
0
100
AcDbLine
 10
70.87084457657351
 20
893.0946015814729
 30
0.0
 11
71.12383706079492
 21
892.944006597877
 31
0.0
  0
LINE
  5
B59
330
1E
100
AcDbEntity
  8
0
100
AcDbLine
 10
71.04625708838966
 20
892.9905120586489
 30
0.0
 11
71.55026105683351
 21
893.8384174704237
 31
0.0
  0
LINE
  5
B5A
330
1E
100
AcDbEntity
  8
0
100
AcDbLine
 10
71.04625708838966
 20
892.9905120586489
 30
0.0
 11
71.12383706079492
 21
892.944006597877
 31
0.0
  0
LINE
  5
B5B
330
1E
100
AcDbEntity
  8
0
100
AcDbLine
 10
71.46545622809014
 20
893.5186767964363
 30
0.0
 11
72.33379047818829
 21
893.0667332433575
 31
0.0
  0
LINE
  5
B5C
330
1E
100
AcDbEntity
  8
0
100
AcDbLine
 10
71.12383706079492
 20
892.944006597877
 30
0.0
 11
71.62179511398239
 21
893.7816693542293
 31
0.0
  0
LINE
  5
B5D
330
1E
100
AcDbEntity
  8
0
100
AcDbLine
 10
70.52221736047363
 20
893.301476451411
 30
0.0
 11
70.87084457657351
 21
893.0946015814729
 31
0.0
  0
LINE
  5
B5E
330
1E
100
AcDbEntity
  8
0
100
AcDbLine
 10
70.52221736047363
 20
893.301476451411
 30
0.0
 11
70.87084457657351
 21
893.0946015814729
 31
0.0
  0
LINE
  5
B5F
330
1E
100
AcDbEntity
  8
0
100
AcDbLine
 10
70.52221736047363
 20
893.301476451411
 30
0.0
 11
71.01054454321377
 21
894.1229382016073
 31
0.0
  0
LINE
  5
B60
330
1E
100
AcDbEntity
  8
0
100
AcDbLine
 10
70.52221736047363
 20
893.301476451411
 30
0.0
 11
71.04625708838966
 21
892.9905120586489
 31
0.0
  0
LINE
  5
B61
330
1E
100
AcDbEntity
  8
0
100
AcDbLine
 10
69.87212178691277
 20
893.6884035572543
 30
0.0
 11
70.340404588735
 21
894.4762138658358
 31
0.0
  0
LINE
  5
B62
330
1E
100
AcDbEntity
  8
0
100
AcDbLine
 10
69.87212178691277
 20
893.6884035572543
 30
0.0
 11
70.52221736047363
 21
893.301476451411
 31
0.0
  0
LINE
  5
B63
330
1E
100
AcDbEntity
  8
0
100
AcDbLine
 10
70.08181569544001
 20
893.5634175391301
 30
0.0
 11
70.2253756908359
 21
893.47815214772
 31
0.0
  0
LINE
  5
B64
330
1E
100
AcDbEntity
  8
0
100
AcDbLine
 10
70.08181569544001
 20
893.5634175391301
 30
0.0
 11
70.2253756908359
 21
893.47815214772
 31
0.0
  0
LINE
  5
B65
330
1E
100
AcDbEntity
  8
0
100
AcDbLine
 10
69.47993717607374
 20
893.9218533184902
 30
0.0
 11
69.76623103679526
 21
894.403075713498
 31
0.0
  0
LINE
  5
B66
330
1E
100
AcDbEntity
  8
0
100
AcDbLine
 10
69.47993717607374
 20
893.9218533184902
 30
0.0
 11
69.9364382009295
 21
894.689171611489
 31
0.0
  0
LINE
  5
B67
330
1E
100
AcDbEntity
  8
0
100
AcDbLine
 10
69.47993717607374
 20
893.9218533184902
 30
0.0
 11
69.55751714847906
 21
893.8753478577185
 31
0.0
  0
LINE
  5
B68
330
1E
100
AcDbEntity
  8
0
100
AcDbLine
 10
69.47993717607374
 20
893.9218533184902
 30
0.0
 11
69.87212178691277
 21
893.6884035572543
 31
0.0
  0
LINE
  5
B69
330
1E
100
AcDbEntity
  8
0
100
AcDbLine
 10
69.55751714847906
 20
893.8753478577185
 30
0.0
 11
70.08181569544001
 21
893.5634175391301
 31
0.0
  0
LINE
  5
B6A
330
1E
100
AcDbEntity
  8
0
100
AcDbLine
 10
70.87084457657351
 20
893.0946015814729
 30
0.0
 11
71.12383706079492
 21
892.944006597877
 31
0.0
  0
LINE
  5
B6B
330
1E
100
AcDbEntity
  8
0
100
AcDbLine
 10
73.7958341130751
 20
891.355441272621
 30
0.0
 11
73.93374990506083
 21
891.2734301676854
 31
0.0
  0
LINE
  5
B6C
330
1E
100
AcDbEntity
  8
0
100
AcDbLine
 10
73.7958341130751
 20
891.355441272621
 30
0.0
 11
74.43313364112919
 21
890.9764735147021
 31
0.0
  0
LINE
  5
B6D
330
1E
100
AcDbEntity
  8
0
100
AcDbLine
 10
73.93368540322365
 20
891.2733216537448
 30
0.0
 11
73.98770923978202
 21
891.241343453044
 31
0.0
  0
LINE
  5
B6E
330
1E
100
AcDbEntity
  8
0
100
AcDbLine
 10
73.93368540322365
 20
891.2733216537448
 30
0.0
 11
73.98770923978202
 21
891.241343453044
 31
0.0
  0
LINE
  5
B6F
330
1E
100
AcDbEntity
  8
0
100
AcDbLine
 10
73.98770923978202
 20
891.241343453044
 30
0.0
 11
74.43313364112919
 21
890.9764735147021
 31
0.0
  0
LINE
  5
B70
330
1E
100
AcDbEntity
  8
0
100
AcDbLine
 10
73.98770923978202
 20
891.241343453044
 30
0.0
 11
74.43313364112919
 21
890.9764735147021
 31
0.0
  0
LINE
  5
B71
330
1E
100
AcDbEntity
  8
0
100
AcDbLine
 10
74.77184680666017
 20
890.7752835509963
 30
0.0
 11
75.27820365321708
 21
891.6271473008199
 31
0.0
  0
LINE
  5
B72
330
1E
100
AcDbEntity
  8
0
100
AcDbLine
 10
74.77184680666017
 20
890.7752835509963
 30
0.0
 11
75.13041470917852
 21
890.5618139529652
 31
0.0
  0
LINE
  5
B73
330
1E
100
AcDbEntity
  8
0
100
AcDbLine
 10
75.13041470917852
 20
890.5618139529652
 30
0.0
 11
75.64941682643723
 21
891.4349513318335
 31
0.0
  0
LINE
  5
B74
330
1E
100
AcDbEntity
  8
0
100
AcDbLine
 10
74.79321606626673
 20
890.7623744556035
 30
0.0
 11
74.95449725646802
 21
890.6665445427726
 31
0.0
  0
LINE
  5
B75
330
1E
100
AcDbEntity
  8
0
100
AcDbLine
 10
75.1305043705247
 20
890.5619647937234
 30
0.0
 11
75.39483576658802
 21
890.4049046020697
 31
0.0
  0
LINE
  5
B76
330
1E
100
AcDbEntity
  8
0
100
AcDbLine
 10
76.14660788774734
 20
891.0822690268171
 30
0.0
 11
77.47902532163459
 21
890.3887832300902
 31
0.0
  0
LINE
  5
B77
330
1E
100
AcDbEntity
  8
0
100
AcDbLine
 10
75.39483576658802
 20
890.4049046020697
 30
0.0
 11
75.88263343121457
 21
891.2255455207603
 31
0.0
  0
LINE
  5
B78
330
1E
100
AcDbEntity
  8
0
100
AcDbLine
 10
75.39483576658802
 20
890.4049046020697
 30
0.0
 11
75.65274672930996
 21
890.2514272574618
 31
0.0
  0
LINE
  5
B79
330
1E
100
AcDbEntity
  8
0
100
AcDbLine
 10
75.65274672930996
 20
890.2514272574618
 30
0.0
 11
76.14883406474433
 21
891.0860142106688
 31
0.0
  0
LINE
  5
B7A
330
1E
100
AcDbEntity
  8
0
100
AcDbLine
 10
77.47902532163459
 20
890.3887832300902
 30
0.0
 11
79.00653457477375
 21
890.0226562417726
 31
0.0
  0
LINE
  5
B7B
330
1E
100
AcDbEntity
  8
0
100
AcDbLine
 10
79.00653457477375
 20
890.0226562417726
 30
0.0
 11
81.39357449095603
 21
889.1455820553138
 31
0.0
  0
LINE
  5
B7C
330
1E
100
AcDbEntity
  8
0
100
AcDbLine
 10
81.39357449095603
 20
889.1455820553138
 30
0.0
 11
84.25745825332029
 21
889.0702425858021
 31
0.0
  0
LINE
  5
B7D
330
1E
100
AcDbEntity
  8
0
100
AcDbLine
 10
74.66297350140831
 20
890.8399376078659
 30
0.0
 11
74.79321606626673
 21
890.7623744556035
 31
0.0
  0
LINE
  5
B7E
330
1E
100
AcDbEntity
  8
0
100
AcDbLine
 10
74.6629735014082
 20
890.8399376078659
 30
0.0
 11
74.79321606626673
 21
890.7623744556035
 31
0.0
  0
LINE
  5
B7F
330
1E
100
AcDbEntity
  8
0
100
AcDbLine
 10
16.68078238786597
 20
937.6576889548523
 30
0.0
 11
19.78273795683304
 21
935.8137017943345
 31
0.0
  0
LINE
  5
B80
330
1E
100
AcDbEntity
  8
0
100
AcDbLine
 10
35.64344104592965
 20
950.3355746404768
 30
0.0
 11
38.22705058423611
 21
949.5080652969813
 31
0.0
  0
LINE
  5
B81
330
1E
100
AcDbEntity
  8
0
100
AcDbLine
 10
43.69138119080957
 20
947.5351113512278
 30
0.0
 11
51.59736632005331
 21
944.3166649719673
 31
0.0
  0
LINE
  5
B82
330
1E
100
AcDbEntity
  8
0
100
AcDbLine
 10
38.22705058423611
 20
949.5080652969813
 30
0.0
 11
43.69138119080957
 21
947.5351113512278
 31
0.0
  0
LINE
  5
B83
330
1E
100
AcDbEntity
  8
0
100
AcDbLine
 10
32.72924330420454
 20
951.2763819970187
 30
0.0
 11
35.64344104592965
 21
950.3355746404768
 31
0.0
  0
LINE
  5
B84
330
1E
100
AcDbEntity
  8
0
100
AcDbLine
 10
27.16824351044221
 20
952.8300285635761
 30
0.0
 11
32.72924330420454
 21
951.2763819970187
 31
0.0
  0
LINE
  5
B85
330
1E
100
AcDbEntity
  8
0
100
AcDbLine
 10
15.92121505108138
 20
955.1822328137062
 30
0.0
 11
21.5525228810834
 21
954.141251966736
 31
0.0
  0
LINE
  5
B86
330
1E
100
AcDbEntity
  8
0
100
AcDbLine
 10
21.5525228810834
 20
954.141251966736
 30
0.0
 11
27.16824351044221
 21
952.8300285635761
 31
0.0
  0
LINE
  5
B87
330
1E
100
AcDbEntity
  8
0
100
AcDbLine
 10
10.21763998371307
 20
955.948136496223
 30
0.0
 11
15.92121505108138
 21
955.1822328137062
 31
0.0
  0
LINE
  5
B88
330
1E
100
AcDbEntity
  8
0
100
AcDbLine
 10
9.822464826532495
 20
955.9354244882246
 30
0.0
 11
10.21763998371307
 21
955.948136496223
 31
0.0
  0
LINE
  5
B89
330
1E
100
AcDbEntity
  8
0
100
AcDbLine
 10
9.474930956022262
 20
955.7294579646141
 30
0.0
 11
9.822464826532495
 21
955.9354244882246
 31
0.0
  0
LINE
  5
B8A
330
1E
100
AcDbEntity
  8
0
100
AcDbLine
 10
9.222932164611904
 20
955.4103629801225
 30
0.0
 11
9.474930956022262
 21
955.7294579646141
 31
0.0
  0
LINE
  5
B8B
330
1E
100
AcDbEntity
  8
0
100
AcDbLine
 10
9.222932164611904
 20
955.4103629801225
 30
0.0
 11
9.297452133075807
 21
955.3640728699463
 31
0.0
  0
LINE
  5
B8C
330
1E
100
AcDbEntity
  8
0
100
AcDbLine
 10
9.132180925792056
 20
955.4554097630562
 30
0.0
 11
9.20837392686343
 21
955.4106032167963
 31
0.0
  0
LINE
  5
B8D
330
1E
100
AcDbEntity
  8
0
100
AcDbLine
 10
9.132180925792056
 20
955.4554097630562
 30
0.0
 11
9.222932164611904
 21
955.4103629801225
 31
0.0
  0
LINE
  5
B8E
330
1E
100
AcDbEntity
  8
0
100
AcDbLine
 10
9.20837392686343
 20
955.4106032167963
 30
0.0
 11
9.474023445618513
 21
955.2498819264046
 31
0.0
  0
LINE
  5
B8F
330
1E
100
AcDbEntity
  8
0
100
AcDbLine
 10
13.87064426768938
 20
939.328296253271
 30
0.0
 11
16.68078238786597
 21
937.6576889548523
 31
0.0
  0
LINE
  5
B90
330
1E
100
AcDbEntity
  8
0
100
AcDbLine
 10
16.23090981359746
 20
937.6520616179057
 30
0.0
 11
25.17095674133463
 21
932.3378382569753
 31
0.0
  0
LINE
  5
B91
330
1E
100
AcDbEntity
  8
0
100
AcDbLine
 10
26.73446915546861
 20
931.6800929180722
 30
0.0
 11
30.5175909239918
 21
929.4305868201638
 31
0.0
  0
LINE
  5
B92
330
1E
100
AcDbEntity
  8
0
100
AcDbLine
 10
30.5175909239918
 20
929.4305868201638
 30
0.0
 11
34.45948123805976
 21
927.0869661700038
 31
0.0
  0
LINE
  5
B93
330
1E
100
AcDbEntity
  8
0
100
AcDbLine
 10
19.78273795683304
 20
935.8137017943345
 30
0.0
 11
23.143442863063
 21
933.81542665481
 31
0.0
  0
LINE
  5
B94
330
1E
100
AcDbEntity
  8
0
100
AcDbLine
 10
23.143442863063
 20
933.81542665481
 30
0.0
 11
26.73446915546861
 21
931.6800929180722
 31
0.0
  0
LINE
  5
B95
330
1E
100
AcDbEntity
  8
0
100
AcDbLine
 10
25.17095674133463
 20
932.3378382569753
 30
0.0
 11
35.57115714790711
 21
926.1538954537849
 31
0.0
  0
LINE
  5
B96
330
1E
100
AcDbEntity
  8
0
100
AcDbLine
 10
4.189159822652868
 20
945.0836527096964
 30
0.0
 11
4.394727492355627
 21
944.961702173933
 31
0.0
  0
LINE
  5
B97
330
1E
100
AcDbEntity
  8
0
100
AcDbLine
 10
4.105867213135354
 20
945.2476842347145
 30
0.0
 11
4.088257559805697
 21
945.4293154547995
 31
0.0
  0
LINE
  5
B98
330
1E
100
AcDbEntity
  8
0
100
AcDbLine
 10
4.105867213135354
 20
945.2476842347145
 30
0.0
 11
4.189159822652868
 21
945.0836527096964
 31
0.0
  0
LINE
  5
B99
330
1E
100
AcDbEntity
  8
0
100
AcDbLine
 10
4.140023679649061
 20
945.6109008860332
 30
0.0
 11
9.130766712229615
 21
955.4529602733136
 31
0.0
  0
LINE
  5
B9A
330
1E
100
AcDbEntity
  8
0
100
AcDbLine
 10
4.140023679649061
 20
945.6109008860332
 30
0.0
 11
9.132180925792056
 21
955.4554097630562
 31
0.0
  0
LINE
  5
B9B
330
1E
100
AcDbEntity
  8
0
100
AcDbLine
 10
4.140730786430253
 20
945.6121256309048
 30
0.0
 11
9.130766712229615
 21
955.4529602733136
 31
0.0
  0
LINE
  5
B9C
330
1E
100
AcDbEntity
  8
0
100
AcDbLine
 10
4.088257559805697
 20
945.4293154547995
 30
0.0
 11
4.140023679649061
 21
945.6109008860332
 31
0.0
  0
LINE
  5
B9D
330
1E
100
AcDbEntity
  8
0
100
AcDbLine
 10
3.595922748077555
 20
945.1648793884988
 30
0.0
 11
5.142743335033685
 21
944.2448777190609
 31
0.0
  0
LINE
  5
B9E
330
1E
100
AcDbEntity
  8
0
100
AcDbLine
 10
3.595922748077555
 20
945.1648793884988
 30
0.0
 11
4.177762841839921
 21
945.1060972477435
 31
0.0
  0
LINE
  5
B9F
330
1E
100
AcDbEntity
  8
0
100
AcDbLine
 10
5.008015085894953
 20
944.5970059611605
 30
0.0
 11
6.025089549611607
 21
943.9926513175482
 31
0.0
  0
LINE
  5
BA0
330
1E
100
AcDbEntity
  8
0
100
AcDbLine
 10
11.37681849373092
 20
940.8113815539671
 30
0.0
 11
13.87064426768938
 21
939.328296253271
 31
0.0
  0
LINE
  5
BA1
330
1E
100
AcDbEntity
  8
0
100
AcDbLine
 10
9.224317601508744
 20
942.0908708696641
 30
0.0
 11
11.37681849373092
 21
940.8113815539671
 31
0.0
  0
LINE
  5
BA2
330
1E
100
AcDbEntity
  8
0
100
AcDbLine
 10
9.354405690207101
 20
941.7406051288633
 30
0.0
 11
16.23090981359746
 21
937.6520616179057
 31
0.0
  0
LINE
  5
BA3
330
1E
100
AcDbEntity
  8
0
100
AcDbLine
 10
7.433962253836682
 20
943.1547433850822
 30
0.0
 11
9.224317601508744
 21
942.0908708696641
 31
0.0
  0
LINE
  5
BA4
330
1E
100
AcDbEntity
  8
0
100
AcDbLine
 10
6.025089549611607
 20
943.9926513175482
 30
0.0
 11
7.433962253836682
 21
943.1547433850822
 31
0.0
  0
LINE
  5
BA5
330
1E
100
AcDbEntity
  8
0
100
AcDbLine
 10
5.142743335033685
 20
944.2448777190609
 30
0.0
 11
9.354405690207101
 21
941.7406051288633
 31
0.0
  0
LINE
  5
BA6
330
1E
100
AcDbEntity
  8
0
100
AcDbLine
 10
10.94663140204625
 20
929.563507748193
 30
0.0
 11
11.75820276940686
 21
929.0167213557356
 31
0.0
  0
LINE
  5
BA7
330
1E
100
AcDbEntity
  8
0
100
AcDbLine
 10
13.34714807028717
 20
927.9461886782394
 30
0.0
 11
14.15749825486568
 21
927.4002250429118
 31
0.0
  0
LINE
  5
BA8
330
1E
100
AcDbEntity
  8
0
100
AcDbLine
 10
11.4942298115024
 20
928.3957163046759
 30
0.0
 11
11.81939539635862
 21
928.2029183220414
 31
0.0
  0
LINE
  5
BA9
330
1E
100
AcDbEntity
  8
0
100
AcDbLine
 10
11.4942298115024
 20
928.3957163046759
 30
0.0
 11
11.81939539635857
 21
928.2029183220412
 31
0.0
  0
LINE
  5
BAA
330
1E
100
AcDbEntity
  8
0
100
AcDbLine
 10
11.4942298115024
 20
928.3957163046759
 30
0.0
 11
11.99876609349996
 21
929.2441557908471
 31
0.0
  0
LINE
  5
BAB
330
1E
100
AcDbEntity
  8
0
100
AcDbLine
 10
11.4942298115024
 20
928.3957163046759
 30
0.0
 11
12.01855931716625
 21
928.0848295576275
 31
0.0
  0
LINE
  5
BAC
330
1E
100
AcDbEntity
  8
0
100
AcDbLine
 10
12.01855931716625
 20
928.0848295576275
 30
0.0
 11
12.50705439550517
 21
928.9055761477634
 31
0.0
  0
LINE
  5
BAD
330
1E
100
AcDbEntity
  8
0
100
AcDbLine
 10
12.01855931716625
 20
928.0848295576275
 30
0.0
 11
12.66884807589247
 21
927.6979542155928
 31
0.0
  0
LINE
  5
BAE
330
1E
100
AcDbEntity
  8
0
100
AcDbLine
 10
11.81939539635868
 20
928.2029183220414
 30
0.0
 11
12.13925685194482
 21
928.0130231494378
 31
0.0
  0
LINE
  5
BAF
330
1E
100
AcDbEntity
  8
0
100
AcDbLine
 10
11.81939539635857
 20
928.2029183220412
 30
0.0
 11
12.13925685194493
 21
928.0130231494378
 31
0.0
  0
LINE
  5
BB0
330
1E
100
AcDbEntity
  8
0
100
AcDbLine
 10
12.13925685194482
 20
928.0130231494378
 30
0.0
 11
12.66884807589247
 21
927.6979542155928
 31
0.0
  0
LINE
  5
BB1
330
1E
100
AcDbEntity
  8
0
100
AcDbLine
 10
12.13925685194482
 20
928.0130231494378
 30
0.0
 11
12.66884807589247
 21
927.6979542155928
 31
0.0
  0
LINE
  5
BB2
330
1E
100
AcDbEntity
  8
0
100
AcDbLine
 10
11.41655324651446
 20
928.4421958835434
 30
0.0
 11
11.75820276940686
 21
929.0167213557356
 31
0.0
  0
LINE
  5
BB3
330
1E
100
AcDbEntity
  8
0
100
AcDbLine
 10
11.41655324651446
 20
928.4421958835434
 30
0.0
 11
11.75820276940686
 21
929.0167213557356
 31
0.0
  0
LINE
  5
BB4
330
1E
100
AcDbEntity
  8
0
100
AcDbLine
 10
11.41655324651446
 20
928.4421958835434
 30
0.0
 11
11.91471841512373
 21
929.2799215630713
 31
0.0
  0
LINE
  5
BB5
330
1E
100
AcDbEntity
  8
0
100
AcDbLine
 10
11.41655324651446
 20
928.4421958835434
 30
0.0
 11
11.4942298115024
 21
928.3957163046759
 31
0.0
  0
LINE
  5
BB6
330
1E
100
AcDbEntity
  8
0
100
AcDbLine
 10
12.66884807589247
 20
927.6979542155928
 30
0.0
 11
13.13703337061383
 21
928.4859362392696
 31
0.0
  0
LINE
  5
BB7
330
1E
100
AcDbEntity
  8
0
100
AcDbLine
 10
12.66884807589247
 20
927.6979542155928
 30
0.0
 11
13.06064631640089
 21
927.4644009267388
 31
0.0
  0
LINE
  5
BB8
330
1E
100
AcDbEntity
  8
0
100
AcDbLine
 10
13.06064631640089
 20
927.4644009267388
 30
0.0
 11
13.51743378169351
 21
928.2325449357436
 31
0.0
  0
LINE
  5
BB9
330
1E
100
AcDbEntity
  8
0
100
AcDbLine
 10
14.5629948397821
 20
926.1887713118843
 30
0.0
 11
14.99421058586779
 21
926.9145471907316
 31
0.0
  0
LINE
  5
BBA
330
1E
100
AcDbEntity
  8
0
100
AcDbLine
 10
14.5629948397821
 20
926.1887713118843
 30
0.0
 11
14.99421058586779
 21
926.9145471907316
 31
0.0
  0
LINE
  5
BBB
330
1E
100
AcDbEntity
  8
0
100
AcDbLine
 10
14.5629948397821
 20
926.1887713118843
 30
0.0
 11
14.96800645483074
 21
925.9484057742637
 31
0.0
  0
LINE
  5
BBC
330
1E
100
AcDbEntity
  8
0
100
AcDbLine
 10
14.96800645483074
 20
925.9484057742637
 30
0.0
 11
15.13595952968637
 21
926.2310862923447
 31
0.0
  0
LINE
  5
BBD
330
1E
100
AcDbEntity
  8
0
100
AcDbLine
 10
14.96800645483074
 20
925.9484057742637
 30
0.0
 11
15.61584572381417
 21
925.5629446457914
 31
0.0
  0
LINE
  5
BBE
330
1E
100
AcDbEntity
  8
0
100
AcDbLine
 10
14.74270647730037
 20
926.4646856597181
 30
0.0
 11
15.2799588399373
 21
927.3681412381646
 31
0.0
  0
LINE
  5
BBF
330
1E
100
AcDbEntity
  8
0
100
AcDbLine
 10
14.74270647730037
 20
926.4646856597181
 30
0.0
 11
14.93209364463001
 21
926.3528934379365
 31
0.0
  0
LINE
  5
BC0
330
1E
100
AcDbEntity
  8
0
100
AcDbLine
 10
14.74270647730037
 20
926.4646856597181
 30
0.0
 11
15.03819816070495
 21
926.2891844772754
 31
0.0
  0
LINE
  5
BC1
330
1E
100
AcDbEntity
  8
0
100
AcDbLine
 10
14.93209364463001
 20
926.3528934379365
 30
0.0
 11
15.46899406818329
 21
927.2557370941234
 31
0.0
  0
LINE
  5
BC2
330
1E
100
AcDbEntity
  8
0
100
AcDbLine
 10
14.93209364463001
 20
926.3528934379365
 30
0.0
 11
15.51598736125589
 21
926.0051677879124
 31
0.0
  0
LINE
  5
BC3
330
1E
100
AcDbEntity
  8
0
100
AcDbLine
 10
15.03819816070495
 20
926.2891844772754
 30
0.0
 11
15.45695634818633
 21
926.04032246899
 31
0.0
  0
LINE
  5
BC4
330
1E
100
AcDbEntity
  8
0
100
AcDbLine
 10
15.03819816070495
 20
926.2891844772754
 30
0.0
 11
15.45695634818633
 21
926.04032246899
 31
0.0
  0
LINE
  5
BC5
330
1E
100
AcDbEntity
  8
0
100
AcDbLine
 10
14.66271681245501
 20
926.1295638109556
 30
0.0
 11
15.23900324080756
 21
925.7870467274448
 31
0.0
  0
LINE
  5
BC6
330
1E
100
AcDbEntity
  8
0
100
AcDbLine
 10
15.61584572381417
 20
925.5629446457914
 30
0.0
 11
15.79488879580941
 21
925.4567328925514
 31
0.0
  0
LINE
  5
BC7
330
1E
100
AcDbEntity
  8
0
100
AcDbLine
 10
15.61584572381417
 20
925.5629446457914
 30
0.0
 11
15.79488879580941
 21
925.4567328925514
 31
0.0
  0
LINE
  5
BC8
330
1E
100
AcDbEntity
  8
0
100
AcDbLine
 10
15.61584572381417
 20
925.5629446457914
 30
0.0
 11
15.78393561437479
 21
925.8458554373252
 31
0.0
  0
LINE
  5
BC9
330
1E
100
AcDbEntity
  8
0
100
AcDbLine
 10
15.61584572381417
 20
925.5629446457914
 30
0.0
 11
16.13037727050692
 21
925.2577147529926
 31
0.0
  0
LINE
  5
BCA
330
1E
100
AcDbEntity
  8
0
100
AcDbLine
 10
15.81896390377414
 20
925.4424083235905
 30
0.0
 11
16.22300959299662
 21
925.2017839669246
 31
0.0
  0
LINE
  5
BCB
330
1E
100
AcDbEntity
  8
0
100
AcDbLine
 10
16.14274714838063
 20
925.6326934005466
 30
0.0
 11
16.67737398633391
 21
926.5309484162122
 31
0.0
  0
LINE
  5
BCC
330
1E
100
AcDbEntity
  8
0
100
AcDbLine
 10
16.14274714838063
 20
925.6326934005466
 30
0.0
 11
16.43823883178515
 21
925.4571922181041
 31
0.0
  0
LINE
  5
BCD
330
1E
100
AcDbEntity
  8
0
100
AcDbLine
 10
15.72398896091738
 20
925.8815554088217
 30
0.0
 11
16.24885166445551
 21
925.5689844398856
 31
0.0
  0
LINE
  5
BCE
330
1E
100
AcDbEntity
  8
0
100
AcDbLine
 10
15.72398896091738
 20
925.8815554088217
 30
0.0
 11
16.24885166445551
 21
925.5689844398856
 31
0.0
  0
LINE
  5
BCF
330
1E
100
AcDbEntity
  8
0
100
AcDbLine
 10
16.24885166445551
 20
925.5689844398856
 30
0.0
 11
16.43823883178515
 21
925.4571922181041
 31
0.0
  0
LINE
  5
BD0
330
1E
100
AcDbEntity
  8
0
100
AcDbLine
 10
15.51598736125589
 20
926.0051677879124
 30
0.0
 11
16.05345900005312
 21
926.9082025049415
 31
0.0
  0
LINE
  5
BD1
330
1E
100
AcDbEntity
  8
0
100
AcDbLine
 10
15.51598736125589
 20
926.0051677879124
 30
0.0
 11
16.14274714838063
 21
925.6326934005466
 31
0.0
  0
LINE
  5
BD2
330
1E
100
AcDbEntity
  8
0
100
AcDbLine
 10
15.23900324080756
 20
925.7870467274448
 30
0.0
 11
15.44360498468398
 21
925.6648373726365
 31
0.0
  0
LINE
  5
BD3
330
1E
100
AcDbEntity
  8
0
100
AcDbLine
 10
15.13438228864902
 20
925.8490826554982
 30
0.0
 11
15.44360498468398
 21
925.6648373726365
 31
0.0
  0
LINE
  5
BD4
330
1E
100
AcDbEntity
  8
0
100
AcDbLine
 10
15.44386398418288
 20
925.6652729216595
 30
0.0
 11
15.61584572381417
 21
925.5629446457914
 31
0.0
  0
LINE
  5
BD5
330
1E
100
AcDbEntity
  8
0
100
AcDbLine
 10
14.42741812845236
 20
926.2694298499845
 30
0.0
 11
14.51252148100997
 21
926.2187286157393
 31
0.0
  0
LINE
  5
BD6
330
1E
100
AcDbEntity
  8
0
100
AcDbLine
 10
13.73163330878088
 20
926.6834550540584
 30
0.0
 11
14.15749825486568
 21
927.4002250429118
 31
0.0
  0
LINE
  5
BD7
330
1E
100
AcDbEntity
  8
0
100
AcDbLine
 10
13.73163330878088
 20
926.6834550540584
 30
0.0
 11
14.15749825486568
 21
927.4002250429118
 31
0.0
  0
LINE
  5
BD8
330
1E
100
AcDbEntity
  8
0
100
AcDbLine
 10
13.73163330878088
 20
926.6834550540584
 30
0.0
 11
14.19166565384034
 21
927.4577319272124
 31
0.0
  0
LINE
  5
BD9
330
1E
100
AcDbEntity
  8
0
100
AcDbLine
 10
13.73163330878088
 20
926.6834550540584
 30
0.0
 11
14.04085600481596
 21
926.4992097711967
 31
0.0
  0
LINE
  5
BDA
330
1E
100
AcDbEntity
  8
0
100
AcDbLine
 10
14.04085600481596
 20
926.4992097711967
 30
0.0
 11
14.42741812845236
 21
926.2694298499845
 31
0.0
  0
LINE
  5
BDB
330
1E
100
AcDbEntity
  8
0
100
AcDbLine
 10
14.04085600481596
 20
926.4992097711967
 30
0.0
 11
14.42741812845236
 21
926.2694298499845
 31
0.0
  0
LINE
  5
BDC
330
1E
100
AcDbEntity
  8
0
100
AcDbLine
 10
14.04085600481596
 20
926.4992097711967
 30
0.0
 11
14.49027560047466
 21
927.2556244081194
 31
0.0
  0
LINE
  5
BDD
330
1E
100
AcDbEntity
  8
0
100
AcDbLine
 10
14.04085600481596
 20
926.4992097711967
 30
0.0
 11
14.56302520068732
 21
926.188822412088
 31
0.0
  0
LINE
  5
BDE
330
1E
100
AcDbEntity
  8
0
100
AcDbLine
 10
14.51252148100997
 20
926.2187286157393
 30
0.0
 11
15.13438228864902
 21
925.8490826554982
 31
0.0
  0
LINE
  5
BDF
330
1E
100
AcDbEntity
  8
0
100
AcDbLine
 10
8.997954547801214
 20
929.8802158189342
 30
0.0
 11
9.13746899432806
 21
929.79728294566
 31
0.0
  0
LINE
  5
BE0
330
1E
100
AcDbEntity
  8
0
100
AcDbLine
 10
8.997954547801214
 20
929.8802158189342
 30
0.0
 11
9.137468994327832
 21
929.7972829456611
 31
0.0
  0
LINE
  5
BE1
330
1E
100
AcDbEntity
  8
0
100
AcDbLine
 10
8.962178127485742
 20
929.901687841415
 30
0.0
 11
9.498960210047584
 21
930.8051220937491
 31
0.0
  0
LINE
  5
BE2
330
1E
100
AcDbEntity
  8
0
100
AcDbLine
 10
8.962178127485742
 20
929.901687841415
 30
0.0
 11
9.409348706251876
 21
929.6353488215814
 31
0.0
  0
LINE
  5
BE3
330
1E
100
AcDbEntity
  8
0
100
AcDbLine
 10
8.953604913386016
 20
929.9066375888832
 30
0.0
 11
9.418469333355687
 21
930.68836398536
 31
0.0
  0
LINE
  5
BE4
330
1E
100
AcDbEntity
  8
0
100
AcDbLine
 10
9.409348706251876
 20
929.6353488215814
 30
0.0
 11
9.94673335015176
 21
930.5390268471565
 31
0.0
  0
LINE
  5
BE5
330
1E
100
AcDbEntity
  8
0
100
AcDbLine
 10
9.409348706251876
 20
929.6353488215814
 30
0.0
 11
9.94673335015176
 21
930.5390268471565
 31
0.0
  0
LINE
  5
BE6
330
1E
100
AcDbEntity
  8
0
100
AcDbLine
 10
9.409348706251876
 20
929.6353488215814
 30
0.0
 11
10.06305288054716
 21
929.2473180850295
 31
0.0
  0
LINE
  5
BE7
330
1E
100
AcDbEntity
  8
0
100
AcDbLine
 10
10.06305288054716
 20
929.2473180850295
 30
0.0
 11
10.40132763454818
 21
929.046234268954
 31
0.0
  0
LINE
  5
BE8
330
1E
100
AcDbEntity
  8
0
100
AcDbLine
 10
10.06305288054716
 20
929.2473180850295
 30
0.0
 11
10.40132763454823
 21
929.046234268954
 31
0.0
  0
LINE
  5
BE9
330
1E
100
AcDbEntity
  8
0
100
AcDbLine
 10
10.06305288054716
 20
929.2473180850295
 30
0.0
 11
10.60059038125115
 21
930.1504634601558
 31
0.0
  0
LINE
  5
BEA
330
1E
100
AcDbEntity
  8
0
100
AcDbLine
 10
10.06305288054716
 20
929.2473180850295
 30
0.0
 11
10.54084208109816
 21
928.9633013956663
 31
0.0
  0
LINE
  5
BEB
330
1E
100
AcDbEntity
  8
0
100
AcDbLine
 10
10.54084208109816
 20
928.9633013956663
 30
0.0
 11
10.9667574323613
 21
929.6801407415129
 31
0.0
  0
LINE
  5
BEC
330
1E
100
AcDbEntity
  8
0
100
AcDbLine
 10
10.54084208109816
 20
928.9633013956663
 30
0.0
 11
10.9667574323613
 21
929.6801407415129
 31
0.0
  0
LINE
  5
BED
330
1E
100
AcDbEntity
  8
0
100
AcDbLine
 10
10.57661850141357
 20
928.9418293731856
 30
0.0
 11
11.00206273502556
 21
929.6566408820709
 31
0.0
  0
LINE
  5
BEE
330
1E
100
AcDbEntity
  8
0
100
AcDbLine
 10
10.40132763454818
 20
929.046234268954
 30
0.0
 11
10.57661850141357
 21
928.9418293731856
 31
0.0
  0
LINE
  5
BEF
330
1E
100
AcDbEntity
  8
0
100
AcDbLine
 10
10.40132763454823
 20
929.046234268954
 30
0.0
 11
10.57661850141357
 21
928.9418293731856
 31
0.0
  0
LINE
  5
BF0
330
1E
100
AcDbEntity
  8
0
100
AcDbLine
 10
9.13746899432806
 20
929.79728294566
 30
0.0
 11
9.409348706251876
 21
929.6353488215814
 31
0.0
  0
LINE
  5
BF1
330
1E
100
AcDbEntity
  8
0
100
AcDbLine
 10
9.13746899432806
 20
929.79728294566
 30
0.0
 11
9.409348706251876
 21
929.6353488215814
 31
0.0
  0
LINE
  5
BF2
330
1E
100
AcDbEntity
  8
0
100
AcDbLine
 10
4.394727492355627
 20
944.961702173933
 30
0.0
 11
5.008015085894953
 21
944.5970059611605
 31
0.0
  0
LINE
  5
BF3
330
1E
100
AcDbEntity
  8
0
100
AcDbLine
 10
6.135426773777112
 20
932.8049986729151
 30
0.0
 11
7.381697531194618
 21
931.9653388242818
 31
0.0
  0
LINE
  5
BF4
330
1E
100
AcDbEntity
  8
0
100
AcDbLine
 10
7.559687966662693
 20
930.7350943141489
 30
0.0
 11
7.874479577894817
 21
930.5481886733915
 31
0.0
  0
LINE
  5
BF5
330
1E
100
AcDbEntity
  8
0
100
AcDbLine
 10
7.559687966662693
 20
930.7350943141489
 30
0.0
 11
7.87447957789476
 21
930.5481886733915
 31
0.0
  0
LINE
  5
BF6
330
1E
100
AcDbEntity
  8
0
100
AcDbLine
 10
7.410458561043924
 20
930.8245179379774
 30
0.0
 11
7.928672059773987
 21
931.6967002256943
 31
0.0
  0
LINE
  5
BF7
330
1E
100
AcDbEntity
  8
0
100
AcDbLine
 10
7.410458561043924
 20
930.8245179379774
 30
0.0
 11
7.768929870979718
 21
930.611022458042
 31
0.0
  0
LINE
  5
BF8
330
1E
100
AcDbEntity
  8
0
100
AcDbLine
 10
7.410458561043924
 20
930.8245179379774
 30
0.0
 11
7.559687966662693
 21
930.7350943141489
 31
0.0
  0
LINE
  5
BF9
330
1E
100
AcDbEntity
  8
0
100
AcDbLine
 10
7.450430723264673
 20
930.8005651815944
 30
0.0
 11
7.559687966662693
 21
930.7350943141489
 31
0.0
  0
LINE
  5
BFA
330
1E
100
AcDbEntity
  8
0
100
AcDbLine
 10
7.145844318469244
 20
930.981375525064
 30
0.0
 11
7.633729539
 21
931.8018142141879
 31
0.0
  0
LINE
  5
BFB
330
1E
100
AcDbEntity
  8
0
100
AcDbLine
 10
7.145844318469244
 20
930.981375525064
 30
0.0
 11
7.450430723264673
 21
930.8005651815944
 31
0.0
  0
LINE
  5
BFC
330
1E
100
AcDbEntity
  8
0
100
AcDbLine
 10
6.888319726077838
 20
931.1349563972898
 30
0.0
 11
7.383917506715647
 21
931.9690751671853
 31
0.0
  0
LINE
  5
BFD
330
1E
100
AcDbEntity
  8
0
100
AcDbLine
 10
6.888319726077838
 20
931.1349563972898
 30
0.0
 11
7.145844318469244
 21
930.981375525064
 31
0.0
  0
LINE
  5
BFE
330
1E
100
AcDbEntity
  8
0
100
AcDbLine
 10
7.768929870979718
 20
930.611022458042
 30
0.0
 11
8.275107929099021
 21
931.4622227916256
 31
0.0
  0
LINE
  5
BFF
330
1E
100
AcDbEntity
  8
0
100
AcDbLine
 10
7.768929870979718
 20
930.611022458042
 30
0.0
 11
8.40574643612058
 21
930.2319252906004
 31
0.0
  0
LINE
  5
C00
330
1E
100
AcDbEntity
  8
0
100
AcDbLine
 10
8.40574643612058
 20
930.2319252906004
 30
0.0
 11
8.889910885222548
 21
931.0461070473452
 31
0.0
  0
LINE
  5
C01
330
1E
100
AcDbEntity
  8
0
100
AcDbLine
 10
8.40574643612058
 20
930.2319252906004
 30
0.0
 11
8.889910885222548
 21
931.0461070473452
 31
0.0
  0
LINE
  5
C02
330
1E
100
AcDbEntity
  8
0
100
AcDbLine
 10
8.40574643612058
 20
930.2319252906004
 30
0.0
 11
8.953604913386016
 21
929.9066375888832
 31
0.0
  0
LINE
  5
C03
330
1E
100
AcDbEntity
  8
0
100
AcDbLine
 10
7.87447957789476
 20
930.5481886733915
 30
0.0
 11
8.40574643612058
 21
930.2319252906004
 31
0.0
  0
LINE
  5
C04
330
1E
100
AcDbEntity
  8
0
100
AcDbLine
 10
7.87447957789476
 20
930.5481886733915
 30
0.0
 11
8.40574643612058
 21
930.2319252906004
 31
0.0
  0
LINE
  5
C05
330
1E
100
AcDbEntity
  8
0
100
AcDbLine
 10
5.08463381553463
 20
933.9717909247356
 30
0.0
 11
6.135426773777112
 21
932.8049986729151
 31
0.0
  0
LINE
  5
C06
330
1E
100
AcDbEntity
  8
0
100
AcDbLine
 10
3.174051375203816
 20
935.6504963005235
 30
0.0
 11
5.08463381553463
 21
933.9717909247356
 31
0.0
  0
LINE
  5
C07
330
1E
100
AcDbEntity
  8
0
100
AcDbLine
 10
2.404184023601601
 20
943.1601243379789
 30
0.0
 11
3.595922748077555
 21
945.1648793884988
 31
0.0
  0
LINE
  5
C08
330
1E
100
AcDbEntity
  8
0
100
AcDbLine
 10
1.740475007517375
 20
938.129944585528
 30
0.0
 11
1.642917737428547
 21
940.90112043326
 31
0.0
  0
LINE
  5
C09
330
1E
100
AcDbEntity
  8
0
100
AcDbLine
 10
1.740475007517375
 20
938.129944585528
 30
0.0
 11
3.174051375203816
 21
935.6504963005235
 31
0.0
  0
LINE
  5
C0A
330
1E
100
AcDbEntity
  8
0
100
AcDbLine
 10
1.642917737428547
 20
940.90112043326
 30
0.0
 11
2.404184023601601
 21
943.1601243379789
 31
0.0
  0
LINE
  5
C0B
330
1E
100
AcDbEntity
  8
0
100
AcDbLine
 10
49.74831832665728
 20
917.9972850112212
 30
0.0
 11
52.63877568672978
 21
916.2788356841817
 31
0.0
  0
LINE
  5
C0C
330
1E
100
AcDbEntity
  8
0
100
AcDbLine
 10
56.1301502046997
 20
901.094061261581
 30
0.0
 11
56.29771992572108
 21
901.3759702984124
 31
0.0
  0
LINE
  5
C0D
330
1E
100
AcDbEntity
  8
0
100
AcDbLine
 10
56.1301502046997
 20
901.094061261581
 30
0.0
 11
56.7145268842388
 21
900.7464650210792
 31
0.0
  0
LINE
  5
C0E
330
1E
100
AcDbEntity
  8
0
100
AcDbLine
 10
55.50348701015775
 20
901.466561530851
 30
0.0
 11
55.67114052976399
 21
901.7486115452911
 31
0.0
  0
LINE
  5
C0F
330
1E
100
AcDbEntity
  8
0
100
AcDbLine
 10
55.50348701015775
 20
901.466561530851
 30
0.0
 11
56.1301502046997
 21
901.094061261581
 31
0.0
  0
LINE
  5
C10
330
1E
100
AcDbEntity
  8
0
100
AcDbLine
 10
56.22084183693698
 20
901.4216979320593
 30
0.0
 11
56.59565002509288
 21
902.0523734960015
 31
0.0
  0
LINE
  5
C11
330
1E
100
AcDbEntity
  8
0
100
AcDbLine
 10
56.22084183693698
 20
901.4216979320593
 30
0.0
 11
56.59565002509288
 21
902.0523734960015
 31
0.0
  0
LINE
  5
C12
330
1E
100
AcDbEntity
  8
0
100
AcDbLine
 10
56.22084183693698
 20
901.4216979320593
 30
0.0
 11
56.86162241443992
 21
901.0405570899878
 31
0.0
  0
LINE
  5
C13
330
1E
100
AcDbEntity
  8
0
100
AcDbLine
 10
55.66434451169198
 20
901.7529530708802
 30
0.0
 11
56.02092973117601
 21
902.3524926314721
 31
0.0
  0
LINE
  5
C14
330
1E
100
AcDbEntity
  8
0
100
AcDbLine
 10
55.66434451169198
 20
901.7529530708802
 30
0.0
 11
56.22084183693698
 21
901.4216979320593
 31
0.0
  0
LINE
  5
C15
330
1E
100
AcDbEntity
  8
0
100
AcDbLine
 10
55.53061946036803
 20
901.8320372073956
 30
0.0
 11
55.88279362399794
 21
902.4246273542265
 31
0.0
  0
LINE
  5
C16
330
1E
100
AcDbEntity
  8
0
100
AcDbLine
 10
55.53061946036803
 20
901.8320372073956
 30
0.0
 11
55.86073349435526
 21
901.636052491553
 31
0.0
  0
LINE
  5
C17
330
1E
100
AcDbEntity
  8
0
100
AcDbLine
 10
55.53061946036803
 20
901.8320372073956
 30
0.0
 11
55.66434451169198
 21
901.7529530708802
 31
0.0
  0
LINE
  5
C18
330
1E
100
AcDbEntity
  8
0
100
AcDbLine
 10
55.57242685553228
 20
901.4255824033245
 30
0.0
 11
56.1301502046997
 21
901.094061261581
 31
0.0
  0
LINE
  5
C19
330
1E
100
AcDbEntity
  8
0
100
AcDbLine
 10
55.57242685553228
 20
901.4255824033245
 30
0.0
 11
56.1301502046997
 21
901.094061261581
 31
0.0
  0
LINE
  5
C1A
330
1E
100
AcDbEntity
  8
0
100
AcDbLine
 10
55.20838169708355
 20
901.6421662409118
 30
0.0
 11
55.47108372266928
 21
902.0841200411281
 31
0.0
  0
LINE
  5
C1B
330
1E
100
AcDbEntity
  8
0
100
AcDbLine
 10
55.20838169708355
 20
901.6421662409118
 30
0.0
 11
55.57962631439057
 21
902.2667254503932
 31
0.0
  0
LINE
  5
C1C
330
1E
100
AcDbEntity
  8
0
100
AcDbLine
 10
55.20838169708355
 20
901.6421662409118
 30
0.0
 11
55.3976413131279
 21
901.5293045656857
 31
0.0
  0
LINE
  5
C1D
330
1E
100
AcDbEntity
  8
0
100
AcDbLine
 10
55.20838169708355
 20
901.6421662409118
 30
0.0
 11
55.50348701015775
 21
901.466561530851
 31
0.0
  0
LINE
  5
C1E
330
1E
100
AcDbEntity
  8
0
100
AcDbLine
 10
54.16242615840673
 20
901.9965275975957
 30
0.0
 11
54.53510769273515
 21
902.6235041882786
 31
0.0
  0
LINE
  5
C1F
330
1E
100
AcDbEntity
  8
0
100
AcDbLine
 10
54.16242615840673
 20
901.9965275975957
 30
0.0
 11
54.47184203960688
 21
901.8123340785431
 31
0.0
  0
LINE
  5
C20
330
1E
100
AcDbEntity
  8
0
100
AcDbLine
 10
54.71942953094253
 20
902.4999678756715
 30
0.0
 11
55.47108372266928
 21
902.0841200411281
 31
0.0
  0
LINE
  5
C21
330
1E
100
AcDbEntity
  8
0
100
AcDbLine
 10
54.47184203960688
 20
901.8123340785431
 30
0.0
 11
54.85053118214455
 21
902.4494175013764
 31
0.0
  0
LINE
  5
C22
330
1E
100
AcDbEntity
  8
0
100
AcDbLine
 10
55.3976413131279
 20
901.5293045656857
 30
0.0
 11
55.57242685553228
 21
901.4255824033245
 31
0.0
  0
LINE
  5
C23
330
1E
100
AcDbEntity
  8
0
100
AcDbLine
 10
46.84538565752847
 20
919.7248149034386
 30
0.0
 11
49.74831832665728
 21
917.9972850112212
 31
0.0
  0
LINE
  5
C24
330
1E
100
AcDbEntity
  8
0
100
AcDbLine
 10
34.45948123805976
 20
927.0869661700038
 30
0.0
 11
38.52133463211862
 21
924.6719619122076
 31
0.0
  0
LINE
  5
C25
330
1E
100
AcDbEntity
  8
0
100
AcDbLine
 10
38.52133463211862
 20
924.6719619122076
 30
0.0
 11
42.66324844702819
 21
922.2100815516173
 31
0.0
  0
LINE
  5
C26
330
1E
100
AcDbEntity
  8
0
100
AcDbLine
 10
35.57115714790711
 20
926.1538954537849
 30
0.0
 11
46.57346021771377
 21
919.6126122065832
 31
0.0
  0
LINE
  5
C27
330
1E
100
AcDbEntity
  8
0
100
AcDbLine
 10
42.66324844702819
 20
922.2100815516173
 30
0.0
 11
46.84538565752847
 21
919.7248149034386
 31
0.0
  0
LINE
  5
C28
330
1E
100
AcDbEntity
  8
0
100
AcDbLine
 10
23.52012079546335
 20
921.2261336160608
 30
0.0
 11
25.12705468386434
 21
920.2019557245236
 31
0.0
  0
LINE
  5
C29
330
1E
100
AcDbEntity
  8
0
100
AcDbLine
 10
20.61596869539676
 20
923.0770923866861
 30
0.0
 11
20.71499040935396
 21
923.0139809849358
 31
0.0
  0
LINE
  5
C2A
330
1E
100
AcDbEntity
  8
0
100
AcDbLine
 10
23.49279740258436
 20
921.6998951326136
 30
0.0
 11
23.8604346689475
 21
921.4392986715633
 31
0.0
  0
LINE
  5
C2B
330
1E
100
AcDbEntity
  8
0
100
AcDbLine
 10
20.89290979389329
 20
923.5428027264404
 30
0.0
 11
22.10429371621478
 21
922.6841238273902
 31
0.0
  0
LINE
  5
C2C
330
1E
100
AcDbEntity
  8
0
100
AcDbLine
 10
21.61406676288572
 20
921.6148711451536
 30
0.0
 11
21.96035535081449
 21
921.4096124788706
 31
0.0
  0
LINE
  5
C2D
330
1E
100
AcDbEntity
  8
0
100
AcDbLine
 10
21.61406676288572
 20
921.6148711451536
 30
0.0
 11
21.96035535081449
 21
921.4096124788706
 31
0.0
  0
LINE
  5
C2E
330
1E
100
AcDbEntity
  8
0
100
AcDbLine
 10
22.02642684716272
 20
921.3702629668459
 30
0.0
 11
22.19398677869543
 21
921.6522756986103
 31
0.0
  0
LINE
  5
C2F
330
1E
100
AcDbEntity
  8
0
100
AcDbLine
 10
22.02642684716272
 20
921.3702629668459
 30
0.0
 11
22.67916509563173
 21
920.9819734112489
 31
0.0
  0
LINE
  5
C30
330
1E
100
AcDbEntity
  8
0
100
AcDbLine
 10
21.67446050978878
 20
921.961306702415
 30
0.0
 11
22.10429371621478
 21
922.6841238273902
 31
0.0
  0
LINE
  5
C31
330
1E
100
AcDbEntity
  8
0
100
AcDbLine
 10
21.67446050978878
 20
921.961306702415
 30
0.0
 11
22.28162437897123
 21
921.6001460235482
 31
0.0
  0
LINE
  5
C32
330
1E
100
AcDbEntity
  8
0
100
AcDbLine
 10
22.28162437897123
 20
921.6001460235482
 30
0.0
 11
22.68249997241548
 21
922.2742673794465
 31
0.0
  0
LINE
  5
C33
330
1E
100
AcDbEntity
  8
0
100
AcDbLine
 10
22.28162437897123
 20
921.6001460235482
 30
0.0
 11
22.89001299302503
 21
921.2382782379004
 31
0.0
  0
LINE
  5
C34
330
1E
100
AcDbEntity
  8
0
100
AcDbLine
 10
21.79636428003209
 20
921.5063556382331
 30
0.0
 11
22.05485479824983
 21
921.3530335850522
 31
0.0
  0
LINE
  5
C35
330
1E
100
AcDbEntity
  8
0
100
AcDbLine
 10
22.05499468806476
 20
921.3532690274313
 30
0.0
 11
22.67916509563173
 21
920.9819734112489
 31
0.0
  0
LINE
  5
C36
330
1E
100
AcDbEntity
  8
0
100
AcDbLine
 10
21.57803152352517
 20
921.6373090934606
 30
0.0
 11
21.74555647518605
 21
921.919016526021
 31
0.0
  0
LINE
  5
C37
330
1E
100
AcDbEntity
  8
0
100
AcDbLine
 10
21.57803152352517
 20
921.6373090934606
 30
0.0
 11
22.02642684716272
 21
921.3702629668459
 31
0.0
  0
LINE
  5
C38
330
1E
100
AcDbEntity
  8
0
100
AcDbLine
 10
21.43066693002771
 20
922.1061434742214
 30
0.0
 11
21.87220254224649
 21
922.8486396262795
 31
0.0
  0
LINE
  5
C39
330
1E
100
AcDbEntity
  8
0
100
AcDbLine
 10
21.43066693002771
 20
922.1061434742214
 30
0.0
 11
21.67446050978878
 21
921.961306702415
 31
0.0
  0
LINE
  5
C3A
330
1E
100
AcDbEntity
  8
0
100
AcDbLine
 10
21.19532413520676
 20
921.8639807831937
 30
0.0
 11
21.57241773486691
 21
922.4986503918421
 31
0.0
  0
LINE
  5
C3B
330
1E
100
AcDbEntity
  8
0
100
AcDbLine
 10
21.19532413520676
 20
921.8639807831937
 30
0.0
 11
21.79636428003209
 21
921.5063556382331
 31
0.0
  0
LINE
  5
C3C
330
1E
100
AcDbEntity
  8
0
100
AcDbLine
 10
22.89001299302503
 20
921.2382782379004
 30
0.0
 11
23.26163509344951
 21
921.8637525137896
 31
0.0
  0
LINE
  5
C3D
330
1E
100
AcDbEntity
  8
0
100
AcDbLine
 10
22.89001299302503
 20
921.2382782379004
 30
0.0
 11
23.13258182791469
 21
921.0941485728751
 31
0.0
  0
LINE
  5
C3E
330
1E
100
AcDbEntity
  8
0
100
AcDbLine
 10
18.06932150520106
 20
924.76468144317
 30
0.0
 11
18.72882034529385
 21
924.3203520765781
 31
0.0
  0
LINE
  5
C3F
330
1E
100
AcDbEntity
  8
0
100
AcDbLine
 10
16.13037727050692
 20
925.2577147529926
 30
0.0
 11
16.29816729621552
 21
925.5398742096588
 31
0.0
  0
LINE
  5
C40
330
1E
100
AcDbEntity
  8
0
100
AcDbLine
 10
16.13037727050692
 20
925.2577147529926
 30
0.0
 11
16.18002649992774
 21
925.2277368753523
 31
0.0
  0
LINE
  5
C41
330
1E
100
AcDbEntity
  8
0
100
AcDbLine
 10
16.17988470345267
 20
925.2274986300927
 30
0.0
 11
16.34821766608274
 21
925.510330275255
 31
0.0
  0
LINE
  5
C42
330
1E
100
AcDbEntity
  8
0
100
AcDbLine
 10
16.17988470345267
 20
925.2274986300927
 30
0.0
 11
16.41959227160742
 21
925.0850735953859
 31
0.0
  0
LINE
  5
C43
330
1E
100
AcDbEntity
  8
0
100
AcDbLine
 10
16.17988470345267
 20
925.2274986300927
 30
0.0
 11
16.41959227160742
 21
925.0850735953859
 31
0.0
  0
LINE
  5
C44
330
1E
100
AcDbEntity
  8
0
100
AcDbLine
 10
16.20070536626644
 20
925.2154778148124
 30
0.0
 11
16.36881379676111
 21
925.4981727080812
 31
0.0
  0
LINE
  5
C45
330
1E
100
AcDbEntity
  8
0
100
AcDbLine
 10
16.20070536626644
 20
925.2154778148124
 30
0.0
 11
16.68855134483362
 21
924.9248383453734
 31
0.0
  0
LINE
  5
C46
330
1E
100
AcDbEntity
  8
0
100
AcDbLine
 10
16.43823883178515
 20
925.4571922181041
 30
0.0
 11
16.95802082053842
 21
926.3320143622133
 31
0.0
  0
LINE
  5
C47
330
1E
100
AcDbEntity
  8
0
100
AcDbLine
 10
16.22304982832429
 20
925.2018515699885
 30
0.0
 11
16.41959227160742
 21
925.0850735953859
 31
0.0
  0
LINE
  5
C48
330
1E
100
AcDbEntity
  8
0
100
AcDbLine
 10
16.22304982832429
 20
925.2018515699885
 30
0.0
 11
16.41959227160742
 21
925.0850735953859
 31
0.0
  0
LINE
  5
C49
330
1E
100
AcDbEntity
  8
0
100
AcDbLine
 10
16.68855134483362
 20
924.9248383453734
 30
0.0
 11
16.98897745451893
 21
924.746518233767
 31
0.0
  0
LINE
  5
C4A
330
1E
100
AcDbEntity
  8
0
100
AcDbLine
 10
16.68855134483362
 20
924.9248383453734
 30
0.0
 11
16.98897745451893
 21
924.746518233767
 31
0.0
  0
LINE
  5
C4B
330
1E
100
AcDbEntity
  8
0
100
AcDbLine
 10
16.68855134483362
 20
924.9248383453734
 30
0.0
 11
17.14246288981212
 21
925.6881631050891
 31
0.0
  0
LINE
  5
C4C
330
1E
100
AcDbEntity
  8
0
100
AcDbLine
 10
16.68855134483362
 20
924.9248383453734
 30
0.0
 11
17.14246288981212
 21
925.6881631050891
 31
0.0
  0
LINE
  5
C4D
330
1E
100
AcDbEntity
  8
0
100
AcDbLine
 10
16.68855134483362
 20
924.9248383453734
 30
0.0
 11
17.34348026400033
 21
924.5361005020404
 31
0.0
  0
LINE
  5
C4E
330
1E
100
AcDbEntity
  8
0
100
AcDbLine
 10
17.270961497543
 20
924.5787857279568
 30
0.0
 11
17.75854865706515
 21
924.289112184344
 31
0.0
  0
LINE
  5
C4F
330
1E
100
AcDbEntity
  8
0
100
AcDbLine
 10
16.98897745451893
 20
924.746518233767
 30
0.0
 11
17.270961497543
 21
924.5787857279568
 31
0.0
  0
LINE
  5
C50
330
1E
100
AcDbEntity
  8
0
100
AcDbLine
 10
16.98897745451893
 20
924.746518233767
 30
0.0
 11
17.270961497543
 21
924.5787857279568
 31
0.0
  0
LINE
  5
C51
330
1E
100
AcDbEntity
  8
0
100
AcDbLine
 10
16.41959227160742
 20
925.0850735953859
 30
0.0
 11
16.68855134483362
 21
924.9248383453734
 31
0.0
  0
LINE
  5
C52
330
1E
100
AcDbEntity
  8
0
100
AcDbLine
 10
16.41959227160742
 20
925.0850735953859
 30
0.0
 11
16.68855134483362
 21
924.9248383453734
 31
0.0
  0
LINE
  5
C53
330
1E
100
AcDbEntity
  8
0
100
AcDbLine
 10
18.46176026430623
 20
923.870865324892
 30
0.0
 11
18.72882034529385
 21
924.3203520765781
 31
0.0
  0
LINE
  5
C54
330
1E
100
AcDbEntity
  8
0
100
AcDbLine
 10
18.46176026430623
 20
923.870865324892
 30
0.0
 11
18.91645707110615
 21
924.6361619949697
 31
0.0
  0
LINE
  5
C55
330
1E
100
AcDbEntity
  8
0
100
AcDbLine
 10
18.46176026430623
 20
923.870865324892
 30
0.0
 11
18.59577509337816
 21
923.7918588340901
 31
0.0
  0
LINE
  5
C56
330
1E
100
AcDbEntity
  8
0
100
AcDbLine
 10
18.46176026430623
 20
923.870865324892
 30
0.0
 11
18.8065005616117
 21
923.6661139453756
 31
0.0
  0
LINE
  5
C57
330
1E
100
AcDbEntity
  8
0
100
AcDbLine
 10
18.59577509337816
 20
923.7918588340901
 30
0.0
 11
19.04638509728135
 21
924.5496146859807
 31
0.0
  0
LINE
  5
C58
330
1E
100
AcDbEntity
  8
0
100
AcDbLine
 10
18.59577509337816
 20
923.7918588340901
 30
0.0
 11
19.15149967796219
 21
923.4603966400333
 31
0.0
  0
LINE
  5
C59
330
1E
100
AcDbEntity
  8
0
100
AcDbLine
 10
18.87424277774306
 20
924.0083068619503
 30
0.0
 11
19.41151415600325
 21
924.9117944174933
 31
0.0
  0
LINE
  5
C5A
330
1E
100
AcDbEntity
  8
0
100
AcDbLine
 10
18.87424277774306
 20
924.0083068619503
 30
0.0
 11
19.16973446114764
 21
923.8328056795074
 31
0.0
  0
LINE
  5
C5B
330
1E
100
AcDbEntity
  8
0
100
AcDbLine
 10
18.87424277774306
 20
924.0083068619503
 30
0.0
 11
19.06388876411779
 21
923.8955487143423
 31
0.0
  0
LINE
  5
C5C
330
1E
100
AcDbEntity
  8
0
100
AcDbLine
 10
19.15149967796219
 20
923.4603966400333
 30
0.0
 11
19.29457552753331
 21
923.3754242232141
 31
0.0
  0
LINE
  5
C5D
330
1E
100
AcDbEntity
  8
0
100
AcDbLine
 10
19.15149967796219
 20
923.4603966400333
 30
0.0
 11
19.29457552753319
 21
923.3754242232141
 31
0.0
  0
LINE
  5
C5E
330
1E
100
AcDbEntity
  8
0
100
AcDbLine
 10
19.15149967796219
 20
923.4603966400333
 30
0.0
 11
19.31983980462701
 21
923.743487449594
 31
0.0
  0
LINE
  5
C5F
330
1E
100
AcDbEntity
  8
0
100
AcDbLine
 10
19.15149967796219
 20
923.4603966400333
 30
0.0
 11
19.79295640354348
 21
923.0794369712933
 31
0.0
  0
LINE
  5
C60
330
1E
100
AcDbEntity
  8
0
100
AcDbLine
 10
19.79295640354348
 20
923.0794369712933
 30
0.0
 11
19.96092531214833
 21
923.3621441390363
 31
0.0
  0
LINE
  5
C61
330
1E
100
AcDbEntity
  8
0
100
AcDbLine
 10
19.79295640354348
 20
923.0794369712933
 30
0.0
 11
20.13769670084889
 21
922.8746855917771
 31
0.0
  0
LINE
  5
C62
330
1E
100
AcDbEntity
  8
0
100
AcDbLine
 10
19.44699136136671
 20
923.2848954575908
 30
0.0
 11
20.00368187177707
 21
922.953692082579
 31
0.0
  0
LINE
  5
C63
330
1E
100
AcDbEntity
  8
0
100
AcDbLine
 10
19.79649424827232
 20
923.4603312921418
 30
0.0
 11
20.33363602908093
 21
924.3636009137157
 31
0.0
  0
LINE
  5
C64
330
1E
100
AcDbEntity
  8
0
100
AcDbLine
 10
19.79649424827232
 20
923.4603312921418
 30
0.0
 11
20.38038796489832
 21
923.1126056421176
 31
0.0
  0
LINE
  5
C65
330
1E
100
AcDbEntity
  8
0
100
AcDbLine
 10
19.64874840657006
 20
923.5480818833631
 30
0.0
 11
20.27454226786847
 21
923.1753486769521
 31
0.0
  0
LINE
  5
C66
330
1E
100
AcDbEntity
  8
0
100
AcDbLine
 10
19.16973446114764
 20
923.8328056795074
 30
0.0
 11
19.70693287475012
 21
924.736170536053
 31
0.0
  0
LINE
  5
C67
330
1E
100
AcDbEntity
  8
0
100
AcDbLine
 10
19.16973446114764
 20
923.8328056795074
 30
0.0
 11
19.79649424827232
 21
923.4603312921418
 31
0.0
  0
LINE
  5
C68
330
1E
100
AcDbEntity
  8
0
100
AcDbLine
 10
19.29693400676262
 20
923.3740235278439
 30
0.0
 11
19.43979483557802
 21
923.2891788113553
 31
0.0
  0
LINE
  5
C69
330
1E
100
AcDbEntity
  8
0
100
AcDbLine
 10
19.29693400676262
 20
923.3740235278439
 30
0.0
 11
19.43979483557814
 21
923.2891788113553
 31
0.0
  0
LINE
  5
C6A
330
1E
100
AcDbEntity
  8
0
100
AcDbLine
 10
19.06388876411779
 20
923.8955487143423
 30
0.0
 11
19.64874840657006
 21
923.5480818833631
 31
0.0
  0
LINE
  5
C6B
330
1E
100
AcDbEntity
  8
0
100
AcDbLine
 10
20.00368187177707
 20
922.953692082579
 30
0.0
 11
20.13769670084889
 21
922.8746855917771
 31
0.0
  0
LINE
  5
C6C
330
1E
100
AcDbEntity
  8
0
100
AcDbLine
 10
20.13769670084889
 20
922.8746855917771
 30
0.0
 11
20.30554157320421
 21
923.1569372797899
 31
0.0
  0
LINE
  5
C6D
330
1E
100
AcDbEntity
  8
0
100
AcDbLine
 10
20.38038796489832
 20
923.1126056421176
 30
0.0
 11
20.9177959315873
 21
924.0163228878151
 31
0.0
  0
LINE
  5
C6E
330
1E
100
AcDbEntity
  8
0
100
AcDbLine
 10
20.38038796489832
 20
923.1126056421176
 30
0.0
 11
20.57003395127299
 21
922.99984749451
 31
0.0
  0
LINE
  5
C6F
330
1E
100
AcDbEntity
  8
0
100
AcDbLine
 10
20.57003395127299
 20
922.99984749451
 30
0.0
 11
21.10744861520117
 21
923.9035760024345
 31
0.0
  0
LINE
  5
C70
330
1E
100
AcDbEntity
  8
0
100
AcDbLine
 10
20.27454226786847
 20
923.1753486769521
 30
0.0
 11
20.57003395127299
 21
922.99984749451
 31
0.0
  0
LINE
  5
C71
330
1E
100
AcDbEntity
  8
0
100
AcDbLine
 10
20.30554157320421
 20
923.1569372797899
 30
0.0
 11
20.57003395127299
 21
922.99984749451
 31
0.0
  0
LINE
  5
C72
330
1E
100
AcDbEntity
  8
0
100
AcDbLine
 10
20.59305924550983
 20
922.2223130349355
 30
0.0
 11
20.98200482553596
 21
922.8758012126276
 31
0.0
  0
LINE
  5
C73
330
1E
100
AcDbEntity
  8
0
100
AcDbLine
 10
20.59305924550983
 20
922.2223130349355
 30
0.0
 11
21.19532413520676
 21
921.8639807831937
 31
0.0
  0
LINE
  5
C74
330
1E
100
AcDbEntity
  8
0
100
AcDbLine
 10
20.33553465311843
 20
922.3758939071611
 30
0.0
 11
20.72894797160381
 21
923.0374518111455
 31
0.0
  0
LINE
  5
C75
330
1E
100
AcDbEntity
  8
0
100
AcDbLine
 10
20.33553465311843
 20
922.3758939071611
 30
0.0
 11
20.59305924550983
 21
922.2223130349355
 31
0.0
  0
LINE
  5
C76
330
1E
100
AcDbEntity
  8
0
100
AcDbLine
 10
18.8065005616117
 20
923.6661139453756
 30
0.0
 11
18.8524550584317
 21
923.6387619462659
 31
0.0
  0
LINE
  5
C77
330
1E
100
AcDbEntity
  8
0
100
AcDbLine
 10
18.8065005616117
 20
923.6661139453756
 30
0.0
 11
18.8524550584317
 21
923.6387619462659
 31
0.0
  0
LINE
  5
C78
330
1E
100
AcDbEntity
  8
0
100
AcDbLine
 10
19.05913548108321
 20
923.5154873094025
 30
0.0
 11
19.15149967796219
 21
923.4603966400333
 31
0.0
  0
LINE
  5
C79
330
1E
100
AcDbEntity
  8
0
100
AcDbLine
 10
19.05913548108321
 20
923.5154873094025
 30
0.0
 11
19.15149967796219
 21
923.4603966400333
 31
0.0
  0
LINE
  5
C7A
330
1E
100
AcDbEntity
  8
0
100
AcDbLine
 10
17.34348026400033
 20
924.5361005020404
 30
0.0
 11
17.77154673403833
 21
925.2559466436267
 31
0.0
  0
LINE
  5
C7B
330
1E
100
AcDbEntity
  8
0
100
AcDbLine
 10
17.34348026400033
 20
924.5361005020404
 30
0.0
 11
17.77936931987881
 21
924.2770913690636
 31
0.0
  0
LINE
  5
C7C
330
1E
100
AcDbEntity
  8
0
100
AcDbLine
 10
17.77936931987881
 20
924.2770913690636
 30
0.0
 11
18.19034968835001
 21
924.9682051404485
 31
0.0
  0
LINE
  5
C7D
330
1E
100
AcDbEntity
  8
0
100
AcDbLine
 10
26.92349007982841
 20
919.0569992148617
 30
0.0
 11
27.65488320185705
 21
918.5908464558648
 31
0.0
  0
LINE
  5
C7E
330
1E
100
AcDbEntity
  8
0
100
AcDbLine
 10
26.88180247607772
 20
919.3383069282235
 30
0.0
 11
29.19988968607788
 21
917.8184324079765
 31
0.0
  0
LINE
  5
C7F
330
1E
100
AcDbEntity
  8
0
100
AcDbLine
 10
28.99677407718883
 20
917.990146919597
 30
0.0
 11
29.53413981877702
 21
918.8937931586215
 31
0.0
  0
LINE
  5
C80
330
1E
100
AcDbEntity
  8
0
100
AcDbLine
 10
27.36655241228089
 20
917.9270650421292
 30
0.0
 11
27.74163231821626
 21
918.5578077934822
 31
0.0
  0
LINE
  5
C81
330
1E
100
AcDbEntity
  8
0
100
AcDbLine
 10
27.36655241228089
 20
917.9270650421292
 30
0.0
 11
27.94380476645966
 21
917.5848067776636
 31
0.0
  0
LINE
  5
C82
330
1E
100
AcDbEntity
  8
0
100
AcDbLine
 10
29.03377524237567
 20
917.9679677903353
 30
0.0
 11
29.57122049465715
 21
918.8717477363185
 31
0.0
  0
LINE
  5
C83
330
1E
100
AcDbEntity
  8
0
100
AcDbLine
 10
29.03377524237567
 20
917.9679677903353
 30
0.0
 11
29.51130562388152
 21
917.6849170267981
 31
0.0
  0
LINE
  5
C84
330
1E
100
AcDbEntity
  8
0
100
AcDbLine
 10
29.51130562388152
 20
917.6849170267981
 30
0.0
 11
30.0480378937857
 21
918.5882674416449
 31
0.0
  0
LINE
  5
C85
330
1E
100
AcDbEntity
  8
0
100
AcDbLine
 10
29.51130562388152
 20
917.6849170267981
 30
0.0
 11
30.1643026913955
 21
917.2956615453751
 31
0.0
  0
LINE
  5
C86
330
1E
100
AcDbEntity
  8
0
100
AcDbLine
 10
29.44491058178119
 20
917.7240667188087
 30
0.0
 11
29.78089156921163
 21
917.5242152225251
 31
0.0
  0
LINE
  5
C87
330
1E
100
AcDbEntity
  8
0
100
AcDbLine
 10
29.44491058178119
 20
917.7240667188087
 30
0.0
 11
29.78089156921163
 21
917.5242152225251
 31
0.0
  0
LINE
  5
C88
330
1E
100
AcDbEntity
  8
0
100
AcDbLine
 10
29.24158938986607
 20
917.8447882913982
 30
0.0
 11
29.44491058178119
 21
917.7240667188087
 31
0.0
  0
LINE
  5
C89
330
1E
100
AcDbEntity
  8
0
100
AcDbLine
 10
29.24158938986607
 20
917.8447882913982
 30
0.0
 11
29.44491058178119
 21
917.7240667188087
 31
0.0
  0
LINE
  5
C8A
330
1E
100
AcDbEntity
  8
0
100
AcDbLine
 10
30.1643026913955
 20
917.2956615453751
 30
0.0
 11
30.70182631850338
 21
918.199573288218
 31
0.0
  0
LINE
  5
C8B
330
1E
100
AcDbEntity
  8
0
100
AcDbLine
 10
30.1643026913955
 20
917.2956615453751
 30
0.0
 11
30.61243919598803
 21
917.0295813445864
 31
0.0
  0
LINE
  5
C8C
330
1E
100
AcDbEntity
  8
0
100
AcDbLine
 10
30.61243919598803
 20
917.0295813445864
 30
0.0
 11
31.14980968756572
 21
917.9332355712993
 31
0.0
  0
LINE
  5
C8D
330
1E
100
AcDbEntity
  8
0
100
AcDbLine
 10
30.63546449022487
 20
916.2520468850123
 30
0.0
 11
31.03114552919555
 21
916.9180001931021
 31
0.0
  0
LINE
  5
C8E
330
1E
100
AcDbEntity
  8
0
100
AcDbLine
 10
30.63546449022487
 20
916.2520468850123
 30
0.0
 11
31.28478732312476
 21
915.8649127239327
 31
0.0
  0
LINE
  5
C8F
330
1E
100
AcDbEntity
  8
0
100
AcDbLine
 10
30.633396248687
 20
916.6345448881141
 30
0.0
 11
31.05561476423395
 21
917.3451775980021
 31
0.0
  0
LINE
  5
C90
330
1E
100
AcDbEntity
  8
0
100
AcDbLine
 10
30.65325098567439
 20
916.6222652537889
 30
0.0
 11
31.07514932904814
 21
917.3317547019925
 31
0.0
  0
LINE
  5
C91
330
1E
100
AcDbEntity
  8
0
100
AcDbLine
 10
30.41286250576104
 20
916.7655538327183
 30
0.0
 11
30.65325098567439
 21
916.6222652537889
 31
0.0
  0
LINE
  5
C92
330
1E
100
AcDbEntity
  8
0
100
AcDbLine
 10
30.41286250576092
 20
916.7655538327183
 30
0.0
 11
30.65325098567439
 21
916.6222652537889
 31
0.0
  0
LINE
  5
C93
330
1E
100
AcDbEntity
  8
0
100
AcDbLine
 10
31.28478732312476
 20
915.8649127239327
 30
0.0
 11
31.68020010825478
 21
915.6304635976056
 31
0.0
  0
LINE
  5
C94
330
1E
100
AcDbEntity
  8
0
100
AcDbLine
 10
31.28478732312476
 20
915.8649127239327
 30
0.0
 11
31.68117558536209
 21
916.5314880833998
 31
0.0
  0
LINE
  5
C95
330
1E
100
AcDbEntity
  8
0
100
AcDbLine
 10
31.28478732312476
 20
915.8649127239327
 30
0.0
 11
31.80911682878866
 21
915.5540259768843
 31
0.0
  0
LINE
  5
C96
330
1E
100
AcDbEntity
  8
0
100
AcDbLine
 10
30.84496521358699
 20
916.1270091030793
 30
0.0
 11
30.89665141082685
 21
916.0963240699983
 31
0.0
  0
LINE
  5
C97
330
1E
100
AcDbEntity
  8
0
100
AcDbLine
 10
30.84496521358699
 20
916.1270091030793
 30
0.0
 11
30.89665141082685
 21
916.0963240699983
 31
0.0
  0
LINE
  5
C98
330
1E
100
AcDbEntity
  8
0
100
AcDbLine
 10
30.89665141082685
 20
916.0963240699983
 30
0.0
 11
31.28478732312476
 21
915.8649127239327
 31
0.0
  0
LINE
  5
C99
330
1E
100
AcDbEntity
  8
0
100
AcDbLine
 10
30.89665141082685
 20
916.0963240699983
 30
0.0
 11
31.28478732312476
 21
915.8649127239327
 31
0.0
  0
LINE
  5
C9A
330
1E
100
AcDbEntity
  8
0
100
AcDbLine
 10
29.81821922252175
 20
916.4699532236463
 30
0.0
 11
30.10335766271373
 21
916.9494483963747
 31
0.0
  0
LINE
  5
C9B
330
1E
100
AcDbEntity
  8
0
100
AcDbLine
 10
29.81821922252175
 20
916.4699532236463
 30
0.0
 11
30.25410827840033
 21
916.2109440906695
 31
0.0
  0
LINE
  5
C9C
330
1E
100
AcDbEntity
  8
0
100
AcDbLine
 10
29.74570045606458
 20
916.5126384495625
 30
0.0
 11
29.96914721601126
 21
916.3802704747713
 31
0.0
  0
LINE
  5
C9D
330
1E
100
AcDbEntity
  8
0
100
AcDbLine
 10
29.74570045606458
 20
916.5126384495625
 30
0.0
 11
29.96914721601126
 21
916.3802704747713
 31
0.0
  0
LINE
  5
C9E
330
1E
100
AcDbEntity
  8
0
100
AcDbLine
 10
30.14458434429355
 20
916.9249255385082
 30
0.0
 11
30.31276986028649
 21
917.2075094450571
 31
0.0
  0
LINE
  5
C9F
330
1E
100
AcDbEntity
  8
0
100
AcDbLine
 10
30.14458434429355
 20
916.9249255385082
 30
0.0
 11
30.633396248687
 21
916.6345448881141
 31
0.0
  0
LINE
  5
CA0
330
1E
100
AcDbEntity
  8
0
100
AcDbLine
 10
29.49062135095312
 20
917.3139222008863
 30
0.0
 11
29.65873702261944
 21
917.5968763843989
 31
0.0
  0
LINE
  5
CA1
330
1E
100
AcDbEntity
  8
0
100
AcDbLine
 10
29.49062135095312
 20
917.3139222008863
 30
0.0
 11
30.14458434429355
 21
916.9249255385082
 31
0.0
  0
LINE
  5
CA2
330
1E
100
AcDbEntity
  8
0
100
AcDbLine
 10
30.25410827840033
 20
916.2109440906695
 30
0.0
 11
30.37162766246149
 21
916.4083946649331
 31
0.0
  0
LINE
  5
CA3
330
1E
100
AcDbEntity
  8
0
100
AcDbLine
 10
30.24270032389017
 20
916.4853413548213
 30
0.0
 11
30.41036226575977
 21
916.7670391102067
 31
0.0
  0
LINE
  5
CA4
330
1E
100
AcDbEntity
  8
0
100
AcDbLine
 10
30.24270032389017
 20
916.4853413548213
 30
0.0
 11
30.63546449022487
 21
916.2520468850123
 31
0.0
  0
LINE
  5
CA5
330
1E
100
AcDbEntity
  8
0
100
AcDbLine
 10
30.24270032389017
 20
916.4853413548213
 30
0.0
 11
30.32037688887806
 21
916.4388617759538
 31
0.0
  0
LINE
  5
CA6
330
1E
100
AcDbEntity
  8
0
100
AcDbLine
 10
30.32037688887806
 20
916.4388617759538
 30
0.0
 11
30.84496521358699
 21
916.1270091030793
 31
0.0
  0
LINE
  5
CA7
330
1E
100
AcDbEntity
  8
0
100
AcDbLine
 10
30.37162766246149
 20
916.4083946649331
 30
0.0
 11
30.84496521358699
 21
916.1270091030793
 31
0.0
  0
LINE
  5
CA8
330
1E
100
AcDbEntity
  8
0
100
AcDbLine
 10
29.96914721601126
 20
916.3802704747713
 30
0.0
 11
30.25410827840033
 21
916.2109440906695
 31
0.0
  0
LINE
  5
CA9
330
1E
100
AcDbEntity
  8
0
100
AcDbLine
 10
29.96914721601126
 20
916.3802704747713
 30
0.0
 11
30.25410827840033
 21
916.2109440906695
 31
0.0
  0
LINE
  5
CAA
330
1E
100
AcDbEntity
  8
0
100
AcDbLine
 10
28.89597806769439
 20
917.0183215918255
 30
0.0
 11
29.09173746272421
 21
916.9016351119406
 31
0.0
  0
LINE
  5
CAB
330
1E
100
AcDbEntity
  8
0
100
AcDbLine
 10
28.65558958780047
 20
917.1616101707435
 30
0.0
 11
29.03058511571089
 21
917.7927486073494
 31
0.0
  0
LINE
  5
CAC
330
1E
100
AcDbEntity
  8
0
100
AcDbLine
 10
28.6754443247878
 20
917.1493305364183
 30
0.0
 11
29.05068862966686
 21
917.7797984722364
 31
0.0
  0
LINE
  5
CAD
330
1E
100
AcDbEntity
  8
0
100
AcDbLine
 10
28.6754443247878
 20
917.1493305364183
 30
0.0
 11
29.16425622918137
 21
916.8589498860242
 31
0.0
  0
LINE
  5
CAE
330
1E
100
AcDbEntity
  8
0
100
AcDbLine
 10
29.07458703206191
 20
917.5606516995374
 30
0.0
 11
29.41607566824115
 21
917.3583567134924
 31
0.0
  0
LINE
  5
CAF
330
1E
100
AcDbEntity
  8
0
100
AcDbLine
 10
29.07458703206191
 20
917.5606516995374
 30
0.0
 11
29.85399164037443
 21
917.0975982938259
 31
0.0
  0
LINE
  5
CB0
330
1E
100
AcDbEntity
  8
0
100
AcDbLine
 10
29.05447347602944
 20
917.5738972596892
 30
0.0
 11
29.22234562497715
 21
917.8561948166295
 31
0.0
  0
LINE
  5
CB1
330
1E
100
AcDbEntity
  8
0
100
AcDbLine
 10
29.05447347602944
 20
917.5738972596892
 30
0.0
 11
29.49062135095312
 21
917.3139222008863
 31
0.0
  0
LINE
  5
CB2
330
1E
100
AcDbEntity
  8
0
100
AcDbLine
 10
28.67054534530245
 20
917.1521589635428
 30
0.0
 11
28.78406919243303
 21
917.084801502996
 31
0.0
  0
LINE
  5
CB3
330
1E
100
AcDbEntity
  8
0
100
AcDbLine
 10
28.78406919243303
 20
917.084801502996
 30
0.0
 11
28.89597806769439
 21
917.0183215918255
 31
0.0
  0
LINE
  5
CB4
330
1E
100
AcDbEntity
  8
0
100
AcDbLine
 10
28.78406919243315
 20
917.0848015029962
 30
0.0
 11
28.89597806769439
 21
917.0183215918255
 31
0.0
  0
LINE
  5
CB5
330
1E
100
AcDbEntity
  8
0
100
AcDbLine
 10
28.17910345046988
 20
917.4449407386306
 30
0.0
 11
28.67054534530245
 21
917.1521589635428
 31
0.0
  0
LINE
  5
CB6
330
1E
100
AcDbEntity
  8
0
100
AcDbLine
 10
27.94380476645966
 20
917.5848067776636
 30
0.0
 11
28.3074763229448
 21
918.1963513831513
 31
0.0
  0
LINE
  5
CB7
330
1E
100
AcDbEntity
  8
0
100
AcDbLine
 10
27.94380476645966
 20
917.5848067776636
 30
0.0
 11
28.56566557409871
 21
917.2151608174226
 31
0.0
  0
LINE
  5
CB8
330
1E
100
AcDbEntity
  8
0
100
AcDbLine
 10
28.56566557409871
 20
917.2151608174226
 30
0.0
 11
28.91744530439467
 21
917.8067083073109
 31
0.0
  0
LINE
  5
CB9
330
1E
100
AcDbEntity
  8
0
100
AcDbLine
 10
28.56566557409871
 20
917.2151608174226
 30
0.0
 11
28.65687514631241
 21
917.1608150865054
 31
0.0
  0
LINE
  5
CBA
330
1E
100
AcDbEntity
  8
0
100
AcDbLine
 10
28.17910345046988
 20
917.4449407386306
 30
0.0
 11
28.67054534530245
 21
917.1521589635428
 31
0.0
  0
LINE
  5
CBB
330
1E
100
AcDbEntity
  8
0
100
AcDbLine
 10
29.16425622918137
 20
916.8589498860242
 30
0.0
 11
29.44923776960638
 21
917.3385897496986
 31
0.0
  0
LINE
  5
CBC
330
1E
100
AcDbEntity
  8
0
100
AcDbLine
 10
29.16425622918137
 20
916.8589498860242
 30
0.0
 11
29.81821922252175
 21
916.4699532236463
 31
0.0
  0
LINE
  5
CBD
330
1E
100
AcDbEntity
  8
0
100
AcDbLine
 10
29.09173746272421
 20
916.9016351119406
 30
0.0
 11
29.74570045606458
 21
916.5126384495625
 31
0.0
  0
LINE
  5
CBE
330
1E
100
AcDbEntity
  8
0
100
AcDbLine
 10
28.89597806769439
 20
917.0183215918255
 30
0.0
 11
29.09173746272421
 21
916.9016351119406
 31
0.0
  0
LINE
  5
CBF
330
1E
100
AcDbEntity
  8
0
100
AcDbLine
 10
22.67916509563173
 20
920.9819734112489
 30
0.0
 11
22.84684796506064
 21
921.2639526715209
 31
0.0
  0
LINE
  5
CC0
330
1E
100
AcDbEntity
  8
0
100
AcDbLine
 10
22.67916509563173
 20
920.9819734112489
 30
0.0
 11
23.15695429618267
 21
920.6979567218857
 31
0.0
  0
LINE
  5
CC1
330
1E
100
AcDbEntity
  8
0
100
AcDbLine
 10
23.15695429618267
 20
920.6979567218857
 30
0.0
 11
23.53440951326723
 21
921.3332349528737
 31
0.0
  0
LINE
  5
CC2
330
1E
100
AcDbEntity
  8
0
100
AcDbLine
 10
23.13258182791469
 20
921.0941485728751
 30
0.0
 11
23.49279740258436
 21
921.6998951326136
 31
0.0
  0
LINE
  5
CC3
330
1E
100
AcDbEntity
  8
0
100
AcDbLine
 10
23.68668645869672
 20
921.1473750526177
 30
0.0
 11
24.21594701165941
 21
922.0366138871524
 31
0.0
  0
LINE
  5
CC4
330
1E
100
AcDbEntity
  8
0
100
AcDbLine
 10
23.68668645869672
 20
921.1473750526177
 30
0.0
 11
24.07945062503154
 21
920.9140805828091
 31
0.0
  0
LINE
  5
CC5
330
1E
100
AcDbEntity
  8
0
100
AcDbLine
 10
23.68668645869672
 20
921.1473750526177
 30
0.0
 11
23.7643630236846
 21
921.1008954737506
 31
0.0
  0
LINE
  5
CC6
330
1E
100
AcDbEntity
  8
0
100
AcDbLine
 10
23.7643630236846
 20
921.1008954737506
 30
0.0
 11
24.28895134839354
 21
920.7890428008758
 31
0.0
  0
LINE
  5
CC7
330
1E
100
AcDbEntity
  8
0
100
AcDbLine
 10
23.19369664232442
 20
920.6767435184501
 30
0.0
 11
23.5700968649308
 21
921.3102461347556
 31
0.0
  0
LINE
  5
CC8
330
1E
100
AcDbEntity
  8
0
100
AcDbLine
 10
24.07945062503154
 20
920.9140805828091
 30
0.0
 11
24.59614647324656
 21
921.7837085798693
 31
0.0
  0
LINE
  5
CC9
330
1E
100
AcDbEntity
  8
0
100
AcDbLine
 10
24.07945062503154
 20
920.9140805828091
 30
0.0
 11
24.72973938375776
 21
920.5272052407744
 31
0.0
  0
LINE
  5
CCA
330
1E
100
AcDbEntity
  8
0
100
AcDbLine
 10
24.72973938375776
 20
920.5272052407744
 30
0.0
 11
25.22113717089291
 21
921.3542551868163
 31
0.0
  0
LINE
  5
CCB
330
1E
100
AcDbEntity
  8
0
100
AcDbLine
 10
24.72973938375776
 20
920.5272052407744
 30
0.0
 11
25.25310296359521
 21
920.2160596746809
 31
0.0
  0
LINE
  5
CCC
330
1E
100
AcDbEntity
  8
0
100
AcDbLine
 10
25.25310296359521
 20
920.2160596746809
 30
0.0
 11
25.72433331943284
 21
921.0084911711675
 31
0.0
  0
LINE
  5
CCD
330
1E
100
AcDbEntity
  8
0
100
AcDbLine
 10
25.25310296359521
 20
920.2160596746809
 30
0.0
 11
25.3307795285832
 21
920.1695800958136
 31
0.0
  0
LINE
  5
CCE
330
1E
100
AcDbEntity
  8
0
100
AcDbLine
 10
25.14266844676046
 20
920.2817142436659
 30
0.0
 11
25.3307795285832
 21
920.1695800958136
 31
0.0
  0
LINE
  5
CCF
330
1E
100
AcDbEntity
  8
0
100
AcDbLine
 10
25.3307795285832
 20
920.1695800958136
 30
0.0
 11
25.79909917823249
 21
920.9571168837308
 31
0.0
  0
LINE
  5
CD0
330
1E
100
AcDbEntity
  8
0
100
AcDbLine
 10
25.73922051992639
 20
919.1629938071178
 30
0.0
 11
25.90666544032547
 21
919.4448129687151
 31
0.0
  0
LINE
  5
CD1
330
1E
100
AcDbEntity
  8
0
100
AcDbLine
 10
25.73922051992639
 20
919.1629938071178
 30
0.0
 11
26.36598030705107
 21
918.790519419752
 31
0.0
  0
LINE
  5
CD2
330
1E
100
AcDbEntity
  8
0
100
AcDbLine
 10
25.98339534789238
 20
919.3992408248508
 30
0.0
 11
26.35819838378711
 21
920.0295179853569
 31
0.0
  0
LINE
  5
CD3
330
1E
100
AcDbEntity
  8
0
100
AcDbLine
 10
25.98339534789238
 20
919.3992408248508
 30
0.0
 11
26.54008585830257
 21
919.0680374498391
 31
0.0
  0
LINE
  5
CD4
330
1E
100
AcDbEntity
  8
0
100
AcDbLine
 10
26.36598030705107
 20
918.790519419752
 30
0.0
 11
26.53327668313278
 21
919.0720885729588
 31
0.0
  0
LINE
  5
CD5
330
1E
100
AcDbEntity
  8
0
100
AcDbLine
 10
26.36598030705107
 20
918.790519419752
 30
0.0
 11
26.66050606462931
 21
918.6147594182644
 31
0.0
  0
LINE
  5
CD6
330
1E
100
AcDbEntity
  8
0
100
AcDbLine
 10
26.47208482312601
 20
918.7268104590911
 30
0.0
 11
26.66050606462931
 21
918.6147594182644
 31
0.0
  0
LINE
  5
CD7
330
1E
100
AcDbEntity
  8
0
100
AcDbLine
 10
26.54008585830257
 20
919.0680374498391
 30
0.0
 11
26.89649069483073
 21
919.6678996668493
 31
0.0
  0
LINE
  5
CD8
330
1E
100
AcDbEntity
  8
0
100
AcDbLine
 10
26.54008585830257
 20
919.0680374498391
 30
0.0
 11
26.67410068737439
 21
918.9890309590373
 31
0.0
  0
LINE
  5
CD9
330
1E
100
AcDbEntity
  8
0
100
AcDbLine
 10
26.67410068737439
 20
918.9890309590373
 30
0.0
 11
27.02604426012197
 21
919.580867135498
 31
0.0
  0
LINE
  5
CDA
330
1E
100
AcDbEntity
  8
0
100
AcDbLine
 10
26.66050606462931
 20
918.6147594182644
 30
0.0
 11
27.03215259732712
 21
919.2397285324588
 31
0.0
  0
LINE
  5
CDB
330
1E
100
AcDbEntity
  8
0
100
AcDbLine
 10
27.16195066840441
 20
918.0492743969377
 30
0.0
 11
27.54092870765998
 21
918.6860155786771
 31
0.0
  0
LINE
  5
CDC
330
1E
100
AcDbEntity
  8
0
100
AcDbLine
 10
27.16195066840441
 20
918.0492743969377
 30
0.0
 11
27.36655241228089
 21
917.9270650421292
 31
0.0
  0
LINE
  5
CDD
330
1E
100
AcDbEntity
  8
0
100
AcDbLine
 10
25.88722518067385
 20
919.0742772900701
 30
0.0
 11
26.47208482312601
 21
918.7268104590911
 31
0.0
  0
LINE
  5
CDE
330
1E
100
AcDbEntity
  8
0
100
AcDbLine
 10
25.15436087747412
 20
919.510460638097
 30
0.0
 11
25.32190440405588
 21
919.7919594376523
 31
0.0
  0
LINE
  5
CDF
330
1E
100
AcDbEntity
  8
0
100
AcDbLine
 10
25.15436087747412
 20
919.510460638097
 30
0.0
 11
25.73922051992639
 21
919.1629938071178
 31
0.0
  0
LINE
  5
CE0
330
1E
100
AcDbEntity
  8
0
100
AcDbLine
 10
24.9981642508319
 20
919.9852106921523
 30
0.0
 11
25.12705468386434
 21
920.2019557245236
 31
0.0
  0
LINE
  5
CE1
330
1E
100
AcDbEntity
  8
0
100
AcDbLine
 10
24.9981642508319
 20
919.9852106921523
 30
0.0
 11
25.16615766848059
 21
920.2677121772506
 31
0.0
  0
LINE
  5
CE2
330
1E
100
AcDbEntity
  8
0
100
AcDbLine
 10
24.9981642508319
 20
919.9852106921523
 30
0.0
 11
25.34316336718234
 21
919.7794933868097
 31
0.0
  0
LINE
  5
CE3
330
1E
100
AcDbEntity
  8
0
100
AcDbLine
 10
24.9981642508319
 20
919.9852106921523
 30
0.0
 11
25.13147197312258
 21
919.9049794564791
 31
0.0
  0
LINE
  5
CE4
330
1E
100
AcDbEntity
  8
0
100
AcDbLine
 10
25.34316336718234
 20
919.7794933868097
 30
0.0
 11
25.7389002406835
 21
920.4455550502929
 31
0.0
  0
LINE
  5
CE5
330
1E
100
AcDbEntity
  8
0
100
AcDbLine
 10
25.34316336718234
 20
919.7794933868097
 30
0.0
 11
25.98339534789238
 21
919.3992408248508
 31
0.0
  0
LINE
  5
CE6
330
1E
100
AcDbEntity
  8
0
100
AcDbLine
 10
25.13147197312258
 20
919.9049794564791
 30
0.0
 11
25.68790366446717
 21
919.5747420073058
 31
0.0
  0
LINE
  5
CE7
330
1E
100
AcDbEntity
  8
0
100
AcDbLine
 10
25.26046539354917
 20
919.4467516774361
 30
0.0
 11
25.88722518067385
 21
919.0742772900701
 31
0.0
  0
LINE
  5
CE8
330
1E
100
AcDbEntity
  8
0
100
AcDbLine
 10
24.28895134839354
 20
920.7890428008758
 30
0.0
 11
24.60904184899692
 21
920.5990116489532
 31
0.0
  0
LINE
  5
CE9
330
1E
100
AcDbEntity
  8
0
100
AcDbLine
 10
24.96593963597087
 20
919.6225116789234
 30
0.0
 11
25.13317079322451
 21
919.9039710651966
 31
0.0
  0
LINE
  5
CEA
330
1E
100
AcDbEntity
  8
0
100
AcDbLine
 10
24.96593963597087
 20
919.6225116789234
 30
0.0
 11
25.13317086178563
 21
919.9039711805898
 31
0.0
  0
LINE
  5
CEB
330
1E
100
AcDbEntity
  8
0
100
AcDbLine
 10
24.96593963597087
 20
919.6225116789234
 30
0.0
 11
25.15436087747412
 21
919.510460638097
 31
0.0
  0
LINE
  5
CEC
330
1E
100
AcDbEntity
  8
0
100
AcDbLine
 10
24.96593963597087
 20
919.6225116789234
 30
0.0
 11
25.26046539354917
 21
919.4467516774361
 31
0.0
  0
LINE
  5
CED
330
1E
100
AcDbEntity
  8
0
100
AcDbLine
 10
39.17211413323826
 20
911.5358292194498
 30
0.0
 11
41.09257265086864
 21
910.3939353226914
 31
0.0
  0
LINE
  5
CEE
330
1E
100
AcDbEntity
  8
0
100
AcDbLine
 10
46.57346021771377
 20
919.6126122065832
 30
0.0
 11
67.9765432495887
 21
906.8875414476181
 31
0.0
  0
LINE
  5
CEF
330
1E
100
AcDbEntity
  8
0
100
AcDbLine
 10
37.92619351001383
 20
912.2983059526792
 30
0.0
 11
38.31928066838298
 21
912.9597388485356
 31
0.0
  0
LINE
  5
CF0
330
1E
100
AcDbEntity
  8
0
100
AcDbLine
 10
37.92619351001383
 20
912.2983059526792
 30
0.0
 11
38.31928066838298
 21
912.9597388485356
 31
0.0
  0
LINE
  5
CF1
330
1E
100
AcDbEntity
  8
0
100
AcDbLine
 10
37.92619351001383
 20
912.2983059526792
 30
0.0
 11
38.13053643484522
 21
912.1770625236967
 31
0.0
  0
LINE
  5
CF2
330
1E
100
AcDbEntity
  8
0
100
AcDbLine
 10
37.92619351001383
 20
912.2983059526792
 30
0.0
 11
38.78204993844281
 21
911.789480074881
 31
0.0
  0
LINE
  5
CF3
330
1E
100
AcDbEntity
  8
0
100
AcDbLine
 10
38.13053643484522
 20
912.1770625236967
 30
0.0
 11
38.51318189684263
 21
912.8203085767122
 31
0.0
  0
LINE
  5
CF4
330
1E
100
AcDbEntity
  8
0
100
AcDbLine
 10
38.13053643484522
 20
912.1770625236967
 30
0.0
 11
38.70804760806902
 21
911.833838333405
 31
0.0
  0
LINE
  5
CF5
330
1E
100
AcDbEntity
  8
0
100
AcDbLine
 10
38.13053643484522
 20
912.1770625236967
 30
0.0
 11
38.78204993844281
 21
911.789480074881
 31
0.0
  0
LINE
  5
CF6
330
1E
100
AcDbEntity
  8
0
100
AcDbLine
 10
38.70804760806902
 20
911.833838333405
 30
0.0
 11
39.06035220017304
 21
912.4268499857945
 31
0.0
  0
LINE
  5
CF7
330
1E
100
AcDbEntity
  8
0
100
AcDbLine
 10
38.70804760806902
 20
911.833838333405
 30
0.0
 11
39.32961863796032
 21
911.4641147274504
 31
0.0
  0
LINE
  5
CF8
330
1E
100
AcDbEntity
  8
0
100
AcDbLine
 10
38.70804760806902
 20
911.833838333405
 30
0.0
 11
38.78204993844281
 21
911.789480074881
 31
0.0
  0
LINE
  5
CF9
330
1E
100
AcDbEntity
  8
0
100
AcDbLine
 10
38.78204993844281
 20
911.789480074881
 30
0.0
 11
39.14086677955629
 21
911.5763883283159
 31
0.0
  0
LINE
  5
CFA
330
1E
100
AcDbEntity
  8
0
100
AcDbLine
 10
38.78204993844281
 20
911.789480074881
 30
0.0
 11
39.0979254073527
 21
911.6019307654829
 31
0.0
  0
LINE
  5
CFB
330
1E
100
AcDbEntity
  8
0
100
AcDbLine
 10
38.78204993844281
 20
911.789480074881
 30
0.0
 11
39.14086677955629
 21
911.5763883283159
 31
0.0
  0
LINE
  5
CFC
330
1E
100
AcDbEntity
  8
0
100
AcDbLine
 10
38.78204993844281
 20
911.789480074881
 30
0.0
 11
39.0979254073527
 21
911.6019307654829
 31
0.0
  0
LINE
  5
CFD
330
1E
100
AcDbEntity
  8
0
100
AcDbLine
 10
38.78204993844281
 20
911.789480074881
 30
0.0
 11
39.32961863796032
 21
911.4641147274504
 31
0.0
  0
LINE
  5
CFE
330
1E
100
AcDbEntity
  8
0
100
AcDbLine
 10
38.384641351048
 20
912.0260438799776
 30
0.0
 11
38.78204993844281
 21
911.789480074881
 31
0.0
  0
LINE
  5
CFF
330
1E
100
AcDbEntity
  8
0
100
AcDbLine
 10
38.38464135104789
 20
912.0260438799775
 30
0.0
 11
38.78204993844281
 21
911.789480074881
 31
0.0
  0
LINE
  5
D00
330
1E
100
AcDbEntity
  8
0
100
AcDbLine
 10
38.35312810358772
 20
911.663162777631
 30
0.0
 11
38.52077846538168
 21
911.9451354006232
 31
0.0
  0
LINE
  5
D01
330
1E
100
AcDbEntity
  8
0
100
AcDbLine
 10
37.35809904755615
 20
912.254789499182
 30
0.0
 11
37.75387242234671
 21
912.9207846488931
 31
0.0
  0
LINE
  5
D02
330
1E
100
AcDbEntity
  8
0
100
AcDbLine
 10
37.35809904755615
 20
912.254789499182
 30
0.0
 11
37.99491561269701
 21
911.8756923317404
 31
0.0
  0
LINE
  5
D03
330
1E
100
AcDbEntity
  8
0
100
AcDbLine
 10
37.99491561269701
 20
911.8756923317404
 30
0.0
 11
38.16271440228712
 21
912.1579386394632
 31
0.0
  0
LINE
  5
D04
330
1E
100
AcDbEntity
  8
0
100
AcDbLine
 10
37.99491561269701
 20
911.8756923317404
 30
0.0
 11
38.35312810358772
 21
911.663162777631
 31
0.0
  0
LINE
  5
D05
330
1E
100
AcDbEntity
  8
0
100
AcDbLine
 10
37.29795416143531
 20
912.0233362799918
 30
0.0
 11
37.41525692599805
 21
912.220763390251
 31
0.0
  0
LINE
  5
D06
330
1E
100
AcDbEntity
  8
0
100
AcDbLine
 10
37.29795416143531
 20
912.0233362799918
 30
0.0
 11
37.73410203635899
 21
911.7633612211887
 31
0.0
  0
LINE
  5
D07
330
1E
100
AcDbEntity
  8
0
100
AcDbLine
 10
37.36338696686806
 20
912.2516415986046
 30
0.0
 11
37.41525692599805
 21
912.220763390251
 31
0.0
  0
LINE
  5
D08
330
1E
100
AcDbEntity
  8
0
100
AcDbLine
 10
37.73410203635899
 20
911.7633612211887
 30
0.0
 11
37.85159667109036
 21
911.9610101575913
 31
0.0
  0
LINE
  5
D09
330
1E
100
AcDbEntity
  8
0
100
AcDbLine
 10
37.73410203635899
 20
911.7633612211887
 30
0.0
 11
38.38806502969942
 21
911.3743645588106
 31
0.0
  0
LINE
  5
D0A
330
1E
100
AcDbEntity
  8
0
100
AcDbLine
 10
37.31780889842275
 20
912.0110566456663
 30
0.0
 11
37.53834264132462
 21
911.8800477010765
 31
0.0
  0
LINE
  5
D0B
330
1E
100
AcDbEntity
  8
0
100
AcDbLine
 10
37.31780889842275
 20
912.0110566456663
 30
0.0
 11
37.53834264132462
 21
911.8800477010765
 31
0.0
  0
LINE
  5
D0C
330
1E
100
AcDbEntity
  8
0
100
AcDbLine
 10
37.53834264132462
 20
911.8800477010765
 30
0.0
 11
37.73410203635899
 21
911.7633612211887
 31
0.0
  0
LINE
  5
D0D
330
1E
100
AcDbEntity
  8
0
100
AcDbLine
 10
37.53834264132462
 20
911.8800477010765
 30
0.0
 11
37.73410203635899
 21
911.7633612211887
 31
0.0
  0
LINE
  5
D0E
330
1E
100
AcDbEntity
  8
0
100
AcDbLine
 10
38.38806502969942
 20
911.3743645588106
 30
0.0
 11
38.61151178966611
 21
911.2419965840071
 31
0.0
  0
LINE
  5
D0F
330
1E
100
AcDbEntity
  8
0
100
AcDbLine
 10
38.38806502969942
 20
911.3743645588106
 30
0.0
 11
38.61151178966611
 21
911.2419965840071
 31
0.0
  0
LINE
  5
D10
330
1E
100
AcDbEntity
  8
0
100
AcDbLine
 10
38.38806502969942
 20
911.3743645588106
 30
0.0
 11
38.67348737682687
 21
911.8543780353782
 31
0.0
  0
LINE
  5
D11
330
1E
100
AcDbEntity
  8
0
100
AcDbLine
 10
38.38806502969942
 20
911.3743645588106
 30
0.0
 11
38.87661811504779
 21
911.084949834243
 31
0.0
  0
LINE
  5
D12
330
1E
100
AcDbEntity
  8
0
100
AcDbLine
 10
41.09257265086864
 20
910.3939353226914
 30
0.0
 11
41.27057123577697
 21
910.6930443309694
 31
0.0
  0
LINE
  5
D13
330
1E
100
AcDbEntity
  8
0
100
AcDbLine
 10
41.27038833881988
 20
910.6931530045191
 30
0.0
 11
41.80754227641671
 21
911.5968278943233
 31
0.0
  0
LINE
  5
D14
330
1E
100
AcDbEntity
  8
0
100
AcDbLine
 10
41.27038833881988
 20
910.6931530045191
 30
0.0
 11
42.12991900186318
 21
910.1822058063778
 31
0.0
  0
LINE
  5
D15
330
1E
100
AcDbEntity
  8
0
100
AcDbLine
 10
41.27038833881988
 20
910.6931530045191
 30
0.0
 11
41.87200803914106
 21
910.3356831509854
 31
0.0
  0
LINE
  5
D16
330
1E
100
AcDbEntity
  8
0
100
AcDbLine
 10
41.87200803914106
 20
910.3356831509854
 30
0.0
 11
42.40904865471634
 21
911.2391673947595
 31
0.0
  0
LINE
  5
D17
330
1E
100
AcDbEntity
  8
0
100
AcDbLine
 10
41.87200803914106
 20
910.3356831509854
 30
0.0
 11
42.12991900186318
 21
910.1822058063778
 31
0.0
  0
LINE
  5
D18
330
1E
100
AcDbEntity
  8
0
100
AcDbLine
 10
42.12991900186318
 20
910.1822058063778
 30
0.0
 11
42.66701294544839
 21
911.0857797659305
 31
0.0
  0
LINE
  5
D19
330
1E
100
AcDbEntity
  8
0
100
AcDbLine
 10
42.56575126246173
 20
909.5401292684
 30
0.0
 11
42.86987399183056
 21
910.0518650839804
 31
0.0
  0
LINE
  5
D1A
330
1E
100
AcDbEntity
  8
0
100
AcDbLine
 10
42.56575126246173
 20
909.5401292684
 30
0.0
 11
43.15954493532103
 21
909.1873366805769
 31
0.0
  0
LINE
  5
D1B
330
1E
100
AcDbEntity
  8
0
100
AcDbLine
 10
42.56575126246173
 20
909.5401292684
 30
0.0
 11
42.77009418729318
 21
909.4188858394177
 31
0.0
  0
LINE
  5
D1C
330
1E
100
AcDbEntity
  8
0
100
AcDbLine
 10
42.56575126246173
 20
909.5401292684
 30
0.0
 11
42.87490832461685
 21
909.3569016751734
 31
0.0
  0
LINE
  5
D1D
330
1E
100
AcDbEntity
  8
0
100
AcDbLine
 10
42.56575126246173
 20
909.5401292684
 30
0.0
 11
43.15954493532103
 21
909.1873366805769
 31
0.0
  0
LINE
  5
D1E
330
1E
100
AcDbEntity
  8
0
100
AcDbLine
 10
42.87490832461685
 20
909.3569016751734
 30
0.0
 11
43.19498170451777
 21
909.895052566061
 31
0.0
  0
LINE
  5
D1F
330
1E
100
AcDbEntity
  8
0
100
AcDbLine
 10
42.87490832461685
 20
909.3569016751734
 30
0.0
 11
43.49702795130105
 21
908.9862897891062
 31
0.0
  0
LINE
  5
D20
330
1E
100
AcDbEntity
  8
0
100
AcDbLine
 10
43.49702795130105
 20
908.9862897891062
 30
0.0
 11
43.84946323058523
 21
909.5793698183779
 31
0.0
  0
LINE
  5
D21
330
1E
100
AcDbEntity
  8
0
100
AcDbLine
 10
43.49702795130105
 20
908.9862897891062
 30
0.0
 11
44.07379734256671
 21
908.643902115118
 31
0.0
  0
LINE
  5
D22
330
1E
100
AcDbEntity
  8
0
100
AcDbLine
 10
43.34712239760392
 20
909.0755322396033
 30
0.0
 11
43.39305389882645
 21
909.0482296766086
 31
0.0
  0
LINE
  5
D23
330
1E
100
AcDbEntity
  8
0
100
AcDbLine
 10
43.34712239760392
 20
909.0755322396033
 30
0.0
 11
43.39305389882645
 21
909.0482296766086
 31
0.0
  0
LINE
  5
D24
330
1E
100
AcDbEntity
  8
0
100
AcDbLine
 10
43.32745590239892
 20
909.065086237193
 30
0.0
 11
43.55285864988218
 21
908.9311312795356
 31
0.0
  0
LINE
  5
D25
330
1E
100
AcDbEntity
  8
0
100
AcDbLine
 10
44.07379734256671
 20
908.643902115118
 30
0.0
 11
44.45613844867216
 21
909.2867459746647
 31
0.0
  0
LINE
  5
D26
330
1E
100
AcDbEntity
  8
0
100
AcDbLine
 10
44.07379734256671
 20
908.643902115118
 30
0.0
 11
44.27839908644324
 21
908.5216927603095
 31
0.0
  0
LINE
  5
D27
330
1E
100
AcDbEntity
  8
0
100
AcDbLine
 10
44.27839908644324
 20
908.5216927603095
 30
0.0
 11
44.67137050372048
 21
909.1829309030075
 31
0.0
  0
LINE
  5
D28
330
1E
100
AcDbEntity
  8
0
100
AcDbLine
 10
48.72802107476855
 20
905.8761965779249
 30
0.0
 11
49.23033524193773
 21
906.7214936252966
 31
0.0
  0
LINE
  5
D29
330
1E
100
AcDbEntity
  8
0
100
AcDbLine
 10
48.72802107476855
 20
905.8761965779249
 30
0.0
 11
48.82116731887413
 21
905.8214387729194
 31
0.0
  0
LINE
  5
D2A
330
1E
100
AcDbEntity
  8
0
100
AcDbLine
 10
48.82116731887413
 20
905.8214387729194
 30
0.0
 11
49.33555886537522
 21
906.6863037894991
 31
0.0
  0
LINE
  5
D2B
330
1E
100
AcDbEntity
  8
0
100
AcDbLine
 10
51.23419601214914
 20
904.0050858294
 30
0.0
 11
51.63018512607004
 21
904.6712736646547
 31
0.0
  0
LINE
  5
D2C
330
1E
100
AcDbEntity
  8
0
100
AcDbLine
 10
51.23419601214914
 20
904.0050858294
 30
0.0
 11
51.62638062298817
 21
903.771636068164
 31
0.0
  0
LINE
  5
D2D
330
1E
100
AcDbEntity
  8
0
100
AcDbLine
 10
51.62638062298817
 20
903.771636068164
 30
0.0
 11
51.79401489979557
 21
904.0536537096969
 31
0.0
  0
LINE
  5
D2E
330
1E
100
AcDbEntity
  8
0
100
AcDbLine
 10
52.05955624795314
 20
903.8959873364978
 30
0.0
 11
52.22773698923515
 21
904.1787315954554
 31
0.0
  0
LINE
  5
D2F
330
1E
100
AcDbEntity
  8
0
100
AcDbLine
 10
52.05955624795314
 20
903.8959873364978
 30
0.0
 11
52.71380901904143
 21
903.507068319833
 31
0.0
  0
LINE
  5
D30
330
1E
100
AcDbEntity
  8
0
100
AcDbLine
 10
52.37618420849646
 20
904.0905668179497
 30
0.0
 11
52.91298850748825
 21
904.9936534971767
 31
0.0
  0
LINE
  5
D31
330
1E
100
AcDbEntity
  8
0
100
AcDbLine
 10
52.37618420849646
 20
904.0905668179497
 30
0.0
 11
53.02985742408896
 21
903.7014925098581
 31
0.0
  0
LINE
  5
D32
330
1E
100
AcDbEntity
  8
0
100
AcDbLine
 10
52.22551995575475
 20
904.1800514219419
 30
0.0
 11
52.44190310251827
 21
904.0512359526077
 31
0.0
  0
LINE
  5
D33
330
1E
100
AcDbEntity
  8
0
100
AcDbLine
 10
52.22551995575475
 20
904.1800514219419
 30
0.0
 11
52.44190310251827
 21
904.0512359526077
 31
0.0
  0
LINE
  5
D34
330
1E
100
AcDbEntity
  8
0
100
AcDbLine
 10
52.44190310251827
 20
904.0512359526077
 30
0.0
 11
52.5982454444304
 21
903.9583932491638
 31
0.0
  0
LINE
  5
D35
330
1E
100
AcDbEntity
  8
0
100
AcDbLine
 10
52.44190310251827
 20
904.0512359526077
 30
0.0
 11
52.5982454444304
 21
903.9583932491638
 31
0.0
  0
LINE
  5
D36
330
1E
100
AcDbEntity
  8
0
100
AcDbLine
 10
51.57177590326575
 20
904.1856091163012
 30
0.0
 11
51.99415629854207
 21
904.8963931720377
 31
0.0
  0
LINE
  5
D37
330
1E
100
AcDbEntity
  8
0
100
AcDbLine
 10
51.57177590326575
 20
904.1856091163012
 30
0.0
 11
52.05955624795314
 21
903.8959873364978
 31
0.0
  0
LINE
  5
D38
330
1E
100
AcDbEntity
  8
0
100
AcDbLine
 10
51.55088960657235
 20
904.1986476212169
 30
0.0
 11
51.97248112268545
 21
904.9074242617399
 31
0.0
  0
LINE
  5
D39
330
1E
100
AcDbEntity
  8
0
100
AcDbLine
 10
51.9281442964866
 20
904.3566729006428
 30
0.0
 11
52.46505931564979
 21
905.2599458487055
 31
0.0
  0
LINE
  5
D3A
330
1E
100
AcDbEntity
  8
0
100
AcDbLine
 10
51.9281442964866
 20
904.3566729006428
 30
0.0
 11
52.37618420849646
 21
904.0905668179497
 31
0.0
  0
LINE
  5
D3B
330
1E
100
AcDbEntity
  8
0
100
AcDbLine
 10
51.9874238518264
 20
903.938776090032
 30
0.0
 11
52.6416766229147
 21
903.5498570733674
 31
0.0
  0
LINE
  5
D3C
330
1E
100
AcDbEntity
  8
0
100
AcDbLine
 10
53.15034326429554
 20
903.2471967886481
 30
0.0
 11
53.31851310515867
 21
903.53019392317
 31
0.0
  0
LINE
  5
D3D
330
1E
100
AcDbEntity
  8
0
100
AcDbLine
 10
53.50700143526421
 20
903.418338218703
 30
0.0
 11
54.04413570469774
 21
904.3211904102456
 31
0.0
  0
LINE
  5
D3E
330
1E
100
AcDbEntity
  8
0
100
AcDbLine
 10
53.54361623012056
 20
903.3960555618232
 30
0.0
 11
54.08063001588812
 21
904.2994946687729
 31
0.0
  0
LINE
  5
D3F
330
1E
100
AcDbEntity
  8
0
100
AcDbLine
 10
53.02985742408896
 20
903.7014925098581
 30
0.0
 11
53.56690101495377
 21
904.6049047786734
 31
0.0
  0
LINE
  5
D40
330
1E
100
AcDbEntity
  8
0
100
AcDbLine
 10
53.02985742408896
 20
903.7014925098581
 30
0.0
 11
53.50700143526421
 21
903.418338218703
 31
0.0
  0
LINE
  5
D41
330
1E
100
AcDbEntity
  8
0
100
AcDbLine
 10
53.32161427166932
 20
903.5283535802452
 30
0.0
 11
53.54361623012056
 21
903.3960555618232
 31
0.0
  0
LINE
  5
D42
330
1E
100
AcDbEntity
  8
0
100
AcDbLine
 10
53.32161427166932
 20
903.5283535802452
 30
0.0
 11
53.54361623012056
 21
903.3960555618232
 31
0.0
  0
LINE
  5
D43
330
1E
100
AcDbEntity
  8
0
100
AcDbLine
 10
53.29592600032424
 20
903.4921842187396
 30
0.0
 11
55.73833875308321
 21
902.1815586058449
 31
0.0
  0
LINE
  5
D44
330
1E
100
AcDbEntity
  8
0
100
AcDbLine
 10
53.69037431188212
 20
902.2769052254352
 30
0.0
 11
53.96795731938414
 21
902.1121235956943
 31
0.0
  0
LINE
  5
D45
330
1E
100
AcDbEntity
  8
0
100
AcDbLine
 10
53.69037431188212
 20
902.2769052254352
 30
0.0
 11
53.96795731938403
 21
902.1121235956941
 31
0.0
  0
LINE
  5
D46
330
1E
100
AcDbEntity
  8
0
100
AcDbLine
 10
53.54056535076757
 20
902.3661735578368
 30
0.0
 11
53.90141645115694
 21
902.9732473509453
 31
0.0
  0
LINE
  5
D47
330
1E
100
AcDbEntity
  8
0
100
AcDbLine
 10
53.54056535076757
 20
902.3661735578368
 30
0.0
 11
54.16242615840673
 21
901.9965275975957
 31
0.0
  0
LINE
  5
D48
330
1E
100
AcDbEntity
  8
0
100
AcDbLine
 10
52.71380901904143
 20
903.507068319833
 30
0.0
 11
52.88185471253405
 21
903.7895855374147
 31
0.0
  0
LINE
  5
D49
330
1E
100
AcDbEntity
  8
0
100
AcDbLine
 10
52.71380901904143
 20
903.507068319833
 30
0.0
 11
53.15034326429554
 21
903.2471967886481
 31
0.0
  0
LINE
  5
D4A
330
1E
100
AcDbEntity
  8
0
100
AcDbLine
 10
52.6416766229147
 20
903.5498570733674
 30
0.0
 11
53.12981237922975
 21
903.2592952496418
 31
0.0
  0
LINE
  5
D4B
330
1E
100
AcDbEntity
  8
0
100
AcDbLine
 10
51.54580144438421
 20
903.5523071918721
 30
0.0
 11
51.83083599979716
 21
904.0317910154888
 31
0.0
  0
LINE
  5
D4C
330
1E
100
AcDbEntity
  8
0
100
AcDbLine
 10
51.54580144438421
 20
903.5523071918721
 30
0.0
 11
52.20015080805507
 21
903.1634140571121
 31
0.0
  0
LINE
  5
D4D
330
1E
100
AcDbEntity
  8
0
100
AcDbLine
 10
51.32215237935838
 20
903.6849419750666
 30
0.0
 11
51.39815323671496
 21
903.639825125024
 31
0.0
  0
LINE
  5
D4E
330
1E
100
AcDbEntity
  8
0
100
AcDbLine
 10
51.32215237935838
 20
903.6849419750666
 30
0.0
 11
51.39815323671496
 21
903.639825125024
 31
0.0
  0
LINE
  5
D4F
330
1E
100
AcDbEntity
  8
0
100
AcDbLine
 10
51.34268326442418
 20
903.6728435140732
 30
0.0
 11
51.83081902073922
 21
903.3822816903475
 31
0.0
  0
LINE
  5
D50
330
1E
100
AcDbEntity
  8
0
100
AcDbLine
 10
51.83081902073922
 20
903.3822816903475
 30
0.0
 11
52.48507179182746
 21
902.9933626736831
 31
0.0
  0
LINE
  5
D51
330
1E
100
AcDbEntity
  8
0
100
AcDbLine
 10
52.96353714045688
 20
902.7095271576511
 30
0.0
 11
53.31348117950449
 21
903.2977371463836
 31
0.0
  0
LINE
  5
D52
330
1E
100
AcDbEntity
  8
0
100
AcDbLine
 10
52.96353714045688
 20
902.7095271576511
 30
0.0
 11
53.54056535076757
 21
902.3661735578368
 31
0.0
  0
LINE
  5
D53
330
1E
100
AcDbEntity
  8
0
100
AcDbLine
 10
53.06851350424313
 20
902.6465511856761
 30
0.0
 11
53.69037431188212
 21
902.2769052254352
 31
0.0
  0
LINE
  5
D54
330
1E
100
AcDbEntity
  8
0
100
AcDbLine
 10
52.75919421562543
 20
902.8307705866334
 30
0.0
 11
53.04420394312479
 21
903.3102534984474
 31
0.0
  0
LINE
  5
D55
330
1E
100
AcDbEntity
  8
0
100
AcDbLine
 10
52.75919421562543
 20
902.8307705866334
 30
0.0
 11
53.06851350424313
 21
902.6465511856761
 31
0.0
  0
LINE
  5
D56
330
1E
100
AcDbEntity
  8
0
100
AcDbLine
 10
52.75919421562543
 20
902.8307705866334
 30
0.0
 11
52.96353714045688
 21
902.7095271576511
 31
0.0
  0
LINE
  5
D57
330
1E
100
AcDbEntity
  8
0
100
AcDbLine
 10
52.70872085685329
 20
902.8607278904882
 30
0.0
 11
52.99376872168477
 21
903.340274962214
 31
0.0
  0
LINE
  5
D58
330
1E
100
AcDbEntity
  8
0
100
AcDbLine
 10
52.68818997178744
 20
902.8728263514819
 30
0.0
 11
52.97329162464882
 21
903.3524639128946
 31
0.0
  0
LINE
  5
D59
330
1E
100
AcDbEntity
  8
0
100
AcDbLine
 10
52.20015080805507
 20
903.1634140571121
 30
0.0
 11
52.4853449932387
 21
903.6427880419076
 31
0.0
  0
LINE
  5
D5A
330
1E
100
AcDbEntity
  8
0
100
AcDbLine
 10
52.20015080805507
 20
903.1634140571121
 30
0.0
 11
52.68818997178744
 21
902.8728263514819
 31
0.0
  0
LINE
  5
D5B
330
1E
100
AcDbEntity
  8
0
100
AcDbLine
 10
52.48507179182746
 20
902.9933626736831
 30
0.0
 11
52.83019137641935
 21
902.7884872408725
 31
0.0
  0
LINE
  5
D5C
330
1E
100
AcDbEntity
  8
0
100
AcDbLine
 10
52.48507179182746
 20
902.9933626736831
 30
0.0
 11
52.83019137641935
 21
902.7884872408725
 31
0.0
  0
LINE
  5
D5D
330
1E
100
AcDbEntity
  8
0
100
AcDbLine
 10
50.58426266505069
 20
904.3910211275127
 30
0.0
 11
50.77499911809167
 21
904.2777603905554
 31
0.0
  0
LINE
  5
D5E
330
1E
100
AcDbEntity
  8
0
100
AcDbLine
 10
50.58426266505069
 20
904.3910211275127
 30
0.0
 11
50.77499911809167
 21
904.2777603905554
 31
0.0
  0
LINE
  5
D5F
330
1E
100
AcDbEntity
  8
0
100
AcDbLine
 10
50.58426266505069
 20
904.3910211275127
 30
0.0
 11
50.98045986295279
 21
905.0575022391843
 31
0.0
  0
LINE
  5
D60
330
1E
100
AcDbEntity
  8
0
100
AcDbLine
 10
50.58426266505069
 20
904.3910211275127
 30
0.0
 11
51.23419601214914
 21
904.0050858294
 31
0.0
  0
LINE
  5
D61
330
1E
100
AcDbEntity
  8
0
100
AcDbLine
 10
50.06006071067218
 20
904.7029773280055
 30
0.0
 11
50.45608150624047
 21
905.369218462523
 31
0.0
  0
LINE
  5
D62
330
1E
100
AcDbEntity
  8
0
100
AcDbLine
 10
50.06006071067218
 20
904.7029773280055
 30
0.0
 11
50.58426266505069
 21
904.3910211275127
 31
0.0
  0
LINE
  5
D63
330
1E
100
AcDbEntity
  8
0
100
AcDbLine
 10
49.98238414568442
 20
904.7494569068728
 30
0.0
 11
50.14856852957501
 21
905.0287672495572
 31
0.0
  0
LINE
  5
D64
330
1E
100
AcDbEntity
  8
0
100
AcDbLine
 10
49.98238414568442
 20
904.7494569068728
 30
0.0
 11
50.33302594310942
 21
905.3387895403343
 31
0.0
  0
LINE
  5
D65
330
1E
100
AcDbEntity
  8
0
100
AcDbLine
 10
49.98238414568442
 20
904.7494569068728
 30
0.0
 11
50.06006071067218
 21
904.7029773280055
 31
0.0
  0
LINE
  5
D66
330
1E
100
AcDbEntity
  8
0
100
AcDbLine
 10
49.23417659498949
 20
904.9268511037428
 30
0.0
 11
49.59951109079645
 21
905.5409304298176
 31
0.0
  0
LINE
  5
D67
330
1E
100
AcDbEntity
  8
0
100
AcDbLine
 10
49.23417659498949
 20
904.9268511037428
 30
0.0
 11
49.47739061925483
 21
904.7818590405094
 31
0.0
  0
LINE
  5
D68
330
1E
100
AcDbEntity
  8
0
100
AcDbLine
 10
49.47739061925483
 20
904.7818590405094
 30
0.0
 11
49.84795780008346
 21
905.4052785723442
 31
0.0
  0
LINE
  5
D69
330
1E
100
AcDbEntity
  8
0
100
AcDbLine
 10
49.75393291269313
 20
905.247096859796
 30
0.0
 11
50.14856852957501
 21
905.0287672495572
 31
0.0
  0
LINE
  5
D6A
330
1E
100
AcDbEntity
  8
0
100
AcDbLine
 10
49.81962160210969
 20
905.3576074881563
 30
0.0
 11
50.21726522223895
 21
905.1442275372219
 31
0.0
  0
LINE
  5
D6B
330
1E
100
AcDbEntity
  8
0
100
AcDbLine
 10
50.77499911809167
 20
904.2777603905554
 30
0.0
 11
51.02476092266681
 21
904.1291059216979
 31
0.0
  0
LINE
  5
D6C
330
1E
100
AcDbEntity
  8
0
100
AcDbLine
 10
51.02476092266681
 20
904.1291059216979
 30
0.0
 11
51.22715740154308
 21
904.0089720134307
 31
0.0
  0
LINE
  5
D6D
330
1E
100
AcDbEntity
  8
0
100
AcDbLine
 10
51.02476092266681
 20
904.1291059216979
 30
0.0
 11
51.40600165589905
 21
903.9028177000449
 31
0.0
  0
LINE
  5
D6E
330
1E
100
AcDbEntity
  8
0
100
AcDbLine
 10
51.02476092266681
 20
904.1291059216979
 30
0.0
 11
51.40600165589893
 21
903.9028177000448
 31
0.0
  0
LINE
  5
D6F
330
1E
100
AcDbEntity
  8
0
100
AcDbLine
 10
51.10962261075769
 20
903.8112386791352
 30
0.0
 11
51.22715740154308
 21
904.0089720134307
 31
0.0
  0
LINE
  5
D70
330
1E
100
AcDbEntity
  8
0
100
AcDbLine
 10
51.10962261075769
 20
903.8112386791352
 30
0.0
 11
51.54580144438421
 21
903.5523071918721
 31
0.0
  0
LINE
  5
D71
330
1E
100
AcDbEntity
  8
0
100
AcDbLine
 10
48.21342389419601
 20
906.182444160359
 30
0.0
 11
48.64926642983608
 21
906.9158199126515
 31
0.0
  0
LINE
  5
D72
330
1E
100
AcDbEntity
  8
0
100
AcDbLine
 10
48.21342389419601
 20
906.182444160359
 30
0.0
 11
48.72802107476855
 21
905.8761965779249
 31
0.0
  0
LINE
  5
D73
330
1E
100
AcDbEntity
  8
0
100
AcDbLine
 10
47.56548803263001
 20
906.5678794069267
 30
0.0
 11
47.73361999177694
 21
906.8505657197638
 31
0.0
  0
LINE
  5
D74
330
1E
100
AcDbEntity
  8
0
100
AcDbLine
 10
47.56548803263001
 20
906.5678794069267
 30
0.0
 11
48.21342389419601
 21
906.182444160359
 31
0.0
  0
LINE
  5
D75
330
1E
100
AcDbEntity
  8
0
100
AcDbLine
 10
47.7885177448573
 20
906.8181308554017
 30
0.0
 11
48.32570681898551
 21
907.7210751664408
 31
0.0
  0
LINE
  5
D76
330
1E
100
AcDbEntity
  8
0
100
AcDbLine
 10
47.7885177448573
 20
906.8181308554017
 30
0.0
 11
47.93813352080667
 21
906.728810759191
 31
0.0
  0
LINE
  5
D77
330
1E
100
AcDbEntity
  8
0
100
AcDbLine
 10
47.59653255376747
 20
906.9321792721249
 30
0.0
 11
47.93813352080667
 21
906.728810759191
 31
0.0
  0
LINE
  5
D78
330
1E
100
AcDbEntity
  8
0
100
AcDbLine
 10
47.59653255376747
 20
906.9321792721249
 30
0.0
 11
47.93813352080667
 21
906.728810759191
 31
0.0
  0
LINE
  5
D79
330
1E
100
AcDbEntity
  8
0
100
AcDbLine
 10
47.93813352080667
 20
906.728810759191
 30
0.0
 11
48.47513272217748
 21
907.6322253302436
 31
0.0
  0
LINE
  5
D7A
330
1E
100
AcDbEntity
  8
0
100
AcDbLine
 10
47.16066960274662
 20
906.8082967083565
 30
0.0
 11
47.32880961377185
 21
907.0912195462909
 31
0.0
  0
LINE
  5
D7B
330
1E
100
AcDbEntity
  8
0
100
AcDbLine
 10
47.16066960274662
 20
906.8082967083565
 30
0.0
 11
47.25417125847985
 21
906.7525988594292
 31
0.0
  0
LINE
  5
D7C
330
1E
100
AcDbEntity
  8
0
100
AcDbLine
 10
47.16066960274662
 20
906.8082967083565
 30
0.0
 11
47.56548803263001
 21
906.5678794069267
 31
0.0
  0
LINE
  5
D7D
330
1E
100
AcDbEntity
  8
0
100
AcDbLine
 10
45.05938897338057
 20
907.6760119419734
 30
0.0
 11
45.4553169632718
 21
908.3420401931617
 31
0.0
  0
LINE
  5
D7E
330
1E
100
AcDbEntity
  8
0
100
AcDbLine
 10
45.05938897338057
 20
907.6760119419734
 30
0.0
 11
45.20874593028475
 21
907.587657771589
 31
0.0
  0
LINE
  5
D7F
330
1E
100
AcDbEntity
  8
0
100
AcDbLine
 10
45.20874593028475
 20
907.587657771589
 30
0.0
 11
45.60470956934352
 21
908.2532206664536
 31
0.0
  0
LINE
  5
D80
330
1E
100
AcDbEntity
  8
0
100
AcDbLine
 10
47.24085245275716
 20
907.1434703209279
 30
0.0
 11
47.7778294022899
 21
908.046847456851
 31
0.0
  0
LINE
  5
D81
330
1E
100
AcDbEntity
  8
0
100
AcDbLine
 10
47.24085245275716
 20
907.1434703209279
 30
0.0
 11
47.7885177448573
 21
906.8181308554017
 31
0.0
  0
LINE
  5
D82
330
1E
100
AcDbEntity
  8
0
100
AcDbLine
 10
46.60355292470319
 20
907.5224380788469
 30
0.0
 11
47.14051917329846
 21
908.4257972121676
 31
0.0
  0
LINE
  5
D83
330
1E
100
AcDbEntity
  8
0
100
AcDbLine
 10
46.60355292470319
 20
907.5224380788469
 30
0.0
 11
47.24085245275716
 21
907.1434703209279
 31
0.0
  0
LINE
  5
D84
330
1E
100
AcDbEntity
  8
0
100
AcDbLine
 10
46.24498502218478
 20
907.7359076768779
 30
0.0
 11
46.7821829167915
 21
908.6388668139838
 31
0.0
  0
LINE
  5
D85
330
1E
100
AcDbEntity
  8
0
100
AcDbLine
 10
46.24498502218478
 20
907.7359076768779
 30
0.0
 11
46.39460079813403
 21
907.6465875806674
 31
0.0
  0
LINE
  5
D86
330
1E
100
AcDbEntity
  8
0
100
AcDbLine
 10
46.24498502218478
 20
907.7359076768779
 30
0.0
 11
46.60355292470319
 21
907.5224380788469
 31
0.0
  0
LINE
  5
D87
330
1E
100
AcDbEntity
  8
0
100
AcDbLine
 10
46.39460079813403
 20
907.6465875806674
 30
0.0
 11
46.62565579839816
 21
907.5092946884645
 31
0.0
  0
LINE
  5
D88
330
1E
100
AcDbEntity
  8
0
100
AcDbLine
 10
46.39460079813403
 20
907.6465875806674
 30
0.0
 11
46.62565579839827
 21
907.5092946884646
 31
0.0
  0
LINE
  5
D89
330
1E
100
AcDbEntity
  8
0
100
AcDbLine
 10
44.51172368128044
 20
908.0013514074998
 30
0.0
 11
44.90774452175185
 21
908.6675926175601
 31
0.0
  0
LINE
  5
D8A
330
1E
100
AcDbEntity
  8
0
100
AcDbLine
 10
44.51172368128044
 20
908.0013514074998
 30
0.0
 11
45.05938897338057
 21
907.6760119419734
 31
0.0
  0
LINE
  5
D8B
330
1E
100
AcDbEntity
  8
0
100
AcDbLine
 10
44.87663833236081
 20
907.5173047801724
 30
0.0
 11
44.99404800038343
 21
907.7148276155948
 31
0.0
  0
LINE
  5
D8C
330
1E
100
AcDbEntity
  8
0
100
AcDbLine
 10
44.99404800038343
 20
907.7148276155948
 30
0.0
 11
45.05938897338057
 21
907.6760119419734
 31
0.0
  0
LINE
  5
D8D
330
1E
100
AcDbEntity
  8
0
100
AcDbLine
 10
44.44045949873441
 20
907.7762362674357
 30
0.0
 11
44.80063747499906
 21
907.5624216302188
 31
0.0
  0
LINE
  5
D8E
330
1E
100
AcDbEntity
  8
0
100
AcDbLine
 10
44.44045949873441
 20
907.7762362674357
 30
0.0
 11
44.80063747499906
 21
907.5624216302188
 31
0.0
  0
LINE
  5
D8F
330
1E
100
AcDbEntity
  8
0
100
AcDbLine
 10
44.44045949873441
 20
907.7762362674357
 30
0.0
 11
44.55794809525355
 21
907.9738918873273
 31
0.0
  0
LINE
  5
D90
330
1E
100
AcDbEntity
  8
0
100
AcDbLine
 10
44.44045949873441
 20
907.7762362674357
 30
0.0
 11
44.87663833236081
 21
907.5173047801724
 31
0.0
  0
LINE
  5
D91
330
1E
100
AcDbEntity
  8
0
100
AcDbLine
 10
44.80063747499906
 20
907.5624216302188
 30
0.0
 11
44.85610744729507
 21
907.5294032411662
 31
0.0
  0
LINE
  5
D92
330
1E
100
AcDbEntity
  8
0
100
AcDbLine
 10
44.80063747499906
 20
907.5624216302188
 30
0.0
 11
44.85610744729507
 21
907.5294032411662
 31
0.0
  0
LINE
  5
D93
330
1E
100
AcDbEntity
  8
0
100
AcDbLine
 10
47.25417125847985
 20
906.7525988594292
 30
0.0
 11
47.61101389780549
 21
906.5407976012881
 31
0.0
  0
LINE
  5
D94
330
1E
100
AcDbEntity
  8
0
100
AcDbLine
 10
47.19534388609315
 20
906.7658238455567
 30
0.0
 11
47.57635584169668
 21
906.5613686291861
 31
0.0
  0
LINE
  5
D95
330
1E
100
AcDbEntity
  8
0
100
AcDbLine
 10
48.626529762894
 20
905.2878823730871
 30
0.0
 11
49.03342252202844
 21
905.9724138333201
 31
0.0
  0
LINE
  5
D96
330
1E
100
AcDbEntity
  8
0
100
AcDbLine
 10
48.626529762894
 20
905.2878823730871
 30
0.0
 11
49.23417659498949
 21
904.9268511037428
 31
0.0
  0
LINE
  5
D97
330
1E
100
AcDbEntity
  8
0
100
AcDbLine
 10
48.01878633821576
 20
905.6488877605268
 30
0.0
 11
48.30392388884462
 21
906.1285857141458
 31
0.0
  0
LINE
  5
D98
330
1E
100
AcDbEntity
  8
0
100
AcDbLine
 10
48.01878633821576
 20
905.6488877605268
 30
0.0
 11
48.626529762894
 21
905.2878823730871
 31
0.0
  0
LINE
  5
D99
330
1E
100
AcDbEntity
  8
0
100
AcDbLine
 10
47.77547572136791
 20
905.7938539418557
 30
0.0
 11
48.05084108112533
 21
906.2570722888272
 31
0.0
  0
LINE
  5
D9A
330
1E
100
AcDbEntity
  8
0
100
AcDbLine
 10
47.77547572136791
 20
905.7938539418557
 30
0.0
 11
48.0605408256477
 21
906.2733891546363
 31
0.0
  0
LINE
  5
D9B
330
1E
100
AcDbEntity
  8
0
100
AcDbLine
 10
47.77547572136791
 20
905.7938539418557
 30
0.0
 11
48.01878633821576
 21
905.6488877605268
 31
0.0
  0
LINE
  5
D9C
330
1E
100
AcDbEntity
  8
0
100
AcDbLine
 10
43.79310290546249
 20
908.8105307831384
 30
0.0
 11
44.27839908644324
 21
908.5216927603095
 31
0.0
  0
LINE
  5
D9D
330
1E
100
AcDbEntity
  8
0
100
AcDbLine
 10
43.6690397414618
 20
908.8841784121445
 30
0.0
 11
43.96898320524292
 21
908.7058862793625
 31
0.0
  0
LINE
  5
D9E
330
1E
100
AcDbEntity
  8
0
100
AcDbLine
 10
43.96898320524292
 20
908.7058862793625
 30
0.0
 11
44.27839908644324
 21
908.5216927603095
 31
0.0
  0
LINE
  5
D9F
330
1E
100
AcDbEntity
  8
0
100
AcDbLine
 10
43.80944470486958
 20
908.8008297990493
 30
0.0
 11
43.96898320524292
 21
908.7058862793625
 31
0.0
  0
LINE
  5
DA0
330
1E
100
AcDbEntity
  8
0
100
AcDbLine
 10
43.79310290546249
 20
908.8105307831384
 30
0.0
 11
44.27839908644324
 21
908.5216927603095
 31
0.0
  0
LINE
  5
DA1
330
1E
100
AcDbEntity
  8
0
100
AcDbLine
 10
43.87442415322635
 20
908.3803191654185
 30
0.0
 11
44.04207959480333
 21
908.6623724132646
 31
0.0
  0
LINE
  5
DA2
330
1E
100
AcDbEntity
  8
0
100
AcDbLine
 10
43.87442415322635
 20
908.3803191654185
 30
0.0
 11
44.51172368128044
 21
908.0013514074998
 31
0.0
  0
LINE
  5
DA3
330
1E
100
AcDbEntity
  8
0
100
AcDbLine
 10
43.51585625070788
 20
908.5937887634498
 30
0.0
 11
43.68340540654685
 21
908.8756391860032
 31
0.0
  0
LINE
  5
DA4
330
1E
100
AcDbEntity
  8
0
100
AcDbLine
 10
43.51585625070788
 20
908.5937887634498
 30
0.0
 11
43.6654720266572
 21
908.5044686672389
 31
0.0
  0
LINE
  5
DA5
330
1E
100
AcDbEntity
  8
0
100
AcDbLine
 10
43.51585625070788
 20
908.5937887634498
 30
0.0
 11
43.87442415322635
 21
908.3803191654185
 31
0.0
  0
LINE
  5
DA6
330
1E
100
AcDbEntity
  8
0
100
AcDbLine
 10
43.6654720266572
 20
908.5044686672389
 30
0.0
 11
43.85745721773065
 21
908.3904202505259
 31
0.0
  0
LINE
  5
DA7
330
1E
100
AcDbEntity
  8
0
100
AcDbLine
 10
43.6654720266572
 20
908.5044686672389
 30
0.0
 11
43.85745721773065
 21
908.3904202505259
 31
0.0
  0
LINE
  5
DA8
330
1E
100
AcDbEntity
  8
0
100
AcDbLine
 10
43.7858513160184
 20
908.166095328022
 30
0.0
 11
43.90314790102348
 21
908.3632386972519
 31
0.0
  0
LINE
  5
DA9
330
1E
100
AcDbEntity
  8
0
100
AcDbLine
 10
43.7858513160184
 20
908.166095328022
 30
0.0
 11
43.90314790102348
 21
908.3632386972519
 31
0.0
  0
LINE
  5
DAA
330
1E
100
AcDbEntity
  8
0
100
AcDbLine
 10
43.7858513160184
 20
908.166095328022
 30
0.0
 11
44.44045949873441
 21
907.7762362674357
 31
0.0
  0
LINE
  5
DAB
330
1E
100
AcDbEntity
  8
0
100
AcDbLine
 10
43.86685358698037
 20
908.1178535398864
 30
0.0
 11
44.44045949873441
 21
907.7762362674357
 31
0.0
  0
LINE
  5
DAC
330
1E
100
AcDbEntity
  8
0
100
AcDbLine
 10
43.86685358698037
 20
908.1178535398864
 30
0.0
 11
44.44045949873441
 21
907.7762362674357
 31
0.0
  0
LINE
  5
DAD
330
1E
100
AcDbEntity
  8
0
100
AcDbLine
 10
43.29807097133107
 20
908.4557171078257
 30
0.0
 11
43.58308345280568
 21
908.9352046527585
 31
0.0
  0
LINE
  5
DAE
330
1E
100
AcDbEntity
  8
0
100
AcDbLine
 10
43.29807097133107
 20
908.4557171078257
 30
0.0
 11
43.7858513160184
 21
908.166095328022
 31
0.0
  0
LINE
  5
DAF
330
1E
100
AcDbEntity
  8
0
100
AcDbLine
 10
43.27744349368265
 20
908.4677896869148
 30
0.0
 11
43.55285864988218
 21
908.9311312795356
 31
0.0
  0
LINE
  5
DB0
330
1E
100
AcDbEntity
  8
0
100
AcDbLine
 10
43.27744349368265
 20
908.4677896869148
 30
0.0
 11
43.56253177260088
 21
908.9474047488254
 31
0.0
  0
LINE
  5
DB1
330
1E
100
AcDbEntity
  8
0
100
AcDbLine
 10
43.27744349368265
 20
908.4677896869148
 30
0.0
 11
43.71371891989173
 21
908.2088840815563
 31
0.0
  0
LINE
  5
DB2
330
1E
100
AcDbEntity
  8
0
100
AcDbLine
 10
43.71371891989173
 20
908.2088840815563
 30
0.0
 11
43.86685358698037
 21
908.1178535398864
 31
0.0
  0
LINE
  5
DB3
330
1E
100
AcDbEntity
  8
0
100
AcDbLine
 10
43.71371891989173
 20
908.2088840815563
 30
0.0
 11
43.86685358698037
 21
908.1178535398864
 31
0.0
  0
LINE
  5
DB4
330
1E
100
AcDbEntity
  8
0
100
AcDbLine
 10
42.77009418729318
 20
909.4188858394177
 30
0.0
 11
43.11043484994985
 21
909.2165927602501
 31
0.0
  0
LINE
  5
DB5
330
1E
100
AcDbEntity
  8
0
100
AcDbLine
 10
42.77009418729318
 20
909.4188858394177
 30
0.0
 11
43.11043484994996
 21
909.2165927602501
 31
0.0
  0
LINE
  5
DB6
330
1E
100
AcDbEntity
  8
0
100
AcDbLine
 10
42.77009418729318
 20
909.4188858394177
 30
0.0
 11
43.34712239760392
 21
909.0755322396033
 31
0.0
  0
LINE
  5
DB7
330
1E
100
AcDbEntity
  8
0
100
AcDbLine
 10
40.41085767577681
 20
911.2041002026607
 30
0.0
 11
40.94804512324254
 21
912.1078314674161
 31
0.0
  0
LINE
  5
DB8
330
1E
100
AcDbEntity
  8
0
100
AcDbLine
 10
40.41085767577681
 20
911.2041002026607
 30
0.0
 11
40.66876863849882
 21
911.0506228580527
 31
0.0
  0
LINE
  5
DB9
330
1E
100
AcDbEntity
  8
0
100
AcDbLine
 10
39.32961863796032
 20
911.4641147274504
 30
0.0
 11
39.64983033214901
 21
912.0029687302297
 31
0.0
  0
LINE
  5
DBA
330
1E
100
AcDbEntity
  8
0
100
AcDbLine
 10
39.32961863796032
 20
911.4641147274504
 30
0.0
 11
39.63867910753282
 21
911.2808612523194
 31
0.0
  0
LINE
  5
DBB
330
1E
100
AcDbEntity
  8
0
100
AcDbLine
 10
39.63867910753282
 20
911.2808612523194
 30
0.0
 11
39.94284573674247
 21
911.7922675508948
 31
0.0
  0
LINE
  5
DBC
330
1E
100
AcDbEntity
  8
0
100
AcDbLine
 10
38.87661811504779
 20
911.084949834243
 30
0.0
 11
39.16138328597265
 21
911.5641846760079
 31
0.0
  0
LINE
  5
DBD
330
1E
100
AcDbEntity
  8
0
100
AcDbLine
 10
38.61151178966611
 20
911.2419965840071
 30
0.0
 11
38.89647285203512
 21
911.0726701999176
 31
0.0
  0
LINE
  5
DBE
330
1E
100
AcDbEntity
  8
0
100
AcDbLine
 10
38.61151178966577
 20
911.2419965840082
 30
0.0
 11
38.89647285203512
 21
911.0726701999176
 31
0.0
  0
LINE
  5
DBF
330
1E
100
AcDbEntity
  8
0
100
AcDbLine
 10
38.89647285203512
 20
911.0726701999176
 30
0.0
 11
39.18177188583928
 21
911.5520571052227
 31
0.0
  0
LINE
  5
DC0
330
1E
100
AcDbEntity
  8
0
100
AcDbLine
 10
40.66876863849882
 20
911.0506228580527
 30
0.0
 11
41.20601736459571
 21
911.9544572142238
 31
0.0
  0
LINE
  5
DC1
330
1E
100
AcDbEntity
  8
0
100
AcDbLine
 10
40.66876863849882
 20
911.0506228580527
 30
0.0
 11
41.20601736459571
 21
911.9544572142238
 31
0.0
  0
LINE
  5
DC2
330
1E
100
AcDbEntity
  8
0
100
AcDbLine
 10
40.66876863849882
 20
911.0506228580527
 30
0.0
 11
41.27038833881988
 21
910.6931530045191
 31
0.0
  0
LINE
  5
DC3
330
1E
100
AcDbEntity
  8
0
100
AcDbLine
 10
33.54003058557185
 20
914.8842494442938
 30
0.0
 11
33.61444882715693
 21
914.8399486871827
 31
0.0
  0
LINE
  5
DC4
330
1E
100
AcDbEntity
  8
0
100
AcDbLine
 10
33.38326305112031
 20
914.9995517477998
 30
0.0
 11
33.89762127214493
 21
915.86526408158
 31
0.0
  0
LINE
  5
DC5
330
1E
100
AcDbEntity
  8
0
100
AcDbLine
 10
33.38326305112031
 20
914.9995517477998
 30
0.0
 11
33.47686129943634
 21
914.9438797807771
 31
0.0
  0
LINE
  5
DC6
330
1E
100
AcDbEntity
  8
0
100
AcDbLine
 10
33.47686129943634
 20
914.9438797807771
 30
0.0
 11
33.97915254972514
 21
915.7892822896718
 31
0.0
  0
LINE
  5
DC7
330
1E
100
AcDbEntity
  8
0
100
AcDbLine
 10
33.47686129943634
 20
914.9438797807771
 30
0.0
 11
33.99139284612909
 21
914.6386498879783
 31
0.0
  0
LINE
  5
DC8
330
1E
100
AcDbEntity
  8
0
100
AcDbLine
 10
31.56300019090724
 20
915.4332095849584
 30
0.0
 11
31.68020010825478
 21
915.6304635976056
 31
0.0
  0
LINE
  5
DC9
330
1E
100
AcDbEntity
  8
0
100
AcDbLine
 10
31.56300019090724
 20
915.4332095849584
 30
0.0
 11
31.8058278448421
 21
915.288113994107
 31
0.0
  0
LINE
  5
DCA
330
1E
100
AcDbEntity
  8
0
100
AcDbLine
 10
31.80911682878866
 20
915.5540259768843
 30
0.0
 11
32.20511717057138
 21
916.2199490006466
 31
0.0
  0
LINE
  5
DCB
330
1E
100
AcDbEntity
  8
0
100
AcDbLine
 10
31.80911682878866
 20
915.5540259768843
 30
0.0
 11
31.88679339377648
 21
915.5075463980169
 31
0.0
  0
LINE
  5
DCC
330
1E
100
AcDbEntity
  8
0
100
AcDbLine
 10
31.7537976607457
 20
915.5868259547926
 30
0.0
 11
31.88679339377648
 21
915.5075463980169
 31
0.0
  0
LINE
  5
DCD
330
1E
100
AcDbEntity
  8
0
100
AcDbLine
 10
31.8058278448421
 20
915.288113994107
 30
0.0
 11
32.18441470962818
 21
915.9247541258299
 31
0.0
  0
LINE
  5
DCE
330
1E
100
AcDbEntity
  8
0
100
AcDbLine
 10
31.8058278448421
 20
915.288113994107
 30
0.0
 11
32.41395763985076
 21
914.9272121342852
 31
0.0
  0
LINE
  5
DCF
330
1E
100
AcDbEntity
  8
0
100
AcDbLine
 10
32.41395763985076
 20
914.9272121342852
 30
0.0
 11
32.77878471652809
 21
915.5412364990253
 31
0.0
  0
LINE
  5
DD0
330
1E
100
AcDbEntity
  8
0
100
AcDbLine
 10
32.41395763985076
 20
914.9272121342852
 30
0.0
 11
33.02112150903315
 21
914.5660514554185
 31
0.0
  0
LINE
  5
DD1
330
1E
100
AcDbEntity
  8
0
100
AcDbLine
 10
31.88679339377648
 20
915.5075463980169
 30
0.0
 11
32.23742965709618
 21
916.0971841737309
 31
0.0
  0
LINE
  5
DD2
330
1E
100
AcDbEntity
  8
0
100
AcDbLine
 10
33.61444882715693
 20
914.8399486871827
 30
0.0
 11
34.98999460080927
 21
914.0220985636348
 31
0.0
  0
LINE
  5
DD3
330
1E
100
AcDbEntity
  8
0
100
AcDbLine
 10
34.62556400413859
 20
914.2610407293519
 30
0.0
 11
34.98999460080927
 21
914.0220985636348
 31
0.0
  0
LINE
  5
DD4
330
1E
100
AcDbEntity
  8
0
100
AcDbLine
 10
34.6023533790854
 20
914.6574176041339
 30
0.0
 11
35.1397354137249
 21
915.5610912419184
 31
0.0
  0
LINE
  5
DD5
330
1E
100
AcDbEntity
  8
0
100
AcDbLine
 10
34.6023533790854
 20
914.6574176041339
 30
0.0
 11
34.96082468902113
 21
914.4439221241983
 31
0.0
  0
LINE
  5
DD6
330
1E
100
AcDbEntity
  8
0
100
AcDbLine
 10
34.6023533790854
 20
914.6574176041339
 30
0.0
 11
34.7525487105305
 21
914.5682527993502
 31
0.0
  0
LINE
  5
DD7
330
1E
100
AcDbEntity
  8
0
100
AcDbLine
 10
34.7525487105305
 20
914.5682527993502
 30
0.0
 11
35.28953455198239
 21
915.4720299892872
 31
0.0
  0
LINE
  5
DD8
330
1E
100
AcDbEntity
  8
0
100
AcDbLine
 10
34.7525487105305
 20
914.5682527993502
 30
0.0
 11
35.30040718779583
 21
914.242965097633
 31
0.0
  0
LINE
  5
DD9
330
1E
100
AcDbEntity
  8
0
100
AcDbLine
 10
34.96082468902113
 20
914.4439221241983
 30
0.0
 11
35.59860717998833
 21
914.0650837758018
 31
0.0
  0
LINE
  5
DDA
330
1E
100
AcDbEntity
  8
0
100
AcDbLine
 10
33.99139284612909
 20
914.6386498879783
 30
0.0
 11
34.42728363251257
 21
915.3716535747726
 31
0.0
  0
LINE
  5
DDB
330
1E
100
AcDbEntity
  8
0
100
AcDbLine
 10
33.99139284612909
 20
914.6386498879783
 30
0.0
 11
34.63923211511246
 21
914.253188759506
 31
0.0
  0
LINE
  5
DDC
330
1E
100
AcDbEntity
  8
0
100
AcDbLine
 10
33.81234977413106
 20
914.7448616412196
 30
0.0
 11
34.43611393515243
 21
914.3737250817071
 31
0.0
  0
LINE
  5
DDD
330
1E
100
AcDbEntity
  8
0
100
AcDbLine
 10
33.81234977413106
 20
914.7448616412196
 30
0.0
 11
34.43611393515243
 21
914.3737250817071
 31
0.0
  0
LINE
  5
DDE
330
1E
100
AcDbEntity
  8
0
100
AcDbLine
 10
34.43611393515243
 20
914.3737250817071
 30
0.0
 11
34.95090430089021
 21
914.0675292630819
 31
0.0
  0
LINE
  5
DDF
330
1E
100
AcDbEntity
  8
0
100
AcDbLine
 10
35.30040718779583
 20
914.242965097633
 30
0.0
 11
35.83720209031275
 21
915.1464209266681
 31
0.0
  0
LINE
  5
DE0
330
1E
100
AcDbEntity
  8
0
100
AcDbLine
 10
35.30040718779583
 20
914.242965097633
 30
0.0
 11
35.83720209031275
 21
915.1464209266681
 31
0.0
  0
LINE
  5
DE1
330
1E
100
AcDbEntity
  8
0
100
AcDbLine
 10
35.30040718779583
 20
914.242965097633
 30
0.0
 11
35.93722375293674
 21
913.8638679301914
 31
0.0
  0
LINE
  5
DE2
330
1E
100
AcDbEntity
  8
0
100
AcDbLine
 10
35.93722375293674
 20
913.8638679301914
 30
0.0
 11
36.47457009415001
 21
914.767481545113
 31
0.0
  0
LINE
  5
DE3
330
1E
100
AcDbEntity
  8
0
100
AcDbLine
 10
35.93722375293674
 20
913.8638679301914
 30
0.0
 11
36.29569506287248
 21
913.650372450256
 31
0.0
  0
LINE
  5
DE4
330
1E
100
AcDbEntity
  8
0
100
AcDbLine
 10
35.59860717998833
 20
914.0650837758018
 30
0.0
 11
35.8316740460234
 21
913.9267017148403
 31
0.0
  0
LINE
  5
DE5
330
1E
100
AcDbEntity
  8
0
100
AcDbLine
 10
35.59860717998833
 20
914.0650837758018
 30
0.0
 11
35.8316740460234
 21
913.9267017148403
 31
0.0
  0
LINE
  5
DE6
330
1E
100
AcDbEntity
  8
0
100
AcDbLine
 10
36.29569506287248
 20
913.650372450256
 30
0.0
 11
36.83320427922797
 21
914.5542599596552
 31
0.0
  0
LINE
  5
DE7
330
1E
100
AcDbEntity
  8
0
100
AcDbLine
 10
36.66004523884566
 20
912.6692420056828
 30
0.0
 11
36.81853807827986
 21
912.9357671061544
 31
0.0
  0
LINE
  5
DE8
330
1E
100
AcDbEntity
  8
0
100
AcDbLine
 10
36.66004523884566
 20
912.6692420056828
 30
0.0
 11
36.90724956881479
 21
912.5231467995357
 31
0.0
  0
LINE
  5
DE9
330
1E
100
AcDbEntity
  8
0
100
AcDbLine
 10
36.66004523884566
 20
912.6692420056828
 30
0.0
 11
37.05626233829468
 21
913.33552953398
 31
0.0
  0
LINE
  5
DEA
330
1E
100
AcDbEntity
  8
0
100
AcDbLine
 10
36.66004523884566
 20
912.6692420056828
 30
0.0
 11
37.36338696686806
 21
912.2516415986046
 31
0.0
  0
LINE
  5
DEB
330
1E
100
AcDbEntity
  8
0
100
AcDbLine
 10
36.66004523884566
 20
912.6692420056828
 30
0.0
 11
36.90724956881479
 21
912.5231467995357
 31
0.0
  0
LINE
  5
DEC
330
1E
100
AcDbEntity
  8
0
100
AcDbLine
 10
36.66004523884566
 20
912.6692420056828
 30
0.0
 11
36.80998175124563
 21
912.5810431267254
 31
0.0
  0
LINE
  5
DED
330
1E
100
AcDbEntity
  8
0
100
AcDbLine
 10
36.66004523884566
 20
912.6692420056828
 30
0.0
 11
37.36338696686806
 21
912.2516415986046
 31
0.0
  0
LINE
  5
DEE
330
1E
100
AcDbEntity
  8
0
100
AcDbLine
 10
36.80998175124563
 20
912.5810431267254
 30
0.0
 11
37.20553597583102
 21
913.2467829991149
 31
0.0
  0
LINE
  5
DEF
330
1E
100
AcDbEntity
  8
0
100
AcDbLine
 10
36.80998175124563
 20
912.5810431267254
 30
0.0
 11
37.35809904755615
 21
912.254789499182
 31
0.0
  0
LINE
  5
DF0
330
1E
100
AcDbEntity
  8
0
100
AcDbLine
 10
34.63923211511246
 20
914.253188759506
 30
0.0
 11
34.80709872689698
 21
914.5354770050282
 31
0.0
  0
LINE
  5
DF1
330
1E
100
AcDbEntity
  8
0
100
AcDbLine
 10
34.63923211511246
 20
914.253188759506
 30
0.0
 11
34.80709872689698
 21
914.5354770050282
 31
0.0
  0
LINE
  5
DF2
330
1E
100
AcDbEntity
  8
0
100
AcDbLine
 10
34.63923211511246
 20
914.253188759506
 30
0.0
 11
35.04327780433482
 21
914.0125644028401
 31
0.0
  0
LINE
  5
DF3
330
1E
100
AcDbEntity
  8
0
100
AcDbLine
 10
34.95090430089021
 20
914.0675292630819
 30
0.0
 11
35.04327780433482
 21
914.0125644028401
 31
0.0
  0
LINE
  5
DF4
330
1E
100
AcDbEntity
  8
0
100
AcDbLine
 10
35.04327780433482
 20
914.0125644028401
 30
0.0
 11
35.2114176851079
 21
914.2950716334718
 31
0.0
  0
LINE
  5
DF5
330
1E
100
AcDbEntity
  8
0
100
AcDbLine
 10
33.54003058557185
 20
914.8842494442938
 30
0.0
 11
33.61444882715693
 21
914.8399486871827
 31
0.0
  0
LINE
  5
DF6
330
1E
100
AcDbEntity
  8
0
100
AcDbLine
 10
33.02112150903315
 20
914.5660514554185
 30
0.0
 11
33.37323972799021
 21
915.1576640229736
 31
0.0
  0
LINE
  5
DF7
330
1E
100
AcDbEntity
  8
0
100
AcDbLine
 10
33.02112150903315
 20
914.5660514554185
 30
0.0
 11
33.26491508879428
 21
914.4212146836121
 31
0.0
  0
LINE
  5
DF8
330
1E
100
AcDbEntity
  8
0
100
AcDbLine
 10
33.26491508879428
 20
914.4212146836121
 30
0.0
 11
33.54976452203755
 21
914.9006322035155
 31
0.0
  0
ENDSEC
  0
SECTION
  2
OBJECTS
  0
DICTIONARY
  5
C
330
0
100
AcDbDictionary
281
     1
  3
ACAD_GROUP
350
D
  3
ACAD_LAYOUT
350
19
  3
ACAD_MLINESTYLE
350
16
  3
ACAD_PLOTSETTINGS
350
18
  3
ACAD_PLOTSTYLENAME
350
E
  3
AcDbVariableDictionary
350
1197
  0
DICTIONARY
  5
D
102
{ACAD_REACTORS
330
C
102
}
330
C
100
AcDbDictionary
281
     1
  0
DICTIONARY
  5
19
102
{ACAD_REACTORS
330
C
102
}
330
C
100
AcDbDictionary
281
     1
  3
Layout1
350
1D
  3
Model
350
21
  0
DICTIONARY
  5
16
102
{ACAD_REACTORS
330
C
102
}
330
C
100
AcDbDictionary
281
     1
  3
Standard
350
17
  0
DICTIONARY
  5
18
102
{ACAD_REACTORS
330
C
102
}
330
C
100
AcDbDictionary
281
     1
  0
ACDBDICTIONARYWDFLT
  5
E
102
{ACAD_REACTORS
330
C
102
}
330
C
100
AcDbDictionary
281
     1
  3
Normal
350
F
100
AcDbDictionaryWithDefault
340
F
  0
DICTIONARY
  5
1197
102
{ACAD_REACTORS
330
C
102
}
330
C
100
AcDbDictionary
281
     1
  3
DIMASSOC
350
1198
  0
LAYOUT
  5
1D
102
{ACAD_REACTORS
330
19
102
}
330
19
100
AcDbPlotSettings
  1

  2
C:\Programme\AutoCAD LT 2002 Deu\plotters\DWF ePlot (optimized for plotting).pc3
  4

  6

 40
0.0
 41
0.0
 42
0.0
 43
0.0
 44
0.0
 45
0.0
 46
0.0
 47
0.0
 48
0.0
 49
0.0
140
0.0
141
0.0
142
1.0
143
1.0
 70
   688
 72
     0
 73
     0
 74
     5
  7

 75
    16
147
1.0
148
0.0
149
0.0
100
AcDbLayout
  1
Layout1
 70
     1
 71
     1
 10
0.0
 20
0.0
 11
12.0
 21
9.0
 12
0.0
 22
0.0
 32
0.0
 14
1.000000000000000E+20
 24
1.000000000000000E+20
 34
1.000000000000000E+20
 15
-1.000000000000000E+20
 25
-1.000000000000000E+20
 35
-1.000000000000000E+20
146
0.0
 13
0.0
 23
0.0
 33
0.0
 16
1.0
 26
0.0
 36
0.0
 17
0.0
 27
1.0
 37
0.0
 76
     0
330
1A
  0
LAYOUT
  5
21
102
{ACAD_REACTORS
330
19
102
}
330
19
100
AcDbPlotSettings
  1

  2
C:\Programme\AutoCAD LT 2002 Deu\plotters\DWF ePlot (optimized for plotting).pc3
  4

  6

 40
0.0
 41
0.0
 42
0.0
 43
0.0
 44
0.0
 45
0.0
 46
0.0
 47
0.0
 48
0.0
 49
0.0
140
0.0
141
0.0
142
1.0
143
1.0
 70
  1712
 72
     0
 73
     0
 74
     0
  7

 75
     0
147
1.0
148
0.0
149
0.0
100
AcDbLayout
  1
Model
 70
     1
 71
     0
 10
0.0
 20
0.0
 11
12.0
 21
9.0
 12
0.0
 22
0.0
 32
0.0
 14
0.0
 24
0.0
 34
0.0
 15
0.0
 25
0.0
 35
0.0
146
0.0
 13
0.0
 23
0.0
 33
0.0
 16
1.0
 26
0.0
 36
0.0
 17
0.0
 27
1.0
 37
0.0
 76
     0
330
1E
  0
MLINESTYLE
  5
17
102
{ACAD_REACTORS
330
16
102
}
330
16
100
AcDbMlineStyle
  2
STANDARD
 70
     0
  3

 62
   256
 51
90.0
 52
90.0
 71
     2
 49
0.5
 62
   256
  6
BYLAYER
 49
-0.5
 62
   256
  6
BYLAYER
  0
ACDBPLACEHOLDER
  5
F
102
{ACAD_REACTORS
330
E
102
}
330
E
  0
DICTIONARYVAR
  5
1198
102
{ACAD_REACTORS
330
1197
102
}
330
1197
100
DictionaryVariables
280
     0
  1
1
  0
ENDSEC
  0
EOF
