  0
SECTION
  2
HEADER
  9
$ACADVER
  1
AC1015
  9
$ACADMAINTVER
 70
    13
  9
$DWGCODEPAGE
  3
ANSI_1252
  9
$INSBASE
 10
0.0
 20
0.0
 30
0.0
  9
$EXTMIN
 10
0.0
 20
-0.0491500000000316
 30
0.0
  9
$EXTMAX
 10
100.0
 20
181.0491499999999
 30
0.0
  9
$LIMMIN
 10
0.0
 20
0.0
  9
$LIMMAX
 10
12.0
 20
9.0
  9
$ORTHOMODE
 70
     0
  9
$REGENMODE
 70
     1
  9
$FILLMODE
 70
     1
  9
$QTEXTMODE
 70
     0
  9
$MIRRTEXT
 70
     1
  9
$LTSCALE
 40
1.0
  9
$ATTMODE
 70
     1
  9
$TEXTSIZE
 40
0.2
  9
$TRACEWID
 40
0.05
  9
$TEXTSTYLE
  7
Standard
  9
$CLAYER
  8
0
  9
$CELTYPE
  6
Continuous
  9
$CECOLOR
 62
   256
  9
$CELTSCALE
 40
1.0
  9
$DISPSILH
 70
     0
  9
$DIMSCALE
 40
1.0
  9
$DIMASZ
 40
0.18
  9
$DIMEXO
 40
0.0625
  9
$DIMDLI
 40
0.38
  9
$DIMRND
 40
0.0
  9
$DIMDLE
 40
0.0
  9
$DIMEXE
 40
0.18
  9
$DIMTP
 40
0.0
  9
$DIMTM
 40
0.0
  9
$DIMTXT
 40
0.18
  9
$DIMCEN
 40
0.09
  9
$DIMTSZ
 40
0.0
  9
$DIMTOL
 70
     0
  9
$DIMLIM
 70
     0
  9
$DIMTIH
 70
     1
  9
$DIMTOH
 70
     1
  9
$DIMSE1
 70
     0
  9
$DIMSE2
 70
     0
  9
$DIMTAD
 70
     0
  9
$DIMZIN
 70
     0
  9
$DIMBLK
  1

  9
$DIMASO
 70
     1
  9
$DIMSHO
 70
     1
  9
$DIMPOST
  1

  9
$DIMAPOST
  1

  9
$DIMALT
 70
     0
  9
$DIMALTD
 70
     2
  9
$DIMALTF
 40
25.4
  9
$DIMLFAC
 40
1.0
  9
$DIMTOFL
 70
     0
  9
$DIMTVP
 40
0.0
  9
$DIMTIX
 70
     0
  9
$DIMSOXD
 70
     0
  9
$DIMSAH
 70
     0
  9
$DIMBLK1
  1

  9
$DIMBLK2
  1

  9
$DIMSTYLE
  2
Standard
  9
$DIMCLRD
 70
     0
  9
$DIMCLRE
 70
     0
  9
$DIMCLRT
 70
     0
  9
$DIMTFAC
 40
1.0
  9
$DIMGAP
 40
0.09
  9
$DIMJUST
 70
     0
  9
$DIMSD1
 70
     0
  9
$DIMSD2
 70
     0
  9
$DIMTOLJ
 70
     1
  9
$DIMTZIN
 70
     0
  9
$DIMALTZ
 70
     0
  9
$DIMALTTZ
 70
     0
  9
$DIMUPT
 70
     0
  9
$DIMDEC
 70
     4
  9
$DIMTDEC
 70
     4
  9
$DIMALTU
 70
     2
  9
$DIMALTTD
 70
     2
  9
$DIMTXSTY
  7
Standard
  9
$DIMAUNIT
 70
     0
  9
$DIMADEC
 70
     0
  9
$DIMALTRND
 40
0.0
  9
$DIMAZIN
 70
     0
  9
$DIMDSEP
 70
    46
  9
$DIMATFIT
 70
     3
  9
$DIMFRAC
 70
     0
  9
$DIMLDRBLK
  1

  9
$DIMLUNIT
 70
     2
  9
$DIMLWD
 70
    -2
  9
$DIMLWE
 70
    -2
  9
$DIMTMOVE
 70
     0
  9
$LUNITS
 70
     2
  9
$LUPREC
 70
     4
  9
$SKETCHINC
 40
0.1
  9
$FILLETRAD
 40
0.0
  9
$AUNITS
 70
     0
  9
$AUPREC
 70
     0
  9
$MENU
  1
.
  9
$ELEVATION
 40
0.0
  9
$PELEVATION
 40
0.0
  9
$THICKNESS
 40
0.0
  9
$LIMCHECK
 70
     0
  9
$CHAMFERA
 40
0.0
  9
$CHAMFERB
 40
0.0
  9
$CHAMFERC
 40
0.0
  9
$CHAMFERD
 40
0.0
  9
$SKPOLY
 70
     0
  9
$TDCREATE
 40
2455656.758113009
  9
$TDUCREATE
 40
2455656.674779675
  9
$TDUPDATE
 40
2455656.845247511
  9
$TDUUPDATE
 40
2455656.761914178
  9
$TDINDWG
 40
0.0871345023
  9
$TDUSRTIMER
 40
0.0871345023
  9
$USRTIMER
 70
     1
  9
$ANGBASE
 50
0.0
  9
$ANGDIR
 70
     0
  9
$PDMODE
 70
     0
  9
$PDSIZE
 40
0.0
  9
$PLINEWID
 40
0.0
  9
$SPLFRAME
 70
     0
  9
$SPLINETYPE
 70
     6
  9
$SPLINESEGS
 70
     8
  9
$HANDSEED
  5
282
  9
$SURFTAB1
 70
     6
  9
$SURFTAB2
 70
     6
  9
$SURFTYPE
 70
     6
  9
$SURFU
 70
     6
  9
$SURFV
 70
     6
  9
$UCSBASE
  2

  9
$UCSNAME
  2

  9
$UCSORG
 10
0.0
 20
0.0
 30
0.0
  9
$UCSXDIR
 10
1.0
 20
0.0
 30
0.0
  9
$UCSYDIR
 10
0.0
 20
1.0
 30
0.0
  9
$UCSORTHOREF
  2

  9
$UCSORTHOVIEW
 70
     1
  9
$UCSORGTOP
 10
0.0
 20
0.0
 30
0.0
  9
$UCSORGBOTTOM
 10
0.0
 20
0.0
 30
0.0
  9
$UCSORGLEFT
 10
0.0
 20
0.0
 30
0.0
  9
$UCSORGRIGHT
 10
0.0
 20
0.0
 30
0.0
  9
$UCSORGFRONT
 10
0.0
 20
0.0
 30
0.0
  9
$UCSORGBACK
 10
0.0
 20
0.0
 30
0.0
  9
$PUCSBASE
  2

  9
$PUCSNAME
  2

  9
$PUCSORG
 10
0.0
 20
0.0
 30
0.0
  9
$PUCSXDIR
 10
1.0
 20
0.0
 30
0.0
  9
$PUCSYDIR
 10
0.0
 20
1.0
 30
0.0
  9
$PUCSORTHOREF
  2

  9
$PUCSORTHOVIEW
 70
     0
  9
$PUCSORGTOP
 10
0.0
 20
0.0
 30
0.0
  9
$PUCSORGBOTTOM
 10
0.0
 20
0.0
 30
0.0
  9
$PUCSORGLEFT
 10
0.0
 20
0.0
 30
0.0
  9
$PUCSORGRIGHT
 10
0.0
 20
0.0
 30
0.0
  9
$PUCSORGFRONT
 10
0.0
 20
0.0
 30
0.0
  9
$PUCSORGBACK
 10
0.0
 20
0.0
 30
0.0
  9
$USERI1
 70
     0
  9
$USERI2
 70
     0
  9
$USERI3
 70
     0
  9
$USERI4
 70
     0
  9
$USERI5
 70
     0
  9
$USERR1
 40
0.0
  9
$USERR2
 40
0.0
  9
$USERR3
 40
0.0
  9
$USERR4
 40
0.0
  9
$USERR5
 40
0.0
  9
$WORLDVIEW
 70
     1
  9
$SHADEDGE
 70
     3
  9
$SHADEDIF
 70
    70
  9
$TILEMODE
 70
     1
  9
$MAXACTVP
 70
    64
  9
$PINSBASE
 10
0.0
 20
0.0
 30
0.0
  9
$PLIMCHECK
 70
     0
  9
$PEXTMIN
 10
1.000000000000000E+20
 20
1.000000000000000E+20
 30
1.000000000000000E+20
  9
$PEXTMAX
 10
-1.000000000000000E+20
 20
-1.000000000000000E+20
 30
-1.000000000000000E+20
  9
$PLIMMIN
 10
0.0
 20
0.0
  9
$PLIMMAX
 10
12.0
 20
9.0
  9
$UNITMODE
 70
     0
  9
$VISRETAIN
 70
     1
  9
$PLINEGEN
 70
     0
  9
$PSLTSCALE
 70
     1
  9
$TREEDEPTH
 70
  3020
  9
$CMLSTYLE
  2
Standard
  9
$CMLJUST
 70
     0
  9
$CMLSCALE
 40
1.0
  9
$PROXYGRAPHICS
 70
     1
  9
$MEASUREMENT
 70
     0
  9
$CELWEIGHT
370
    -1
  9
$ENDCAPS
280
     0
  9
$JOINSTYLE
280
     0
  9
$LWDISPLAY
290
     0
  9
$INSUNITS
 70
     0
  9
$HYPERLINKBASE
  1

  9
$STYLESHEET
  1

  9
$XEDIT
290
     1
  9
$CEPSNTYPE
380
     0
  9
$PSTYLEMODE
290
     1
  9
$FINGERPRINTGUID
  2
{8ACD0753-BA6A-4B81-AABA-8BB338032B77}
  9
$VERSIONGUID
  2
{D03C4182-2026-4E89-A76A-F9763B6FB0ED}
  9
$EXTNAMES
290
     1
  9
$PSVPSCALE
 40
0.0
  9
$OLESTARTUP
290
     0
  0
ENDSEC
  0
SECTION
  2
CLASSES
  0
CLASS
  1
ACDBDICTIONARYWDFLT
  2
AcDbDictionaryWithDefault
  3
AutoCAD 2000
 90
        0
280
     0
281
     0
  0
CLASS
  1
ACDBPLACEHOLDER
  2
AcDbPlaceHolder
  3
AutoCAD 2000
 90
        0
280
     0
281
     0
  0
CLASS
  1
LAYOUT
  2
AcDbLayout
  3
AutoCAD 2000
 90
        0
280
     0
281
     0
  0
CLASS
  1
DICTIONARYVAR
  2
AcDbDictionaryVar
  3
AutoCAD 2000
 90
        0
280
     0
281
     0
  0
ENDSEC
  0
SECTION
  2
TABLES
  0
TABLE
  2
VPORT
  5
8
330
0
100
AcDbSymbolTable
 70
     3
  0
VPORT
  5
281
330
8
100
AcDbSymbolTableRecord
100
AcDbViewportTableRecord
  2
*Active
 70
     0
 10
0.0
 20
0.0
 11
1.0
 21
1.0
 12
50.0
 22
90.49999999999998
 13
0.0
 23
0.0
 14
1.0
 24
1.0
 15
0.0
 25
0.0
 16
0.0
 26
0.0
 36
1.0
 17
0.0
 27
0.0
 37
0.0
 40
182.3233166854566
 41
2.073363431151241
 42
50.0
 43
0.0
 44
0.0
 50
0.0
 51
0.0
 71
     0
 72
   100
 73
     1
 74
     3
 75
     0
 76
     0
 77
     0
 78
     0
281
     0
 65
     1
110
0.0
120
0.0
130
0.0
111
1.0
121
0.0
131
0.0
112
0.0
122
1.0
132
0.0
 79
     1
146
0.0
  0
ENDTAB
  0
TABLE
  2
LTYPE
  5
5
330
0
100
AcDbSymbolTable
 70
     1
  0
LTYPE
  5
13
330
5
100
AcDbSymbolTableRecord
100
AcDbLinetypeTableRecord
  2
ByBlock
 70
     0
  3

 72
    65
 73
     0
 40
0.0
  0
LTYPE
  5
14
330
5
100
AcDbSymbolTableRecord
100
AcDbLinetypeTableRecord
  2
ByLayer
 70
     0
  3

 72
    65
 73
     0
 40
0.0
  0
LTYPE
  5
15
330
5
100
AcDbSymbolTableRecord
100
AcDbLinetypeTableRecord
  2
Continuous
 70
     0
  3
Solid line
 72
    65
 73
     0
 40
0.0
  0
ENDTAB
  0
TABLE
  2
LAYER
  5
2
330
0
100
AcDbSymbolTable
 70
     1
  0
LAYER
  5
10
330
2
100
AcDbSymbolTableRecord
100
AcDbLayerTableRecord
  2
0
 70
     0
 62
     7
  6
Continuous
370
    -3
390
F
  0
ENDTAB
  0
TABLE
  2
STYLE
  5
3
330
0
100
AcDbSymbolTable
 70
     1
  0
STYLE
  5
11
330
3
100
AcDbSymbolTableRecord
100
AcDbTextStyleTableRecord
  2
Standard
 70
     0
 40
0.0
 41
1.0
 50
0.0
 71
     0
 42
0.2
  3
txt
  4

  0
ENDTAB
  0
TABLE
  2
VIEW
  5
6
330
0
100
AcDbSymbolTable
 70
     0
  0
ENDTAB
  0
TABLE
  2
UCS
  5
7
330
0
100
AcDbSymbolTable
 70
     0
  0
ENDTAB
  0
TABLE
  2
APPID
  5
9
330
0
100
AcDbSymbolTable
 70
     1
  0
APPID
  5
12
330
9
100
AcDbSymbolTableRecord
100
AcDbRegAppTableRecord
  2
ACAD
 70
     0
  0
ENDTAB
  0
TABLE
  2
DIMSTYLE
  5
A
330
0
100
AcDbSymbolTable
 70
     1
100
AcDbDimStyleTable
 71
     0
  0
DIMSTYLE
105
1F1
330
A
100
AcDbSymbolTableRecord
100
AcDbDimStyleTableRecord
  2
Standard
 70
     0
340
11
  0
ENDTAB
  0
TABLE
  2
BLOCK_RECORD
  5
1
330
0
100
AcDbSymbolTable
 70
     0
  0
BLOCK_RECORD
  5
1E
330
1
100
AcDbSymbolTableRecord
100
AcDbBlockTableRecord
  2
*Model_Space
340
21
  0
BLOCK_RECORD
  5
1A
330
1
100
AcDbSymbolTableRecord
100
AcDbBlockTableRecord
  2
*Paper_Space
340
1D
  0
ENDTAB
  0
ENDSEC
  0
SECTION
  2
BLOCKS
  0
BLOCK
  5
1F
330
1E
100
AcDbEntity
  8
0
100
AcDbBlockBegin
  2
*Model_Space
 70
     0
 10
0.0
 20
0.0
 30
0.0
  3
*Model_Space
  1

  0
ENDBLK
  5
20
330
1E
100
AcDbEntity
  8
0
100
AcDbBlockEnd
  0
BLOCK
  5
1B
330
1A
100
AcDbEntity
 67
     1
  8
0
100
AcDbBlockBegin
  2
*Paper_Space
 70
     0
 10
0.0
 20
0.0
 30
0.0
  3
*Paper_Space
  1

  0
ENDBLK
  5
1C
330
1A
100
AcDbEntity
 67
     1
  8
0
100
AcDbBlockEnd
  0
ENDSEC
  0
SECTION
  2
ENTITIES
  0
LINE
  5
26
330
1E
100
AcDbEntity
  8
0
100
AcDbLine
 10
16.77799999999999
 20
9.79184999999998
 30
0.0
 11
26.578
 21
4.417849999999969
 31
0.0
  0
LINE
  5
27
330
1E
100
AcDbEntity
  8
0
100
AcDbLine
 10
15.7
 20
10.69485
 30
0.0
 11
16.77799999999999
 21
9.79184999999998
 31
0.0
  0
LINE
  5
28
330
1E
100
AcDbEntity
  8
0
100
AcDbLine
 10
0.0709
 20
45.34425
 30
0.0
 11
0.2818
 21
43.44015
 31
0.0
  0
LINE
  5
29
330
1E
100
AcDbEntity
  8
0
100
AcDbLine
 10
0.0
 20
47.27145
 30
0.0
 11
0.1803
 21
50.42374999999999
 31
0.0
  0
LINE
  5
2A
330
1E
100
AcDbEntity
  8
0
100
AcDbLine
 10
0.0
 20
47.25814999999999
 30
0.0
 11
0.0709
 21
45.34425
 31
0.0
  0
LINE
  5
2C
330
1E
100
AcDbEntity
  8
0
100
AcDbLine
 10
0.0709
 20
45.34425
 30
0.0
 11
0.7636
 21
37.36425
 31
0.0
  0
LINE
  5
2E
330
1E
100
AcDbEntity
  8
0
100
AcDbLine
 10
0.2818
 20
43.44015
 30
0.0
 11
0.6326000000000001
 21
41.54805
 31
0.0
  0
LINE
  5
2F
330
1E
100
AcDbEntity
  8
0
100
AcDbLine
 10
0.7636
 20
37.36425
 30
0.0
 11
0.941
 21
35.66125
 31
0.0
  0
LINE
  5
30
330
1E
100
AcDbEntity
  8
0
100
AcDbLine
 10
0.941
 20
35.66125
 30
0.0
 11
1.653399999999999
 21
32.26135
 31
0.0
  0
LINE
  5
31
330
1E
100
AcDbEntity
  8
0
100
AcDbLine
 10
2.198661720662979
 20
30.7223332529594
 30
0.0
 11
2.763999999999999
 21
27.85885
 31
0.0
  0
LINE
  5
32
330
1E
100
AcDbEntity
  8
0
100
AcDbLine
 10
2.198661720662979
 20
30.7223332529594
 30
0.0
 11
2.763999999999999
 21
27.85885
 31
0.0
  0
LINE
  5
33
330
1E
100
AcDbEntity
  8
0
100
AcDbLine
 10
2.763999999999999
 20
27.85885
 30
0.0
 11
3.253999999999999
 21
26.25985
 31
0.0
  0
LINE
  5
36
330
1E
100
AcDbEntity
  8
0
100
AcDbLine
 10
1.748899999999999
 20
37.82524999999999
 30
0.0
 11
2.5106
 21
36.00445
 31
0.0
  0
LINE
  5
38
330
1E
100
AcDbEntity
  8
0
100
AcDbLine
 10
2.5106
 20
36.00445
 30
0.0
 11
3.9038
 21
33.33785
 31
0.0
  0
LINE
  5
39
330
1E
100
AcDbEntity
  8
0
100
AcDbLine
 10
1.653399999999999
 20
32.26135
 30
0.0
 11
2.8288
 21
28.94375
 31
0.0
  0
LINE
  5
3A
330
1E
100
AcDbEntity
  8
0
100
AcDbLine
 10
3.253999999999999
 20
26.25985
 30
0.0
 11
7.957999999999999
 21
17.95385
 31
0.0
  0
LINE
  5
3B
330
1E
100
AcDbEntity
  8
0
100
AcDbLine
 10
4.503899999999999
 20
25.60185
 30
0.0
 11
6.572099999999999
 21
22.51285
 31
0.0
  0
LINE
  5
3C
330
1E
100
AcDbEntity
  8
0
100
AcDbLine
 10
7.957999999999999
 20
17.95385
 30
0.0
 11
15.7
 21
10.69485
 31
0.0
  0
LINE
  5
42
330
1E
100
AcDbEntity
  8
0
100
AcDbLine
 10
11.01089999999999
 20
17.73785
 30
0.0
 11
11.9391
 21
16.83684999999999
 31
0.0
  0
LINE
  5
43
330
1E
100
AcDbEntity
  8
0
100
AcDbLine
 10
9.058999999999999
 20
19.58185
 30
0.0
 11
11.9391
 21
16.83684999999999
 31
0.0
  0
LINE
  5
44
330
1E
100
AcDbEntity
  8
0
100
AcDbLine
 10
11.9391
 20
16.83684999999999
 30
0.0
 11
15.1857
 21
14.30485
 31
0.0
  0
LINE
  5
49
330
1E
100
AcDbEntity
  8
0
100
AcDbLine
 10
15.0044
 20
21.68985
 30
0.0
 11
17.9525
 21
19.79485
 31
0.0
  0
LINE
  5
4B
330
1E
100
AcDbEntity
  8
0
100
AcDbLine
 10
17.9525
 20
19.79485
 30
0.0
 11
21.1036
 21
18.07485
 31
0.0
  0
LINE
  5
4C
330
1E
100
AcDbEntity
  8
0
100
AcDbLine
 10
15.1857
 20
14.30485
 30
0.0
 11
15.2606
 21
14.25385
 31
0.0
  0
LINE
  5
4D
330
1E
100
AcDbEntity
  8
0
100
AcDbLine
 10
13.16089999999999
 20
23.04384999999999
 30
0.0
 11
15.0044
 21
21.68985
 31
0.0
  0
LINE
  5
4F
330
1E
100
AcDbEntity
  8
0
100
AcDbLine
 10
8.270799999999999
 20
27.50185
 30
0.0
 11
9.788199999999999
 21
25.95385
 31
0.0
  0
LINE
  5
51
330
1E
100
AcDbEntity
  8
0
100
AcDbLine
 10
9.788199999999999
 20
25.95385
 30
0.0
 11
11.42079999999999
 21
24.46685
 31
0.0
  0
LINE
  5
53
330
1E
100
AcDbEntity
  8
0
100
AcDbLine
 10
11.42079999999999
 20
24.46685
 30
0.0
 11
13.16089999999999
 21
23.04384999999999
 31
0.0
  0
LINE
  5
54
330
1E
100
AcDbEntity
  8
0
100
AcDbLine
 10
6.572099999999999
 20
22.51285
 30
0.0
 11
9.058999999999999
 21
19.58185
 31
0.0
  0
LINE
  5
56
330
1E
100
AcDbEntity
  8
0
100
AcDbLine
 10
5.288199999999999
 20
31.18605
 30
0.0
 11
6.868699999999999
 21
29.10664999999999
 31
0.0
  0
LINE
  5
58
330
1E
100
AcDbEntity
  8
0
100
AcDbLine
 10
6.868699999999999
 20
29.10664999999999
 30
0.0
 11
8.270799999999999
 21
27.50185
 31
0.0
  0
LINE
  5
59
330
1E
100
AcDbEntity
  8
0
100
AcDbLine
 10
2.8742
 20
28.82085
 30
0.0
 11
4.503899999999999
 21
25.60185
 31
0.0
  0
LINE
  5
5B
330
1E
100
AcDbEntity
  8
0
100
AcDbLine
 10
3.9038
 20
33.33785
 30
0.0
 11
5.288199999999999
 21
31.18605
 31
0.0
  0
LINE
  5
5C
330
1E
100
AcDbEntity
  8
0
100
AcDbLine
 10
2.8288
 20
28.94375
 30
0.0
 11
2.8742
 21
28.82085
 31
0.0
  0
LINE
  5
5E
330
1E
100
AcDbEntity
  8
0
100
AcDbLine
 10
1.1223
 20
39.67475
 30
0.0
 11
1.748899999999999
 21
37.82524999999999
 31
0.0
  0
LINE
  5
60
330
1E
100
AcDbEntity
  8
0
100
AcDbLine
 10
0.6326000000000001
 20
41.54805
 30
0.0
 11
1.1223
 21
39.67475
 31
0.0
  0
LINE
  5
63
330
1E
100
AcDbEntity
  8
0
100
AcDbLine
 10
0.1803
 20
50.42374999999999
 30
0.0
 11
0.7252
 21
53.65725
 31
0.0
  0
LINE
  5
66
330
1E
100
AcDbEntity
  8
0
100
AcDbLine
 10
0.1803
 20
50.42374999999999
 30
0.0
 11
0.7252
 21
53.65725
 31
0.0
  0
LINE
  5
69
330
1E
100
AcDbEntity
  8
0
100
AcDbLine
 10
0.7252
 20
53.65725
 30
0.0
 11
1.408999999999999
 21
56.21215
 31
0.0
  0
LINE
  5
6A
330
1E
100
AcDbEntity
  8
0
100
AcDbLine
 10
1.408999999999999
 20
56.21215
 30
0.0
 11
2.5579
 21
59.32605
 31
0.0
  0
LINE
  5
6C
330
1E
100
AcDbEntity
  8
0
100
AcDbLine
 10
2.5579
 20
59.32605
 30
0.0
 11
3.001715947492189
 21
60.2399676020509
 31
0.0
  0
LINE
  5
6D
330
1E
100
AcDbEntity
  8
0
100
AcDbLine
 10
3.001715947492189
 20
60.2399676020509
 30
0.0
 11
4.0319
 21
62.36135
 31
0.0
  0
LINE
  5
6E
330
1E
100
AcDbEntity
  8
0
100
AcDbLine
 10
3.001715947492189
 20
60.2399676020509
 30
0.0
 11
4.0319
 21
62.36135
 31
0.0
  0
LINE
  5
6F
330
1E
100
AcDbEntity
  8
0
100
AcDbLine
 10
4.0319
 20
62.36135
 30
0.0
 11
4.5354
 21
63.25034999999999
 31
0.0
  0
LINE
  5
70
330
1E
100
AcDbEntity
  8
0
100
AcDbLine
 10
4.5354
 20
63.25034999999999
 30
0.0
 11
4.895999999999999
 21
63.87554999999999
 31
0.0
  0
LINE
  5
71
330
1E
100
AcDbEntity
  8
0
100
AcDbLine
 10
4.5354
 20
63.25034999999999
 30
0.0
 11
4.895999999999999
 21
63.87554999999999
 31
0.0
  0
LINE
  5
72
330
1E
100
AcDbEntity
  8
0
100
AcDbLine
 10
6.13312233426269
 20
65.7326912920102
 30
0.0
 11
6.2469
 21
65.90585
 31
0.0
  0
LINE
  5
73
330
1E
100
AcDbEntity
  8
0
100
AcDbLine
 10
7.132699999999999
 20
67.21715
 30
0.0
 11
9.733999999999999
 21
70.34135
 31
0.0
  0
LINE
  5
74
330
1E
100
AcDbEntity
  8
0
100
AcDbLine
 10
12.7796
 20
73.35275
 30
0.0
 11
16.0666
 21
76.10545000000001
 31
0.0
  0
LINE
  5
75
330
1E
100
AcDbEntity
  8
0
100
AcDbLine
 10
16.0666
 20
76.10545000000001
 30
0.0
 11
16.3996
 21
76.35165
 31
0.0
  0
LINE
  5
77
330
1E
100
AcDbEntity
  8
0
100
AcDbLine
 10
16.3996
 20
76.35165
 30
0.0
 11
19.5704
 21
78.77525
 31
0.0
  0
LINE
  5
78
330
1E
100
AcDbEntity
  8
0
100
AcDbLine
 10
16.3996
 20
76.35165
 30
0.0
 11
19.5704
 21
78.77525
 31
0.0
  0
LINE
  5
79
330
1E
100
AcDbEntity
  8
0
100
AcDbLine
 10
12.7214
 20
73.30365
 30
0.0
 11
12.7796
 21
73.35275
 31
0.0
  0
LINE
  5
7A
330
1E
100
AcDbEntity
  8
0
100
AcDbLine
 10
9.733999999999999
 20
70.34135
 30
0.0
 11
12.7214
 21
73.30365
 31
0.0
  0
LINE
  5
7B
330
1E
100
AcDbEntity
  8
0
100
AcDbLine
 10
4.950199999999999
 20
63.97594999999999
 30
0.0
 11
7.132699999999999
 21
67.21715
 31
0.0
  0
LINE
  5
7C
330
1E
100
AcDbEntity
  8
0
100
AcDbLine
 10
4.895999999999999
 20
63.87554999999999
 30
0.0
 11
4.950199999999999
 21
63.97594999999999
 31
0.0
  0
LINE
  5
84
330
1E
100
AcDbEntity
  8
0
100
AcDbLine
 10
0.0709
 20
45.34425
 30
0.0
 11
0.2818
 21
43.44015
 31
0.0
  0
LINE
  5
85
330
1E
100
AcDbEntity
  8
0
100
AcDbLine
 10
0.0709
 20
45.34425
 30
0.0
 11
0.7636
 21
37.36425
 31
0.0
  0
LINE
  5
86
330
1E
100
AcDbEntity
  8
0
100
AcDbLine
 10
15.2606
 20
14.25385
 30
0.0
 11
18.8344
 21
11.96385
 31
0.0
  0
LINE
  5
88
330
1E
100
AcDbEntity
  8
0
100
AcDbLine
 10
26.578
 20
4.417849999999969
 30
0.0
 11
37.94599999999999
 21
1.136849999999969
 31
0.0
  0
LINE
  5
8B
330
1E
100
AcDbEntity
  8
0
100
AcDbLine
 10
23.3067
 20
17.03085
 30
0.0
 11
27.0973
 21
15.49484999999999
 31
0.0
  0
LINE
  5
91
330
1E
100
AcDbEntity
  8
0
100
AcDbLine
 10
21.1036
 20
18.07485
 30
0.0
 11
23.3067
 21
17.03085
 31
0.0
  0
LINE
  5
92
330
1E
100
AcDbEntity
  8
0
100
AcDbLine
 10
22.7067
 20
9.93284999999998
 30
0.0
 11
26.8421
 21
8.179849999999959
 31
0.0
  0
LINE
  5
93
330
1E
100
AcDbEntity
  8
0
100
AcDbLine
 10
37.94599999999999
 20
1.136849999999969
 30
0.0
 11
50.0
 21
-0.0491500000000316
 31
0.0
  0
LINE
  5
99
330
1E
100
AcDbEntity
  8
0
100
AcDbLine
 10
40.41579999999999
 20
4.74484999999999
 30
0.0
 11
45.18469999999999
 21
4.245849999999999
 31
0.0
  0
LINE
  5
9A
330
1E
100
AcDbEntity
  8
0
100
AcDbLine
 10
45.18469999999999
 20
4.245849999999999
 30
0.0
 11
49.9994
 21
4.077849999999979
 31
0.0
  0
LINE
  5
B1
330
1E
100
AcDbEntity
  8
0
100
AcDbLine
 10
30.3409
 20
14.41385
 30
0.0
 11
33.7432
 21
13.48885
 31
0.0
  0
LINE
  5
B2
330
1E
100
AcDbEntity
  8
0
100
AcDbLine
 10
27.0973
 20
15.49484999999999
 30
0.0
 11
30.3409
 21
14.41385
 31
0.0
  0
LINE
  5
B4
330
1E
100
AcDbEntity
  8
0
100
AcDbLine
 10
35.9543
 20
12.99185
 30
0.0
 11
38.1949
 21
12.56985
 31
0.0
  0
LINE
  5
B6
330
1E
100
AcDbEntity
  8
0
100
AcDbLine
 10
40.4611
 20
12.22085
 30
0.0
 11
43.7344
 21
11.85185
 31
0.0
  0
LINE
  5
C8
330
1E
100
AcDbEntity
  8
0
100
AcDbLine
 10
47.0342
 20
11.63685
 30
0.0
 11
50.0
 21
11.57485
 31
0.0
  0
LINE
  5
CF
330
1E
100
AcDbEntity
  8
0
100
AcDbLine
 10
43.7344
 20
11.85185
 30
0.0
 11
47.0342
 21
11.63685
 31
0.0
  0
LINE
  5
D4
330
1E
100
AcDbEntity
  8
0
100
AcDbLine
 10
38.1949
 20
12.56985
 30
0.0
 11
40.4611
 21
12.22085
 31
0.0
  0
LINE
  5
EE
330
1E
100
AcDbEntity
  8
0
100
AcDbLine
 10
33.7432
 20
13.48885
 30
0.0
 11
35.9543
 21
12.99185
 31
0.0
  0
LINE
  5
139
330
1E
100
AcDbEntity
  8
0
100
AcDbLine
 10
31.2001
 20
6.72084999999998
 30
0.0
 11
35.73949999999999
 21
5.572849999999981
 31
0.0
  0
LINE
  5
13A
330
1E
100
AcDbEntity
  8
0
100
AcDbLine
 10
35.73949999999999
 20
5.572849999999981
 30
0.0
 11
40.41579999999999
 21
4.74484999999999
 31
0.0
  0
LINE
  5
13B
330
1E
100
AcDbEntity
  8
0
100
AcDbLine
 10
26.8421
 20
8.179849999999959
 30
0.0
 11
31.2001
 21
6.72084999999998
 31
0.0
  0
LINE
  5
13C
330
1E
100
AcDbEntity
  8
0
100
AcDbLine
 10
19.5704
 20
78.77525
 30
0.0
 11
22.6269
 21
81.15165000000001
 31
0.0
  0
LINE
  5
13D
330
1E
100
AcDbEntity
  8
0
100
AcDbLine
 10
24.5886
 20
82.76345
 30
0.0
 11
26.45189999999999
 21
84.40935000000001
 31
0.0
  0
LINE
  5
13E
330
1E
100
AcDbEntity
  8
0
100
AcDbLine
 10
26.45189999999999
 20
84.40935000000001
 30
0.0
 11
28.1801
 21
86.09194999999999
 31
0.0
  0
LINE
  5
13F
330
1E
100
AcDbEntity
  8
0
100
AcDbLine
 10
28.3594
 20
86.27785000000001
 30
0.0
 11
30.1655
 21
88.26415
 31
0.0
  0
LINE
  5
140
330
1E
100
AcDbEntity
  8
0
100
AcDbLine
 10
30.1655
 20
88.26415
 30
0.0
 11
31.747
 21
90.40395
 31
0.0
  0
LINE
  5
141
330
1E
100
AcDbEntity
  8
0
100
AcDbLine
 10
31.747
 20
90.40395
 30
0.0
 11
33.0604083234009
 21
92.5953810907046
 31
0.0
  0
LINE
  5
144
330
1E
100
AcDbEntity
  8
0
100
AcDbLine
 10
34.5986494568424
 20
96.16109030513451
 30
0.0
 11
34.83
 21
96.94315000000001
 31
0.0
  0
LINE
  5
145
330
1E
100
AcDbEntity
  8
0
100
AcDbLine
 10
34.83
 20
96.94315000000001
 30
0.0
 11
35.1631
 21
98.37094999999999
 31
0.0
  0
LINE
  5
146
330
1E
100
AcDbEntity
  8
0
100
AcDbLine
 10
34.5986494568424
 20
96.16109030513451
 30
0.0
 11
34.83
 21
96.94315000000001
 31
0.0
  0
LINE
  5
148
330
1E
100
AcDbEntity
  8
0
100
AcDbLine
 10
35.1631
 20
98.37094999999999
 30
0.0
 11
35.5326
 21
100.7494499999999
 31
0.0
  0
LINE
  5
14A
330
1E
100
AcDbEntity
  8
0
100
AcDbLine
 10
35.20739999999999
 20
124.39293
 30
0.0
 11
35.23699999999999
 21
121.41311
 31
0.0
  0
LINE
  5
14B
330
1E
100
AcDbEntity
  8
0
100
AcDbLine
 10
35.23699999999999
 20
121.41311
 30
0.0
 11
35.36509999999999
 21
115.64685
 31
0.0
  0
LINE
  5
14E
330
1E
100
AcDbEntity
  8
0
100
AcDbLine
 10
33.8309
 20
94.16745
 30
0.0
 11
34.5986494568424
 21
96.16109030513451
 31
0.0
  0
LINE
  5
14F
330
1E
100
AcDbEntity
  8
0
100
AcDbLine
 10
33.0604083234009
 20
92.5953810907046
 30
0.0
 11
33.8309
 21
94.16745
 31
0.0
  0
LINE
  5
150
330
1E
100
AcDbEntity
  8
0
100
AcDbLine
 10
28.1801
 20
86.09194999999999
 30
0.0
 11
28.3594
 21
86.27785000000001
 31
0.0
  0
LINE
  5
151
330
1E
100
AcDbEntity
  8
0
100
AcDbLine
 10
33.4382
 20
133.07145
 30
0.0
 11
35.2561141031661
 21
131.542028988162
 31
0.0
  0
LINE
  5
152
330
1E
100
AcDbEntity
  8
0
100
AcDbLine
 10
32.3497
 20
134.6189899999999
 30
0.0
 11
33.4382
 21
133.07145
 31
0.0
  0
LINE
  5
153
330
1E
100
AcDbEntity
  8
0
100
AcDbLine
 10
31.5
 20
137.73743
 30
0.0
 11
31.6432
 21
136.62749
 31
0.0
  0
LINE
  5
154
330
1E
100
AcDbEntity
  8
0
100
AcDbLine
 10
31.5
 20
137.73743
 30
0.0
 11
31.5
 21
181.0491499999999
 31
0.0
  0
LINE
  5
155
330
1E
100
AcDbEntity
  8
0
100
AcDbLine
 10
31.6432
 20
136.62749
 30
0.0
 11
32.3497
 21
134.6189899999999
 31
0.0
  0
LINE
  5
156
330
1E
100
AcDbEntity
  8
0
100
AcDbLine
 10
35.26749999999999
 20
132.2242699999999
 30
0.0
 11
35.4124
 21
136.68479
 31
0.0
  0
LINE
  5
157
330
1E
100
AcDbEntity
  8
0
100
AcDbLine
 10
35.26059999999999
 20
131.92096
 30
0.0
 11
35.26749999999999
 21
132.2242699999999
 31
0.0
  0
LINE
  5
158
330
1E
100
AcDbEntity
  8
0
100
AcDbLine
 10
35.2035
 20
127.09763
 30
0.0
 11
35.20739999999999
 21
124.39293
 31
0.0
  0
LINE
  5
159
330
1E
100
AcDbEntity
  8
0
100
AcDbLine
 10
35.2035
 20
127.09763
 30
0.0
 11
35.26059999999999
 21
131.92096
 31
0.0
  0
LINE
  5
175
330
1E
100
AcDbEntity
  8
0
100
AcDbLine
 10
35.5907
 20
109.50085
 30
0.0
 11
35.6488
 21
108.18415
 31
0.0
  0
LINE
  5
17A
330
1E
100
AcDbEntity
  8
0
100
AcDbLine
 10
35.36509999999999
 20
115.64685
 30
0.0
 11
35.5887
 21
109.53125
 31
0.0
  0
LINE
  5
182
330
1E
100
AcDbEntity
  8
0
100
AcDbLine
 10
35.4124
 20
136.68479
 30
0.0
 11
35.63499999999999
 21
140.79775
 31
0.0
  0
LINE
  5
184
330
1E
100
AcDbEntity
  8
0
100
AcDbLine
 10
35.63499999999999
 20
140.79775
 30
0.0
 11
35.83209999999999
 21
143.40835
 31
0.0
  0
LINE
  5
189
330
1E
100
AcDbEntity
  8
0
100
AcDbLine
 10
35.6488
 20
108.18415
 30
0.0
 11
35.6991
 21
106.8902499999999
 31
0.0
  0
LINE
  5
18D
330
1E
100
AcDbEntity
  8
0
100
AcDbLine
 10
35.7099
 20
103.19795
 30
0.0
 11
35.7346
 21
104.1749499999999
 31
0.0
  0
LINE
  5
1A7
330
1E
100
AcDbEntity
  8
0
100
AcDbLine
 10
36.11979999999999
 20
145.34175
 30
0.0
 11
36.443
 21
148.23655
 31
0.0
  0
LINE
  5
1A8
330
1E
100
AcDbEntity
  8
0
100
AcDbLine
 10
35.83209999999999
 20
143.40835
 30
0.0
 11
36.11979999999999
 21
145.34175
 31
0.0
  0
LINE
  5
1A9
330
1E
100
AcDbEntity
  8
0
100
AcDbLine
 10
36.4745
 20
148.34395
 30
0.0
 11
36.55429999999999
 21
148.55715
 31
0.0
  0
LINE
  5
1AA
330
1E
100
AcDbEntity
  8
0
100
AcDbLine
 10
36.443
 20
148.23655
 30
0.0
 11
36.4745
 21
148.34395
 31
0.0
  0
LINE
  5
1D1
330
1E
100
AcDbEntity
  8
0
100
AcDbLine
 10
35.6991
 20
106.8902499999999
 30
0.0
 11
35.7346
 21
104.1749499999999
 31
0.0
  0
LINE
  5
1D4
330
1E
100
AcDbEntity
  8
0
100
AcDbLine
 10
35.5326
 20
100.7494499999999
 30
0.0
 11
35.7099
 21
103.19795
 31
0.0
  0
LINE
  5
1D7
330
1E
100
AcDbEntity
  8
0
100
AcDbLine
 10
36.6007
 20
148.66085
 30
0.0
 11
36.6824
 21
148.80565
 31
0.0
  0
LINE
  5
1D8
330
1E
100
AcDbEntity
  8
0
100
AcDbLine
 10
36.6824
 20
148.80565
 30
0.0
 11
36.78589999999999
 21
148.93285
 31
0.0
  0
LINE
  5
1D9
330
1E
100
AcDbEntity
  8
0
100
AcDbLine
 10
31.5
 20
152.52445
 30
0.0
 11
31.5
 21
181.0491499999999
 31
0.0
  0
LINE
  5
1DA
330
1E
100
AcDbEntity
  8
0
100
AcDbLine
 10
31.5
 20
181.0491499999999
 30
0.0
 11
31.5
 21
152.52445
 31
0.0
  0
LINE
  5
1DB
330
1E
100
AcDbEntity
  8
0
100
AcDbLine
 10
31.5
 20
181.0491499999999
 30
0.0
 11
31.5
 21
137.73743
 31
0.0
  0
LINE
  5
1DC
330
1E
100
AcDbEntity
  8
0
100
AcDbLine
 10
31.5
 20
181.0491499999999
 30
0.0
 11
50.0
 21
181.0491499999999
 31
0.0
  0
LINE
  5
1DD
330
1E
100
AcDbEntity
  8
0
100
AcDbLine
 10
36.78589999999999
 20
148.93285
 30
0.0
 11
37.0657
 21
149.12105
 31
0.0
  0
LINE
  5
1E2
330
1E
100
AcDbEntity
  8
0
100
AcDbLine
 10
40.1606
 20
150.52015
 30
0.0
 11
43.3284
 21
151.55935
 31
0.0
  0
LINE
  5
1E9
330
1E
100
AcDbEntity
  8
0
100
AcDbLine
 10
46.60359999999999
 20
152.2150499999999
 30
0.0
 11
50.0
 21
152.4444499999999
 31
0.0
  0
LINE
  5
1EA
330
1E
100
AcDbEntity
  8
0
100
AcDbLine
 10
43.3284
 20
151.55935
 30
0.0
 11
46.60359999999999
 21
152.2150499999999
 31
0.0
  0
LINE
  5
1EB
330
1E
100
AcDbEntity
  8
0
100
AcDbLine
 10
37.0913
 20
149.1329499999999
 30
0.0
 11
40.1606
 21
150.52015
 31
0.0
  0
LINE
  5
1EC
330
1E
100
AcDbEntity
  8
0
100
AcDbLine
 10
36.55429999999999
 20
148.55715
 30
0.0
 11
36.6007
 21
148.66085
 31
0.0
  0
LINE
  5
1ED
330
1E
100
AcDbEntity
  8
0
100
AcDbLine
 10
22.6269
 20
81.15165000000001
 30
0.0
 11
24.5886
 21
82.76345
 31
0.0
  0
LINE
  5
1F0
330
1E
100
AcDbEntity
  8
0
100
AcDbLine
 10
18.8344
 20
11.96385
 30
0.0
 11
22.7067
 21
9.93284999999998
 31
0.0
  0
LINE
  5
1F7
330
1E
100
AcDbEntity
  8
0
100
AcDbLine
 10
68.253
 20
90.40395
 30
0.0
 11
66.93959167659909
 21
92.5953810907046
 31
0.0
  0
LINE
  5
1F8
330
1E
100
AcDbEntity
  8
0
100
AcDbLine
 10
83.60040000000001
 20
76.35165
 30
0.0
 11
80.42959999999998
 21
78.77525
 31
0.0
  0
LINE
  5
1F9
330
1E
100
AcDbEntity
  8
0
100
AcDbLine
 10
83.60040000000001
 20
76.35165
 30
0.0
 11
80.42959999999998
 21
78.77525
 31
0.0
  0
LINE
  5
1FA
330
1E
100
AcDbEntity
  8
0
100
AcDbLine
 10
84.7394
 20
14.25385
 30
0.0
 11
81.16559999999999
 21
11.96385
 31
0.0
  0
LINE
  5
1FB
330
1E
100
AcDbEntity
  8
0
100
AcDbLine
 10
82.0475
 20
19.79485
 30
0.0
 11
78.89639999999999
 21
18.07485
 31
0.0
  0
LINE
  5
1FC
330
1E
100
AcDbEntity
  8
0
100
AcDbLine
 10
83.222
 20
9.79184999999998
 30
0.0
 11
73.422
 21
4.417849999999969
 31
0.0
  0
LINE
  5
1FD
330
1E
100
AcDbEntity
  8
0
100
AcDbLine
 10
97.48940000000001
 20
36.00445
 30
0.0
 11
96.09619999999999
 21
33.33785
 31
0.0
  0
LINE
  5
1FE
330
1E
100
AcDbEntity
  8
0
100
AcDbLine
 10
99.059
 20
35.66125
 30
0.0
 11
98.34659999999999
 21
32.26135
 31
0.0
  0
LINE
  5
1FF
330
1E
100
AcDbEntity
  8
0
100
AcDbLine
 10
97.1258
 20
28.82085
 30
0.0
 11
95.49609999999999
 21
25.60185
 31
0.0
  0
LINE
  5
200
330
1E
100
AcDbEntity
  8
0
100
AcDbLine
 10
97.23600000000001
 20
27.85885
 30
0.0
 11
96.74599999999999
 21
26.25985
 31
0.0
  0
LINE
  5
201
330
1E
100
AcDbEntity
  8
0
100
AcDbLine
 10
98.34659999999999
 20
32.26135
 30
0.0
 11
97.17120000000001
 21
28.94375
 31
0.0
  0
LINE
  5
202
330
1E
100
AcDbEntity
  8
0
100
AcDbLine
 10
97.80133827933703
 20
30.7223332529594
 30
0.0
 11
97.23600000000001
 21
27.85885
 31
0.0
  0
LINE
  5
203
330
1E
100
AcDbEntity
  8
0
100
AcDbLine
 10
97.80133827933703
 20
30.7223332529594
 30
0.0
 11
97.23600000000001
 21
27.85885
 31
0.0
  0
LINE
  5
204
330
1E
100
AcDbEntity
  8
0
100
AcDbLine
 10
97.17120000000001
 20
28.94375
 30
0.0
 11
97.1258
 21
28.82085
 31
0.0
  0
LINE
  5
205
330
1E
100
AcDbEntity
  8
0
100
AcDbLine
 10
90.21179999999999
 20
25.95385
 30
0.0
 11
88.5792
 21
24.46685
 31
0.0
  0
LINE
  5
206
330
1E
100
AcDbEntity
  8
0
100
AcDbLine
 10
90.941
 20
19.58185
 30
0.0
 11
88.06090000000001
 21
16.83684999999999
 31
0.0
  0
LINE
  5
207
330
1E
100
AcDbEntity
  8
0
100
AcDbLine
 10
92.042
 20
17.95385
 30
0.0
 11
84.29999999999999
 21
10.69485
 31
0.0
  0
LINE
  5
208
330
1E
100
AcDbEntity
  8
0
100
AcDbLine
 10
93.42789999999999
 20
22.51285
 30
0.0
 11
90.941
 21
19.58185
 31
0.0
  0
LINE
  5
209
330
1E
100
AcDbEntity
  8
0
100
AcDbLine
 10
96.74599999999999
 20
26.25985
 30
0.0
 11
92.042
 21
17.95385
 31
0.0
  0
LINE
  5
20A
330
1E
100
AcDbEntity
  8
0
100
AcDbLine
 10
93.13129999999999
 20
29.10664999999999
 30
0.0
 11
91.72920000000001
 21
27.50185
 31
0.0
  0
LINE
  5
20B
330
1E
100
AcDbEntity
  8
0
100
AcDbLine
 10
95.49609999999999
 20
25.60185
 30
0.0
 11
93.42789999999999
 21
22.51285
 31
0.0
  0
LINE
  5
20C
330
1E
100
AcDbEntity
  8
0
100
AcDbLine
 10
96.09619999999999
 20
33.33785
 30
0.0
 11
94.7118
 21
31.18605
 31
0.0
  0
LINE
  5
20D
330
1E
100
AcDbEntity
  8
0
100
AcDbLine
 10
94.7118
 20
31.18605
 30
0.0
 11
93.13129999999999
 21
29.10664999999999
 31
0.0
  0
LINE
  5
20E
330
1E
100
AcDbEntity
  8
0
100
AcDbLine
 10
91.72920000000001
 20
27.50185
 30
0.0
 11
90.21179999999999
 21
25.95385
 31
0.0
  0
LINE
  5
20F
330
1E
100
AcDbEntity
  8
0
100
AcDbLine
 10
88.06090000000001
 20
16.83684999999999
 30
0.0
 11
84.81430000000001
 21
14.30485
 31
0.0
  0
LINE
  5
210
330
1E
100
AcDbEntity
  8
0
100
AcDbLine
 10
88.9891
 20
17.73785
 30
0.0
 11
88.06090000000001
 21
16.83684999999999
 31
0.0
  0
LINE
  5
211
330
1E
100
AcDbEntity
  8
0
100
AcDbLine
 10
84.29999999999999
 20
10.69485
 30
0.0
 11
83.222
 21
9.79184999999998
 31
0.0
  0
LINE
  5
212
330
1E
100
AcDbEntity
  8
0
100
AcDbLine
 10
84.81430000000001
 20
14.30485
 30
0.0
 11
84.7394
 21
14.25385
 31
0.0
  0
LINE
  5
213
330
1E
100
AcDbEntity
  8
0
100
AcDbLine
 10
86.8391
 20
23.04384999999999
 30
0.0
 11
84.9956
 21
21.68985
 31
0.0
  0
LINE
  5
214
330
1E
100
AcDbEntity
  8
0
100
AcDbLine
 10
88.5792
 20
24.46685
 30
0.0
 11
86.8391
 21
23.04384999999999
 31
0.0
  0
LINE
  5
215
330
1E
100
AcDbEntity
  8
0
100
AcDbLine
 10
84.9956
 20
21.68985
 30
0.0
 11
82.0475
 21
19.79485
 31
0.0
  0
LINE
  5
216
330
1E
100
AcDbEntity
  8
0
100
AcDbLine
 10
96.99828405250782
 20
60.2399676020509
 30
0.0
 11
95.96809999999999
 21
62.36135
 31
0.0
  0
LINE
  5
217
330
1E
100
AcDbEntity
  8
0
100
AcDbLine
 10
96.99828405250782
 20
60.2399676020509
 30
0.0
 11
95.96809999999999
 21
62.36135
 31
0.0
  0
LINE
  5
218
330
1E
100
AcDbEntity
  8
0
100
AcDbLine
 10
100.0
 20
47.27145
 30
0.0
 11
99.8197
 21
50.42374999999999
 31
0.0
  0
LINE
  5
219
330
1E
100
AcDbEntity
  8
0
100
AcDbLine
 10
99.92910000000001
 20
45.34425
 30
0.0
 11
99.2364
 21
37.36425
 31
0.0
  0
LINE
  5
21A
330
1E
100
AcDbEntity
  8
0
100
AcDbLine
 10
99.3674
 20
41.54805
 30
0.0
 11
98.87770000000001
 21
39.67475
 31
0.0
  0
LINE
  5
21B
330
1E
100
AcDbEntity
  8
0
100
AcDbLine
 10
99.92910000000001
 20
45.34425
 30
0.0
 11
99.2364
 21
37.36425
 31
0.0
  0
LINE
  5
21C
330
1E
100
AcDbEntity
  8
0
100
AcDbLine
 10
98.87770000000001
 20
39.67475
 30
0.0
 11
98.2511
 21
37.82524999999999
 31
0.0
  0
LINE
  5
21D
330
1E
100
AcDbEntity
  8
0
100
AcDbLine
 10
99.2364
 20
37.36425
 30
0.0
 11
99.059
 21
35.66125
 31
0.0
  0
LINE
  5
21E
330
1E
100
AcDbEntity
  8
0
100
AcDbLine
 10
98.2511
 20
37.82524999999999
 30
0.0
 11
97.48940000000001
 21
36.00445
 31
0.0
  0
LINE
  5
21F
330
1E
100
AcDbEntity
  8
0
100
AcDbLine
 10
99.92910000000001
 20
45.34425
 30
0.0
 11
99.71820000000001
 21
43.44015
 31
0.0
  0
LINE
  5
220
330
1E
100
AcDbEntity
  8
0
100
AcDbLine
 10
99.92910000000001
 20
45.34425
 30
0.0
 11
99.71820000000001
 21
43.44015
 31
0.0
  0
LINE
  5
221
330
1E
100
AcDbEntity
  8
0
100
AcDbLine
 10
99.71820000000001
 20
43.44015
 30
0.0
 11
99.3674
 21
41.54805
 31
0.0
  0
LINE
  5
222
330
1E
100
AcDbEntity
  8
0
100
AcDbLine
 10
100.0
 20
47.25814999999999
 30
0.0
 11
99.92910000000001
 21
45.34425
 31
0.0
  0
LINE
  5
223
330
1E
100
AcDbEntity
  8
0
100
AcDbLine
 10
99.2748
 20
53.65725
 30
0.0
 11
98.59099999999999
 21
56.21215
 31
0.0
  0
LINE
  5
224
330
1E
100
AcDbEntity
  8
0
100
AcDbLine
 10
99.8197
 20
50.42374999999999
 30
0.0
 11
99.2748
 21
53.65725
 31
0.0
  0
LINE
  5
225
330
1E
100
AcDbEntity
  8
0
100
AcDbLine
 10
99.8197
 20
50.42374999999999
 30
0.0
 11
99.2748
 21
53.65725
 31
0.0
  0
LINE
  5
226
330
1E
100
AcDbEntity
  8
0
100
AcDbLine
 10
98.59099999999999
 20
56.21215
 30
0.0
 11
97.4421
 21
59.32605
 31
0.0
  0
LINE
  5
227
330
1E
100
AcDbEntity
  8
0
100
AcDbLine
 10
97.4421
 20
59.32605
 30
0.0
 11
96.99828405250782
 21
60.2399676020509
 31
0.0
  0
LINE
  5
228
330
1E
100
AcDbEntity
  8
0
100
AcDbLine
 10
90.266
 20
70.34135
 30
0.0
 11
87.27859999999999
 21
73.30365
 31
0.0
  0
LINE
  5
229
330
1E
100
AcDbEntity
  8
0
100
AcDbLine
 10
95.04980000000001
 20
63.97594999999999
 30
0.0
 11
92.8673
 21
67.21715
 31
0.0
  0
LINE
  5
22A
330
1E
100
AcDbEntity
  8
0
100
AcDbLine
 10
95.96809999999999
 20
62.36135
 30
0.0
 11
95.46460000000001
 21
63.25034999999999
 31
0.0
  0
LINE
  5
22B
330
1E
100
AcDbEntity
  8
0
100
AcDbLine
 10
95.46460000000001
 20
63.25034999999999
 30
0.0
 11
95.104
 21
63.87554999999999
 31
0.0
  0
LINE
  5
22C
330
1E
100
AcDbEntity
  8
0
100
AcDbLine
 10
95.46460000000001
 20
63.25034999999999
 30
0.0
 11
95.104
 21
63.87554999999999
 31
0.0
  0
LINE
  5
22D
330
1E
100
AcDbEntity
  8
0
100
AcDbLine
 10
95.104
 20
63.87554999999999
 30
0.0
 11
95.04980000000001
 21
63.97594999999999
 31
0.0
  0
LINE
  5
22E
330
1E
100
AcDbEntity
  8
0
100
AcDbLine
 10
93.8668776657373
 20
65.7326912920102
 30
0.0
 11
93.7531
 21
65.90585
 31
0.0
  0
LINE
  5
22F
330
1E
100
AcDbEntity
  8
0
100
AcDbLine
 10
92.8673
 20
67.21715
 30
0.0
 11
90.266
 21
70.34135
 31
0.0
  0
LINE
  5
230
330
1E
100
AcDbEntity
  8
0
100
AcDbLine
 10
87.22039999999999
 20
73.35275
 30
0.0
 11
83.9334
 21
76.10545000000001
 31
0.0
  0
LINE
  5
231
330
1E
100
AcDbEntity
  8
0
100
AcDbLine
 10
87.27859999999999
 20
73.30365
 30
0.0
 11
87.22039999999999
 21
73.35275
 31
0.0
  0
LINE
  5
232
330
1E
100
AcDbEntity
  8
0
100
AcDbLine
 10
83.9334
 20
76.10545000000001
 30
0.0
 11
83.60040000000001
 21
76.35165
 31
0.0
  0
LINE
  5
233
330
1E
100
AcDbEntity
  8
0
100
AcDbLine
 10
66.2568
 20
13.48885
 30
0.0
 11
64.04569999999999
 21
12.99185
 31
0.0
  0
LINE
  5
234
330
1E
100
AcDbEntity
  8
0
100
AcDbLine
 10
68.79990000000001
 20
6.72084999999998
 30
0.0
 11
64.2605
 21
5.572849999999981
 31
0.0
  0
LINE
  5
235
330
1E
100
AcDbEntity
  8
0
100
AcDbLine
 10
73.422
 20
4.417849999999969
 30
0.0
 11
62.054
 21
1.136849999999969
 31
0.0
  0
LINE
  5
236
330
1E
100
AcDbEntity
  8
0
100
AcDbLine
 10
77.2933
 20
9.93284999999998
 30
0.0
 11
73.15789999999999
 21
8.179849999999959
 31
0.0
  0
LINE
  5
237
330
1E
100
AcDbEntity
  8
0
100
AcDbLine
 10
76.69329999999999
 20
17.03085
 30
0.0
 11
72.90269999999999
 21
15.49484999999999
 31
0.0
  0
LINE
  5
238
330
1E
100
AcDbEntity
  8
0
100
AcDbLine
 10
78.89639999999999
 20
18.07485
 30
0.0
 11
76.69329999999999
 21
17.03085
 31
0.0
  0
LINE
  5
239
330
1E
100
AcDbEntity
  8
0
100
AcDbLine
 10
81.16559999999999
 20
11.96385
 30
0.0
 11
77.2933
 21
9.93284999999998
 31
0.0
  0
LINE
  5
23A
330
1E
100
AcDbEntity
  8
0
100
AcDbLine
 10
69.6591
 20
14.41385
 30
0.0
 11
66.2568
 21
13.48885
 31
0.0
  0
LINE
  5
23B
330
1E
100
AcDbEntity
  8
0
100
AcDbLine
 10
73.15789999999999
 20
8.179849999999959
 30
0.0
 11
68.79990000000001
 21
6.72084999999998
 31
0.0
  0
LINE
  5
23C
330
1E
100
AcDbEntity
  8
0
100
AcDbLine
 10
72.90269999999999
 20
15.49484999999999
 30
0.0
 11
69.6591
 21
14.41385
 31
0.0
  0
LINE
  5
241
330
1E
100
AcDbEntity
  8
0
100
AcDbLine
 10
59.5842
 20
4.74484999999999
 30
0.0
 11
54.8153
 21
4.245849999999999
 31
0.0
  0
LINE
  5
242
330
1E
100
AcDbEntity
  8
0
100
AcDbLine
 10
62.054
 20
1.136849999999969
 30
0.0
 11
50.0
 21
-0.0491500000000316
 31
0.0
  0
LINE
  5
243
330
1E
100
AcDbEntity
  8
0
100
AcDbLine
 10
64.2605
 20
5.572849999999981
 30
0.0
 11
59.5842
 21
4.74484999999999
 31
0.0
  0
LINE
  5
244
330
1E
100
AcDbEntity
  8
0
100
AcDbLine
 10
54.8153
 20
4.245849999999999
 30
0.0
 11
50.0006
 21
4.077849999999979
 31
0.0
  0
LINE
  5
249
330
1E
100
AcDbEntity
  8
0
100
AcDbLine
 10
59.5389
 20
12.22085
 30
0.0
 11
56.2656
 21
11.85185
 31
0.0
  0
LINE
  5
24A
330
1E
100
AcDbEntity
  8
0
100
AcDbLine
 10
61.8051
 20
12.56985
 30
0.0
 11
59.5389
 21
12.22085
 31
0.0
  0
LINE
  5
24B
330
1E
100
AcDbEntity
  8
0
100
AcDbLine
 10
64.04569999999999
 20
12.99185
 30
0.0
 11
61.8051
 21
12.56985
 31
0.0
  0
LINE
  5
24C
330
1E
100
AcDbEntity
  8
0
100
AcDbLine
 10
56.2656
 20
11.85185
 30
0.0
 11
52.9658
 21
11.63685
 31
0.0
  0
LINE
  5
24D
330
1E
100
AcDbEntity
  8
0
100
AcDbLine
 10
52.9658
 20
11.63685
 30
0.0
 11
50.0
 21
11.57485
 31
0.0
  0
LINE
  5
24E
330
1E
100
AcDbEntity
  8
0
100
AcDbLine
 10
73.5481
 20
84.40935000000001
 30
0.0
 11
71.8199
 21
86.09194999999999
 31
0.0
  0
LINE
  5
24F
330
1E
100
AcDbEntity
  8
0
100
AcDbLine
 10
77.37309999999999
 20
81.15165000000001
 30
0.0
 11
75.4114
 21
82.76345
 31
0.0
  0
LINE
  5
250
330
1E
100
AcDbEntity
  8
0
100
AcDbLine
 10
80.42959999999998
 20
78.77525
 30
0.0
 11
77.37309999999999
 21
81.15165000000001
 31
0.0
  0
LINE
  5
251
330
1E
100
AcDbEntity
  8
0
100
AcDbLine
 10
75.4114
 20
82.76345
 30
0.0
 11
73.5481
 21
84.40935000000001
 31
0.0
  0
LINE
  5
252
330
1E
100
AcDbEntity
  8
0
100
AcDbLine
 10
69.83449999999999
 20
88.26415
 30
0.0
 11
68.253
 21
90.40395
 31
0.0
  0
LINE
  5
253
330
1E
100
AcDbEntity
  8
0
100
AcDbLine
 10
71.6406
 20
86.27785000000001
 30
0.0
 11
69.83449999999999
 21
88.26415
 31
0.0
  0
LINE
  5
254
330
1E
100
AcDbEntity
  8
0
100
AcDbLine
 10
71.8199
 20
86.09194999999999
 30
0.0
 11
71.6406
 21
86.27785000000001
 31
0.0
  0
LINE
  5
255
330
1E
100
AcDbEntity
  8
0
100
AcDbLine
 10
68.5
 20
181.0491499999999
 30
0.0
 11
68.5
 21
137.73743
 31
0.0
  0
LINE
  5
256
330
1E
100
AcDbEntity
  8
0
100
AcDbLine
 10
63.8802
 20
145.34175
 30
0.0
 11
63.55699999999999
 21
148.23655
 31
0.0
  0
LINE
  5
257
330
1E
100
AcDbEntity
  8
0
100
AcDbLine
 10
68.5
 20
137.73743
 30
0.0
 11
68.5
 21
181.0491499999999
 31
0.0
  0
LINE
  5
258
330
1E
100
AcDbEntity
  8
0
100
AcDbLine
 10
66.1691
 20
94.16745
 30
0.0
 11
65.40135054315761
 21
96.16109030513451
 31
0.0
  0
LINE
  5
259
330
1E
100
AcDbEntity
  8
0
100
AcDbLine
 10
66.5618
 20
133.07145
 30
0.0
 11
64.74388589683389
 21
131.542028988162
 31
0.0
  0
LINE
  5
25A
330
1E
100
AcDbEntity
  8
0
100
AcDbLine
 10
66.93959167659909
 20
92.5953810907046
 30
0.0
 11
66.1691
 21
94.16745
 31
0.0
  0
LINE
  5
25B
330
1E
100
AcDbEntity
  8
0
100
AcDbLine
 10
67.6503
 20
134.6189899999999
 30
0.0
 11
66.5618
 21
133.07145
 31
0.0
  0
LINE
  5
25C
330
1E
100
AcDbEntity
  8
0
100
AcDbLine
 10
68.35679999999999
 20
136.62749
 30
0.0
 11
67.6503
 21
134.6189899999999
 31
0.0
  0
LINE
  5
25D
330
1E
100
AcDbEntity
  8
0
100
AcDbLine
 10
68.5
 20
137.73743
 30
0.0
 11
68.35679999999999
 21
136.62749
 31
0.0
  0
LINE
  5
25E
330
1E
100
AcDbEntity
  8
0
100
AcDbLine
 10
64.76300000000001
 20
121.41311
 30
0.0
 11
64.6349
 21
115.64685
 31
0.0
  0
LINE
  5
25F
330
1E
100
AcDbEntity
  8
0
100
AcDbLine
 10
64.30089999999999
 20
106.8902499999999
 30
0.0
 11
64.2654
 21
104.1749499999999
 31
0.0
  0
LINE
  5
260
330
1E
100
AcDbEntity
  8
0
100
AcDbLine
 10
65.17
 20
96.94315000000001
 30
0.0
 11
64.8369
 21
98.37094999999999
 31
0.0
  0
LINE
  5
261
330
1E
100
AcDbEntity
  8
0
100
AcDbLine
 10
65.40135054315761
 20
96.16109030513451
 30
0.0
 11
65.17
 21
96.94315000000001
 31
0.0
  0
LINE
  5
262
330
1E
100
AcDbEntity
  8
0
100
AcDbLine
 10
65.40135054315761
 20
96.16109030513451
 30
0.0
 11
65.17
 21
96.94315000000001
 31
0.0
  0
LINE
  5
263
330
1E
100
AcDbEntity
  8
0
100
AcDbLine
 10
64.4674
 20
100.7494499999999
 30
0.0
 11
64.29009999999999
 21
103.19795
 31
0.0
  0
LINE
  5
264
330
1E
100
AcDbEntity
  8
0
100
AcDbLine
 10
64.8369
 20
98.37094999999999
 30
0.0
 11
64.4674
 21
100.7494499999999
 31
0.0
  0
LINE
  5
265
330
1E
100
AcDbEntity
  8
0
100
AcDbLine
 10
64.29009999999999
 20
103.19795
 30
0.0
 11
64.2654
 21
104.1749499999999
 31
0.0
  0
LINE
  5
266
330
1E
100
AcDbEntity
  8
0
100
AcDbLine
 10
64.6349
 20
115.64685
 30
0.0
 11
64.4113
 21
109.53125
 31
0.0
  0
LINE
  5
267
330
1E
100
AcDbEntity
  8
0
100
AcDbLine
 10
64.4093
 20
109.50085
 30
0.0
 11
64.35120000000001
 21
108.18415
 31
0.0
  0
LINE
  5
268
330
1E
100
AcDbEntity
  8
0
100
AcDbLine
 10
64.35120000000001
 20
108.18415
 30
0.0
 11
64.30089999999999
 21
106.8902499999999
 31
0.0
  0
LINE
  5
269
330
1E
100
AcDbEntity
  8
0
100
AcDbLine
 10
64.7325
 20
132.2242699999999
 30
0.0
 11
64.58760000000001
 21
136.68479
 31
0.0
  0
LINE
  5
26A
330
1E
100
AcDbEntity
  8
0
100
AcDbLine
 10
64.79650000000001
 20
127.09763
 30
0.0
 11
64.7926
 21
124.39293
 31
0.0
  0
LINE
  5
26B
330
1E
100
AcDbEntity
  8
0
100
AcDbLine
 10
64.7926
 20
124.39293
 30
0.0
 11
64.76300000000001
 21
121.41311
 31
0.0
  0
LINE
  5
26C
330
1E
100
AcDbEntity
  8
0
100
AcDbLine
 10
64.79650000000001
 20
127.09763
 30
0.0
 11
64.7394
 21
131.92096
 31
0.0
  0
LINE
  5
26D
330
1E
100
AcDbEntity
  8
0
100
AcDbLine
 10
64.7394
 20
131.92096
 30
0.0
 11
64.7325
 21
132.2242699999999
 31
0.0
  0
LINE
  5
26E
330
1E
100
AcDbEntity
  8
0
100
AcDbLine
 10
64.58760000000001
 20
136.68479
 30
0.0
 11
64.36500000000001
 21
140.79775
 31
0.0
  0
LINE
  5
26F
330
1E
100
AcDbEntity
  8
0
100
AcDbLine
 10
64.1679
 20
143.40835
 30
0.0
 11
63.8802
 21
145.34175
 31
0.0
  0
LINE
  5
270
330
1E
100
AcDbEntity
  8
0
100
AcDbLine
 10
64.36500000000001
 20
140.79775
 30
0.0
 11
64.1679
 21
143.40835
 31
0.0
  0
LINE
  5
271
330
1E
100
AcDbEntity
  8
0
100
AcDbLine
 10
68.5
 20
181.0491499999999
 30
0.0
 11
50.0
 21
181.0491499999999
 31
0.0
  0
LINE
  5
272
330
1E
100
AcDbEntity
  8
0
100
AcDbLine
 10
68.5
 20
181.0491499999999
 30
0.0
 11
68.5
 21
152.52445
 31
0.0
  0
LINE
  5
273
330
1E
100
AcDbEntity
  8
0
100
AcDbLine
 10
68.5
 20
152.52445
 30
0.0
 11
68.5
 21
181.0491499999999
 31
0.0
  0
LINE
  5
274
330
1E
100
AcDbEntity
  8
0
100
AcDbLine
 10
59.8394
 20
150.52015
 30
0.0
 11
56.67159999999999
 21
151.55935
 31
0.0
  0
LINE
  5
275
330
1E
100
AcDbEntity
  8
0
100
AcDbLine
 10
62.9087
 20
149.1329499999999
 30
0.0
 11
59.8394
 21
150.52015
 31
0.0
  0
LINE
  5
276
330
1E
100
AcDbEntity
  8
0
100
AcDbLine
 10
63.4457
 20
148.55715
 30
0.0
 11
63.39929999999999
 21
148.66085
 31
0.0
  0
LINE
  5
277
330
1E
100
AcDbEntity
  8
0
100
AcDbLine
 10
63.2141
 20
148.93285
 30
0.0
 11
62.9343
 21
149.12105
 31
0.0
  0
LINE
  5
278
330
1E
100
AcDbEntity
  8
0
100
AcDbLine
 10
63.3176
 20
148.80565
 30
0.0
 11
63.2141
 21
148.93285
 31
0.0
  0
LINE
  5
279
330
1E
100
AcDbEntity
  8
0
100
AcDbLine
 10
63.39929999999999
 20
148.66085
 30
0.0
 11
63.3176
 21
148.80565
 31
0.0
  0
LINE
  5
27A
330
1E
100
AcDbEntity
  8
0
100
AcDbLine
 10
63.55699999999999
 20
148.23655
 30
0.0
 11
63.5255
 21
148.34395
 31
0.0
  0
LINE
  5
27B
330
1E
100
AcDbEntity
  8
0
100
AcDbLine
 10
63.5255
 20
148.34395
 30
0.0
 11
63.4457
 21
148.55715
 31
0.0
  0
LINE
  5
27C
330
1E
100
AcDbEntity
  8
0
100
AcDbLine
 10
56.67159999999999
 20
151.55935
 30
0.0
 11
53.3964
 21
152.2150499999999
 31
0.0
  0
LINE
  5
27D
330
1E
100
AcDbEntity
  8
0
100
AcDbLine
 10
53.3964
 20
152.2150499999999
 30
0.0
 11
50.0
 21
152.4444499999999
 31
0.0
  0
ENDSEC
  0
SECTION
  2
OBJECTS
  0
DICTIONARY
  5
C
330
0
100
AcDbDictionary
281
     1
  3
ACAD_GROUP
350
D
  3
ACAD_LAYOUT
350
19
  3
ACAD_MLINESTYLE
350
16
  3
ACAD_PLOTSETTINGS
350
18
  3
ACAD_PLOTSTYLENAME
350
E
  3
AcDbVariableDictionary
350
27F
  0
DICTIONARY
  5
D
102
{ACAD_REACTORS
330
C
102
}
330
C
100
AcDbDictionary
281
     1
  0
DICTIONARY
  5
19
102
{ACAD_REACTORS
330
C
102
}
330
C
100
AcDbDictionary
281
     1
  3
Layout1
350
1D
  3
Model
350
21
  0
DICTIONARY
  5
16
102
{ACAD_REACTORS
330
C
102
}
330
C
100
AcDbDictionary
281
     1
  3
Standard
350
17
  0
DICTIONARY
  5
18
102
{ACAD_REACTORS
330
C
102
}
330
C
100
AcDbDictionary
281
     1
  0
ACDBDICTIONARYWDFLT
  5
E
102
{ACAD_REACTORS
330
C
102
}
330
C
100
AcDbDictionary
281
     1
  3
Normal
350
F
100
AcDbDictionaryWithDefault
340
F
  0
DICTIONARY
  5
27F
102
{ACAD_REACTORS
330
C
102
}
330
C
100
AcDbDictionary
281
     1
  3
DIMASSOC
350
280
  0
LAYOUT
  5
1D
102
{ACAD_REACTORS
330
19
102
}
330
19
100
AcDbPlotSettings
  1

  2
C:\Programme\AutoCAD LT 2002 Deu\plotters\DWF ePlot (optimized for plotting).pc3
  4

  6

 40
0.0
 41
0.0
 42
0.0
 43
0.0
 44
0.0
 45
0.0
 46
0.0
 47
0.0
 48
0.0
 49
0.0
140
0.0
141
0.0
142
1.0
143
1.0
 70
   688
 72
     0
 73
     0
 74
     5
  7

 75
    16
147
1.0
148
0.0
149
0.0
100
AcDbLayout
  1
Layout1
 70
     1
 71
     1
 10
0.0
 20
0.0
 11
12.0
 21
9.0
 12
0.0
 22
0.0
 32
0.0
 14
1.000000000000000E+20
 24
1.000000000000000E+20
 34
1.000000000000000E+20
 15
-1.000000000000000E+20
 25
-1.000000000000000E+20
 35
-1.000000000000000E+20
146
0.0
 13
0.0
 23
0.0
 33
0.0
 16
1.0
 26
0.0
 36
0.0
 17
0.0
 27
1.0
 37
0.0
 76
     0
330
1A
  0
LAYOUT
  5
21
102
{ACAD_REACTORS
330
19
102
}
330
19
100
AcDbPlotSettings
  1

  2
C:\Programme\AutoCAD LT 2002 Deu\plotters\DWF ePlot (optimized for plotting).pc3
  4

  6

 40
0.0
 41
0.0
 42
0.0
 43
0.0
 44
0.0
 45
0.0
 46
0.0
 47
0.0
 48
0.0
 49
0.0
140
0.0
141
0.0
142
1.0
143
1.0
 70
  1712
 72
     0
 73
     0
 74
     0
  7

 75
     0
147
1.0
148
0.0
149
0.0
100
AcDbLayout
  1
Model
 70
     1
 71
     0
 10
0.0
 20
0.0
 11
12.0
 21
9.0
 12
0.0
 22
0.0
 32
0.0
 14
0.0
 24
0.0
 34
0.0
 15
0.0
 25
0.0
 35
0.0
146
0.0
 13
0.0
 23
0.0
 33
0.0
 16
1.0
 26
0.0
 36
0.0
 17
0.0
 27
1.0
 37
0.0
 76
     0
330
1E
  0
MLINESTYLE
  5
17
102
{ACAD_REACTORS
330
16
102
}
330
16
100
AcDbMlineStyle
  2
STANDARD
 70
     0
  3

 62
   256
 51
90.0
 52
90.0
 71
     2
 49
0.5
 62
   256
  6
BYLAYER
 49
-0.5
 62
   256
  6
BYLAYER
  0
ACDBPLACEHOLDER
  5
F
102
{ACAD_REACTORS
330
E
102
}
330
E
  0
DICTIONARYVAR
  5
280
102
{ACAD_REACTORS
330
27F
102
}
330
27F
100
DictionaryVariables
280
     0
  1
1
  0
ENDSEC
  0
EOF
