  0
SECTION
  2
HEADER
  9
$ACADVER
  1
AC1015
  9
$ACADMAINTVER
 70
    13
  9
$DWGCODEPAGE
  3
ANSI_1252
  9
$INSBASE
 10
0.0
 20
0.0
 30
0.0
  9
$EXTMIN
 10
0.0
 20
-0.0064000000000266
 30
0.0
  9
$EXTMAX
 10
100.0
 20
382.0063999999999
 30
0.0
  9
$LIMMIN
 10
0.0
 20
0.0
  9
$LIMMAX
 10
12.0
 20
9.0
  9
$ORTHOMODE
 70
     0
  9
$REGENMODE
 70
     1
  9
$FILLMODE
 70
     1
  9
$QTEXTMODE
 70
     0
  9
$MIRRTEXT
 70
     1
  9
$LTSCALE
 40
1.0
  9
$ATTMODE
 70
     1
  9
$TEXTSIZE
 40
0.2
  9
$TRACEWID
 40
0.05
  9
$TEXTSTYLE
  7
Standard
  9
$CLAYER
  8
0
  9
$CELTYPE
  6
Continuous
  9
$CECOLOR
 62
   256
  9
$CELTSCALE
 40
1.0
  9
$DISPSILH
 70
     0
  9
$DIMSCALE
 40
1.0
  9
$DIMASZ
 40
0.18
  9
$DIMEXO
 40
0.0625
  9
$DIMDLI
 40
0.38
  9
$DIMRND
 40
0.0
  9
$DIMDLE
 40
0.0
  9
$DIMEXE
 40
0.18
  9
$DIMTP
 40
0.0
  9
$DIMTM
 40
0.0
  9
$DIMTXT
 40
0.18
  9
$DIMCEN
 40
0.09
  9
$DIMTSZ
 40
0.0
  9
$DIMTOL
 70
     0
  9
$DIMLIM
 70
     0
  9
$DIMTIH
 70
     1
  9
$DIMTOH
 70
     1
  9
$DIMSE1
 70
     0
  9
$DIMSE2
 70
     0
  9
$DIMTAD
 70
     0
  9
$DIMZIN
 70
     0
  9
$DIMBLK
  1

  9
$DIMASO
 70
     1
  9
$DIMSHO
 70
     1
  9
$DIMPOST
  1

  9
$DIMAPOST
  1

  9
$DIMALT
 70
     0
  9
$DIMALTD
 70
     2
  9
$DIMALTF
 40
25.4
  9
$DIMLFAC
 40
1.0
  9
$DIMTOFL
 70
     0
  9
$DIMTVP
 40
0.0
  9
$DIMTIX
 70
     0
  9
$DIMSOXD
 70
     0
  9
$DIMSAH
 70
     0
  9
$DIMBLK1
  1

  9
$DIMBLK2
  1

  9
$DIMSTYLE
  2
Standard
  9
$DIMCLRD
 70
     0
  9
$DIMCLRE
 70
     0
  9
$DIMCLRT
 70
     0
  9
$DIMTFAC
 40
1.0
  9
$DIMGAP
 40
0.09
  9
$DIMJUST
 70
     0
  9
$DIMSD1
 70
     0
  9
$DIMSD2
 70
     0
  9
$DIMTOLJ
 70
     1
  9
$DIMTZIN
 70
     0
  9
$DIMALTZ
 70
     0
  9
$DIMALTTZ
 70
     0
  9
$DIMUPT
 70
     0
  9
$DIMDEC
 70
     4
  9
$DIMTDEC
 70
     4
  9
$DIMALTU
 70
     2
  9
$DIMALTTD
 70
     2
  9
$DIMTXSTY
  7
Standard
  9
$DIMAUNIT
 70
     0
  9
$DIMADEC
 70
     0
  9
$DIMALTRND
 40
0.0
  9
$DIMAZIN
 70
     0
  9
$DIMDSEP
 70
    46
  9
$DIMATFIT
 70
     3
  9
$DIMFRAC
 70
     0
  9
$DIMLDRBLK
  1

  9
$DIMLUNIT
 70
     2
  9
$DIMLWD
 70
    -2
  9
$DIMLWE
 70
    -2
  9
$DIMTMOVE
 70
     0
  9
$LUNITS
 70
     2
  9
$LUPREC
 70
     4
  9
$SKETCHINC
 40
0.1
  9
$FILLETRAD
 40
0.0
  9
$AUNITS
 70
     0
  9
$AUPREC
 70
     0
  9
$MENU
  1
.
  9
$ELEVATION
 40
0.0
  9
$PELEVATION
 40
0.0
  9
$THICKNESS
 40
0.0
  9
$LIMCHECK
 70
     0
  9
$CHAMFERA
 40
0.0
  9
$CHAMFERB
 40
0.0
  9
$CHAMFERC
 40
0.0
  9
$CHAMFERD
 40
0.0
  9
$SKPOLY
 70
     0
  9
$TDCREATE
 40
2455656.758120960
  9
$TDUCREATE
 40
2455656.674787627
  9
$TDUPDATE
 40
2455656.842977731
  9
$TDUUPDATE
 40
2455656.759644397
  9
$TDINDWG
 40
0.0848575000
  9
$TDUSRTIMER
 40
0.0848575000
  9
$USRTIMER
 70
     1
  9
$ANGBASE
 50
0.0
  9
$ANGDIR
 70
     0
  9
$PDMODE
 70
     0
  9
$PDSIZE
 40
0.0
  9
$PLINEWID
 40
0.0
  9
$SPLFRAME
 70
     0
  9
$SPLINETYPE
 70
     6
  9
$SPLINESEGS
 70
     8
  9
$HANDSEED
  5
73C
  9
$SURFTAB1
 70
     6
  9
$SURFTAB2
 70
     6
  9
$SURFTYPE
 70
     6
  9
$SURFU
 70
     6
  9
$SURFV
 70
     6
  9
$UCSBASE
  2

  9
$UCSNAME
  2

  9
$UCSORG
 10
0.0
 20
0.0
 30
0.0
  9
$UCSXDIR
 10
1.0
 20
0.0
 30
0.0
  9
$UCSYDIR
 10
0.0
 20
1.0
 30
0.0
  9
$UCSORTHOREF
  2

  9
$UCSORTHOVIEW
 70
     1
  9
$UCSORGTOP
 10
0.0
 20
0.0
 30
0.0
  9
$UCSORGBOTTOM
 10
0.0
 20
0.0
 30
0.0
  9
$UCSORGLEFT
 10
0.0
 20
0.0
 30
0.0
  9
$UCSORGRIGHT
 10
0.0
 20
0.0
 30
0.0
  9
$UCSORGFRONT
 10
0.0
 20
0.0
 30
0.0
  9
$UCSORGBACK
 10
0.0
 20
0.0
 30
0.0
  9
$PUCSBASE
  2

  9
$PUCSNAME
  2

  9
$PUCSORG
 10
0.0
 20
0.0
 30
0.0
  9
$PUCSXDIR
 10
1.0
 20
0.0
 30
0.0
  9
$PUCSYDIR
 10
0.0
 20
1.0
 30
0.0
  9
$PUCSORTHOREF
  2

  9
$PUCSORTHOVIEW
 70
     0
  9
$PUCSORGTOP
 10
0.0
 20
0.0
 30
0.0
  9
$PUCSORGBOTTOM
 10
0.0
 20
0.0
 30
0.0
  9
$PUCSORGLEFT
 10
0.0
 20
0.0
 30
0.0
  9
$PUCSORGRIGHT
 10
0.0
 20
0.0
 30
0.0
  9
$PUCSORGFRONT
 10
0.0
 20
0.0
 30
0.0
  9
$PUCSORGBACK
 10
0.0
 20
0.0
 30
0.0
  9
$USERI1
 70
     0
  9
$USERI2
 70
     0
  9
$USERI3
 70
     0
  9
$USERI4
 70
     0
  9
$USERI5
 70
     0
  9
$USERR1
 40
0.0
  9
$USERR2
 40
0.0
  9
$USERR3
 40
0.0
  9
$USERR4
 40
0.0
  9
$USERR5
 40
0.0
  9
$WORLDVIEW
 70
     1
  9
$SHADEDGE
 70
     3
  9
$SHADEDIF
 70
    70
  9
$TILEMODE
 70
     1
  9
$MAXACTVP
 70
    64
  9
$PINSBASE
 10
0.0
 20
0.0
 30
0.0
  9
$PLIMCHECK
 70
     0
  9
$PEXTMIN
 10
1.000000000000000E+20
 20
1.000000000000000E+20
 30
1.000000000000000E+20
  9
$PEXTMAX
 10
-1.000000000000000E+20
 20
-1.000000000000000E+20
 30
-1.000000000000000E+20
  9
$PLIMMIN
 10
0.0
 20
0.0
  9
$PLIMMAX
 10
12.0
 20
9.0
  9
$UNITMODE
 70
     0
  9
$VISRETAIN
 70
     1
  9
$PLINEGEN
 70
     0
  9
$PSLTSCALE
 70
     1
  9
$TREEDEPTH
 70
  3020
  9
$CMLSTYLE
  2
Standard
  9
$CMLJUST
 70
     0
  9
$CMLSCALE
 40
1.0
  9
$PROXYGRAPHICS
 70
     1
  9
$MEASUREMENT
 70
     0
  9
$CELWEIGHT
370
    -1
  9
$ENDCAPS
280
     0
  9
$JOINSTYLE
280
     0
  9
$LWDISPLAY
290
     0
  9
$INSUNITS
 70
     0
  9
$HYPERLINKBASE
  1

  9
$STYLESHEET
  1

  9
$XEDIT
290
     1
  9
$CEPSNTYPE
380
     0
  9
$PSTYLEMODE
290
     1
  9
$FINGERPRINTGUID
  2
{3BAD428A-A289-4190-8719-341A0BB79ACA}
  9
$VERSIONGUID
  2
{90298525-A8BB-4D64-BCFE-C427A17B27F7}
  9
$EXTNAMES
290
     1
  9
$PSVPSCALE
 40
0.0
  9
$OLESTARTUP
290
     0
  0
ENDSEC
  0
SECTION
  2
CLASSES
  0
CLASS
  1
ACDBDICTIONARYWDFLT
  2
AcDbDictionaryWithDefault
  3
AutoCAD 2000
 90
        0
280
     0
281
     0
  0
CLASS
  1
ACDBPLACEHOLDER
  2
AcDbPlaceHolder
  3
AutoCAD 2000
 90
        0
280
     0
281
     0
  0
CLASS
  1
LAYOUT
  2
AcDbLayout
  3
AutoCAD 2000
 90
        0
280
     0
281
     0
  0
CLASS
  1
DICTIONARYVAR
  2
AcDbDictionaryVar
  3
AutoCAD 2000
 90
        0
280
     0
281
     0
  0
ENDSEC
  0
SECTION
  2
TABLES
  0
TABLE
  2
VPORT
  5
8
330
0
100
AcDbSymbolTable
 70
     4
  0
VPORT
  5
73B
330
8
100
AcDbSymbolTableRecord
100
AcDbViewportTableRecord
  2
*Active
 70
     0
 10
0.0
 20
0.0
 11
1.0
 21
1.0
 12
50.0
 22
191.0
 13
0.0
 23
0.0
 14
1.0
 24
1.0
 15
0.0
 25
0.0
 16
0.0
 26
0.0
 36
1.0
 17
0.0
 27
0.0
 37
0.0
 40
384.5968775648252
 41
2.073363431151241
 42
50.0
 43
0.0
 44
0.0
 50
0.0
 51
0.0
 71
     0
 72
   100
 73
     1
 74
     3
 75
     0
 76
     0
 77
     0
 78
     0
281
     0
 65
     1
110
0.0
120
0.0
130
0.0
111
1.0
121
0.0
131
0.0
112
0.0
122
1.0
132
0.0
 79
     1
146
0.0
  0
ENDTAB
  0
TABLE
  2
LTYPE
  5
5
330
0
100
AcDbSymbolTable
 70
     1
  0
LTYPE
  5
13
330
5
100
AcDbSymbolTableRecord
100
AcDbLinetypeTableRecord
  2
ByBlock
 70
     0
  3

 72
    65
 73
     0
 40
0.0
  0
LTYPE
  5
14
330
5
100
AcDbSymbolTableRecord
100
AcDbLinetypeTableRecord
  2
ByLayer
 70
     0
  3

 72
    65
 73
     0
 40
0.0
  0
LTYPE
  5
15
330
5
100
AcDbSymbolTableRecord
100
AcDbLinetypeTableRecord
  2
Continuous
 70
     0
  3
Solid line
 72
    65
 73
     0
 40
0.0
  0
ENDTAB
  0
TABLE
  2
LAYER
  5
2
330
0
100
AcDbSymbolTable
 70
     1
  0
LAYER
  5
10
330
2
100
AcDbSymbolTableRecord
100
AcDbLayerTableRecord
  2
0
 70
     0
 62
     7
  6
Continuous
370
    -3
390
F
  0
ENDTAB
  0
TABLE
  2
STYLE
  5
3
330
0
100
AcDbSymbolTable
 70
     1
  0
STYLE
  5
11
330
3
100
AcDbSymbolTableRecord
100
AcDbTextStyleTableRecord
  2
Standard
 70
     0
 40
0.0
 41
1.0
 50
0.0
 71
     0
 42
0.2
  3
txt
  4

  0
ENDTAB
  0
TABLE
  2
VIEW
  5
6
330
0
100
AcDbSymbolTable
 70
     0
  0
ENDTAB
  0
TABLE
  2
UCS
  5
7
330
0
100
AcDbSymbolTable
 70
     0
  0
ENDTAB
  0
TABLE
  2
APPID
  5
9
330
0
100
AcDbSymbolTable
 70
     1
  0
APPID
  5
12
330
9
100
AcDbSymbolTableRecord
100
AcDbRegAppTableRecord
  2
ACAD
 70
     0
  0
ENDTAB
  0
TABLE
  2
DIMSTYLE
  5
A
330
0
100
AcDbSymbolTable
 70
     1
100
AcDbDimStyleTable
 71
     0
  0
DIMSTYLE
105
733
330
A
100
AcDbSymbolTableRecord
100
AcDbDimStyleTableRecord
  2
Standard
 70
     0
340
11
  0
ENDTAB
  0
TABLE
  2
BLOCK_RECORD
  5
1
330
0
100
AcDbSymbolTable
 70
     0
  0
BLOCK_RECORD
  5
1E
330
1
100
AcDbSymbolTableRecord
100
AcDbBlockTableRecord
  2
*Model_Space
340
21
  0
BLOCK_RECORD
  5
1A
330
1
100
AcDbSymbolTableRecord
100
AcDbBlockTableRecord
  2
*Paper_Space
340
1D
  0
ENDTAB
  0
ENDSEC
  0
SECTION
  2
BLOCKS
  0
BLOCK
  5
1F
330
1E
100
AcDbEntity
  8
0
100
AcDbBlockBegin
  2
*Model_Space
 70
     0
 10
0.0
 20
0.0
 30
0.0
  3
*Model_Space
  1

  0
ENDBLK
  5
20
330
1E
100
AcDbEntity
  8
0
100
AcDbBlockEnd
  0
BLOCK
  5
1B
330
1A
100
AcDbEntity
 67
     1
  8
0
100
AcDbBlockBegin
  2
*Paper_Space
 70
     0
 10
0.0
 20
0.0
 30
0.0
  3
*Paper_Space
  1

  0
ENDBLK
  5
1C
330
1A
100
AcDbEntity
 67
     1
  8
0
100
AcDbBlockEnd
  0
ENDSEC
  0
SECTION
  2
ENTITIES
  0
LINE
  5
22
330
1E
100
AcDbEntity
  8
0
100
AcDbLine
 10
1.0
 20
335.7814
 30
0.0
 11
2.763999999999999
 21
326.6154
 31
0.0
  0
LINE
  5
23
330
1E
100
AcDbEntity
  8
0
100
AcDbLine
 10
1.0
 20
335.7814
 30
0.0
 11
2.763999999999999
 21
326.6154
 31
0.0
  0
LINE
  5
24
330
1E
100
AcDbEntity
  8
0
100
AcDbLine
 10
1.0
 20
335.7814
 30
0.0
 11
1.01744430592915
 21
337.5000431452079
 31
0.0
  0
LINE
  5
26
330
1E
100
AcDbEntity
  8
0
100
AcDbLine
 10
1.01744430592915
 20
337.5000431452079
 30
0.0
 11
1.0
 21
335.7814
 31
0.0
  0
LINE
  5
28
330
1E
100
AcDbEntity
  8
0
100
AcDbLine
 10
0.8660999999999999
 20
335.1874
 30
0.0
 11
1.091699999999999
 21
333.2524
 31
0.0
  0
LINE
  5
29
330
1E
100
AcDbEntity
  8
0
100
AcDbLine
 10
0.7163000000000001
 20
336.9634
 30
0.0
 11
0.8660999999999999
 21
335.1874
 31
0.0
  0
LINE
  5
2B
330
1E
100
AcDbEntity
  8
0
100
AcDbLine
 10
1.091699999999999
 20
333.2524
 30
0.0
 11
1.6711
 21
330.6703999999999
 31
0.0
  0
LINE
  5
2C
330
1E
100
AcDbEntity
  8
0
100
AcDbLine
 10
1.118948515903659
 20
335.163326248995
 30
0.0
 11
1.125199999999999
 21
335.0274
 31
0.0
  0
LINE
  5
2D
330
1E
100
AcDbEntity
  8
0
100
AcDbLine
 10
0.0
 20
345.7214
 30
0.0
 11
0.1803
 21
342.6424
 31
0.0
  0
LINE
  5
2E
330
1E
100
AcDbEntity
  8
0
100
AcDbLine
 10
0.0709
 20
347.6204
 30
0.0
 11
0.2818
 21
349.5033999999999
 31
0.0
  0
LINE
  5
2F
330
1E
100
AcDbEntity
  8
0
100
AcDbLine
 10
0.0
 20
345.7354
 30
0.0
 11
0.0709
 21
347.6204
 31
0.0
  0
LINE
  5
30
330
1E
100
AcDbEntity
  8
0
100
AcDbLine
 10
0.1803
 20
342.6424
 30
0.0
 11
0.4375
 21
339.5724
 31
0.0
  0
LINE
  5
31
330
1E
100
AcDbEntity
  8
0
100
AcDbLine
 10
0.1803
 20
342.6424
 30
0.0
 11
0.4375
 21
339.5724
 31
0.0
  0
LINE
  5
32
330
1E
100
AcDbEntity
  8
0
100
AcDbLine
 10
0.4375
 20
339.5724
 30
0.0
 11
0.7163000000000001
 21
336.9634
 31
0.0
  0
LINE
  5
39
330
1E
100
AcDbEntity
  8
0
100
AcDbLine
 10
0.2818
 20
349.5033999999999
 30
0.0
 11
0.6326000000000001
 21
351.3784
 31
0.0
  0
LINE
  5
3A
330
1E
100
AcDbEntity
  8
0
100
AcDbLine
 10
1.1223
 20
353.2414
 30
0.0
 11
1.748899999999999
 21
355.0844
 31
0.0
  0
LINE
  5
3B
330
1E
100
AcDbEntity
  8
0
100
AcDbLine
 10
0.6326000000000001
 20
351.3784
 30
0.0
 11
1.1223
 21
353.2414
 31
0.0
  0
LINE
  5
3C
330
1E
100
AcDbEntity
  8
0
100
AcDbLine
 10
0.0709
 20
347.6204
 30
0.0
 11
0.2818
 21
349.5033999999999
 31
0.0
  0
LINE
  5
3D
330
1E
100
AcDbEntity
  8
0
100
AcDbLine
 10
1.01744430592915
 20
337.5000431452079
 30
0.0
 11
1.248399999999999
 21
340.9304
 31
0.0
  0
LINE
  5
3E
330
1E
100
AcDbEntity
  8
0
100
AcDbLine
 10
31.5
 20
187.4483999999999
 30
0.0
 11
31.5
 21
147.4803999999999
 31
0.0
  0
LINE
  5
3F
330
1E
100
AcDbEntity
  8
0
100
AcDbLine
 10
31.5
 20
187.4483999999999
 30
0.0
 11
31.6432
 21
187.2093999999999
 31
0.0
  0
LINE
  5
40
330
1E
100
AcDbEntity
  8
0
100
AcDbLine
 10
31.5
 20
187.4483999999999
 30
0.0
 11
31.5
 21
197.4803999999999
 31
0.0
  0
LINE
  5
41
330
1E
100
AcDbEntity
  8
0
100
AcDbLine
 10
31.5
 20
147.4803999999999
 30
0.0
 11
31.5
 21
141.2184
 31
0.0
  0
LINE
  5
42
330
1E
100
AcDbEntity
  8
0
100
AcDbLine
 10
31.5
 20
147.4803999999999
 30
0.0
 11
31.5
 21
187.4483999999999
 31
0.0
  0
LINE
  5
43
330
1E
100
AcDbEntity
  8
0
100
AcDbLine
 10
31.5
 20
147.4803999999999
 30
0.0
 11
31.5
 21
197.4803999999999
 31
0.0
  0
LINE
  5
45
330
1E
100
AcDbEntity
  8
0
100
AcDbLine
 10
31.5
 20
141.2184
 30
0.0
 11
31.682
 21
140.9713999999999
 31
0.0
  0
LINE
  5
46
330
1E
100
AcDbEntity
  8
0
100
AcDbLine
 10
31.5
 20
141.2184
 30
0.0
 11
31.5
 21
147.4803999999999
 31
0.0
  0
LINE
  5
47
330
1E
100
AcDbEntity
  8
0
100
AcDbLine
 10
34.0751
 20
139.8454
 30
0.0
 11
35.81179999999999
 21
139.4874
 31
0.0
  0
LINE
  5
49
330
1E
100
AcDbEntity
  8
0
100
AcDbLine
 10
32.8174
 20
140.3054
 30
0.0
 11
34.0751
 21
139.8454
 31
0.0
  0
LINE
  5
4B
330
1E
100
AcDbEntity
  8
0
100
AcDbLine
 10
32.0429
 20
140.7033999999999
 30
0.0
 11
32.8174
 21
140.3054
 31
0.0
  0
LINE
  5
4E
330
1E
100
AcDbEntity
  8
0
100
AcDbLine
 10
33.4382
 20
186.3684
 30
0.0
 11
35.842
 21
185.8984
 31
0.0
  0
LINE
  5
4F
330
1E
100
AcDbEntity
  8
0
100
AcDbLine
 10
32.3497
 20
186.7314
 30
0.0
 11
33.4382
 21
186.3684
 31
0.0
  0
LINE
  5
50
330
1E
100
AcDbEntity
  8
0
100
AcDbLine
 10
31.682
 20
140.9713999999999
 30
0.0
 11
32.0429
 21
140.7033999999999
 31
0.0
  0
LINE
  5
53
330
1E
100
AcDbEntity
  8
0
100
AcDbLine
 10
31.6432
 20
187.2093999999999
 30
0.0
 11
32.3497
 21
186.7314
 31
0.0
  0
LINE
  5
54
330
1E
100
AcDbEntity
  8
0
100
AcDbLine
 10
35.3542
 20
187.4644
 30
0.0
 11
35.6987
 21
186.9833999999999
 31
0.0
  0
LINE
  5
55
330
1E
100
AcDbEntity
  8
0
100
AcDbLine
 10
35.3542
 20
187.4644
 30
0.0
 11
35.3542
 21
187.9144
 31
0.0
  0
LINE
  5
56
330
1E
100
AcDbEntity
  8
0
100
AcDbLine
 10
35.842
 20
185.8984
 30
0.0
 11
38.5505
 21
186.1074
 31
0.0
  0
LINE
  5
58
330
1E
100
AcDbEntity
  8
0
100
AcDbLine
 10
35.81179999999999
 20
139.4874
 30
0.0
 11
38.68679999999999
 21
139.7134
 31
0.0
  0
LINE
  5
59
330
1E
100
AcDbEntity
  8
0
100
AcDbLine
 10
35.6987
 20
186.9833999999999
 30
0.0
 11
36.93869999999999
 21
186.4734
 31
0.0
  0
LINE
  5
5A
330
1E
100
AcDbEntity
  8
0
100
AcDbLine
 10
35.3542
 20
187.9144
 30
0.0
 11
35.3542
 21
187.4644
 31
0.0
  0
LINE
  5
5B
330
1E
100
AcDbEntity
  8
0
100
AcDbLine
 10
35.3542
 20
187.9144
 30
0.0
 11
35.358171750088
 21
187.4588545376129
 31
0.0
  0
LINE
  5
5C
330
1E
100
AcDbEntity
  8
0
100
AcDbLine
 10
35.3542
 20
187.9144
 30
0.0
 11
35.36175128671649
 21
187.4538566940179
 31
0.0
  0
LINE
  5
5D
330
1E
100
AcDbEntity
  8
0
100
AcDbLine
 10
35.3542
 20
187.9144
 30
0.0
 11
35.6298
 21
188.5454
 31
0.0
  0
LINE
  5
5E
330
1E
100
AcDbEntity
  8
0
100
AcDbLine
 10
35.3542
 20
187.9144
 30
0.0
 11
35.36175128671649
 21
187.4538566940179
 31
0.0
  0
LINE
  5
60
330
1E
100
AcDbEntity
  8
0
100
AcDbLine
 10
35.6298
 20
188.5454
 30
0.0
 11
36.7407474892396
 21
189.0023219512199
 31
0.0
  0
LINE
  5
61
330
1E
100
AcDbEntity
  8
0
100
AcDbLine
 10
36.93869999999999
 20
186.4734
 30
0.0
 11
38.5505
 21
186.1074
 31
0.0
  0
LINE
  5
62
330
1E
100
AcDbEntity
  8
0
100
AcDbLine
 10
36.97509999999999
 20
188.3893999999999
 30
0.0
 11
37.5436
 21
187.5234
 31
0.0
  0
LINE
  5
63
330
1E
100
AcDbEntity
  8
0
100
AcDbLine
 10
37.5436
 20
187.5234
 30
0.0
 11
37.66579999999999
 21
187.3454
 31
0.0
  0
LINE
  5
64
330
1E
100
AcDbEntity
  8
0
100
AcDbLine
 10
38.6776765191821
 20
142.8188641897739
 30
0.0
 11
39.91429999999999
 21
143.1023999999999
 31
0.0
  0
LINE
  5
65
330
1E
100
AcDbEntity
  8
0
100
AcDbLine
 10
40.0
 20
158.7844
 30
0.0
 11
40.4
 21
158.1683999999999
 31
0.0
  0
LINE
  5
66
330
1E
100
AcDbEntity
  8
0
100
AcDbLine
 10
39.91429999999999
 20
143.1023999999999
 30
0.0
 11
42.02198965835489
 21
143.3745211418969
 31
0.0
  0
LINE
  5
67
330
1E
100
AcDbEntity
  8
0
100
AcDbLine
 10
40.4
 20
158.1683999999999
 30
0.0
 11
41.29999999999999
 21
157.6004
 31
0.0
  0
LINE
  5
68
330
1E
100
AcDbEntity
  8
0
100
AcDbLine
 10
40.0148010514046
 20
185.691622546728
 30
0.0
 11
40.65129999999999
 21
185.4094
 31
0.0
  0
LINE
  5
69
330
1E
100
AcDbEntity
  8
0
100
AcDbLine
 10
38.5505
 20
186.1074
 30
0.0
 11
38.68679999999999
 21
139.7134
 31
0.0
  0
LINE
  5
6A
330
1E
100
AcDbEntity
  8
0
100
AcDbLine
 10
40.0148010514046
 20
185.691622546728
 30
0.0
 11
40.65129999999999
 21
185.4094
 31
0.0
  0
LINE
  5
6B
330
1E
100
AcDbEntity
  8
0
100
AcDbLine
 10
41.9384
 20
0.2158999999999779
 30
0.0
 11
42.4645
 21
0.304699999999982
 31
0.0
  0
LINE
  5
6C
330
1E
100
AcDbEntity
  8
0
100
AcDbLine
 10
41.9384
 20
0.2158999999999779
 30
0.0
 11
42.07559999999999
 21
81.5334
 31
0.0
  0
LINE
  5
6D
330
1E
100
AcDbEntity
  8
0
100
AcDbLine
 10
41.9384
 20
0.2158999999999779
 30
0.0
 11
42.6287
 21
0.128399999999969
 31
0.0
  0
LINE
  5
6E
330
1E
100
AcDbEntity
  8
0
100
AcDbLine
 10
44.46779999999999
 20
0.0578999999999763
 30
0.0
 11
47.0267
 21
0.0086999999999812
 31
0.0
  0
LINE
  5
6F
330
1E
100
AcDbEntity
  8
0
100
AcDbLine
 10
42.6287
 20
0.128399999999969
 30
0.0
 11
44.46779999999999
 21
0.0578999999999763
 31
0.0
  0
LINE
  5
70
330
1E
100
AcDbEntity
  8
0
100
AcDbLine
 10
42.4645
 20
0.304699999999982
 30
0.0
 11
44.1882
 21
0.377699999999966
 31
0.0
  0
LINE
  5
71
330
1E
100
AcDbEntity
  8
0
100
AcDbLine
 10
44.1882
 20
0.377699999999966
 30
0.0
 11
46.6591
 21
0.4301999999999611
 31
0.0
  0
LINE
  5
72
330
1E
100
AcDbEntity
  8
0
100
AcDbLine
 10
42.05969999999999
 20
114.5753999999999
 30
0.0
 11
42.07559999999999
 21
81.5334
 31
0.0
  0
LINE
  5
73
330
1E
100
AcDbEntity
  8
0
100
AcDbLine
 10
42.03159999999999
 20
137.6573999999999
 30
0.0
 11
42.05969999999999
 21
114.5753999999999
 31
0.0
  0
LINE
  5
74
330
1E
100
AcDbEntity
  8
0
100
AcDbLine
 10
45.0
 20
156.7244
 30
0.0
 11
47.4
 21
156.5114
 31
0.0
  0
LINE
  5
75
330
1E
100
AcDbEntity
  8
0
100
AcDbLine
 10
41.9984409949654
 20
157.383446765939
 30
0.0
 11
42.03159999999999
 21
137.6573999999999
 31
0.0
  0
LINE
  5
76
330
1E
100
AcDbEntity
  8
0
100
AcDbLine
 10
42.9
 20
157.1034
 30
0.0
 11
45.0
 21
156.7244
 31
0.0
  0
LINE
  5
77
330
1E
100
AcDbEntity
  8
0
100
AcDbLine
 10
41.29999999999999
 20
157.6004
 30
0.0
 11
42.9
 21
157.1034
 31
0.0
  0
LINE
  5
78
330
1E
100
AcDbEntity
  8
0
100
AcDbLine
 10
44.2723
 20
184.4243999999999
 30
0.0
 11
45.7148
 21
184.2043999999999
 31
0.0
  0
LINE
  5
79
330
1E
100
AcDbEntity
  8
0
100
AcDbLine
 10
47.0267
 20
0.0086999999999812
 30
0.0
 11
50.1377
 21
-0.0064000000000266
 31
0.0
  0
LINE
  5
7A
330
1E
100
AcDbEntity
  8
0
100
AcDbLine
 10
49.725
 20
0.4497999999999651
 30
0.0
 11
52.8361
 21
0.4348999999999731
 31
0.0
  0
LINE
  5
7B
330
1E
100
AcDbEntity
  8
0
100
AcDbLine
 10
46.6591
 20
0.4301999999999611
 30
0.0
 11
49.725
 21
0.4497999999999651
 31
0.0
  0
LINE
  5
7C
330
1E
100
AcDbEntity
  8
0
100
AcDbLine
 10
50.0
 20
156.4164
 30
0.0
 11
52.6
 21
156.5114
 31
0.0
  0
LINE
  5
7D
330
1E
100
AcDbEntity
  8
0
100
AcDbLine
 10
47.4
 20
156.5114
 30
0.0
 11
50.0
 21
156.4164
 31
0.0
  0
LINE
  5
7E
330
1E
100
AcDbEntity
  8
0
100
AcDbLine
 10
50.1377
 20
-0.0064000000000266
 30
0.0
 11
53.2037
 21
0.0132999999999751
 31
0.0
  0
LINE
  5
7F
330
1E
100
AcDbEntity
  8
0
100
AcDbLine
 10
53.2037
 20
0.0132999999999751
 30
0.0
 11
55.6737
 21
0.06579999999997
 31
0.0
  0
LINE
  5
80
330
1E
100
AcDbEntity
  8
0
100
AcDbLine
 10
55.6737
 20
0.06579999999997
 30
0.0
 11
57.3985
 21
0.138899999999983
 31
0.0
  0
LINE
  5
81
330
1E
100
AcDbEntity
  8
0
100
AcDbLine
 10
57.3985
 20
0.138899999999983
 30
0.0
 11
57.9243
 21
0.227699999999976
 31
0.0
  0
LINE
  5
82
330
1E
100
AcDbEntity
  8
0
100
AcDbLine
 10
57.2342
 20
0.315099999999977
 30
0.0
 11
57.9243
 21
0.227699999999976
 31
0.0
  0
LINE
  5
83
330
1E
100
AcDbEntity
  8
0
100
AcDbLine
 10
57.9243
 20
0.227699999999976
 30
0.0
 11
58.0758
 21
81.53640000000001
 31
0.0
  0
LINE
  5
84
330
1E
100
AcDbEntity
  8
0
100
AcDbLine
 10
55.3949
 20
0.38559999999997
 30
0.0
 11
57.2342
 21
0.315099999999977
 31
0.0
  0
LINE
  5
85
330
1E
100
AcDbEntity
  8
0
100
AcDbLine
 10
52.8361
 20
0.4348999999999731
 30
0.0
 11
55.3949
 21
0.38559999999997
 31
0.0
  0
LINE
  5
86
330
1E
100
AcDbEntity
  8
0
100
AcDbLine
 10
58.0596
 20
114.5784
 30
0.0
 11
58.0758
 21
81.53640000000001
 31
0.0
  0
LINE
  5
87
330
1E
100
AcDbEntity
  8
0
100
AcDbLine
 10
58.0306
 20
137.6703999999999
 30
0.0
 11
58.0596
 21
114.5784
 31
0.0
  0
LINE
  5
88
330
1E
100
AcDbEntity
  8
0
100
AcDbLine
 10
60.0857
 20
143.1023999999999
 30
0.0
 11
61.3223234808179
 21
142.8188641897739
 31
0.0
  0
LINE
  5
89
330
1E
100
AcDbEntity
  8
0
100
AcDbLine
 10
60.0857
 20
143.1023999999999
 30
0.0
 11
61.3223234808179
 21
142.8188641897739
 31
0.0
  0
LINE
  5
8A
330
1E
100
AcDbEntity
  8
0
100
AcDbLine
 10
68.318
 20
140.9713999999999
 30
0.0
 11
68.5
 21
141.2184
 31
0.0
  0
LINE
  5
8B
330
1E
100
AcDbEntity
  8
0
100
AcDbLine
 10
67.95709999999999
 20
140.7033999999999
 30
0.0
 11
68.318
 21
140.9713999999999
 31
0.0
  0
LINE
  5
8D
330
1E
100
AcDbEntity
  8
0
100
AcDbLine
 10
67.18259999999999
 20
140.3054
 30
0.0
 11
67.95709999999999
 21
140.7033999999999
 31
0.0
  0
LINE
  5
8E
330
1E
100
AcDbEntity
  8
0
100
AcDbLine
 10
65.92489999999999
 20
139.8454
 30
0.0
 11
67.18259999999999
 21
140.3054
 31
0.0
  0
LINE
  5
90
330
1E
100
AcDbEntity
  8
0
100
AcDbLine
 10
64.1882
 20
139.4874
 30
0.0
 11
65.92489999999999
 21
139.8454
 31
0.0
  0
LINE
  5
92
330
1E
100
AcDbEntity
  8
0
100
AcDbLine
 10
61.3132
 20
139.7134
 30
0.0
 11
64.1882
 21
139.4874
 31
0.0
  0
LINE
  5
93
330
1E
100
AcDbEntity
  8
0
100
AcDbLine
 10
61.3132
 20
139.7134
 30
0.0
 11
61.4495
 21
186.1074
 31
0.0
  0
LINE
  5
94
330
1E
100
AcDbEntity
  8
0
100
AcDbLine
 10
52.6
 20
156.5114
 30
0.0
 11
55.0
 21
156.7244
 31
0.0
  0
LINE
  5
95
330
1E
100
AcDbEntity
  8
0
100
AcDbLine
 10
55.0
 20
156.7244
 30
0.0
 11
57.1
 21
157.1034
 31
0.0
  0
LINE
  5
96
330
1E
100
AcDbEntity
  8
0
100
AcDbLine
 10
57.9981763525151
 20
157.3823960294999
 30
0.0
 11
58.0306
 21
137.6703999999999
 31
0.0
  0
LINE
  5
97
330
1E
100
AcDbEntity
  8
0
100
AcDbLine
 10
57.1
 20
157.1034
 30
0.0
 11
58.7
 21
157.6004
 31
0.0
  0
LINE
  5
98
330
1E
100
AcDbEntity
  8
0
100
AcDbLine
 10
58.7
 20
157.6004
 30
0.0
 11
59.6
 21
158.1683999999999
 31
0.0
  0
LINE
  5
99
330
1E
100
AcDbEntity
  8
0
100
AcDbLine
 10
60.0
 20
158.7844
 30
0.0
 11
61.4267496333127
 21
186.5080477081109
 31
0.0
  0
LINE
  5
9A
330
1E
100
AcDbEntity
  8
0
100
AcDbLine
 10
60.0
 20
158.7844
 30
0.0
 11
61.4267496333127
 21
186.5080477081109
 31
0.0
  0
LINE
  5
9B
330
1E
100
AcDbEntity
  8
0
100
AcDbLine
 10
59.6
 20
158.1683999999999
 30
0.0
 11
60.0
 21
158.7844
 31
0.0
  0
LINE
  5
9C
330
1E
100
AcDbEntity
  8
0
100
AcDbLine
 10
58.02122664674961
 20
143.368941539489
 30
0.0
 11
60.0857
 21
143.1023999999999
 31
0.0
  0
LINE
  5
9D
330
1E
100
AcDbEntity
  8
0
100
AcDbLine
 10
68.5
 20
147.4803999999999
 30
0.0
 11
68.5
 21
187.4483999999999
 31
0.0
  0
LINE
  5
9E
330
1E
100
AcDbEntity
  8
0
100
AcDbLine
 10
68.5
 20
147.4803999999999
 30
0.0
 11
68.5
 21
141.2184
 31
0.0
  0
LINE
  5
9F
330
1E
100
AcDbEntity
  8
0
100
AcDbLine
 10
68.5
 20
141.2184
 30
0.0
 11
68.5
 21
147.4803999999999
 31
0.0
  0
LINE
  5
A0
330
1E
100
AcDbEntity
  8
0
100
AcDbLine
 10
50.0
 20
183.9384
 30
0.0
 11
52.1785
 21
184.0064
 31
0.0
  0
LINE
  5
A2
330
1E
100
AcDbEntity
  8
0
100
AcDbLine
 10
52.1785
 20
184.0064
 30
0.0
 11
54.2852
 21
184.2043999999999
 31
0.0
  0
LINE
  5
A4
330
1E
100
AcDbEntity
  8
0
100
AcDbLine
 10
55.7277
 20
184.4243999999999
 30
0.0
 11
57.06669999999999
 21
184.7053999999999
 31
0.0
  0
LINE
  5
A5
330
1E
100
AcDbEntity
  8
0
100
AcDbLine
 10
57.06669999999999
 20
184.7053999999999
 30
0.0
 11
58.2796
 21
185.0363999999999
 31
0.0
  0
LINE
  5
A6
330
1E
100
AcDbEntity
  8
0
100
AcDbLine
 10
54.2852
 20
184.2043999999999
 30
0.0
 11
55.7277
 21
184.4243999999999
 31
0.0
  0
LINE
  5
AA
330
1E
100
AcDbEntity
  8
0
100
AcDbLine
 10
47.8215
 20
184.0064
 30
0.0
 11
50.0
 21
183.9384
 31
0.0
  0
LINE
  5
AC
330
1E
100
AcDbEntity
  8
0
100
AcDbLine
 10
45.7148
 20
184.2043999999999
 30
0.0
 11
47.8215
 21
184.0064
 31
0.0
  0
LINE
  5
AD
330
1E
100
AcDbEntity
  8
0
100
AcDbLine
 10
58.2796
 20
185.0363999999999
 30
0.0
 11
59.3487
 21
185.4094
 31
0.0
  0
LINE
  5
AE
330
1E
100
AcDbEntity
  8
0
100
AcDbLine
 10
59.3487
 20
185.4094
 30
0.0
 11
59.9851989485989
 21
185.691622546729
 31
0.0
  0
LINE
  5
AF
330
1E
100
AcDbEntity
  8
0
100
AcDbLine
 10
59.3487
 20
185.4094
 30
0.0
 11
59.985198948599
 21
185.691622546729
 31
0.0
  0
LINE
  5
B0
330
1E
100
AcDbEntity
  8
0
100
AcDbLine
 10
61.4495
 20
186.1074
 30
0.0
 11
64.158
 21
185.8984
 31
0.0
  0
LINE
  5
B1
330
1E
100
AcDbEntity
  8
0
100
AcDbLine
 10
61.4495
 20
186.1074
 30
0.0
 11
63.0613
 21
186.4734
 31
0.0
  0
LINE
  5
B2
330
1E
100
AcDbEntity
  8
0
100
AcDbLine
 10
64.158
 20
185.8984
 30
0.0
 11
66.5618
 21
186.3684
 31
0.0
  0
LINE
  5
B4
330
1E
100
AcDbEntity
  8
0
100
AcDbLine
 10
61.1991
 20
186.3324
 30
0.0
 11
61.8238
 21
186.8144
 31
0.0
  0
LINE
  5
B5
330
1E
100
AcDbEntity
  8
0
100
AcDbLine
 10
60.4296
 20
185.8883999999999
 30
0.0
 11
61.1991
 21
186.3324
 31
0.0
  0
LINE
  5
B6
330
1E
100
AcDbEntity
  8
0
100
AcDbLine
 10
41.72039999999999
 20
185.0363999999999
 30
0.0
 11
42.9333
 21
184.7053999999999
 31
0.0
  0
LINE
  5
B7
330
1E
100
AcDbEntity
  8
0
100
AcDbLine
 10
42.9333
 20
184.7053999999999
 30
0.0
 11
44.2723
 21
184.4243999999999
 31
0.0
  0
LINE
  5
B8
330
1E
100
AcDbEntity
  8
0
100
AcDbLine
 10
40.65129999999999
 20
185.4094
 30
0.0
 11
41.72039999999999
 21
185.0363999999999
 31
0.0
  0
LINE
  5
B9
330
1E
100
AcDbEntity
  8
0
100
AcDbLine
 10
38.57325036668729
 20
186.5080477081109
 30
0.0
 11
40.0
 21
158.7844
 31
0.0
  0
LINE
  5
BA
330
1E
100
AcDbEntity
  8
0
100
AcDbLine
 10
61.8238
 20
186.8144
 30
0.0
 11
62.3342
 21
187.3454
 31
0.0
  0
LINE
  5
BB
330
1E
100
AcDbEntity
  8
0
100
AcDbLine
 10
62.4564
 20
187.5234
 30
0.0
 11
63.0249
 21
188.3893999999999
 31
0.0
  0
LINE
  5
BC
330
1E
100
AcDbEntity
  8
0
100
AcDbLine
 10
62.3342
 20
187.3454
 30
0.0
 11
62.4564
 21
187.5234
 31
0.0
  0
LINE
  5
BD
330
1E
100
AcDbEntity
  8
0
100
AcDbLine
 10
63.2592525107604
 20
189.0023219512199
 30
0.0
 11
64.3702
 21
188.5454
 31
0.0
  0
LINE
  5
BF
330
1E
100
AcDbEntity
  8
0
100
AcDbLine
 10
64.6382487132835
 20
187.4538566940179
 30
0.0
 11
64.64579999999999
 21
187.9144
 31
0.0
  0
LINE
  5
C0
330
1E
100
AcDbEntity
  8
0
100
AcDbLine
 10
64.64579999999999
 20
187.4644
 30
0.0
 11
64.64579999999999
 21
187.9144
 31
0.0
  0
LINE
  5
C1
330
1E
100
AcDbEntity
  8
0
100
AcDbLine
 10
64.3702
 20
188.5454
 30
0.0
 11
64.64579999999999
 21
187.9144
 31
0.0
  0
LINE
  5
C2
330
1E
100
AcDbEntity
  8
0
100
AcDbLine
 10
68.5
 20
187.4483999999999
 30
0.0
 11
68.5
 21
197.4803999999999
 31
0.0
  0
LINE
  5
C3
330
1E
100
AcDbEntity
  8
0
100
AcDbLine
 10
68.5
 20
187.4483999999999
 30
0.0
 11
68.5
 21
147.4803999999999
 31
0.0
  0
LINE
  5
C4
330
1E
100
AcDbEntity
  8
0
100
AcDbLine
 10
64.64579999999999
 20
187.9144
 30
0.0
 11
64.64579999999999
 21
187.4644
 31
0.0
  0
LINE
  5
C5
330
1E
100
AcDbEntity
  8
0
100
AcDbLine
 10
68.3568
 20
187.2093999999999
 30
0.0
 11
68.5
 21
187.4483999999999
 31
0.0
  0
LINE
  5
C6
330
1E
100
AcDbEntity
  8
0
100
AcDbLine
 10
64.3013
 20
186.9833999999999
 30
0.0
 11
64.64579999999999
 21
187.4644
 31
0.0
  0
LINE
  5
C7
330
1E
100
AcDbEntity
  8
0
100
AcDbLine
 10
67.6503
 20
186.7314
 30
0.0
 11
68.3568
 21
187.2093999999999
 31
0.0
  0
LINE
  5
C9
330
1E
100
AcDbEntity
  8
0
100
AcDbLine
 10
63.0613
 20
186.4734
 30
0.0
 11
64.3013
 21
186.9833999999999
 31
0.0
  0
LINE
  5
CA
330
1E
100
AcDbEntity
  8
0
100
AcDbLine
 10
66.5618
 20
186.3684
 30
0.0
 11
67.6503
 21
186.7314
 31
0.0
  0
LINE
  5
CC
330
1E
100
AcDbEntity
  8
0
100
AcDbLine
 10
63.0249
 20
188.3893999999999
 30
0.0
 11
63.3629
 21
189.2734
 31
0.0
  0
LINE
  5
CD
330
1E
100
AcDbEntity
  8
0
100
AcDbLine
 10
63.3629
 20
189.2734
 30
0.0
 11
63.4062
 21
189.4324
 31
0.0
  0
LINE
  5
CE
330
1E
100
AcDbEntity
  8
0
100
AcDbLine
 10
38.1762
 20
186.8144
 30
0.0
 11
38.8009
 21
186.3324
 31
0.0
  0
LINE
  5
CF
330
1E
100
AcDbEntity
  8
0
100
AcDbLine
 10
38.8009
 20
186.3324
 30
0.0
 11
39.5704
 21
185.8883999999999
 31
0.0
  0
LINE
  5
D0
330
1E
100
AcDbEntity
  8
0
100
AcDbLine
 10
37.66579999999999
 20
187.3454
 30
0.0
 11
38.1762
 21
186.8144
 31
0.0
  0
LINE
  5
D1
330
1E
100
AcDbEntity
  8
0
100
AcDbLine
 10
63.5678
 20
190.3194
 30
0.0
 11
63.6398
 21
191.1424
 31
0.0
  0
LINE
  5
D2
330
1E
100
AcDbEntity
  8
0
100
AcDbLine
 10
63.4062
 20
189.4324
 30
0.0
 11
63.5678
 21
190.3194
 31
0.0
  0
LINE
  5
D3
330
1E
100
AcDbEntity
  8
0
100
AcDbLine
 10
36.6371
 20
189.2734
 30
0.0
 11
36.97509999999999
 21
188.3893999999999
 31
0.0
  0
LINE
  5
D4
330
1E
100
AcDbEntity
  8
0
100
AcDbLine
 10
36.5938
 20
189.4324
 30
0.0
 11
36.6371
 21
189.2734
 31
0.0
  0
LINE
  5
D5
330
1E
100
AcDbEntity
  8
0
100
AcDbLine
 10
7.957999999999999
 20
316.5384
 30
0.0
 11
15.7
 21
309.0914
 31
0.0
  0
LINE
  5
D6
330
1E
100
AcDbEntity
  8
0
100
AcDbLine
 10
12.53079999999999
 20
324.6113999999999
 30
0.0
 11
13.1553
 21
324.9103999999999
 31
0.0
  0
LINE
  5
D7
330
1E
100
AcDbEntity
  8
0
100
AcDbLine
 10
3.253999999999999
 20
325.0604
 30
0.0
 11
7.957999999999999
 21
316.5384
 31
0.0
  0
LINE
  5
D8
330
1E
100
AcDbEntity
  8
0
100
AcDbLine
 10
12.9171
 20
325.8974
 30
0.0
 11
13.3258
 21
325.4414
 31
0.0
  0
LINE
  5
D9
330
1E
100
AcDbEntity
  8
0
100
AcDbLine
 10
12.1905
 20
326.0224
 30
0.0
 11
12.9171
 21
325.8974
 31
0.0
  0
LINE
  5
DB
330
1E
100
AcDbEntity
  8
0
100
AcDbLine
 10
11.5659
 20
325.7234
 30
0.0
 11
12.1905
 21
326.0224
 31
0.0
  0
LINE
  5
DD
330
1E
100
AcDbEntity
  8
0
100
AcDbLine
 10
11.3955
 20
325.1924
 30
0.0
 11
11.8042
 21
324.7364
 31
0.0
  0
LINE
  5
DE
330
1E
100
AcDbEntity
  8
0
100
AcDbLine
 10
11.3955
 20
325.1924
 30
0.0
 11
11.5659
 21
325.7234
 31
0.0
  0
LINE
  5
E0
330
1E
100
AcDbEntity
  8
0
100
AcDbLine
 10
11.8042
 20
324.7364
 30
0.0
 11
12.53079999999999
 21
324.6113999999999
 31
0.0
  0
LINE
  5
E3
330
1E
100
AcDbEntity
  8
0
100
AcDbLine
 10
13.2057
 20
320.9144
 30
0.0
 11
13.7498
 21
321.2873999999999
 31
0.0
  0
LINE
  5
E5
330
1E
100
AcDbEntity
  8
0
100
AcDbLine
 10
13.164
 20
320.3694
 30
0.0
 11
13.6749
 21
319.9723999999999
 31
0.0
  0
LINE
  5
E6
330
1E
100
AcDbEntity
  8
0
100
AcDbLine
 10
13.164
 20
320.3694
 30
0.0
 11
13.2057
 21
320.9144
 31
0.0
  0
LINE
  5
E8
330
1E
100
AcDbEntity
  8
0
100
AcDbLine
 10
14.42009999999999
 20
319.9413999999999
 30
0.0
 11
14.9642
 21
320.3154
 31
0.0
  0
LINE
  5
E9
330
1E
100
AcDbEntity
  8
0
100
AcDbLine
 10
15.7
 20
309.0914
 30
0.0
 11
16.77799999999999
 21
308.2513999999999
 31
0.0
  0
LINE
  5
EB
330
1E
100
AcDbEntity
  8
0
100
AcDbLine
 10
16.77799999999999
 20
308.2513999999999
 30
0.0
 11
26.578
 21
302.7374
 31
0.0
  0
LINE
  5
EE
330
1E
100
AcDbEntity
  8
0
100
AcDbLine
 10
15.9634
 20
316.3863999999999
 30
0.0
 11
16.0518
 21
315.8444
 31
0.0
  0
LINE
  5
EF
330
1E
100
AcDbEntity
  8
0
100
AcDbLine
 10
15.9634
 20
316.3863999999999
 30
0.0
 11
16.41049999999999
 21
316.8224
 31
0.0
  0
LINE
  5
F1
330
1E
100
AcDbEntity
  8
0
100
AcDbLine
 10
17.39049999999999
 20
315.5823999999999
 30
0.0
 11
17.8376
 21
316.0194
 31
0.0
  0
LINE
  5
F4
330
1E
100
AcDbEntity
  8
0
100
AcDbLine
 10
17.74919999999999
 20
316.5604
 30
0.0
 11
17.8376
 21
316.0194
 31
0.0
  0
LINE
  5
F9
330
1E
100
AcDbEntity
  8
0
100
AcDbLine
 10
17.1516
 20
316.8874
 30
0.0
 11
17.74919999999999
 21
316.5604
 31
0.0
  0
LINE
  5
FB
330
1E
100
AcDbEntity
  8
0
100
AcDbLine
 10
16.41049999999999
 20
316.8224
 30
0.0
 11
17.1516
 21
316.8874
 31
0.0
  0
LINE
  5
FD
330
1E
100
AcDbEntity
  8
0
100
AcDbLine
 10
16.0518
 20
315.8444
 30
0.0
 11
16.6494
 21
315.5174
 31
0.0
  0
LINE
  5
FE
330
1E
100
AcDbEntity
  8
0
100
AcDbLine
 10
16.6494
 20
315.5174
 30
0.0
 11
17.39049999999999
 21
315.5823999999999
 31
0.0
  0
LINE
  5
100
330
1E
100
AcDbEntity
  8
0
100
AcDbLine
 10
19.7553
 20
312.2764
 30
0.0
 11
19.9711
 21
311.7543999999999
 31
0.0
  0
LINE
  5
101
330
1E
100
AcDbEntity
  8
0
100
AcDbLine
 10
19.7553
 20
312.2764
 30
0.0
 11
20.09189999999999
 21
312.7634
 31
0.0
  0
LINE
  5
104
330
1E
100
AcDbEntity
  8
0
100
AcDbLine
 10
20.09189999999999
 20
312.7634
 30
0.0
 11
20.8063
 21
312.9214
 31
0.0
  0
LINE
  5
106
330
1E
100
AcDbEntity
  8
0
100
AcDbLine
 10
19.9711
 20
311.7543999999999
 30
0.0
 11
20.63719999999999
 21
311.5083999999999
 31
0.0
  0
LINE
  5
107
330
1E
100
AcDbEntity
  8
0
100
AcDbLine
 10
14.9642
 20
320.3154
 30
0.0
 11
15.0058
 21
320.8594
 31
0.0
  0
LINE
  5
108
330
1E
100
AcDbEntity
  8
0
100
AcDbLine
 10
14.49489999999999
 20
321.2574
 30
0.0
 11
15.0058
 21
320.8594
 31
0.0
  0
LINE
  5
10A
330
1E
100
AcDbEntity
  8
0
100
AcDbLine
 10
13.7498
 20
321.2873999999999
 30
0.0
 11
14.49489999999999
 21
321.2574
 31
0.0
  0
LINE
  5
10C
330
1E
100
AcDbEntity
  8
0
100
AcDbLine
 10
13.6749
 20
319.9723999999999
 30
0.0
 11
14.42009999999999
 21
319.9413999999999
 31
0.0
  0
LINE
  5
10D
330
1E
100
AcDbEntity
  8
0
100
AcDbLine
 10
13.1553
 20
324.9103999999999
 30
0.0
 11
13.3258
 21
325.4414
 31
0.0
  0
LINE
  5
110
330
1E
100
AcDbEntity
  8
0
100
AcDbLine
 10
19.84829999999999
 20
324.5523999999999
 30
0.0
 11
20.43489999999999
 21
324.8894
 31
0.0
  0
LINE
  5
112
330
1E
100
AcDbEntity
  8
0
100
AcDbLine
 10
19.7419
 20
324.0124
 30
0.0
 11
20.2034
 21
323.5834
 31
0.0
  0
LINE
  5
113
330
1E
100
AcDbEntity
  8
0
100
AcDbLine
 10
19.7419
 20
324.0124
 30
0.0
 11
19.84829999999999
 21
324.5523999999999
 31
0.0
  0
LINE
  5
116
330
1E
100
AcDbEntity
  8
0
100
AcDbLine
 10
20.8063
 20
312.9214
 30
0.0
 11
21.4725
 21
312.6754
 31
0.0
  0
LINE
  5
117
330
1E
100
AcDbEntity
  8
0
100
AcDbLine
 10
20.63719999999999
 20
311.5083999999999
 30
0.0
 11
21.3517
 21
311.6664
 31
0.0
  0
LINE
  5
118
330
1E
100
AcDbEntity
  8
0
100
AcDbLine
 10
20.94219999999999
 20
323.5063999999999
 30
0.0
 11
21.5287
 21
323.8433999999999
 31
0.0
  0
LINE
  5
11A
330
1E
100
AcDbEntity
  8
0
100
AcDbLine
 10
21.3517
 20
311.6664
 30
0.0
 11
21.68819999999999
 21
312.1534
 31
0.0
  0
LINE
  5
11B
330
1E
100
AcDbEntity
  8
0
100
AcDbLine
 10
21.4725
 20
312.6754
 30
0.0
 11
21.68819999999999
 21
312.1534
 31
0.0
  0
LINE
  5
11C
330
1E
100
AcDbEntity
  8
0
100
AcDbLine
 10
21.58599999999999
 20
320.8083999999999
 30
0.0
 11
21.6095
 21
320.2633999999999
 31
0.0
  0
LINE
  5
11D
330
1E
100
AcDbEntity
  8
0
100
AcDbLine
 10
21.58599999999999
 20
320.8083999999999
 30
0.0
 11
22.0835
 21
321.2144
 31
0.0
  0
LINE
  5
11E
330
1E
100
AcDbEntity
  8
0
100
AcDbLine
 10
21.6095
 20
320.2633999999999
 30
0.0
 11
22.16579999999999
 21
319.8994
 31
0.0
  0
LINE
  5
121
330
1E
100
AcDbEntity
  8
0
100
AcDbLine
 10
25.3481
 20
309.4784
 30
0.0
 11
26.0626
 21
309.3213999999999
 31
0.0
  0
LINE
  5
122
330
1E
100
AcDbEntity
  8
0
100
AcDbLine
 10
24.68189999999999
 20
309.2324
 30
0.0
 11
25.3481
 21
309.4784
 31
0.0
  0
LINE
  5
124
330
1E
100
AcDbEntity
  8
0
100
AcDbLine
 10
24.4662
 20
308.7104
 30
0.0
 11
24.8027
 21
308.2244
 31
0.0
  0
LINE
  5
125
330
1E
100
AcDbEntity
  8
0
100
AcDbLine
 10
24.4662
 20
308.7104
 30
0.0
 11
24.68189999999999
 21
309.2324
 31
0.0
  0
LINE
  5
127
330
1E
100
AcDbEntity
  8
0
100
AcDbLine
 10
24.8027
 20
308.2244
 30
0.0
 11
25.51719999999999
 21
308.0664
 31
0.0
  0
LINE
  5
128
330
1E
100
AcDbEntity
  8
0
100
AcDbLine
 10
26.578
 20
302.7374
 30
0.0
 11
37.94599999999999
 21
299.3714
 31
0.0
  0
LINE
  5
129
330
1E
100
AcDbEntity
  8
0
100
AcDbLine
 10
26.18339999999999
 20
308.3124
 30
0.0
 11
26.3991
 21
308.8344
 31
0.0
  0
LINE
  5
12A
330
1E
100
AcDbEntity
  8
0
100
AcDbLine
 10
26.0626
 20
309.3213999999999
 30
0.0
 11
26.3991
 21
308.8344
 31
0.0
  0
LINE
  5
12B
330
1E
100
AcDbEntity
  8
0
100
AcDbLine
 10
25.51719999999999
 20
308.0664
 30
0.0
 11
26.18339999999999
 21
308.3124
 31
0.0
  0
LINE
  5
12C
330
1E
100
AcDbEntity
  8
0
100
AcDbLine
 10
28.5425
 20
314.9664
 30
0.0
 11
29.2355
 21
314.7644
 31
0.0
  0
LINE
  5
12D
330
1E
100
AcDbEntity
  8
0
100
AcDbLine
 10
27.8495
 20
314.7644
 30
0.0
 11
28.5425
 21
314.9664
 31
0.0
  0
LINE
  5
12E
330
1E
100
AcDbEntity
  8
0
100
AcDbLine
 10
27.57229999999999
 20
314.2574
 30
0.0
 11
27.8495
 21
313.7513999999999
 31
0.0
  0
LINE
  5
12F
330
1E
100
AcDbEntity
  8
0
100
AcDbLine
 10
27.57229999999999
 20
314.2574
 30
0.0
 11
27.8495
 21
314.7644
 31
0.0
  0
LINE
  5
130
330
1E
100
AcDbEntity
  8
0
100
AcDbLine
 10
27.8495
 20
313.7513999999999
 30
0.0
 11
28.5425
 21
313.5484
 31
0.0
  0
LINE
  5
133
330
1E
100
AcDbEntity
  8
0
100
AcDbLine
 10
30.04129999999999
 20
306.3383999999999
 30
0.0
 11
30.6389
 21
306.6653999999999
 31
0.0
  0
LINE
  5
135
330
1E
100
AcDbEntity
  8
0
100
AcDbLine
 10
29.9529
 20
305.7964
 30
0.0
 11
30.4
 21
305.3604
 31
0.0
  0
LINE
  5
136
330
1E
100
AcDbEntity
  8
0
100
AcDbLine
 10
29.9529
 20
305.7964
 30
0.0
 11
30.04129999999999
 21
306.3383999999999
 31
0.0
  0
LINE
  5
138
330
1E
100
AcDbEntity
  8
0
100
AcDbLine
 10
29.2355
 20
313.7513999999999
 30
0.0
 11
29.5127
 21
314.2574
 31
0.0
  0
LINE
  5
13B
330
1E
100
AcDbEntity
  8
0
100
AcDbLine
 10
29.2355
 20
314.7644
 30
0.0
 11
29.5127
 21
314.2574
 31
0.0
  0
LINE
  5
13D
330
1E
100
AcDbEntity
  8
0
100
AcDbLine
 10
28.5425
 20
313.5484
 30
0.0
 11
29.2355
 21
313.7513999999999
 31
0.0
  0
LINE
  5
13E
330
1E
100
AcDbEntity
  8
0
100
AcDbLine
 10
24.18699999999999
 20
317.3414
 30
0.0
 11
24.3397
 21
316.8073999999999
 31
0.0
  0
LINE
  5
13F
330
1E
100
AcDbEntity
  8
0
100
AcDbLine
 10
24.18699999999999
 20
317.3414
 30
0.0
 11
24.5803
 21
317.8054
 31
0.0
  0
LINE
  5
140
330
1E
100
AcDbEntity
  8
0
100
AcDbLine
 10
25.7045
 20
316.6313999999999
 30
0.0
 11
26.0978
 21
317.0954
 31
0.0
  0
LINE
  5
141
330
1E
100
AcDbEntity
  8
0
100
AcDbLine
 10
25.9452
 20
317.6293999999999
 30
0.0
 11
26.0978
 21
317.0954
 31
0.0
  0
LINE
  5
142
330
1E
100
AcDbEntity
  8
0
100
AcDbLine
 10
25.3109
 20
317.9164
 30
0.0
 11
25.9452
 21
317.6293999999999
 31
0.0
  0
LINE
  5
143
330
1E
100
AcDbEntity
  8
0
100
AcDbLine
 10
24.5803
 20
317.8054
 30
0.0
 11
25.3109
 21
317.9164
 31
0.0
  0
LINE
  5
144
330
1E
100
AcDbEntity
  8
0
100
AcDbLine
 10
24.3397
 20
316.8073999999999
 30
0.0
 11
24.974
 21
316.5204
 31
0.0
  0
LINE
  5
145
330
1E
100
AcDbEntity
  8
0
100
AcDbLine
 10
24.974
 20
316.5204
 30
0.0
 11
25.7045
 21
316.6313999999999
 31
0.0
  0
LINE
  5
146
330
1E
100
AcDbEntity
  8
0
100
AcDbLine
 10
22.9118
 20
319.9164
 30
0.0
 11
23.4093
 21
320.3234
 31
0.0
  0
LINE
  5
147
330
1E
100
AcDbEntity
  8
0
100
AcDbLine
 10
23.38579999999999
 20
320.8684
 30
0.0
 11
23.4093
 21
320.3234
 31
0.0
  0
LINE
  5
149
330
1E
100
AcDbEntity
  8
0
100
AcDbLine
 10
22.16579999999999
 20
319.8994
 30
0.0
 11
22.9118
 21
319.9164
 31
0.0
  0
LINE
  5
14A
330
1E
100
AcDbEntity
  8
0
100
AcDbLine
 10
22.8295
 20
321.2323999999999
 30
0.0
 11
23.38579999999999
 21
320.8684
 31
0.0
  0
LINE
  5
14C
330
1E
100
AcDbEntity
  8
0
100
AcDbLine
 10
22.0835
 20
321.2144
 30
0.0
 11
22.8295
 21
321.2323999999999
 31
0.0
  0
LINE
  5
151
330
1E
100
AcDbEntity
  8
0
100
AcDbLine
 10
30.0197
 20
322.1053999999999
 30
0.0
 11
30.7608
 21
322.1703999999999
 31
0.0
  0
LINE
  5
152
330
1E
100
AcDbEntity
  8
0
100
AcDbLine
 10
29.5726
 20
321.6684
 30
0.0
 11
29.66099999999999
 21
321.1274
 31
0.0
  0
LINE
  5
153
330
1E
100
AcDbEntity
  8
0
100
AcDbLine
 10
29.5726
 20
321.6684
 30
0.0
 11
30.0197
 21
322.1053999999999
 31
0.0
  0
LINE
  5
154
330
1E
100
AcDbEntity
  8
0
100
AcDbLine
 10
29.66099999999999
 20
321.1274
 30
0.0
 11
30.2586
 21
320.8004
 31
0.0
  0
LINE
  5
155
330
1E
100
AcDbEntity
  8
0
100
AcDbLine
 10
30.6389
 20
306.6653999999999
 30
0.0
 11
31.37999999999999
 21
306.6003999999999
 31
0.0
  0
LINE
  5
156
330
1E
100
AcDbEntity
  8
0
100
AcDbLine
 10
30.4
 20
305.3604
 30
0.0
 11
31.1411
 21
305.2953999999999
 31
0.0
  0
LINE
  5
157
330
1E
100
AcDbEntity
  8
0
100
AcDbLine
 10
31.1411
 20
305.2953999999999
 30
0.0
 11
31.7387
 21
305.6224
 31
0.0
  0
LINE
  5
158
330
1E
100
AcDbEntity
  8
0
100
AcDbLine
 10
30.9997
 20
320.8654
 30
0.0
 11
31.4468
 21
321.3014
 31
0.0
  0
LINE
  5
15A
330
1E
100
AcDbEntity
  8
0
100
AcDbLine
 10
31.37999999999999
 20
306.6003999999999
 30
0.0
 11
31.8271
 21
306.1634
 31
0.0
  0
LINE
  5
15C
330
1E
100
AcDbEntity
  8
0
100
AcDbLine
 10
31.8271
 20
306.1634
 30
0.0
 11
31.8271
 21
306.3215858148889
 31
0.0
  0
LINE
  5
15D
330
1E
100
AcDbEntity
  8
0
100
AcDbLine
 10
31.8271
 20
306.3215858148889
 30
0.0
 11
31.8271
 21
306.1634
 31
0.0
  0
LINE
  5
15E
330
1E
100
AcDbEntity
  8
0
100
AcDbLine
 10
31.7387
 20
305.6224
 30
0.0
 11
31.8271
 21
306.1634
 31
0.0
  0
LINE
  5
161
330
1E
100
AcDbEntity
  8
0
100
AcDbLine
 10
32.42609999999999
 20
312.4714
 30
0.0
 11
33.1567
 21
312.3594
 31
0.0
  0
LINE
  5
163
330
1E
100
AcDbEntity
  8
0
100
AcDbLine
 10
31.7918
 20
312.1834
 30
0.0
 11
32.42609999999999
 21
312.4714
 31
0.0
  0
LINE
  5
165
330
1E
100
AcDbEntity
  8
0
100
AcDbLine
 10
31.6391
 20
311.6503999999999
 30
0.0
 11
32.0324
 21
311.1864
 31
0.0
  0
LINE
  5
166
330
1E
100
AcDbEntity
  8
0
100
AcDbLine
 10
31.6391
 20
311.6503999999999
 30
0.0
 11
31.7918
 21
312.1834
 31
0.0
  0
LINE
  5
167
330
1E
100
AcDbEntity
  8
0
100
AcDbLine
 10
32.0324
 20
311.1864
 30
0.0
 11
32.763
 21
311.0754
 31
0.0
  0
LINE
  5
168
330
1E
100
AcDbEntity
  8
0
100
AcDbLine
 10
33.3973
 20
311.3623999999999
 30
0.0
 11
33.54999999999999
 21
311.8964
 31
0.0
  0
LINE
  5
16A
330
1E
100
AcDbEntity
  8
0
100
AcDbLine
 10
33.1567
 20
312.3594
 30
0.0
 11
33.54999999999999
 21
311.8964
 31
0.0
  0
LINE
  5
16C
330
1E
100
AcDbEntity
  8
0
100
AcDbLine
 10
32.763
 20
311.0754
 30
0.0
 11
33.3973
 21
311.3623999999999
 31
0.0
  0
LINE
  5
16E
330
1E
100
AcDbEntity
  8
0
100
AcDbLine
 10
34.783
 20
317.5704
 30
0.0
 11
35.44919999999999
 21
317.8163999999999
 31
0.0
  0
LINE
  5
16F
330
1E
100
AcDbEntity
  8
0
100
AcDbLine
 10
34.5673
 20
317.0484
 30
0.0
 11
34.9038
 21
316.5614
 31
0.0
  0
LINE
  5
170
330
1E
100
AcDbEntity
  8
0
100
AcDbLine
 10
34.5673
 20
317.0484
 30
0.0
 11
34.783
 21
317.5704
 31
0.0
  0
LINE
  5
171
330
1E
100
AcDbEntity
  8
0
100
AcDbLine
 10
34.9038
 20
316.5614
 30
0.0
 11
35.6183
 21
316.4044
 31
0.0
  0
LINE
  5
174
330
1E
100
AcDbEntity
  8
0
100
AcDbLine
 10
31.35839999999999
 20
321.8433999999999
 30
0.0
 11
31.4468
 21
321.3014
 31
0.0
  0
LINE
  5
177
330
1E
100
AcDbEntity
  8
0
100
AcDbLine
 10
30.7608
 20
322.1703999999999
 30
0.0
 11
31.35839999999999
 21
321.8433999999999
 31
0.0
  0
LINE
  5
178
330
1E
100
AcDbEntity
  8
0
100
AcDbLine
 10
30.2586
 20
320.8004
 30
0.0
 11
30.9997
 21
320.8654
 31
0.0
  0
LINE
  5
17A
330
1E
100
AcDbEntity
  8
0
100
AcDbLine
 10
21.5287
 20
323.8433999999999
 30
0.0
 11
21.6351
 21
324.3834
 31
0.0
  0
LINE
  5
17B
330
1E
100
AcDbEntity
  8
0
100
AcDbLine
 10
21.1736
 20
324.8114
 30
0.0
 11
21.6351
 21
324.3834
 31
0.0
  0
LINE
  5
17C
330
1E
100
AcDbEntity
  8
0
100
AcDbLine
 10
28.0066
 20
326.1474
 30
0.0
 11
28.6311
 21
326.4454
 31
0.0
  0
LINE
  5
17D
330
1E
100
AcDbEntity
  8
0
100
AcDbLine
 10
28.6311
 20
326.4454
 30
0.0
 11
28.8015
 21
326.9764
 31
0.0
  0
LINE
  5
17E
330
1E
100
AcDbEntity
  8
0
100
AcDbLine
 10
27.28
 20
326.2714
 30
0.0
 11
28.0066
 21
326.1474
 31
0.0
  0
LINE
  5
180
330
1E
100
AcDbEntity
  8
0
100
AcDbLine
 10
20.43489999999999
 20
324.8894
 30
0.0
 11
21.1736
 21
324.8114
 31
0.0
  0
LINE
  5
181
330
1E
100
AcDbEntity
  8
0
100
AcDbLine
 10
20.2034
 20
323.5834
 30
0.0
 11
20.94219999999999
 21
323.5063999999999
 31
0.0
  0
LINE
  5
182
330
1E
100
AcDbEntity
  8
0
100
AcDbLine
 10
31.5
 20
197.4803999999999
 30
0.0
 11
31.5
 21
147.4803999999999
 31
0.0
  0
LINE
  5
183
330
1E
100
AcDbEntity
  8
0
100
AcDbLine
 10
31.5
 20
197.4803999999999
 30
0.0
 11
36.2118257473951
 21
197.4803999999999
 31
0.0
  0
LINE
  5
184
330
1E
100
AcDbEntity
  8
0
100
AcDbLine
 10
31.5
 20
197.4803999999999
 30
0.0
 11
31.5
 21
187.4483999999999
 31
0.0
  0
LINE
  5
185
330
1E
100
AcDbEntity
  8
0
100
AcDbLine
 10
31.5
 20
197.4803999999999
 30
0.0
 11
36.2118257473951
 21
197.4803999999999
 31
0.0
  0
LINE
  5
186
330
1E
100
AcDbEntity
  8
0
100
AcDbLine
 10
2.763999999999999
 20
326.6154
 30
0.0
 11
3.253999999999999
 21
325.0604
 31
0.0
  0
LINE
  5
187
330
1E
100
AcDbEntity
  8
0
100
AcDbLine
 10
1.8962188984786
 20
329.986883914899
 30
0.0
 11
2.42292497494675
 21
328.3876753285929
 31
0.0
  0
LINE
  5
188
330
1E
100
AcDbEntity
  8
0
100
AcDbLine
 10
1.8962188984786
 20
329.986883914899
 30
0.0
 11
2.42292497494675
 21
328.3876753285929
 31
0.0
  0
LINE
  5
189
330
1E
100
AcDbEntity
  8
0
100
AcDbLine
 10
10.8
 20
330.1664
 30
0.0
 11
11.094
 21
329.6653999999999
 31
0.0
  0
LINE
  5
18B
330
1E
100
AcDbEntity
  8
0
100
AcDbLine
 10
10.8
 20
330.1664
 30
0.0
 11
11.094
 21
330.6674
 31
0.0
  0
LINE
  5
190
330
1E
100
AcDbEntity
  8
0
100
AcDbLine
 10
18.7937
 20
327.9950241203379
 30
0.0
 11
18.7937
 21
327.9414
 31
0.0
  0
LINE
  5
191
330
1E
100
AcDbEntity
  8
0
100
AcDbLine
 10
18.7937
 20
327.9414
 30
0.0
 11
19.1464
 21
327.4614
 31
0.0
  0
LINE
  5
193
330
1E
100
AcDbEntity
  8
0
100
AcDbLine
 10
18.7937
 20
327.9414
 30
0.0
 11
19.0268
 21
328.4603999999999
 31
0.0
  0
LINE
  5
194
330
1E
100
AcDbEntity
  8
0
100
AcDbLine
 10
18.7937
 20
327.9414
 30
0.0
 11
18.7937
 21
327.9950241203379
 31
0.0
  0
LINE
  5
195
330
1E
100
AcDbEntity
  8
0
100
AcDbLine
 10
19.8554
 20
327.2904
 30
0.0
 11
20.5132
 21
327.5484
 31
0.0
  0
LINE
  5
196
330
1E
100
AcDbEntity
  8
0
100
AcDbLine
 10
20.5132
 20
327.5484
 30
0.0
 11
20.7463
 21
328.0663999999999
 31
0.0
  0
LINE
  5
197
330
1E
100
AcDbEntity
  8
0
100
AcDbLine
 10
19.1464
 20
327.4614
 30
0.0
 11
19.8554
 21
327.2904
 31
0.0
  0
LINE
  5
199
330
1E
100
AcDbEntity
  8
0
100
AcDbLine
 10
20.39359999999999
 20
328.5473999999999
 30
0.0
 11
20.7463
 21
328.0663999999999
 31
0.0
  0
LINE
  5
19B
330
1E
100
AcDbEntity
  8
0
100
AcDbLine
 10
19.6846
 20
328.7174
 30
0.0
 11
20.39359999999999
 21
328.5473999999999
 31
0.0
  0
LINE
  5
19D
330
1E
100
AcDbEntity
  8
0
100
AcDbLine
 10
19.0268
 20
328.4603999999999
 30
0.0
 11
19.6846
 21
328.7174
 31
0.0
  0
LINE
  5
1A2
330
1E
100
AcDbEntity
  8
0
100
AcDbLine
 10
28.3929
 20
327.4324
 30
0.0
 11
28.8015
 21
326.9764
 31
0.0
  0
LINE
  5
1A3
330
1E
100
AcDbEntity
  8
0
100
AcDbLine
 10
27.6663
 20
327.5573999999999
 30
0.0
 11
28.3929
 21
327.4324
 31
0.0
  0
LINE
  5
1A4
330
1E
100
AcDbEntity
  8
0
100
AcDbLine
 10
27.04169999999999
 20
327.2584
 30
0.0
 11
27.6663
 21
327.5573999999999
 31
0.0
  0
LINE
  5
1A5
330
1E
100
AcDbEntity
  8
0
100
AcDbLine
 10
26.8713
 20
326.7274
 30
0.0
 11
27.28
 21
326.2714
 31
0.0
  0
LINE
  5
1A6
330
1E
100
AcDbEntity
  8
0
100
AcDbLine
 10
26.8713
 20
326.7274
 30
0.0
 11
27.04169999999999
 21
327.2584
 31
0.0
  0
LINE
  5
1A7
330
1E
100
AcDbEntity
  8
0
100
AcDbLine
 10
35.1531
 20
327.4803999999999
 30
0.0
 11
35.899
 21
327.4974
 31
0.0
  0
LINE
  5
1A8
330
1E
100
AcDbEntity
  8
0
100
AcDbLine
 10
34.65559999999999
 20
327.0744
 30
0.0
 11
34.679
 21
326.5283999999999
 31
0.0
  0
LINE
  5
1A9
330
1E
100
AcDbEntity
  8
0
100
AcDbLine
 10
34.65559999999999
 20
327.0744
 30
0.0
 11
35.1531
 21
327.4803999999999
 31
0.0
  0
LINE
  5
1AA
330
1E
100
AcDbEntity
  8
0
100
AcDbLine
 10
34.679
 20
326.5283999999999
 30
0.0
 11
35.2354
 21
326.1654
 31
0.0
  0
LINE
  5
1AB
330
1E
100
AcDbEntity
  8
0
100
AcDbLine
 10
11.77999999999999
 20
329.4503999999999
 30
0.0
 11
12.46599999999999
 21
329.6653999999999
 31
0.0
  0
LINE
  5
1AE
330
1E
100
AcDbEntity
  8
0
100
AcDbLine
 10
12.46599999999999
 20
329.6653999999999
 30
0.0
 11
12.76
 21
330.1664
 31
0.0
  0
LINE
  5
1AF
330
1E
100
AcDbEntity
  8
0
100
AcDbLine
 10
11.094
 20
329.6653999999999
 30
0.0
 11
11.77999999999999
 21
329.4503999999999
 31
0.0
  0
LINE
  5
1B6
330
1E
100
AcDbEntity
  8
0
100
AcDbLine
 10
35.20739999999999
 20
255.0934
 30
0.0
 11
35.23699999999999
 21
261.2414
 31
0.0
  0
LINE
  5
1B7
330
1E
100
AcDbEntity
  8
0
100
AcDbLine
 10
35.23699999999999
 20
261.2414
 30
0.0
 11
35.36509999999999
 21
272.4583999999999
 31
0.0
  0
LINE
  5
1B8
330
1E
100
AcDbEntity
  8
0
100
AcDbLine
 10
35.36509999999999
 20
272.4583999999999
 30
0.0
 11
35.5887
 21
283.5053999999999
 31
0.0
  0
LINE
  5
1B9
330
1E
100
AcDbEntity
  8
0
100
AcDbLine
 10
35.26749999999999
 20
237.5344
 30
0.0
 11
35.4124
 21
226.4053999999999
 31
0.0
  0
LINE
  5
1BA
330
1E
100
AcDbEntity
  8
0
100
AcDbLine
 10
35.26059999999999
 20
238.2584
 30
0.0
 11
35.26749999999999
 21
237.5344
 31
0.0
  0
LINE
  5
1BB
330
1E
100
AcDbEntity
  8
0
100
AcDbLine
 10
35.4124
 20
226.4053999999999
 30
0.0
 11
35.63499999999999
 21
215.1934
 31
0.0
  0
LINE
  5
1BC
330
1E
100
AcDbEntity
  8
0
100
AcDbLine
 10
35.63499999999999
 20
215.1934
 30
0.0
 11
35.83209999999999
 21
207.4894
 31
0.0
  0
LINE
  5
1BD
330
1E
100
AcDbEntity
  8
0
100
AcDbLine
 10
35.6488
 20
285.8283999999999
 30
0.0
 11
35.6991
 21
288.0043999999999
 31
0.0
  0
LINE
  5
1BE
330
1E
100
AcDbEntity
  8
0
100
AcDbLine
 10
35.5907
 20
283.5594
 30
0.0
 11
35.6488
 21
285.8283999999999
 31
0.0
  0
LINE
  5
1BF
330
1E
100
AcDbEntity
  8
0
100
AcDbLine
 10
35.5887
 20
283.5053999999999
 30
0.0
 11
35.5907
 21
283.5594
 31
0.0
  0
LINE
  5
1C0
330
1E
100
AcDbEntity
  8
0
100
AcDbLine
 10
35.9405
 20
205.9363999999999
 30
0.0
 11
36.5681
 21
189.8113999999999
 31
0.0
  0
LINE
  5
1C1
330
1E
100
AcDbEntity
  8
0
100
AcDbLine
 10
35.83209999999999
 20
207.4894
 30
0.0
 11
36.10189397336709
 21
201.789685818126
 31
0.0
  0
LINE
  5
1C2
330
1E
100
AcDbEntity
  8
0
100
AcDbLine
 10
63.6398
 20
191.1424
 30
0.0
 11
63.8753962108795
 21
201.2061998732189
 31
0.0
  0
LINE
  5
1C3
330
1E
100
AcDbEntity
  8
0
100
AcDbLine
 10
63.78817425260489
 20
197.4803999999999
 30
0.0
 11
68.5
 21
197.4803999999999
 31
0.0
  0
LINE
  5
1C4
330
1E
100
AcDbEntity
  8
0
100
AcDbLine
 10
68.5
 20
197.4803999999999
 30
0.0
 11
68.5
 21
187.4483999999999
 31
0.0
  0
LINE
  5
1C5
330
1E
100
AcDbEntity
  8
0
100
AcDbLine
 10
64.58759999999999
 20
226.4053999999999
 30
0.0
 11
64.7325
 21
237.5344
 31
0.0
  0
LINE
  5
1C6
330
1E
100
AcDbEntity
  8
0
100
AcDbLine
 10
64.36499999999999
 20
215.1934
 30
0.0
 11
64.58759999999999
 21
226.4053999999999
 31
0.0
  0
LINE
  5
1C7
330
1E
100
AcDbEntity
  8
0
100
AcDbLine
 10
64.1679
 20
207.4894
 30
0.0
 11
64.36499999999999
 21
215.1934
 31
0.0
  0
LINE
  5
1C8
330
1E
100
AcDbEntity
  8
0
100
AcDbLine
 10
64.7394
 20
238.2584
 30
0.0
 11
64.79649999999999
 21
249.2744
 31
0.0
  0
LINE
  5
1C9
330
1E
100
AcDbEntity
  8
0
100
AcDbLine
 10
64.7325
 20
237.5344
 30
0.0
 11
64.7394
 21
238.2584
 31
0.0
  0
LINE
  5
1CA
330
1E
100
AcDbEntity
  8
0
100
AcDbLine
 10
63.89810602663299
 20
201.789685818128
 30
0.0
 11
64.1679
 21
207.4894
 31
0.0
  0
LINE
  5
1CB
330
1E
100
AcDbEntity
  8
0
100
AcDbLine
 10
36.3602
 20
191.1424
 30
0.0
 11
36.4322
 21
190.3194
 31
0.0
  0
LINE
  5
1CC
330
1E
100
AcDbEntity
  8
0
100
AcDbLine
 10
36.12460378912039
 20
201.2061998732199
 30
0.0
 11
36.3602
 21
191.1424
 31
0.0
  0
LINE
  5
1CD
330
1E
100
AcDbEntity
  8
0
100
AcDbLine
 10
35.7099
 20
293.8983999999999
 30
0.0
 11
35.7346
 21
292.3854
 31
0.0
  0
LINE
  5
1CE
330
1E
100
AcDbEntity
  8
0
100
AcDbLine
 10
64.30089999999999
 20
288.0043999999999
 30
0.0
 11
64.35120000000001
 21
285.8283999999999
 31
0.0
  0
LINE
  5
1CF
330
1E
100
AcDbEntity
  8
0
100
AcDbLine
 10
64.35120000000001
 20
285.8283999999999
 30
0.0
 11
64.4093
 21
283.5594
 31
0.0
  0
LINE
  5
1D0
330
1E
100
AcDbEntity
  8
0
100
AcDbLine
 10
64.4093
 20
283.5594
 30
0.0
 11
64.4113
 21
283.5053999999999
 31
0.0
  0
LINE
  5
1D1
330
1E
100
AcDbEntity
  8
0
100
AcDbLine
 10
64.4113
 20
283.5053999999999
 30
0.0
 11
64.6349
 21
272.4583999999999
 31
0.0
  0
LINE
  5
1D2
330
1E
100
AcDbEntity
  8
0
100
AcDbLine
 10
64.76300000000001
 20
261.2414
 30
0.0
 11
64.7926
 21
255.0934
 31
0.0
  0
LINE
  5
1D3
330
1E
100
AcDbEntity
  8
0
100
AcDbLine
 10
64.6349
 20
272.4583999999999
 30
0.0
 11
64.76300000000001
 21
261.2414
 31
0.0
  0
LINE
  5
1D4
330
1E
100
AcDbEntity
  8
0
100
AcDbLine
 10
64.4674
 20
297.5243999999999
 30
0.0
 11
64.76442849731829
 21
300.173942428041
 31
0.0
  0
LINE
  5
1D5
330
1E
100
AcDbEntity
  8
0
100
AcDbLine
 10
64.29009999999999
 20
293.8983999999999
 30
0.0
 11
64.4674
 21
297.5243999999999
 31
0.0
  0
LINE
  5
1D6
330
1E
100
AcDbEntity
  8
0
100
AcDbLine
 10
64.2654
 20
292.3854
 30
0.0
 11
64.30089999999999
 21
288.0043999999999
 31
0.0
  0
LINE
  5
1D7
330
1E
100
AcDbEntity
  8
0
100
AcDbLine
 10
64.2654
 20
292.3854
 30
0.0
 11
64.29009999999999
 21
293.8983999999999
 31
0.0
  0
LINE
  5
1D8
330
1E
100
AcDbEntity
  8
0
100
AcDbLine
 10
64.7926
 20
255.0934
 30
0.0
 11
64.79649999999999
 21
249.2744
 31
0.0
  0
LINE
  5
1D9
330
1E
100
AcDbEntity
  8
0
100
AcDbLine
 10
35.6991
 20
288.0043999999999
 30
0.0
 11
35.7346
 21
292.3854
 31
0.0
  0
LINE
  5
1DA
330
1E
100
AcDbEntity
  8
0
100
AcDbLine
 10
35.2354
 20
326.1654
 30
0.0
 11
35.9814
 21
326.1823999999999
 31
0.0
  0
LINE
  5
1DB
330
1E
100
AcDbEntity
  8
0
100
AcDbLine
 10
50.0
 20
298.1543999999999
 30
0.0
 11
62.054
 21
299.3714
 31
0.0
  0
LINE
  5
1DC
330
1E
100
AcDbEntity
  8
0
100
AcDbLine
 10
62.054
 20
299.3714
 30
0.0
 11
73.422
 21
302.7374
 31
0.0
  0
LINE
  5
1DE
330
1E
100
AcDbEntity
  8
0
100
AcDbLine
 10
37.94599999999999
 20
299.3714
 30
0.0
 11
50.0
 21
298.1543999999999
 31
0.0
  0
LINE
  5
1DF
330
1E
100
AcDbEntity
  8
0
100
AcDbLine
 10
36.59279999999999
 20
303.2504
 30
0.0
 11
37.338
 21
303.2804
 31
0.0
  0
LINE
  5
1E0
330
1E
100
AcDbEntity
  8
0
100
AcDbLine
 10
37.338
 20
303.2804
 30
0.0
 11
37.8489
 21
303.6784
 31
0.0
  0
LINE
  5
1E1
330
1E
100
AcDbEntity
  8
0
100
AcDbLine
 10
42.3981
 20
302.7874
 30
0.0
 11
42.5685
 21
302.2564
 31
0.0
  0
LINE
  5
1E2
330
1E
100
AcDbEntity
  8
0
100
AcDbLine
 10
42.3981
 20
302.7874
 30
0.0
 11
42.80669999999999
 21
303.2434
 31
0.0
  0
LINE
  5
1E4
330
1E
100
AcDbEntity
  8
0
100
AcDbLine
 10
43.53329999999999
 20
303.3684
 30
0.0
 11
44.1579
 21
303.0693999999999
 31
0.0
  0
LINE
  5
1E5
330
1E
100
AcDbEntity
  8
0
100
AcDbLine
 10
42.80669999999999
 20
303.2434
 30
0.0
 11
43.53329999999999
 21
303.3684
 31
0.0
  0
LINE
  5
1E6
330
1E
100
AcDbEntity
  8
0
100
AcDbLine
 10
42.5685
 20
302.2564
 30
0.0
 11
43.19300000000001
 21
301.9573999999999
 31
0.0
  0
LINE
  5
1E7
330
1E
100
AcDbEntity
  8
0
100
AcDbLine
 10
43.19300000000001
 20
301.9573999999999
 30
0.0
 11
43.9196
 21
302.0824
 31
0.0
  0
LINE
  5
1E9
330
1E
100
AcDbEntity
  8
0
100
AcDbLine
 10
44.1579
 20
303.0693999999999
 30
0.0
 11
44.3283
 21
302.5384
 31
0.0
  0
LINE
  5
1EA
330
1E
100
AcDbEntity
  8
0
100
AcDbLine
 10
43.9196
 20
302.0824
 30
0.0
 11
44.3283
 21
302.5384
 31
0.0
  0
LINE
  5
1EC
330
1E
100
AcDbEntity
  8
0
100
AcDbLine
 10
36.0487
 20
303.6234
 30
0.0
 11
36.59279999999999
 21
303.2504
 31
0.0
  0
LINE
  5
1F1
330
1E
100
AcDbEntity
  8
0
100
AcDbLine
 10
50.686
 20
301.7373999999999
 30
0.0
 11
50.97999999999999
 21
302.2384
 31
0.0
  0
LINE
  5
1F2
330
1E
100
AcDbEntity
  8
0
100
AcDbLine
 10
50.0
 20
301.5223999999999
 30
0.0
 11
50.686
 21
301.7373999999999
 31
0.0
  0
LINE
  5
1F4
330
1E
100
AcDbEntity
  8
0
100
AcDbLine
 10
49.314
 20
302.7404
 30
0.0
 11
50.0
 21
302.9544
 31
0.0
  0
LINE
  5
1F5
330
1E
100
AcDbEntity
  8
0
100
AcDbLine
 10
50.0
 20
302.9544
 30
0.0
 11
50.686
 21
302.7404
 31
0.0
  0
LINE
  5
1F8
330
1E
100
AcDbEntity
  8
0
100
AcDbLine
 10
50.686
 20
302.7404
 30
0.0
 11
50.97999999999999
 21
302.2384
 31
0.0
  0
LINE
  5
1F9
330
1E
100
AcDbEntity
  8
0
100
AcDbLine
 10
49.314
 20
301.7373999999999
 30
0.0
 11
50.0
 21
301.5223999999999
 31
0.0
  0
LINE
  5
1FA
330
1E
100
AcDbEntity
  8
0
100
AcDbLine
 10
49.02000000000001
 20
302.2384
 30
0.0
 11
49.314
 21
301.7373999999999
 31
0.0
  0
LINE
  5
1FB
330
1E
100
AcDbEntity
  8
0
100
AcDbLine
 10
49.02000000000001
 20
302.2384
 30
0.0
 11
49.314
 21
302.7404
 31
0.0
  0
LINE
  5
1FE
330
1E
100
AcDbEntity
  8
0
100
AcDbLine
 10
37.8072
 20
304.2224
 30
0.0
 11
37.8489
 21
303.6784
 31
0.0
  0
LINE
  5
200
330
1E
100
AcDbEntity
  8
0
100
AcDbLine
 10
37.26319999999999
 20
304.5954
 30
0.0
 11
37.8072
 21
304.2224
 31
0.0
  0
LINE
  5
201
330
1E
100
AcDbEntity
  8
0
100
AcDbLine
 10
36.518
 20
304.5654
 30
0.0
 11
37.26319999999999
 21
304.5954
 31
0.0
  0
LINE
  5
202
330
1E
100
AcDbEntity
  8
0
100
AcDbLine
 10
36.0071
 20
304.1673999999999
 30
0.0
 11
36.0487
 21
303.6234
 31
0.0
  0
LINE
  5
203
330
1E
100
AcDbEntity
  8
0
100
AcDbLine
 10
36.0071
 20
304.1673999999999
 30
0.0
 11
36.518
 21
304.5654
 31
0.0
  0
LINE
  5
205
330
1E
100
AcDbEntity
  8
0
100
AcDbLine
 10
41.8924
 20
307.8274
 30
0.0
 11
42.6311
 21
307.9044
 31
0.0
  0
LINE
  5
206
330
1E
100
AcDbEntity
  8
0
100
AcDbLine
 10
42.6311
 20
307.9044
 30
0.0
 11
43.0926
 21
308.3333999999999
 31
0.0
  0
LINE
  5
207
330
1E
100
AcDbEntity
  8
0
100
AcDbLine
 10
41.19939999999999
 20
308.7034
 30
0.0
 11
41.3058
 21
308.1644
 31
0.0
  0
LINE
  5
208
330
1E
100
AcDbEntity
  8
0
100
AcDbLine
 10
41.19939999999999
 20
308.7034
 30
0.0
 11
41.66089999999999
 21
309.1324
 31
0.0
  0
LINE
  5
209
330
1E
100
AcDbEntity
  8
0
100
AcDbLine
 10
42.98619999999999
 20
308.8734
 30
0.0
 11
43.0926
 21
308.3333999999999
 31
0.0
  0
LINE
  5
20A
330
1E
100
AcDbEntity
  8
0
100
AcDbLine
 10
41.66089999999999
 20
309.1324
 30
0.0
 11
42.3997
 21
309.2103999999999
 31
0.0
  0
LINE
  5
20B
330
1E
100
AcDbEntity
  8
0
100
AcDbLine
 10
41.3058
 20
308.1644
 30
0.0
 11
41.8924
 21
307.8274
 31
0.0
  0
LINE
  5
20C
330
1E
100
AcDbEntity
  8
0
100
AcDbLine
 10
36.2873
 20
310.1433999999999
 30
0.0
 11
36.8436
 21
310.5064
 31
0.0
  0
LINE
  5
20D
330
1E
100
AcDbEntity
  8
0
100
AcDbLine
 10
36.2638
 20
309.5984
 30
0.0
 11
36.7613
 21
309.1914
 31
0.0
  0
LINE
  5
20E
330
1E
100
AcDbEntity
  8
0
100
AcDbLine
 10
36.2638
 20
309.5984
 30
0.0
 11
36.2873
 21
310.1433999999999
 31
0.0
  0
LINE
  5
20F
330
1E
100
AcDbEntity
  8
0
100
AcDbLine
 10
42.3997
 20
309.2103999999999
 30
0.0
 11
42.98619999999999
 21
308.8734
 31
0.0
  0
LINE
  5
212
330
1E
100
AcDbEntity
  8
0
100
AcDbLine
 10
38.0636
 20
309.5384
 30
0.0
 11
38.08709999999999
 21
310.0833999999999
 31
0.0
  0
LINE
  5
213
330
1E
100
AcDbEntity
  8
0
100
AcDbLine
 10
37.5896
 20
310.4893999999999
 30
0.0
 11
38.08709999999999
 21
310.0833999999999
 31
0.0
  0
LINE
  5
214
330
1E
100
AcDbEntity
  8
0
100
AcDbLine
 10
36.8436
 20
310.5064
 30
0.0
 11
37.5896
 21
310.4893999999999
 31
0.0
  0
LINE
  5
215
330
1E
100
AcDbEntity
  8
0
100
AcDbLine
 10
36.7613
 20
309.1914
 30
0.0
 11
37.5073
 21
309.1743999999999
 31
0.0
  0
LINE
  5
216
330
1E
100
AcDbEntity
  8
0
100
AcDbLine
 10
37.5073
 20
309.1743999999999
 30
0.0
 11
38.0636
 21
309.5384
 31
0.0
  0
LINE
  5
218
330
1E
100
AcDbEntity
  8
0
100
AcDbLine
 10
46.3789
 20
307.9093999999999
 30
0.0
 11
46.612
 21
307.3913999999999
 31
0.0
  0
LINE
  5
219
330
1E
100
AcDbEntity
  8
0
100
AcDbLine
 10
46.3789
 20
307.9093999999999
 30
0.0
 11
46.7316
 21
308.3903999999999
 31
0.0
  0
LINE
  5
21C
330
1E
100
AcDbEntity
  8
0
100
AcDbLine
 10
47.4406
 20
308.5604
 30
0.0
 11
48.0984
 21
308.3034
 31
0.0
  0
LINE
  5
21D
330
1E
100
AcDbEntity
  8
0
100
AcDbLine
 10
46.7316
 20
308.3903999999999
 30
0.0
 11
47.4406
 21
308.5604
 31
0.0
  0
LINE
  5
21F
330
1E
100
AcDbEntity
  8
0
100
AcDbLine
 10
46.612
 20
307.3913999999999
 30
0.0
 11
47.2698
 21
307.1344
 31
0.0
  0
LINE
  5
220
330
1E
100
AcDbEntity
  8
0
100
AcDbLine
 10
47.2698
 20
307.1344
 30
0.0
 11
47.9788
 21
307.3043999999999
 31
0.0
  0
LINE
  5
221
330
1E
100
AcDbEntity
  8
0
100
AcDbLine
 10
48.0984
 20
308.3034
 30
0.0
 11
48.33149999999999
 21
307.7853999999999
 31
0.0
  0
LINE
  5
222
330
1E
100
AcDbEntity
  8
0
100
AcDbLine
 10
47.9788
 20
307.3043999999999
 30
0.0
 11
48.33149999999999
 21
307.7853999999999
 31
0.0
  0
LINE
  5
225
330
1E
100
AcDbEntity
  8
0
100
AcDbLine
 10
50.686
 20
312.7613999999999
 30
0.0
 11
50.97999999999999
 21
313.2624
 31
0.0
  0
LINE
  5
226
330
1E
100
AcDbEntity
  8
0
100
AcDbLine
 10
50.0
 20
312.5464
 30
0.0
 11
50.686
 21
312.7613999999999
 31
0.0
  0
LINE
  5
228
330
1E
100
AcDbEntity
  8
0
100
AcDbLine
 10
49.314
 20
312.7613999999999
 30
0.0
 11
50.0
 21
312.5464
 31
0.0
  0
LINE
  5
229
330
1E
100
AcDbEntity
  8
0
100
AcDbLine
 10
41.9675
 20
313.5813999999999
 30
0.0
 11
42.7127
 21
313.6123999999999
 31
0.0
  0
LINE
  5
22A
330
1E
100
AcDbEntity
  8
0
100
AcDbLine
 10
41.42339999999999
 20
313.9553999999999
 30
0.0
 11
41.9675
 21
313.5813999999999
 31
0.0
  0
LINE
  5
22B
330
1E
100
AcDbEntity
  8
0
100
AcDbLine
 10
42.7127
 20
313.6123999999999
 30
0.0
 11
43.22359999999999
 21
314.0094
 31
0.0
  0
LINE
  5
22C
330
1E
100
AcDbEntity
  8
0
100
AcDbLine
 10
49.314
 20
313.7644
 30
0.0
 11
50.0
 21
313.9794
 31
0.0
  0
LINE
  5
22D
330
1E
100
AcDbEntity
  8
0
100
AcDbLine
 10
35.44919999999999
 20
317.8163999999999
 30
0.0
 11
36.16369999999999
 21
317.6583999999999
 31
0.0
  0
LINE
  5
22E
330
1E
100
AcDbEntity
  8
0
100
AcDbLine
 10
35.6183
 20
316.4044
 30
0.0
 11
36.2845
 21
316.6503999999999
 31
0.0
  0
LINE
  5
22F
330
1E
100
AcDbEntity
  8
0
100
AcDbLine
 10
36.2845
 20
316.6503999999999
 30
0.0
 11
36.5002
 21
317.1723999999999
 31
0.0
  0
LINE
  5
230
330
1E
100
AcDbEntity
  8
0
100
AcDbLine
 10
36.16369999999999
 20
317.6583999999999
 30
0.0
 11
36.5002
 21
317.1723999999999
 31
0.0
  0
LINE
  5
232
330
1E
100
AcDbEntity
  8
0
100
AcDbLine
 10
38.4476
 20
323.7504
 30
0.0
 11
39.1406
 21
323.5473999999999
 31
0.0
  0
LINE
  5
233
330
1E
100
AcDbEntity
  8
0
100
AcDbLine
 10
37.7546
 20
323.5473999999999
 30
0.0
 11
38.4476
 21
323.7504
 31
0.0
  0
LINE
  5
234
330
1E
100
AcDbEntity
  8
0
100
AcDbLine
 10
37.47749999999999
 20
323.0414
 30
0.0
 11
37.7546
 21
322.5353999999999
 31
0.0
  0
LINE
  5
235
330
1E
100
AcDbEntity
  8
0
100
AcDbLine
 10
37.47749999999999
 20
323.0414
 30
0.0
 11
37.7546
 21
323.5473999999999
 31
0.0
  0
LINE
  5
237
330
1E
100
AcDbEntity
  8
0
100
AcDbLine
 10
37.7546
 20
322.5353999999999
 30
0.0
 11
38.4476
 21
322.3324
 31
0.0
  0
LINE
  5
238
330
1E
100
AcDbEntity
  8
0
100
AcDbLine
 10
43.1819
 20
314.5544
 30
0.0
 11
43.22359999999999
 21
314.0094
 31
0.0
  0
LINE
  5
239
330
1E
100
AcDbEntity
  8
0
100
AcDbLine
 10
42.6379
 20
314.9273999999999
 30
0.0
 11
43.1819
 21
314.5544
 31
0.0
  0
LINE
  5
23A
330
1E
100
AcDbEntity
  8
0
100
AcDbLine
 10
41.89269999999999
 20
314.8973999999999
 30
0.0
 11
42.6379
 21
314.9273999999999
 31
0.0
  0
LINE
  5
23B
330
1E
100
AcDbEntity
  8
0
100
AcDbLine
 10
41.3818
 20
314.4994
 30
0.0
 11
41.42339999999999
 21
313.9553999999999
 31
0.0
  0
LINE
  5
23C
330
1E
100
AcDbEntity
  8
0
100
AcDbLine
 10
41.3818
 20
314.4994
 30
0.0
 11
41.89269999999999
 21
314.8973999999999
 31
0.0
  0
LINE
  5
23D
330
1E
100
AcDbEntity
  8
0
100
AcDbLine
 10
42.46899999999999
 20
320.434036514065
 30
0.0
 11
42.46899999999999
 21
319.8873999999999
 31
0.0
  0
LINE
  5
23F
330
1E
100
AcDbEntity
  8
0
100
AcDbLine
 10
43.04879999999999
 20
320.7953999999999
 30
0.0
 11
43.7948
 21
320.7783999999999
 31
0.0
  0
LINE
  5
241
330
1E
100
AcDbEntity
  8
0
100
AcDbLine
 10
42.4924
 20
320.4323999999999
 30
0.0
 11
43.04879999999999
 21
320.7953999999999
 31
0.0
  0
LINE
  5
242
330
1E
100
AcDbEntity
  8
0
100
AcDbLine
 10
42.46899999999999
 20
319.8873999999999
 30
0.0
 11
42.9665
 21
319.4803999999999
 31
0.0
  0
LINE
  5
243
330
1E
100
AcDbEntity
  8
0
100
AcDbLine
 10
42.46899999999999
 20
319.8873999999999
 30
0.0
 11
42.4924
 21
320.4323999999999
 31
0.0
  0
LINE
  5
244
330
1E
100
AcDbEntity
  8
0
100
AcDbLine
 10
42.46899999999999
 20
319.8873999999999
 30
0.0
 11
42.46899999999999
 21
320.434036514065
 31
0.0
  0
LINE
  5
245
330
1E
100
AcDbEntity
  8
0
100
AcDbLine
 10
42.9665
 20
319.4803999999999
 30
0.0
 11
43.7124
 21
319.4633999999999
 31
0.0
  0
LINE
  5
246
330
1E
100
AcDbEntity
  8
0
100
AcDbLine
 10
44.26879999999999
 20
319.8263999999999
 30
0.0
 11
44.29229999999999
 21
320.3714
 31
0.0
  0
LINE
  5
247
330
1E
100
AcDbEntity
  8
0
100
AcDbLine
 10
43.7948
 20
320.7783999999999
 30
0.0
 11
44.29229999999999
 21
320.3714
 31
0.0
  0
LINE
  5
248
330
1E
100
AcDbEntity
  8
0
100
AcDbLine
 10
43.7124
 20
319.4633999999999
 30
0.0
 11
44.26879999999999
 21
319.8263999999999
 31
0.0
  0
LINE
  5
24A
330
1E
100
AcDbEntity
  8
0
100
AcDbLine
 10
39.1406
 20
322.5353999999999
 30
0.0
 11
39.41779999999999
 21
323.0414
 31
0.0
  0
LINE
  5
24D
330
1E
100
AcDbEntity
  8
0
100
AcDbLine
 10
39.1406
 20
323.5473999999999
 30
0.0
 11
39.41779999999999
 21
323.0414
 31
0.0
  0
LINE
  5
24F
330
1E
100
AcDbEntity
  8
0
100
AcDbLine
 10
38.4476
 20
322.3324
 30
0.0
 11
39.1406
 21
322.5353999999999
 31
0.0
  0
LINE
  5
251
330
1E
100
AcDbEntity
  8
0
100
AcDbLine
 10
35.9814
 20
326.1823999999999
 30
0.0
 11
36.4789
 21
326.5894
 31
0.0
  0
LINE
  5
252
330
1E
100
AcDbEntity
  8
0
100
AcDbLine
 10
36.4554
 20
327.1344
 30
0.0
 11
36.4789
 21
326.5894
 31
0.0
  0
LINE
  5
255
330
1E
100
AcDbEntity
  8
0
100
AcDbLine
 10
49.9179
 20
318.1713999999999
 30
0.0
 11
50.5756
 21
318.4293999999999
 31
0.0
  0
LINE
  5
256
330
1E
100
AcDbEntity
  8
0
100
AcDbLine
 10
49.0893
 20
319.3404
 30
0.0
 11
49.747
 21
319.5984
 31
0.0
  0
LINE
  5
258
330
1E
100
AcDbEntity
  8
0
100
AcDbLine
 10
49.747
 20
319.5984
 30
0.0
 11
50.456
 21
319.4284
 31
0.0
  0
LINE
  5
259
330
1E
100
AcDbEntity
  8
0
100
AcDbLine
 10
50.456
 20
319.4284
 30
0.0
 11
50.8087
 21
318.9474
 31
0.0
  0
LINE
  5
25A
330
1E
100
AcDbEntity
  8
0
100
AcDbLine
 10
50.5756
 20
318.4293999999999
 30
0.0
 11
50.8087
 21
318.9474
 31
0.0
  0
LINE
  5
25B
330
1E
100
AcDbEntity
  8
0
100
AcDbLine
 10
49.2088
 20
318.3424
 30
0.0
 11
49.9179
 21
318.1713999999999
 31
0.0
  0
LINE
  5
25C
330
1E
100
AcDbEntity
  8
0
100
AcDbLine
 10
48.8562
 20
318.8224
 30
0.0
 11
49.2088
 21
318.3424
 31
0.0
  0
LINE
  5
25D
330
1E
100
AcDbEntity
  8
0
100
AcDbLine
 10
48.8562
 20
318.8224
 30
0.0
 11
49.0893
 21
319.3404
 31
0.0
  0
LINE
  5
25E
330
1E
100
AcDbEntity
  8
0
100
AcDbLine
 10
50.0
 20
313.9794
 30
0.0
 11
50.686
 21
313.7644
 31
0.0
  0
LINE
  5
25F
330
1E
100
AcDbEntity
  8
0
100
AcDbLine
 10
50.686
 20
313.7644
 30
0.0
 11
50.97999999999999
 21
313.2624
 31
0.0
  0
LINE
  5
260
330
1E
100
AcDbEntity
  8
0
100
AcDbLine
 10
49.02000000000001
 20
313.2624
 30
0.0
 11
49.314
 21
312.7613999999999
 31
0.0
  0
LINE
  5
261
330
1E
100
AcDbEntity
  8
0
100
AcDbLine
 10
49.02000000000001
 20
313.2624
 30
0.0
 11
49.314
 21
313.7644
 31
0.0
  0
LINE
  5
262
330
1E
100
AcDbEntity
  8
0
100
AcDbLine
 10
52.7302
 20
307.1344
 30
0.0
 11
53.388
 21
307.3913999999999
 31
0.0
  0
LINE
  5
263
330
1E
100
AcDbEntity
  8
0
100
AcDbLine
 10
51.9016
 20
308.3034
 30
0.0
 11
52.55939999999999
 21
308.5604
 31
0.0
  0
LINE
  5
265
330
1E
100
AcDbEntity
  8
0
100
AcDbLine
 10
52.55939999999999
 20
308.5604
 30
0.0
 11
53.2684
 21
308.3903999999999
 31
0.0
  0
LINE
  5
266
330
1E
100
AcDbEntity
  8
0
100
AcDbLine
 10
53.2684
 20
308.3903999999999
 30
0.0
 11
53.6211
 21
307.9093999999999
 31
0.0
  0
LINE
  5
26A
330
1E
100
AcDbEntity
  8
0
100
AcDbLine
 10
53.388
 20
307.3913999999999
 30
0.0
 11
53.6211
 21
307.9093999999999
 31
0.0
  0
LINE
  5
26B
330
1E
100
AcDbEntity
  8
0
100
AcDbLine
 10
52.0212
 20
307.3043999999999
 30
0.0
 11
52.7302
 21
307.1344
 31
0.0
  0
LINE
  5
26C
330
1E
100
AcDbEntity
  8
0
100
AcDbLine
 10
51.6685
 20
307.7853999999999
 30
0.0
 11
52.0212
 21
307.3043999999999
 31
0.0
  0
LINE
  5
26D
330
1E
100
AcDbEntity
  8
0
100
AcDbLine
 10
51.6685
 20
307.7853999999999
 30
0.0
 11
51.9016
 21
308.3034
 31
0.0
  0
LINE
  5
26F
330
1E
100
AcDbEntity
  8
0
100
AcDbLine
 10
56.80699999999999
 20
301.9573999999999
 30
0.0
 11
57.43149999999999
 21
302.2564
 31
0.0
  0
LINE
  5
270
330
1E
100
AcDbEntity
  8
0
100
AcDbLine
 10
55.8421
 20
303.0693999999999
 30
0.0
 11
56.4667
 21
303.3684
 31
0.0
  0
LINE
  5
271
330
1E
100
AcDbEntity
  8
0
100
AcDbLine
 10
56.1927
 20
320.5493999999999
 30
0.0
 11
56.6901
 21
320.9554
 31
0.0
  0
LINE
  5
272
330
1E
100
AcDbEntity
  8
0
100
AcDbLine
 10
56.1927
 20
320.5493999999999
 30
0.0
 11
56.2161
 21
320.0043999999999
 31
0.0
  0
LINE
  5
273
330
1E
100
AcDbEntity
  8
0
100
AcDbLine
 10
56.2161
 20
320.0043999999999
 30
0.0
 11
56.7725
 21
319.6404
 31
0.0
  0
LINE
  5
274
330
1E
100
AcDbEntity
  8
0
100
AcDbLine
 10
57.36889999999999
 20
307.9044
 30
0.0
 11
58.1076
 21
307.8274
 31
0.0
  0
LINE
  5
276
330
1E
100
AcDbEntity
  8
0
100
AcDbLine
 10
56.6901
 20
320.9554
 30
0.0
 11
57.4361
 21
320.9724
 31
0.0
  0
LINE
  5
278
330
1E
100
AcDbEntity
  8
0
100
AcDbLine
 10
56.7725
 20
319.6404
 30
0.0
 11
57.51850000000001
 21
319.6574
 31
0.0
  0
LINE
  5
27A
330
1E
100
AcDbEntity
  8
0
100
AcDbLine
 10
56.8181
 20
314.5544
 30
0.0
 11
57.36209999999999
 21
314.9273999999999
 31
0.0
  0
LINE
  5
27B
330
1E
100
AcDbEntity
  8
0
100
AcDbLine
 10
56.7764
 20
314.0094
 30
0.0
 11
57.2873
 21
313.6123999999999
 31
0.0
  0
LINE
  5
27C
330
1E
100
AcDbEntity
  8
0
100
AcDbLine
 10
56.7764
 20
314.0094
 30
0.0
 11
56.8181
 21
314.5544
 31
0.0
  0
LINE
  5
27D
330
1E
100
AcDbEntity
  8
0
100
AcDbLine
 10
57.36209999999999
 20
314.9273999999999
 30
0.0
 11
58.1073
 21
314.8973999999999
 31
0.0
  0
LINE
  5
27E
330
1E
100
AcDbEntity
  8
0
100
AcDbLine
 10
57.2873
 20
313.6123999999999
 30
0.0
 11
58.0325
 21
313.5813999999999
 31
0.0
  0
LINE
  5
27F
330
1E
100
AcDbEntity
  8
0
100
AcDbLine
 10
57.0138
 20
308.8734
 30
0.0
 11
57.6003
 21
309.2103999999999
 31
0.0
  0
LINE
  5
280
330
1E
100
AcDbEntity
  8
0
100
AcDbLine
 10
56.9074
 20
308.3333999999999
 30
0.0
 11
57.36889999999999
 21
307.9044
 31
0.0
  0
LINE
  5
281
330
1E
100
AcDbEntity
  8
0
100
AcDbLine
 10
56.9074
 20
308.3333999999999
 30
0.0
 11
57.0138
 21
308.8734
 31
0.0
  0
LINE
  5
282
330
1E
100
AcDbEntity
  8
0
100
AcDbLine
 10
56.4667
 20
303.3684
 30
0.0
 11
57.1933
 21
303.2434
 31
0.0
  0
LINE
  5
283
330
1E
100
AcDbEntity
  8
0
100
AcDbLine
 10
57.1933
 20
303.2434
 30
0.0
 11
57.6019
 21
302.7874
 31
0.0
  0
LINE
  5
284
330
1E
100
AcDbEntity
  8
0
100
AcDbLine
 10
73.422
 20
302.7374
 30
0.0
 11
83.222
 21
308.2513999999999
 31
0.0
  0
LINE
  5
285
330
1E
100
AcDbEntity
  8
0
100
AcDbLine
 10
63.9513
 20
303.6234
 30
0.0
 11
63.9929
 21
304.1673999999999
 31
0.0
  0
LINE
  5
286
330
1E
100
AcDbEntity
  8
0
100
AcDbLine
 10
63.40720000000001
 20
303.2504
 30
0.0
 11
63.9513
 21
303.6234
 31
0.0
  0
LINE
  5
287
330
1E
100
AcDbEntity
  8
0
100
AcDbLine
 10
62.662
 20
303.2804
 30
0.0
 11
63.40720000000001
 21
303.2504
 31
0.0
  0
LINE
  5
288
330
1E
100
AcDbEntity
  8
0
100
AcDbLine
 10
62.1511
 20
303.6784
 30
0.0
 11
62.662
 21
303.2804
 31
0.0
  0
LINE
  5
289
330
1E
100
AcDbEntity
  8
0
100
AcDbLine
 10
62.1511
 20
303.6784
 30
0.0
 11
62.1928
 21
304.2224
 31
0.0
  0
LINE
  5
28C
330
1E
100
AcDbEntity
  8
0
100
AcDbLine
 10
62.1928
 20
304.2224
 30
0.0
 11
62.7368
 21
304.5954
 31
0.0
  0
LINE
  5
28D
330
1E
100
AcDbEntity
  8
0
100
AcDbLine
 10
57.6003
 20
309.2103999999999
 30
0.0
 11
58.3391
 21
309.1324
 31
0.0
  0
LINE
  5
28F
330
1E
100
AcDbEntity
  8
0
100
AcDbLine
 10
58.3391
 20
309.1324
 30
0.0
 11
58.8006
 21
308.7034
 31
0.0
  0
LINE
  5
290
330
1E
100
AcDbEntity
  8
0
100
AcDbLine
 10
58.6942
 20
308.1644
 30
0.0
 11
58.8006
 21
308.7034
 31
0.0
  0
LINE
  5
291
330
1E
100
AcDbEntity
  8
0
100
AcDbLine
 10
58.1076
 20
307.8274
 30
0.0
 11
58.6942
 21
308.1644
 31
0.0
  0
LINE
  5
292
330
1E
100
AcDbEntity
  8
0
100
AcDbLine
 10
57.4361
 20
320.9724
 30
0.0
 11
57.9925
 21
320.6094
 31
0.0
  0
LINE
  5
293
330
1E
100
AcDbEntity
  8
0
100
AcDbLine
 10
57.9925
 20
320.6094
 30
0.0
 11
58.0159
 21
320.0644
 31
0.0
  0
LINE
  5
294
330
1E
100
AcDbEntity
  8
0
100
AcDbLine
 10
57.51850000000001
 20
319.6574
 30
0.0
 11
58.0159
 21
320.0644
 31
0.0
  0
LINE
  5
295
330
1E
100
AcDbEntity
  8
0
100
AcDbLine
 10
61.5524
 20
322.3324
 30
0.0
 11
62.2454
 21
322.5353999999999
 31
0.0
  0
LINE
  5
296
330
1E
100
AcDbEntity
  8
0
100
AcDbLine
 10
60.5822
 20
323.0414
 30
0.0
 11
60.8594
 21
323.5473999999999
 31
0.0
  0
LINE
  5
297
330
1E
100
AcDbEntity
  8
0
100
AcDbLine
 10
60.5822
 20
323.0414
 30
0.0
 11
60.8594
 21
322.5353999999999
 31
0.0
  0
LINE
  5
29B
330
1E
100
AcDbEntity
  8
0
100
AcDbLine
 10
60.8594
 20
323.5473999999999
 30
0.0
 11
61.5524
 21
323.7504
 31
0.0
  0
LINE
  5
29D
330
1E
100
AcDbEntity
  8
0
100
AcDbLine
 10
61.5524
 20
323.7504
 30
0.0
 11
62.2454
 21
323.5473999999999
 31
0.0
  0
LINE
  5
29E
330
1E
100
AcDbEntity
  8
0
100
AcDbLine
 10
60.8594
 20
322.5353999999999
 30
0.0
 11
61.5524
 21
322.3324
 31
0.0
  0
LINE
  5
29F
330
1E
100
AcDbEntity
  8
0
100
AcDbLine
 10
58.1073
 20
314.8973999999999
 30
0.0
 11
58.6182
 21
314.4994
 31
0.0
  0
LINE
  5
2A0
330
1E
100
AcDbEntity
  8
0
100
AcDbLine
 10
58.5766
 20
313.9553999999999
 30
0.0
 11
58.6182
 21
314.4994
 31
0.0
  0
LINE
  5
2A1
330
1E
100
AcDbEntity
  8
0
100
AcDbLine
 10
58.0325
 20
313.5813999999999
 30
0.0
 11
58.5766
 21
313.9553999999999
 31
0.0
  0
LINE
  5
2A3
330
1E
100
AcDbEntity
  8
0
100
AcDbLine
 10
61.9129
 20
310.0833999999999
 30
0.0
 11
62.4104
 21
310.4893999999999
 31
0.0
  0
LINE
  5
2A4
330
1E
100
AcDbEntity
  8
0
100
AcDbLine
 10
61.9129
 20
310.0833999999999
 30
0.0
 11
61.9364
 21
309.5384
 31
0.0
  0
LINE
  5
2A5
330
1E
100
AcDbEntity
  8
0
100
AcDbLine
 10
61.9364
 20
309.5384
 30
0.0
 11
62.4927
 21
309.1743999999999
 31
0.0
  0
LINE
  5
2A6
330
1E
100
AcDbEntity
  8
0
100
AcDbLine
 10
62.4104
 20
310.4893999999999
 30
0.0
 11
63.1564
 21
310.5064
 31
0.0
  0
LINE
  5
2A7
330
1E
100
AcDbEntity
  8
0
100
AcDbLine
 10
62.2454
 20
323.5473999999999
 30
0.0
 11
62.5225
 21
323.0414
 31
0.0
  0
LINE
  5
2AA
330
1E
100
AcDbEntity
  8
0
100
AcDbLine
 10
62.2454
 20
322.5353999999999
 30
0.0
 11
62.5225
 21
323.0414
 31
0.0
  0
LINE
  5
2AB
330
1E
100
AcDbEntity
  8
0
100
AcDbLine
 10
63.1564
 20
310.5064
 30
0.0
 11
63.71269999999999
 21
310.1433999999999
 31
0.0
  0
LINE
  5
2AC
330
1E
100
AcDbEntity
  8
0
100
AcDbLine
 10
63.2387
 20
309.1914
 30
0.0
 11
63.73619999999999
 21
309.5984
 31
0.0
  0
LINE
  5
2AD
330
1E
100
AcDbEntity
  8
0
100
AcDbLine
 10
62.4927
 20
309.1743999999999
 30
0.0
 11
63.2387
 21
309.1914
 31
0.0
  0
LINE
  5
2AF
330
1E
100
AcDbEntity
  8
0
100
AcDbLine
 10
62.7368
 20
304.5954
 30
0.0
 11
63.482
 21
304.5654
 31
0.0
  0
LINE
  5
2B0
330
1E
100
AcDbEntity
  8
0
100
AcDbLine
 10
69.59999999999999
 20
305.3604
 30
0.0
 11
70.0471
 21
305.7964
 31
0.0
  0
LINE
  5
2B1
330
1E
100
AcDbEntity
  8
0
100
AcDbLine
 10
68.8589
 20
305.2953999999999
 30
0.0
 11
69.59999999999999
 21
305.3604
 31
0.0
  0
LINE
  5
2B3
330
1E
100
AcDbEntity
  8
0
100
AcDbLine
 10
63.71269999999999
 20
310.1433999999999
 30
0.0
 11
63.73619999999999
 21
309.5984
 31
0.0
  0
LINE
  5
2B4
330
1E
100
AcDbEntity
  8
0
100
AcDbLine
 10
67.9676
 20
311.1864
 30
0.0
 11
68.3609
 21
311.6503999999999
 31
0.0
  0
LINE
  5
2B5
330
1E
100
AcDbEntity
  8
0
100
AcDbLine
 10
67.237
 20
311.0754
 30
0.0
 11
67.9676
 21
311.1864
 31
0.0
  0
LINE
  5
2B6
330
1E
100
AcDbEntity
  8
0
100
AcDbLine
 10
66.45
 20
311.8964
 30
0.0
 11
66.8433
 21
312.3594
 31
0.0
  0
LINE
  5
2B7
330
1E
100
AcDbEntity
  8
0
100
AcDbLine
 10
66.45
 20
311.8964
 30
0.0
 11
66.6027
 21
311.3623999999999
 31
0.0
  0
LINE
  5
2B8
330
1E
100
AcDbEntity
  8
0
100
AcDbLine
 10
65.09619999999999
 20
316.5614
 30
0.0
 11
65.43269999999999
 21
317.0484
 31
0.0
  0
LINE
  5
2B9
330
1E
100
AcDbEntity
  8
0
100
AcDbLine
 10
64.38169999999999
 20
316.4044
 30
0.0
 11
65.09619999999999
 21
316.5614
 31
0.0
  0
LINE
  5
2BA
330
1E
100
AcDbEntity
  8
0
100
AcDbLine
 10
63.4998
 20
317.1723999999999
 30
0.0
 11
63.8363
 21
317.6583999999999
 31
0.0
  0
LINE
  5
2BB
330
1E
100
AcDbEntity
  8
0
100
AcDbLine
 10
63.4998
 20
317.1723999999999
 30
0.0
 11
63.7155
 21
316.6503999999999
 31
0.0
  0
LINE
  5
2BC
330
1E
100
AcDbEntity
  8
0
100
AcDbLine
 10
63.8363
 20
317.6583999999999
 30
0.0
 11
64.55079999999999
 21
317.8163999999999
 31
0.0
  0
LINE
  5
2BD
330
1E
100
AcDbEntity
  8
0
100
AcDbLine
 10
63.52109999999999
 20
326.5894
 30
0.0
 11
63.5446
 21
327.1344
 31
0.0
  0
LINE
  5
2BE
330
1E
100
AcDbEntity
  8
0
100
AcDbLine
 10
63.52109999999999
 20
326.5894
 30
0.0
 11
64.0186
 21
326.1823999999999
 31
0.0
  0
LINE
  5
2C0
330
1E
100
AcDbEntity
  8
0
100
AcDbLine
 10
63.5446
 20
327.1344
 30
0.0
 11
64.10099999999999
 21
327.4974
 31
0.0
  0
LINE
  5
2C2
330
1E
100
AcDbEntity
  8
0
100
AcDbLine
 10
64.0186
 20
326.1823999999999
 30
0.0
 11
64.7646
 21
326.1654
 31
0.0
  0
LINE
  5
2C3
330
1E
100
AcDbEntity
  8
0
100
AcDbLine
 10
64.7646
 20
326.1654
 30
0.0
 11
65.32099999999999
 21
326.5283999999999
 31
0.0
  0
LINE
  5
2C4
330
1E
100
AcDbEntity
  8
0
100
AcDbLine
 10
64.55079999999999
 20
317.8163999999999
 30
0.0
 11
65.217
 21
317.5704
 31
0.0
  0
LINE
  5
2C5
330
1E
100
AcDbEntity
  8
0
100
AcDbLine
 10
65.32099999999999
 20
326.5283999999999
 30
0.0
 11
65.3444
 21
327.0744
 31
0.0
  0
LINE
  5
2C6
330
1E
100
AcDbEntity
  8
0
100
AcDbLine
 10
65.217
 20
317.5704
 30
0.0
 11
65.43269999999999
 21
317.0484
 31
0.0
  0
LINE
  5
2C7
330
1E
100
AcDbEntity
  8
0
100
AcDbLine
 10
63.7155
 20
316.6503999999999
 30
0.0
 11
64.38169999999999
 21
316.4044
 31
0.0
  0
LINE
  5
2CB
330
1E
100
AcDbEntity
  8
0
100
AcDbLine
 10
66.8433
 20
312.3594
 30
0.0
 11
67.5739
 21
312.4714
 31
0.0
  0
LINE
  5
2CD
330
1E
100
AcDbEntity
  8
0
100
AcDbLine
 10
67.5739
 20
312.4714
 30
0.0
 11
68.20820000000001
 21
312.1834
 31
0.0
  0
LINE
  5
2CF
330
1E
100
AcDbEntity
  8
0
100
AcDbLine
 10
66.6027
 20
311.3623999999999
 30
0.0
 11
67.237
 21
311.0754
 31
0.0
  0
LINE
  5
2D1
330
1E
100
AcDbEntity
  8
0
100
AcDbLine
 10
68.20820000000001
 20
312.1834
 30
0.0
 11
68.3609
 21
311.6503999999999
 31
0.0
  0
LINE
  5
2D3
330
1E
100
AcDbEntity
  8
0
100
AcDbLine
 10
68.17289999999999
 20
306.3215858148889
 30
0.0
 11
68.17289999999999
 21
306.1634
 31
0.0
  0
LINE
  5
2D4
330
1E
100
AcDbEntity
  8
0
100
AcDbLine
 10
68.17289999999999
 20
306.1634
 30
0.0
 11
68.62
 21
306.6003999999999
 31
0.0
  0
LINE
  5
2D5
330
1E
100
AcDbEntity
  8
0
100
AcDbLine
 10
68.17289999999999
 20
306.1634
 30
0.0
 11
68.2613
 21
305.6224
 31
0.0
  0
LINE
  5
2D6
330
1E
100
AcDbEntity
  8
0
100
AcDbLine
 10
68.17289999999999
 20
306.1634
 30
0.0
 11
68.17289999999999
 21
306.3215858148889
 31
0.0
  0
LINE
  5
2D9
330
1E
100
AcDbEntity
  8
0
100
AcDbLine
 10
68.5532
 20
321.3014
 30
0.0
 11
68.6416
 21
321.8433999999999
 31
0.0
  0
LINE
  5
2DA
330
1E
100
AcDbEntity
  8
0
100
AcDbLine
 10
68.5532
 20
321.3014
 30
0.0
 11
69.0003
 21
320.8654
 31
0.0
  0
LINE
  5
2DD
330
1E
100
AcDbEntity
  8
0
100
AcDbLine
 10
68.6416
 20
321.8433999999999
 30
0.0
 11
69.23919999999999
 21
322.1703999999999
 31
0.0
  0
LINE
  5
2DF
330
1E
100
AcDbEntity
  8
0
100
AcDbLine
 10
69.23919999999999
 20
322.1703999999999
 30
0.0
 11
69.98029999999999
 21
322.1053999999999
 31
0.0
  0
LINE
  5
2E0
330
1E
100
AcDbEntity
  8
0
100
AcDbLine
 10
69.0003
 20
320.8654
 30
0.0
 11
69.7414
 21
320.8004
 31
0.0
  0
LINE
  5
2E2
330
1E
100
AcDbEntity
  8
0
100
AcDbLine
 10
68.62
 20
306.6003999999999
 30
0.0
 11
69.36109999999999
 21
306.6653999999999
 31
0.0
  0
LINE
  5
2E4
330
1E
100
AcDbEntity
  8
0
100
AcDbLine
 10
69.7414
 20
320.8004
 30
0.0
 11
70.339
 21
321.1274
 31
0.0
  0
LINE
  5
2E5
330
1E
100
AcDbEntity
  8
0
100
AcDbLine
 10
75.1973
 20
308.2244
 30
0.0
 11
75.5338
 21
308.7104
 31
0.0
  0
LINE
  5
2E6
330
1E
100
AcDbEntity
  8
0
100
AcDbLine
 10
74.4828
 20
308.0664
 30
0.0
 11
75.1973
 21
308.2244
 31
0.0
  0
LINE
  5
2E7
330
1E
100
AcDbEntity
  8
0
100
AcDbLine
 10
73.60089999999999
 20
308.8344
 30
0.0
 11
73.9374
 21
309.3213999999999
 31
0.0
  0
LINE
  5
2E8
330
1E
100
AcDbEntity
  8
0
100
AcDbLine
 10
73.60089999999999
 20
308.8344
 30
0.0
 11
73.8166
 21
308.3124
 31
0.0
  0
LINE
  5
2E9
330
1E
100
AcDbEntity
  8
0
100
AcDbLine
 10
73.9374
 20
309.3213999999999
 30
0.0
 11
74.65189999999999
 21
309.4784
 31
0.0
  0
LINE
  5
2EB
330
1E
100
AcDbEntity
  8
0
100
AcDbLine
 10
74.65189999999999
 20
309.4784
 30
0.0
 11
75.3181
 21
309.2324
 31
0.0
  0
LINE
  5
2EF
330
1E
100
AcDbEntity
  8
0
100
AcDbLine
 10
75.3181
 20
309.2324
 30
0.0
 11
75.5338
 21
308.7104
 31
0.0
  0
LINE
  5
2F1
330
1E
100
AcDbEntity
  8
0
100
AcDbLine
 10
73.8166
 20
308.3124
 30
0.0
 11
74.4828
 21
308.0664
 31
0.0
  0
LINE
  5
2F3
330
1E
100
AcDbEntity
  8
0
100
AcDbLine
 10
79.3628
 20
311.5083999999999
 30
0.0
 11
80.02889999999998
 21
311.7543999999999
 31
0.0
  0
LINE
  5
2F4
330
1E
100
AcDbEntity
  8
0
100
AcDbLine
 10
78.3118
 20
312.1534
 30
0.0
 11
78.5275
 21
312.6754
 31
0.0
  0
LINE
  5
2F5
330
1E
100
AcDbEntity
  8
0
100
AcDbLine
 10
78.3118
 20
312.1534
 30
0.0
 11
78.64830000000001
 21
311.6664
 31
0.0
  0
LINE
  5
2F6
330
1E
100
AcDbEntity
  8
0
100
AcDbLine
 10
78.5275
 20
312.6754
 30
0.0
 11
79.1937
 21
312.9214
 31
0.0
  0
LINE
  5
2F7
330
1E
100
AcDbEntity
  8
0
100
AcDbLine
 10
72.15049999999999
 20
313.7513999999999
 30
0.0
 11
72.4276
 21
314.2574
 31
0.0
  0
LINE
  5
2F8
330
1E
100
AcDbEntity
  8
0
100
AcDbLine
 10
71.45749999999999
 20
313.5484
 30
0.0
 11
72.15049999999999
 21
313.7513999999999
 31
0.0
  0
LINE
  5
2F9
330
1E
100
AcDbEntity
  8
0
100
AcDbLine
 10
70.4873
 20
314.2574
 30
0.0
 11
70.7645
 21
314.7644
 31
0.0
  0
LINE
  5
2FA
330
1E
100
AcDbEntity
  8
0
100
AcDbLine
 10
70.4873
 20
314.2574
 30
0.0
 11
70.7645
 21
313.7513999999999
 31
0.0
  0
LINE
  5
2FB
330
1E
100
AcDbEntity
  8
0
100
AcDbLine
 10
70.7645
 20
314.7644
 30
0.0
 11
71.45749999999999
 21
314.9664
 31
0.0
  0
LINE
  5
2FD
330
1E
100
AcDbEntity
  8
0
100
AcDbLine
 10
69.98029999999999
 20
322.1053999999999
 30
0.0
 11
70.42740000000001
 21
321.6684
 31
0.0
  0
LINE
  5
2FE
330
1E
100
AcDbEntity
  8
0
100
AcDbLine
 10
70.339
 20
321.1274
 30
0.0
 11
70.42740000000001
 21
321.6684
 31
0.0
  0
LINE
  5
2FF
330
1E
100
AcDbEntity
  8
0
100
AcDbLine
 10
71.3689
 20
326.4454
 30
0.0
 11
71.99339999999999
 21
326.1474
 31
0.0
  0
LINE
  5
300
330
1E
100
AcDbEntity
  8
0
100
AcDbLine
 10
71.19849999999999
 20
326.9764
 30
0.0
 11
71.6071
 21
327.4324
 31
0.0
  0
LINE
  5
301
330
1E
100
AcDbEntity
  8
0
100
AcDbLine
 10
71.19849999999999
 20
326.9764
 30
0.0
 11
71.3689
 21
326.4454
 31
0.0
  0
LINE
  5
302
330
1E
100
AcDbEntity
  8
0
100
AcDbLine
 10
71.99339999999999
 20
326.1474
 30
0.0
 11
72.72
 21
326.2714
 31
0.0
  0
LINE
  5
304
330
1E
100
AcDbEntity
  8
0
100
AcDbLine
 10
71.45749999999999
 20
314.9664
 30
0.0
 11
72.15049999999999
 21
314.7644
 31
0.0
  0
LINE
  5
306
330
1E
100
AcDbEntity
  8
0
100
AcDbLine
 10
75.02600000000001
 20
316.5204
 30
0.0
 11
75.66030000000001
 21
316.8073999999999
 31
0.0
  0
LINE
  5
307
330
1E
100
AcDbEntity
  8
0
100
AcDbLine
 10
73.90219999999999
 20
317.0954
 30
0.0
 11
74.0548
 21
317.6293999999999
 31
0.0
  0
LINE
  5
308
330
1E
100
AcDbEntity
  8
0
100
AcDbLine
 10
73.90219999999999
 20
317.0954
 30
0.0
 11
74.2955
 21
316.6313999999999
 31
0.0
  0
LINE
  5
309
330
1E
100
AcDbEntity
  8
0
100
AcDbLine
 10
74.0548
 20
317.6293999999999
 30
0.0
 11
74.6891
 21
317.9164
 31
0.0
  0
LINE
  5
30A
330
1E
100
AcDbEntity
  8
0
100
AcDbLine
 10
72.95829999999999
 20
327.2584
 30
0.0
 11
73.1287
 21
326.7274
 31
0.0
  0
LINE
  5
30B
330
1E
100
AcDbEntity
  8
0
100
AcDbLine
 10
72.72
 20
326.2714
 30
0.0
 11
73.1287
 21
326.7274
 31
0.0
  0
LINE
  5
30C
330
1E
100
AcDbEntity
  8
0
100
AcDbLine
 10
74.6891
 20
317.9164
 30
0.0
 11
75.4197
 21
317.8054
 31
0.0
  0
LINE
  5
30D
330
1E
100
AcDbEntity
  8
0
100
AcDbLine
 10
75.4197
 20
317.8054
 30
0.0
 11
75.813
 21
317.3414
 31
0.0
  0
LINE
  5
30E
330
1E
100
AcDbEntity
  8
0
100
AcDbLine
 10
76.59069999999999
 20
320.3234
 30
0.0
 11
76.61419999999999
 21
320.8684
 31
0.0
  0
LINE
  5
30F
330
1E
100
AcDbEntity
  8
0
100
AcDbLine
 10
76.59069999999999
 20
320.3234
 30
0.0
 11
77.0882
 21
319.9164
 31
0.0
  0
LINE
  5
311
330
1E
100
AcDbEntity
  8
0
100
AcDbLine
 10
76.61419999999999
 20
320.8684
 30
0.0
 11
77.1705
 21
321.2323999999999
 31
0.0
  0
LINE
  5
315
330
1E
100
AcDbEntity
  8
0
100
AcDbLine
 10
77.1705
 20
321.2323999999999
 30
0.0
 11
77.9165
 21
321.2144
 31
0.0
  0
LINE
  5
317
330
1E
100
AcDbEntity
  8
0
100
AcDbLine
 10
77.9165
 20
321.2144
 30
0.0
 11
78.414
 21
320.8083999999999
 31
0.0
  0
LINE
  5
319
330
1E
100
AcDbEntity
  8
0
100
AcDbLine
 10
78.3905
 20
320.2633999999999
 30
0.0
 11
78.414
 21
320.8083999999999
 31
0.0
  0
LINE
  5
31A
330
1E
100
AcDbEntity
  8
0
100
AcDbLine
 10
77.83419999999999
 20
319.8994
 30
0.0
 11
78.3905
 21
320.2633999999999
 31
0.0
  0
LINE
  5
31B
330
1E
100
AcDbEntity
  8
0
100
AcDbLine
 10
77.0882
 20
319.9164
 30
0.0
 11
77.83419999999999
 21
319.8994
 31
0.0
  0
LINE
  5
31C
330
1E
100
AcDbEntity
  8
0
100
AcDbLine
 10
78.47129999999999
 20
323.8433999999999
 30
0.0
 11
79.0578
 21
323.5063999999999
 31
0.0
  0
LINE
  5
31E
330
1E
100
AcDbEntity
  8
0
100
AcDbLine
 10
78.36490000000001
 20
324.3834
 30
0.0
 11
78.82640000000001
 21
324.8114
 31
0.0
  0
LINE
  5
31F
330
1E
100
AcDbEntity
  8
0
100
AcDbLine
 10
78.36490000000001
 20
324.3834
 30
0.0
 11
78.47129999999999
 21
323.8433999999999
 31
0.0
  0
LINE
  5
321
330
1E
100
AcDbEntity
  8
0
100
AcDbLine
 10
78.82640000000001
 20
324.8114
 30
0.0
 11
79.5651
 21
324.8894
 31
0.0
  0
LINE
  5
322
330
1E
100
AcDbEntity
  8
0
100
AcDbLine
 10
79.0578
 20
323.5063999999999
 30
0.0
 11
79.79659999999999
 21
323.5834
 31
0.0
  0
LINE
  5
323
330
1E
100
AcDbEntity
  8
0
100
AcDbLine
 10
75.66030000000001
 20
316.8073999999999
 30
0.0
 11
75.813
 21
317.3414
 31
0.0
  0
LINE
  5
324
330
1E
100
AcDbEntity
  8
0
100
AcDbLine
 10
74.2955
 20
316.6313999999999
 30
0.0
 11
75.02600000000001
 21
316.5204
 31
0.0
  0
LINE
  5
325
330
1E
100
AcDbEntity
  8
0
100
AcDbLine
 10
72.15049999999999
 20
314.7644
 30
0.0
 11
72.4276
 21
314.2574
 31
0.0
  0
LINE
  5
326
330
1E
100
AcDbEntity
  8
0
100
AcDbLine
 10
70.7645
 20
313.7513999999999
 30
0.0
 11
71.45749999999999
 21
313.5484
 31
0.0
  0
LINE
  5
327
330
1E
100
AcDbEntity
  8
0
100
AcDbLine
 10
79.5651
 20
324.8894
 30
0.0
 11
80.15170000000001
 21
324.5523999999999
 31
0.0
  0
LINE
  5
328
330
1E
100
AcDbEntity
  8
0
100
AcDbLine
 10
79.79659999999999
 20
323.5834
 30
0.0
 11
80.25809999999999
 21
324.0124
 31
0.0
  0
LINE
  5
32A
330
1E
100
AcDbEntity
  8
0
100
AcDbLine
 10
79.1937
 20
312.9214
 30
0.0
 11
79.90819999999999
 21
312.7634
 31
0.0
  0
LINE
  5
32B
330
1E
100
AcDbEntity
  8
0
100
AcDbLine
 10
79.90819999999999
 20
312.7634
 30
0.0
 11
80.24469999999999
 21
312.2764
 31
0.0
  0
LINE
  5
32D
330
1E
100
AcDbEntity
  8
0
100
AcDbLine
 10
80.15170000000001
 20
324.647313515595
 30
0.0
 11
80.15170000000001
 21
324.5523999999999
 31
0.0
  0
LINE
  5
32E
330
1E
100
AcDbEntity
  8
0
100
AcDbLine
 10
80.15170000000001
 20
324.5523999999999
 30
0.0
 11
80.25809999999999
 21
324.0124
 31
0.0
  0
LINE
  5
32F
330
1E
100
AcDbEntity
  8
0
100
AcDbLine
 10
80.15170000000001
 20
324.5523999999999
 30
0.0
 11
80.15170000000001
 21
324.647313515595
 31
0.0
  0
LINE
  5
330
330
1E
100
AcDbEntity
  8
0
100
AcDbLine
 10
80.02889999999998
 20
311.7543999999999
 30
0.0
 11
80.24469999999999
 21
312.2764
 31
0.0
  0
LINE
  5
331
330
1E
100
AcDbEntity
  8
0
100
AcDbLine
 10
78.64830000000001
 20
311.6664
 30
0.0
 11
79.3628
 21
311.5083999999999
 31
0.0
  0
LINE
  5
334
330
1E
100
AcDbEntity
  8
0
100
AcDbLine
 10
69.36109999999999
 20
306.6653999999999
 30
0.0
 11
69.9587
 21
306.3383999999999
 31
0.0
  0
LINE
  5
335
330
1E
100
AcDbEntity
  8
0
100
AcDbLine
 10
69.9587
 20
306.3383999999999
 30
0.0
 11
70.0471
 21
305.7964
 31
0.0
  0
LINE
  5
337
330
1E
100
AcDbEntity
  8
0
100
AcDbLine
 10
68.2613
 20
305.6224
 30
0.0
 11
68.8589
 21
305.2953999999999
 31
0.0
  0
LINE
  5
339
330
1E
100
AcDbEntity
  8
0
100
AcDbLine
 10
63.482
 20
304.5654
 30
0.0
 11
63.9929
 21
304.1673999999999
 31
0.0
  0
LINE
  5
33B
330
1E
100
AcDbEntity
  8
0
100
AcDbLine
 10
57.43149999999999
 20
302.2564
 30
0.0
 11
57.6019
 21
302.7874
 31
0.0
  0
LINE
  5
33C
330
1E
100
AcDbEntity
  8
0
100
AcDbLine
 10
56.08039999999999
 20
302.0824
 30
0.0
 11
56.80699999999999
 21
301.9573999999999
 31
0.0
  0
LINE
  5
33D
330
1E
100
AcDbEntity
  8
0
100
AcDbLine
 10
55.6717
 20
302.5384
 30
0.0
 11
56.08039999999999
 21
302.0824
 31
0.0
  0
LINE
  5
33E
330
1E
100
AcDbEntity
  8
0
100
AcDbLine
 10
55.6717
 20
302.5384
 30
0.0
 11
55.8421
 21
303.0693999999999
 31
0.0
  0
LINE
  5
344
330
1E
100
AcDbEntity
  8
0
100
AcDbLine
 10
35.899
 20
327.4974
 30
0.0
 11
36.4554
 21
327.1344
 31
0.0
  0
LINE
  5
345
330
1E
100
AcDbEntity
  8
0
100
AcDbLine
 10
64.10099999999999
 20
327.4974
 30
0.0
 11
64.8469
 21
327.4803999999999
 31
0.0
  0
LINE
  5
346
330
1E
100
AcDbEntity
  8
0
100
AcDbLine
 10
64.8469
 20
327.4803999999999
 30
0.0
 11
65.3444
 21
327.0744
 31
0.0
  0
LINE
  5
347
330
1E
100
AcDbEntity
  8
0
100
AcDbLine
 10
71.6071
 20
327.4324
 30
0.0
 11
72.33369999999999
 21
327.5573999999999
 31
0.0
  0
LINE
  5
348
330
1E
100
AcDbEntity
  8
0
100
AcDbLine
 10
72.33369999999999
 20
327.5573999999999
 30
0.0
 11
72.95829999999999
 21
327.2584
 31
0.0
  0
LINE
  5
349
330
1E
100
AcDbEntity
  8
0
100
AcDbLine
 10
79.2537
 20
328.0663999999999
 30
0.0
 11
79.4868
 21
327.5484
 31
0.0
  0
LINE
  5
34B
330
1E
100
AcDbEntity
  8
0
100
AcDbLine
 10
79.2537
 20
328.0663999999999
 30
0.0
 11
79.60639999999999
 21
328.5473999999999
 31
0.0
  0
LINE
  5
34C
330
1E
100
AcDbEntity
  8
0
100
AcDbLine
 10
79.4868
 20
327.5484
 30
0.0
 11
80.14459999999999
 21
327.2904
 31
0.0
  0
LINE
  5
34E
330
1E
100
AcDbEntity
  8
0
100
AcDbLine
 10
80.14459999999999
 20
327.2904
 30
0.0
 11
80.85359999999999
 21
327.4614
 31
0.0
  0
LINE
  5
351
330
1E
100
AcDbEntity
  8
0
100
AcDbLine
 10
83.222
 20
308.2513999999999
 30
0.0
 11
84.29999999999999
 21
309.0914
 31
0.0
  0
LINE
  5
353
330
1E
100
AcDbEntity
  8
0
100
AcDbLine
 10
84.29999999999999
 20
309.0914
 30
0.0
 11
92.042
 21
316.5384
 31
0.0
  0
LINE
  5
354
330
1E
100
AcDbEntity
  8
0
100
AcDbLine
 10
83.3506
 20
315.5174
 30
0.0
 11
83.94820000000001
 21
315.8444
 31
0.0
  0
LINE
  5
355
330
1E
100
AcDbEntity
  8
0
100
AcDbLine
 10
82.1624
 20
316.389649719668
 30
0.0
 11
82.1624
 21
316.0194
 31
0.0
  0
LINE
  5
356
330
1E
100
AcDbEntity
  8
0
100
AcDbLine
 10
82.1624
 20
316.0194
 30
0.0
 11
82.2508
 21
316.5604
 31
0.0
  0
LINE
  5
357
330
1E
100
AcDbEntity
  8
0
100
AcDbLine
 10
82.1624
 20
316.0194
 30
0.0
 11
82.60949999999999
 21
315.5823999999999
 31
0.0
  0
LINE
  5
358
330
1E
100
AcDbEntity
  8
0
100
AcDbLine
 10
82.1624
 20
316.0194
 30
0.0
 11
82.1624
 21
316.389649719668
 31
0.0
  0
LINE
  5
359
330
1E
100
AcDbEntity
  8
0
100
AcDbLine
 10
82.2508
 20
316.5604
 30
0.0
 11
82.8484
 21
316.8874
 31
0.0
  0
LINE
  5
360
330
1E
100
AcDbEntity
  8
0
100
AcDbLine
 10
82.8484
 20
316.8874
 30
0.0
 11
83.5895
 21
316.8224
 31
0.0
  0
LINE
  5
362
330
1E
100
AcDbEntity
  8
0
100
AcDbLine
 10
83.5895
 20
316.8224
 30
0.0
 11
84.0366
 21
316.3863999999999
 31
0.0
  0
LINE
  5
364
330
1E
100
AcDbEntity
  8
0
100
AcDbLine
 10
92.042
 20
316.5384
 30
0.0
 11
96.74600000000001
 21
325.0604
 31
0.0
  0
LINE
  5
366
330
1E
100
AcDbEntity
  8
0
100
AcDbLine
 10
85.03579999999999
 20
320.3154
 30
0.0
 11
85.5799
 21
319.9413999999999
 31
0.0
  0
LINE
  5
367
330
1E
100
AcDbEntity
  8
0
100
AcDbLine
 10
84.9942
 20
320.8594
 30
0.0
 11
85.50499999999999
 21
321.2574
 31
0.0
  0
LINE
  5
368
330
1E
100
AcDbEntity
  8
0
100
AcDbLine
 10
84.9942
 20
320.8594
 30
0.0
 11
85.03579999999999
 21
320.3154
 31
0.0
  0
LINE
  5
369
330
1E
100
AcDbEntity
  8
0
100
AcDbLine
 10
85.50499999999999
 20
321.2574
 30
0.0
 11
86.25020000000001
 21
321.2873999999999
 31
0.0
  0
LINE
  5
36A
330
1E
100
AcDbEntity
  8
0
100
AcDbLine
 10
86.67419999999999
 20
325.4414
 30
0.0
 11
87.08289999999999
 21
325.8974
 31
0.0
  0
LINE
  5
36B
330
1E
100
AcDbEntity
  8
0
100
AcDbLine
 10
86.67419999999999
 20
325.4414
 30
0.0
 11
86.84470000000001
 21
324.9103999999999
 31
0.0
  0
LINE
  5
36E
330
1E
100
AcDbEntity
  8
0
100
AcDbLine
 10
86.25020000000001
 20
321.2873999999999
 30
0.0
 11
86.79430000000001
 21
320.9144
 31
0.0
  0
LINE
  5
371
330
1E
100
AcDbEntity
  8
0
100
AcDbLine
 10
86.84470000000001
 20
324.9103999999999
 30
0.0
 11
87.46920000000001
 21
324.6113999999999
 31
0.0
  0
LINE
  5
372
330
1E
100
AcDbEntity
  8
0
100
AcDbLine
 10
87.08289999999999
 20
325.8974
 30
0.0
 11
87.8095
 21
326.0224
 31
0.0
  0
LINE
  5
375
330
1E
100
AcDbEntity
  8
0
100
AcDbLine
 10
87.8095
 20
326.0224
 30
0.0
 11
88.4341
 21
325.7234
 31
0.0
  0
LINE
  5
377
330
1E
100
AcDbEntity
  8
0
100
AcDbLine
 10
96.74600000000001
 20
325.0604
 30
0.0
 11
97.23600000000001
 21
326.6154
 31
0.0
  0
LINE
  5
379
330
1E
100
AcDbEntity
  8
0
100
AcDbLine
 10
97.23600000000001
 20
326.6154
 30
0.0
 11
99.0
 21
335.7814
 31
0.0
  0
LINE
  5
37B
330
1E
100
AcDbEntity
  8
0
100
AcDbLine
 10
88.4341
 20
325.7234
 30
0.0
 11
88.6045
 21
325.1924
 31
0.0
  0
LINE
  5
37D
330
1E
100
AcDbEntity
  8
0
100
AcDbLine
 10
88.1958
 20
324.7364
 30
0.0
 11
88.6045
 21
325.1924
 31
0.0
  0
LINE
  5
37E
330
1E
100
AcDbEntity
  8
0
100
AcDbLine
 10
87.46920000000001
 20
324.6113999999999
 30
0.0
 11
88.1958
 21
324.7364
 31
0.0
  0
LINE
  5
380
330
1E
100
AcDbEntity
  8
0
100
AcDbLine
 10
86.79430000000001
 20
320.9144
 30
0.0
 11
86.8359
 21
320.3694
 31
0.0
  0
LINE
  5
382
330
1E
100
AcDbEntity
  8
0
100
AcDbLine
 10
86.32510000000001
 20
319.9723999999999
 30
0.0
 11
86.8359
 21
320.3694
 31
0.0
  0
LINE
  5
383
330
1E
100
AcDbEntity
  8
0
100
AcDbLine
 10
85.5799
 20
319.9413999999999
 30
0.0
 11
86.32510000000001
 21
319.9723999999999
 31
0.0
  0
LINE
  5
385
330
1E
100
AcDbEntity
  8
0
100
AcDbLine
 10
83.94820000000001
 20
315.8444
 30
0.0
 11
84.0366
 21
316.3863999999999
 31
0.0
  0
LINE
  5
386
330
1E
100
AcDbEntity
  8
0
100
AcDbLine
 10
82.60949999999999
 20
315.5823999999999
 30
0.0
 11
83.3506
 21
315.5174
 31
0.0
  0
LINE
  5
388
330
1E
100
AcDbEntity
  8
0
100
AcDbLine
 10
81.2063
 20
327.9414
 30
0.0
 11
81.2063
 21
327.9950241203379
 31
0.0
  0
LINE
  5
389
330
1E
100
AcDbEntity
  8
0
100
AcDbLine
 10
81.2063
 20
327.9950241203379
 30
0.0
 11
81.2063
 21
327.9414
 31
0.0
  0
LINE
  5
38A
330
1E
100
AcDbEntity
  8
0
100
AcDbLine
 10
80.85359999999999
 20
327.4614
 30
0.0
 11
81.2063
 21
327.9414
 31
0.0
  0
LINE
  5
390
330
1E
100
AcDbEntity
  8
0
100
AcDbLine
 10
79.60639999999999
 20
328.5473999999999
 30
0.0
 11
80.31539999999999
 21
328.7174
 31
0.0
  0
LINE
  5
391
330
1E
100
AcDbEntity
  8
0
100
AcDbLine
 10
80.97320000000001
 20
328.4603999999999
 30
0.0
 11
81.2063
 21
327.9414
 31
0.0
  0
LINE
  5
392
330
1E
100
AcDbEntity
  8
0
100
AcDbLine
 10
80.31539999999999
 20
328.7174
 30
0.0
 11
80.97320000000001
 21
328.4603999999999
 31
0.0
  0
LINE
  5
393
330
1E
100
AcDbEntity
  8
0
100
AcDbLine
 10
87.24
 20
330.1664
 30
0.0
 11
87.53399999999999
 21
329.6653999999999
 31
0.0
  0
LINE
  5
395
330
1E
100
AcDbEntity
  8
0
100
AcDbLine
 10
87.24
 20
330.1664
 30
0.0
 11
87.53399999999999
 21
330.6674
 31
0.0
  0
LINE
  5
397
330
1E
100
AcDbEntity
  8
0
100
AcDbLine
 10
87.53399999999999
 20
329.6653999999999
 30
0.0
 11
88.22
 21
329.4503999999999
 31
0.0
  0
LINE
  5
399
330
1E
100
AcDbEntity
  8
0
100
AcDbLine
 10
88.22
 20
329.4503999999999
 30
0.0
 11
88.906
 21
329.6653999999999
 31
0.0
  0
LINE
  5
39C
330
1E
100
AcDbEntity
  8
0
100
AcDbLine
 10
88.906
 20
329.6653999999999
 30
0.0
 11
89.19999999999999
 21
330.1664
 31
0.0
  0
LINE
  5
3A3
330
1E
100
AcDbEntity
  8
0
100
AcDbLine
 10
97.57707502505329
 20
328.3876753285929
 30
0.0
 11
98.23364039288058
 21
330.3811685131429
 31
0.0
  0
LINE
  5
3A4
330
1E
100
AcDbEntity
  8
0
100
AcDbLine
 10
35.2355715026817
 20
300.173942428041
 30
0.0
 11
35.5326
 21
297.5243999999999
 31
0.0
  0
LINE
  5
3A5
330
1E
100
AcDbEntity
  8
0
100
AcDbLine
 10
35.5326
 20
297.5243999999999
 30
0.0
 11
35.7099
 21
293.8983999999999
 31
0.0
  0
LINE
  5
3A6
330
1E
100
AcDbEntity
  8
0
100
AcDbLine
 10
35.2035
 20
249.2744
 30
0.0
 11
35.20739999999999
 21
255.0934
 31
0.0
  0
LINE
  5
3A7
330
1E
100
AcDbEntity
  8
0
100
AcDbLine
 10
35.2035
 20
249.2744
 30
0.0
 11
35.26059999999999
 21
238.2584
 31
0.0
  0
LINE
  5
3A8
330
1E
100
AcDbEntity
  8
0
100
AcDbLine
 10
36.4322
 20
190.3194
 30
0.0
 11
36.5938
 21
189.4324
 31
0.0
  0
LINE
  5
3AA
330
1E
100
AcDbEntity
  8
0
100
AcDbLine
 10
97.87242927288559
 20
329.9223788635309
 30
0.0
 11
97.97620000000001
 21
330.2334
 31
0.0
  0
LINE
  5
3AB
330
1E
100
AcDbEntity
  8
0
100
AcDbLine
 10
1.6711
 20
330.6703999999999
 30
0.0
 11
1.76635960711937
 21
330.3811685131429
 31
0.0
  0
LINE
  5
3AD
330
1E
100
AcDbEntity
  8
0
100
AcDbLine
 10
1.748899999999999
 20
355.0844
 30
0.0
 11
2.5106
 21
356.9053999999999
 31
0.0
  0
LINE
  5
3AE
330
1E
100
AcDbEntity
  8
0
100
AcDbLine
 10
1.248399999999999
 20
340.9304
 30
0.0
 11
1.953899999999999
 21
344.3804
 31
0.0
  0
LINE
  5
3B0
330
1E
100
AcDbEntity
  8
0
100
AcDbLine
 10
12.46599999999999
 20
330.6674
 30
0.0
 11
12.76
 21
330.1664
 31
0.0
  0
LINE
  5
3B2
330
1E
100
AcDbEntity
  8
0
100
AcDbLine
 10
35.71419999999999
 20
331.1474
 30
0.0
 11
36.2706
 21
331.5104
 31
0.0
  0
LINE
  5
3B4
330
1E
100
AcDbEntity
  8
0
100
AcDbLine
 10
11.77999999999999
 20
330.8824
 30
0.0
 11
12.46599999999999
 21
330.6674
 31
0.0
  0
LINE
  5
3B6
330
1E
100
AcDbEntity
  8
0
100
AcDbLine
 10
11.094
 20
330.6674
 30
0.0
 11
11.77999999999999
 21
330.8824
 31
0.0
  0
LINE
  5
3B9
330
1E
100
AcDbEntity
  8
0
100
AcDbLine
 10
19.6846
 20
331.1564
 30
0.0
 11
20.39359999999999
 21
331.3263999999999
 31
0.0
  0
LINE
  5
3BA
330
1E
100
AcDbEntity
  8
0
100
AcDbLine
 10
34.9682
 20
331.1644
 30
0.0
 11
35.71419999999999
 21
331.1474
 31
0.0
  0
LINE
  5
3BB
330
1E
100
AcDbEntity
  8
0
100
AcDbLine
 10
20.39359999999999
 20
331.3263999999999
 30
0.0
 11
20.7463
 21
331.8073999999999
 31
0.0
  0
LINE
  5
3BC
330
1E
100
AcDbEntity
  8
0
100
AcDbLine
 10
19.0268
 20
331.4134
 30
0.0
 11
19.6846
 21
331.1564
 31
0.0
  0
LINE
  5
3BE
330
1E
100
AcDbEntity
  8
0
100
AcDbLine
 10
36.2706
 20
331.5104
 30
0.0
 11
36.294
 21
332.0554
 31
0.0
  0
LINE
  5
3BF
330
1E
100
AcDbEntity
  8
0
100
AcDbLine
 10
34.4707
 20
331.5704
 30
0.0
 11
34.49419999999999
 21
332.1154
 31
0.0
  0
LINE
  5
3C0
330
1E
100
AcDbEntity
  8
0
100
AcDbLine
 10
34.4707
 20
331.5704
 30
0.0
 11
34.9682
 21
331.1644
 31
0.0
  0
LINE
  5
3C5
330
1E
100
AcDbEntity
  8
0
100
AcDbLine
 10
18.7937
 20
331.9313999999999
 30
0.0
 11
19.0268
 21
331.4134
 31
0.0
  0
LINE
  5
3C7
330
1E
100
AcDbEntity
  8
0
100
AcDbLine
 10
18.7937
 20
331.9313999999999
 30
0.0
 11
19.1464
 21
332.4123999999999
 31
0.0
  0
LINE
  5
3C9
330
1E
100
AcDbEntity
  8
0
100
AcDbLine
 10
28.3929
 20
331.9824
 30
0.0
 11
28.8015
 21
332.4393999999999
 31
0.0
  0
LINE
  5
3CA
330
1E
100
AcDbEntity
  8
0
100
AcDbLine
 10
27.6663
 20
331.8584
 30
0.0
 11
28.3929
 21
331.9824
 31
0.0
  0
LINE
  5
3CE
330
1E
100
AcDbEntity
  8
0
100
AcDbLine
 10
63.72939999999999
 20
331.5104
 30
0.0
 11
64.2858
 21
331.1474
 31
0.0
  0
LINE
  5
3CF
330
1E
100
AcDbEntity
  8
0
100
AcDbLine
 10
64.2858
 20
331.1474
 30
0.0
 11
65.0318
 21
331.1644
 31
0.0
  0
LINE
  5
3D0
330
1E
100
AcDbEntity
  8
0
100
AcDbLine
 10
65.0318
 20
331.1644
 30
0.0
 11
65.5293
 21
331.5704
 31
0.0
  0
LINE
  5
3D2
330
1E
100
AcDbEntity
  8
0
100
AcDbLine
 10
27.04169999999999
 20
332.1564
 30
0.0
 11
27.6663
 21
331.8584
 31
0.0
  0
LINE
  5
3D3
330
1E
100
AcDbEntity
  8
0
100
AcDbLine
 10
34.49419999999999
 20
332.1154
 30
0.0
 11
35.0506
 21
332.4794
 31
0.0
  0
LINE
  5
3D5
330
1E
100
AcDbEntity
  8
0
100
AcDbLine
 10
63.706
 20
332.0554
 30
0.0
 11
63.72939999999999
 21
331.5104
 31
0.0
  0
LINE
  5
3D6
330
1E
100
AcDbEntity
  8
0
100
AcDbLine
 10
63.706
 20
332.0554
 30
0.0
 11
64.2035
 21
332.4624
 31
0.0
  0
LINE
  5
3D8
330
1E
100
AcDbEntity
  8
0
100
AcDbLine
 10
65.5058
 20
332.1154
 30
0.0
 11
65.5293
 21
331.5704
 31
0.0
  0
LINE
  5
3DA
330
1E
100
AcDbEntity
  8
0
100
AcDbLine
 10
71.6071
 20
331.9824
 30
0.0
 11
72.33369999999999
 21
331.8584
 31
0.0
  0
LINE
  5
3DB
330
1E
100
AcDbEntity
  8
0
100
AcDbLine
 10
72.33369999999999
 20
331.8584
 30
0.0
 11
72.95829999999999
 21
332.1564
 31
0.0
  0
LINE
  5
3DC
330
1E
100
AcDbEntity
  8
0
100
AcDbLine
 10
20.5132
 20
332.3253999999999
 30
0.0
 11
20.7463
 21
331.8073999999999
 31
0.0
  0
LINE
  5
3DE
330
1E
100
AcDbEntity
  8
0
100
AcDbLine
 10
19.1464
 20
332.4123999999999
 30
0.0
 11
19.8554
 21
332.5824
 31
0.0
  0
LINE
  5
3E0
330
1E
100
AcDbEntity
  8
0
100
AcDbLine
 10
35.7965
 20
332.4624
 30
0.0
 11
36.294
 21
332.0554
 31
0.0
  0
LINE
  5
3E2
330
1E
100
AcDbEntity
  8
0
100
AcDbLine
 10
19.8554
 20
332.5824
 30
0.0
 11
20.5132
 21
332.3253999999999
 31
0.0
  0
LINE
  5
3E3
330
1E
100
AcDbEntity
  8
0
100
AcDbLine
 10
26.8713
 20
332.6874
 30
0.0
 11
27.28
 21
333.1444
 31
0.0
  0
LINE
  5
3E4
330
1E
100
AcDbEntity
  8
0
100
AcDbLine
 10
26.8713
 20
332.6874
 30
0.0
 11
27.04169999999999
 21
332.1564
 31
0.0
  0
LINE
  5
3E6
330
1E
100
AcDbEntity
  8
0
100
AcDbLine
 10
35.0506
 20
332.4794
 30
0.0
 11
35.7965
 21
332.4624
 31
0.0
  0
LINE
  5
3E9
330
1E
100
AcDbEntity
  8
0
100
AcDbLine
 10
64.94939999999999
 20
332.4794
 30
0.0
 11
65.5058
 21
332.1154
 31
0.0
  0
LINE
  5
3EB
330
1E
100
AcDbEntity
  8
0
100
AcDbLine
 10
64.2035
 20
332.4624
 30
0.0
 11
64.94939999999999
 21
332.4794
 31
0.0
  0
LINE
  5
3ED
330
1E
100
AcDbEntity
  8
0
100
AcDbLine
 10
71.19849999999999
 20
332.4393999999999
 30
0.0
 11
71.6071
 21
331.9824
 31
0.0
  0
LINE
  5
3EE
330
1E
100
AcDbEntity
  8
0
100
AcDbLine
 10
71.19849999999999
 20
332.4393999999999
 30
0.0
 11
71.3689
 21
332.9703999999999
 31
0.0
  0
LINE
  5
3EF
330
1E
100
AcDbEntity
  8
0
100
AcDbLine
 10
72.95829999999999
 20
332.1564
 30
0.0
 11
73.1287
 21
332.6874
 31
0.0
  0
LINE
  5
3F1
330
1E
100
AcDbEntity
  8
0
100
AcDbLine
 10
87.53399999999999
 20
330.6674
 30
0.0
 11
88.22
 21
330.8824
 31
0.0
  0
LINE
  5
3F3
330
1E
100
AcDbEntity
  8
0
100
AcDbLine
 10
88.906
 20
330.6674
 30
0.0
 11
89.19999999999999
 21
330.1664
 31
0.0
  0
LINE
  5
3F5
330
1E
100
AcDbEntity
  8
0
100
AcDbLine
 10
79.60639999999999
 20
331.3263999999999
 30
0.0
 11
80.31539999999999
 21
331.1564
 31
0.0
  0
LINE
  5
3F7
330
1E
100
AcDbEntity
  8
0
100
AcDbLine
 10
80.31539999999999
 20
331.1564
 30
0.0
 11
80.97320000000001
 21
331.4134
 31
0.0
  0
LINE
  5
3F8
330
1E
100
AcDbEntity
  8
0
100
AcDbLine
 10
80.97320000000001
 20
331.4134
 30
0.0
 11
81.2063
 21
331.9313999999999
 31
0.0
  0
LINE
  5
3FB
330
1E
100
AcDbEntity
  8
0
100
AcDbLine
 10
79.4868
 20
332.3253999999999
 30
0.0
 11
80.14459999999999
 21
332.5824
 31
0.0
  0
LINE
  5
3FC
330
1E
100
AcDbEntity
  8
0
100
AcDbLine
 10
79.2537
 20
331.8073999999999
 30
0.0
 11
79.60639999999999
 21
331.3263999999999
 31
0.0
  0
LINE
  5
3FE
330
1E
100
AcDbEntity
  8
0
100
AcDbLine
 10
79.2537
 20
331.8073999999999
 30
0.0
 11
79.4868
 21
332.3253999999999
 31
0.0
  0
LINE
  5
400
330
1E
100
AcDbEntity
  8
0
100
AcDbLine
 10
80.14459999999999
 20
332.5824
 30
0.0
 11
80.85359999999999
 21
332.4123999999999
 31
0.0
  0
LINE
  5
403
330
1E
100
AcDbEntity
  8
0
100
AcDbLine
 10
80.85359999999999
 20
332.4123999999999
 30
0.0
 11
81.2063
 21
331.9313999999999
 31
0.0
  0
LINE
  5
40B
330
1E
100
AcDbEntity
  8
0
100
AcDbLine
 10
88.22
 20
330.8824
 30
0.0
 11
88.906
 21
330.6674
 31
0.0
  0
LINE
  5
417
330
1E
100
AcDbEntity
  8
0
100
AcDbLine
 10
12.9171
 20
334.4354
 30
0.0
 11
13.3258
 21
334.8913999999999
 31
0.0
  0
LINE
  5
418
330
1E
100
AcDbEntity
  8
0
100
AcDbLine
 10
12.1905
 20
334.3104
 30
0.0
 11
12.9171
 21
334.4354
 31
0.0
  0
LINE
  5
419
330
1E
100
AcDbEntity
  8
0
100
AcDbLine
 10
13.1553
 20
335.4223999999999
 30
0.0
 11
13.3258
 21
334.8913999999999
 31
0.0
  0
LINE
  5
41A
330
1E
100
AcDbEntity
  8
0
100
AcDbLine
 10
11.5659
 20
334.6093999999999
 30
0.0
 11
12.1905
 21
334.3104
 31
0.0
  0
LINE
  5
41B
330
1E
100
AcDbEntity
  8
0
100
AcDbLine
 10
11.3955
 20
335.1404
 30
0.0
 11
11.8042
 21
335.5964
 31
0.0
  0
LINE
  5
41C
330
1E
100
AcDbEntity
  8
0
100
AcDbLine
 10
11.3955
 20
335.1404
 30
0.0
 11
11.5659
 21
334.6093999999999
 31
0.0
  0
LINE
  5
41E
330
1E
100
AcDbEntity
  8
0
100
AcDbLine
 10
12.53079999999999
 20
335.7214
 30
0.0
 11
13.1553
 21
335.4223999999999
 31
0.0
  0
LINE
  5
420
330
1E
100
AcDbEntity
  8
0
100
AcDbLine
 10
11.8042
 20
335.5964
 30
0.0
 11
12.53079999999999
 21
335.7214
 31
0.0
  0
LINE
  5
423
330
1E
100
AcDbEntity
  8
0
100
AcDbLine
 10
21.1736
 20
335.0614
 30
0.0
 11
21.6351
 21
335.4904
 31
0.0
  0
LINE
  5
424
330
1E
100
AcDbEntity
  8
0
100
AcDbLine
 10
20.43489999999999
 20
334.9844
 30
0.0
 11
21.1736
 21
335.0614
 31
0.0
  0
LINE
  5
425
330
1E
100
AcDbEntity
  8
0
100
AcDbLine
 10
21.6351
 20
335.4904
 30
0.0
 11
21.6351
 21
335.9680117250669
 31
0.0
  0
LINE
  5
426
330
1E
100
AcDbEntity
  8
0
100
AcDbLine
 10
19.84829999999999
 20
335.3213999999999
 30
0.0
 11
20.43489999999999
 21
334.9844
 31
0.0
  0
LINE
  5
427
330
1E
100
AcDbEntity
  8
0
100
AcDbLine
 10
19.7419
 20
335.8614
 30
0.0
 11
20.2034
 21
336.2894
 31
0.0
  0
LINE
  5
428
330
1E
100
AcDbEntity
  8
0
100
AcDbLine
 10
19.7419
 20
335.8614
 30
0.0
 11
19.84829999999999
 21
335.3213999999999
 31
0.0
  0
LINE
  5
435
330
1E
100
AcDbEntity
  8
0
100
AcDbLine
 10
13.2057
 20
339.4184
 30
0.0
 11
13.7498
 21
339.0453999999999
 31
0.0
  0
LINE
  5
438
330
1E
100
AcDbEntity
  8
0
100
AcDbLine
 10
13.164
 20
339.9633999999999
 30
0.0
 11
13.6749
 21
340.3604
 31
0.0
  0
LINE
  5
439
330
1E
100
AcDbEntity
  8
0
100
AcDbLine
 10
13.164
 20
339.9633999999999
 30
0.0
 11
13.2057
 21
339.4184
 31
0.0
  0
LINE
  5
43C
330
1E
100
AcDbEntity
  8
0
100
AcDbLine
 10
14.42009999999999
 20
340.3913999999999
 30
0.0
 11
14.9642
 21
340.0183999999999
 31
0.0
  0
LINE
  5
43E
330
1E
100
AcDbEntity
  8
0
100
AcDbLine
 10
14.9642
 20
340.0183999999999
 30
0.0
 11
15.0058
 21
339.4734
 31
0.0
  0
LINE
  5
43F
330
1E
100
AcDbEntity
  8
0
100
AcDbLine
 10
14.49489999999999
 20
339.0754
 30
0.0
 11
15.0058
 21
339.4734
 31
0.0
  0
LINE
  5
440
330
1E
100
AcDbEntity
  8
0
100
AcDbLine
 10
13.7498
 20
339.0453999999999
 30
0.0
 11
14.49489999999999
 21
339.0754
 31
0.0
  0
LINE
  5
441
330
1E
100
AcDbEntity
  8
0
100
AcDbLine
 10
13.6749
 20
340.3604
 30
0.0
 11
14.42009999999999
 21
340.3913999999999
 31
0.0
  0
LINE
  5
443
330
1E
100
AcDbEntity
  8
0
100
AcDbLine
 10
15.9634
 20
343.9464
 30
0.0
 11
16.0518
 21
344.4884
 31
0.0
  0
LINE
  5
444
330
1E
100
AcDbEntity
  8
0
100
AcDbLine
 10
15.9634
 20
343.9464
 30
0.0
 11
16.41049999999999
 21
343.5103999999999
 31
0.0
  0
LINE
  5
447
330
1E
100
AcDbEntity
  8
0
100
AcDbLine
 10
20.2034
 20
336.2894
 30
0.0
 11
20.94219999999999
 21
336.3673999999999
 31
0.0
  0
LINE
  5
448
330
1E
100
AcDbEntity
  8
0
100
AcDbLine
 10
17.1516
 20
343.4454
 30
0.0
 11
17.74919999999999
 21
343.7724
 31
0.0
  0
LINE
  5
449
330
1E
100
AcDbEntity
  8
0
100
AcDbLine
 10
17.39049999999999
 20
344.7504
 30
0.0
 11
17.8376
 21
344.3134
 31
0.0
  0
LINE
  5
44C
330
1E
100
AcDbEntity
  8
0
100
AcDbLine
 10
17.74919999999999
 20
343.7724
 30
0.0
 11
17.8376
 21
344.3134
 31
0.0
  0
LINE
  5
44D
330
1E
100
AcDbEntity
  8
0
100
AcDbLine
 10
16.41049999999999
 20
343.5103999999999
 30
0.0
 11
17.1516
 21
343.4454
 31
0.0
  0
LINE
  5
44E
330
1E
100
AcDbEntity
  8
0
100
AcDbLine
 10
16.0518
 20
344.4884
 30
0.0
 11
16.6494
 21
344.8154
 31
0.0
  0
LINE
  5
455
330
1E
100
AcDbEntity
  8
0
100
AcDbLine
 10
16.6494
 20
344.8154
 30
0.0
 11
17.39049999999999
 21
344.7504
 31
0.0
  0
LINE
  5
457
330
1E
100
AcDbEntity
  8
0
100
AcDbLine
 10
20.94219999999999
 20
336.3673999999999
 30
0.0
 11
21.5287
 21
336.0303999999999
 31
0.0
  0
LINE
  5
458
330
1E
100
AcDbEntity
  8
0
100
AcDbLine
 10
21.58599999999999
 20
339.0654
 30
0.0
 11
21.6095
 21
339.6104
 31
0.0
  0
LINE
  5
459
330
1E
100
AcDbEntity
  8
0
100
AcDbLine
 10
21.58599999999999
 20
339.0654
 30
0.0
 11
22.0835
 21
338.6583999999999
 31
0.0
  0
LINE
  5
45A
330
1E
100
AcDbEntity
  8
0
100
AcDbLine
 10
22.8295
 20
338.6413999999999
 30
0.0
 11
23.38579999999999
 21
339.0054
 31
0.0
  0
LINE
  5
45B
330
1E
100
AcDbEntity
  8
0
100
AcDbLine
 10
22.9118
 20
339.9563999999999
 30
0.0
 11
23.4093
 21
339.5504
 31
0.0
  0
LINE
  5
45C
330
1E
100
AcDbEntity
  8
0
100
AcDbLine
 10
23.38579999999999
 20
339.0054
 30
0.0
 11
23.4093
 21
339.5504
 31
0.0
  0
LINE
  5
45D
330
1E
100
AcDbEntity
  8
0
100
AcDbLine
 10
22.0835
 20
338.6583999999999
 30
0.0
 11
22.8295
 21
338.6413999999999
 31
0.0
  0
LINE
  5
45E
330
1E
100
AcDbEntity
  8
0
100
AcDbLine
 10
21.6095
 20
339.6104
 30
0.0
 11
22.16579999999999
 21
339.9744
 31
0.0
  0
LINE
  5
45F
330
1E
100
AcDbEntity
  8
0
100
AcDbLine
 10
22.16579999999999
 20
339.9744
 30
0.0
 11
22.9118
 21
339.9563999999999
 31
0.0
  0
LINE
  5
460
330
1E
100
AcDbEntity
  8
0
100
AcDbLine
 10
21.5287
 20
336.0303999999999
 30
0.0
 11
21.6351
 21
335.4904
 31
0.0
  0
LINE
  5
461
330
1E
100
AcDbEntity
  8
0
100
AcDbLine
 10
24.18699999999999
 20
342.5323999999999
 30
0.0
 11
24.3397
 21
343.0654
 31
0.0
  0
LINE
  5
462
330
1E
100
AcDbEntity
  8
0
100
AcDbLine
 10
24.18699999999999
 20
342.5323999999999
 30
0.0
 11
24.5803
 21
342.0684
 31
0.0
  0
LINE
  5
463
330
1E
100
AcDbEntity
  8
0
100
AcDbLine
 10
25.3109
 20
341.9574
 30
0.0
 11
25.9452
 21
342.2444
 31
0.0
  0
LINE
  5
464
330
1E
100
AcDbEntity
  8
0
100
AcDbLine
 10
25.7045
 20
343.2414
 30
0.0
 11
26.0978
 21
342.7783999999999
 31
0.0
  0
LINE
  5
466
330
1E
100
AcDbEntity
  8
0
100
AcDbLine
 10
25.9452
 20
342.2444
 30
0.0
 11
26.0978
 21
342.7783999999999
 31
0.0
  0
LINE
  5
467
330
1E
100
AcDbEntity
  8
0
100
AcDbLine
 10
24.5803
 20
342.0684
 30
0.0
 11
25.3109
 21
341.9574
 31
0.0
  0
LINE
  5
468
330
1E
100
AcDbEntity
  8
0
100
AcDbLine
 10
24.3397
 20
343.0654
 30
0.0
 11
24.974
 21
343.3534
 31
0.0
  0
LINE
  5
46D
330
1E
100
AcDbEntity
  8
0
100
AcDbLine
 10
24.974
 20
343.3534
 30
0.0
 11
25.7045
 21
343.2414
 31
0.0
  0
LINE
  5
46F
330
1E
100
AcDbEntity
  8
0
100
AcDbLine
 10
20.8063
 20
347.4114
 30
0.0
 11
21.4725
 21
347.6573999999999
 31
0.0
  0
LINE
  5
470
330
1E
100
AcDbEntity
  8
0
100
AcDbLine
 10
21.4725
 20
347.6573999999999
 30
0.0
 11
21.68819999999999
 21
348.1793999999999
 31
0.0
  0
LINE
  5
471
330
1E
100
AcDbEntity
  8
0
100
AcDbLine
 10
20.09189999999999
 20
347.5693999999999
 30
0.0
 11
20.8063
 21
347.4114
 31
0.0
  0
LINE
  5
474
330
1E
100
AcDbEntity
  8
0
100
AcDbLine
 10
21.6351
 20
335.9680117250669
 30
0.0
 11
21.6351
 21
335.4904
 31
0.0
  0
LINE
  5
475
330
1E
100
AcDbEntity
  8
0
100
AcDbLine
 10
28.6311
 20
332.9703999999999
 30
0.0
 11
28.8015
 21
332.4393999999999
 31
0.0
  0
LINE
  5
477
330
1E
100
AcDbEntity
  8
0
100
AcDbLine
 10
28.0066
 20
333.2683999999999
 30
0.0
 11
28.6311
 21
332.9703999999999
 31
0.0
  0
LINE
  5
478
330
1E
100
AcDbEntity
  8
0
100
AcDbLine
 10
27.28
 20
333.1444
 30
0.0
 11
28.0066
 21
333.2683999999999
 31
0.0
  0
LINE
  5
47B
330
1E
100
AcDbEntity
  8
0
100
AcDbLine
 10
38.30919999999999
 20
336.0424
 30
0.0
 11
39.0022
 21
335.8394
 31
0.0
  0
LINE
  5
47C
330
1E
100
AcDbEntity
  8
0
100
AcDbLine
 10
30.7608
 20
337.2454
 30
0.0
 11
31.35839999999999
 21
337.5724
 31
0.0
  0
LINE
  5
47D
330
1E
100
AcDbEntity
  8
0
100
AcDbLine
 10
38.032
 20
336.5484
 30
0.0
 11
38.30919999999999
 21
337.0543999999999
 31
0.0
  0
LINE
  5
47E
330
1E
100
AcDbEntity
  8
0
100
AcDbLine
 10
38.032
 20
336.5484
 30
0.0
 11
38.30919999999999
 21
336.0424
 31
0.0
  0
LINE
  5
47F
330
1E
100
AcDbEntity
  8
0
100
AcDbLine
 10
39.69509999999999
 20
337.0543999999999
 30
0.0
 11
39.9723
 21
336.5484
 31
0.0
  0
LINE
  5
482
330
1E
100
AcDbEntity
  8
0
100
AcDbLine
 10
39.69509999999999
 20
336.0424
 30
0.0
 11
39.9723
 21
336.5484
 31
0.0
  0
LINE
  5
483
330
1E
100
AcDbEntity
  8
0
100
AcDbLine
 10
39.0022
 20
335.8394
 30
0.0
 11
39.69509999999999
 21
336.0424
 31
0.0
  0
LINE
  5
484
330
1E
100
AcDbEntity
  8
0
100
AcDbLine
 10
38.30919999999999
 20
337.0543999999999
 30
0.0
 11
39.0022
 21
337.2574
 31
0.0
  0
LINE
  5
485
330
1E
100
AcDbEntity
  8
0
100
AcDbLine
 10
29.5726
 20
337.7463999999999
 30
0.0
 11
29.66099999999999
 21
338.2884
 31
0.0
  0
LINE
  5
486
330
1E
100
AcDbEntity
  8
0
100
AcDbLine
 10
29.5726
 20
337.7463999999999
 30
0.0
 11
30.0197
 21
337.3104
 31
0.0
  0
LINE
  5
488
330
1E
100
AcDbEntity
  8
0
100
AcDbLine
 10
30.9997
 20
338.5504
 30
0.0
 11
31.4468
 21
338.1134
 31
0.0
  0
LINE
  5
489
330
1E
100
AcDbEntity
  8
0
100
AcDbLine
 10
31.4468
 20
338.1134
 30
0.0
 11
31.4468
 21
338.347057478334
 31
0.0
  0
LINE
  5
48A
330
1E
100
AcDbEntity
  8
0
100
AcDbLine
 10
31.4468
 20
338.347057478334
 30
0.0
 11
31.4468
 21
338.1134
 31
0.0
  0
LINE
  5
48B
330
1E
100
AcDbEntity
  8
0
100
AcDbLine
 10
31.35839999999999
 20
337.5724
 30
0.0
 11
31.4468
 21
338.1134
 31
0.0
  0
LINE
  5
48C
330
1E
100
AcDbEntity
  8
0
100
AcDbLine
 10
30.0197
 20
337.3104
 30
0.0
 11
30.7608
 21
337.2454
 31
0.0
  0
LINE
  5
48D
330
1E
100
AcDbEntity
  8
0
100
AcDbLine
 10
29.66099999999999
 20
338.2884
 30
0.0
 11
30.2586
 21
338.6154
 31
0.0
  0
LINE
  5
491
330
1E
100
AcDbEntity
  8
0
100
AcDbLine
 10
30.2586
 20
338.689283659491
 30
0.0
 11
30.2586
 21
338.6154
 31
0.0
  0
LINE
  5
492
330
1E
100
AcDbEntity
  8
0
100
AcDbLine
 10
30.2586
 20
338.6154
 30
0.0
 11
30.9997
 21
338.5504
 31
0.0
  0
LINE
  5
493
330
1E
100
AcDbEntity
  8
0
100
AcDbLine
 10
30.2586
 20
338.6154
 30
0.0
 11
30.2586
 21
338.689283659491
 31
0.0
  0
LINE
  5
497
330
1E
100
AcDbEntity
  8
0
100
AcDbLine
 10
39.0022
 20
337.2574
 30
0.0
 11
39.69509999999999
 21
337.0543999999999
 31
0.0
  0
LINE
  5
499
330
1E
100
AcDbEntity
  8
0
100
AcDbLine
 10
42.9952
 20
338.3474
 30
0.0
 11
43.7412
 21
338.3643999999999
 31
0.0
  0
LINE
  5
49A
330
1E
100
AcDbEntity
  8
0
100
AcDbLine
 10
42.43879999999999
 20
338.7103999999999
 30
0.0
 11
42.9952
 21
338.3474
 31
0.0
  0
LINE
  5
49B
330
1E
100
AcDbEntity
  8
0
100
AcDbLine
 10
42.41539999999999
 20
339.2554
 30
0.0
 11
42.91279999999999
 21
339.6624
 31
0.0
  0
LINE
  5
49C
330
1E
100
AcDbEntity
  8
0
100
AcDbLine
 10
42.41539999999999
 20
339.2554
 30
0.0
 11
42.43879999999999
 21
338.7103999999999
 31
0.0
  0
LINE
  5
4A0
330
1E
100
AcDbEntity
  8
0
100
AcDbLine
 10
42.91279999999999
 20
339.6624
 30
0.0
 11
43.65879999999999
 21
339.6793999999999
 31
0.0
  0
LINE
  5
4A2
330
1E
100
AcDbEntity
  8
0
100
AcDbLine
 10
49.3015
 20
339.6664
 30
0.0
 11
50.0105
 21
339.4963999999999
 31
0.0
  0
LINE
  5
4A3
330
1E
100
AcDbEntity
  8
0
100
AcDbLine
 10
48.9488
 20
340.1474
 30
0.0
 11
49.1819
 21
340.6653999999999
 31
0.0
  0
LINE
  5
4A4
330
1E
100
AcDbEntity
  8
0
100
AcDbLine
 10
48.9488
 20
340.1474
 30
0.0
 11
49.3015
 21
339.6664
 31
0.0
  0
LINE
  5
4A5
330
1E
100
AcDbEntity
  8
0
100
AcDbLine
 10
49.1819
 20
340.6653999999999
 30
0.0
 11
49.8397
 21
340.9234
 31
0.0
  0
LINE
  5
4A6
330
1E
100
AcDbEntity
  8
0
100
AcDbLine
 10
44.2152
 20
339.3154
 30
0.0
 11
44.23869999999999
 21
338.7703999999999
 31
0.0
  0
LINE
  5
4A8
330
1E
100
AcDbEntity
  8
0
100
AcDbLine
 10
43.7412
 20
338.3643999999999
 30
0.0
 11
44.23869999999999
 21
338.7703999999999
 31
0.0
  0
LINE
  5
4A9
330
1E
100
AcDbEntity
  8
0
100
AcDbLine
 10
43.65879999999999
 20
339.6793999999999
 30
0.0
 11
44.2152
 21
339.3154
 31
0.0
  0
LINE
  5
4AB
330
1E
100
AcDbEntity
  8
0
100
AcDbLine
 10
36.16369999999999
 20
341.7564
 30
0.0
 11
36.5002
 21
342.2433999999999
 31
0.0
  0
LINE
  5
4AC
330
1E
100
AcDbEntity
  8
0
100
AcDbLine
 10
35.44919999999999
 20
341.5993999999999
 30
0.0
 11
36.16369999999999
 21
341.7564
 31
0.0
  0
LINE
  5
4AD
330
1E
100
AcDbEntity
  8
0
100
AcDbLine
 10
36.2845
 20
342.7653999999999
 30
0.0
 11
36.5002
 21
342.2433999999999
 31
0.0
  0
LINE
  5
4AE
330
1E
100
AcDbEntity
  8
0
100
AcDbLine
 10
34.783
 20
341.8454
 30
0.0
 11
35.44919999999999
 21
341.5993999999999
 31
0.0
  0
LINE
  5
4AF
330
1E
100
AcDbEntity
  8
0
100
AcDbLine
 10
34.5673
 20
342.3673999999999
 30
0.0
 11
34.9038
 21
342.8544
 31
0.0
  0
LINE
  5
4B0
330
1E
100
AcDbEntity
  8
0
100
AcDbLine
 10
34.5673
 20
342.3673999999999
 30
0.0
 11
34.783
 21
341.8454
 31
0.0
  0
LINE
  5
4B1
330
1E
100
AcDbEntity
  8
0
100
AcDbLine
 10
34.9038
 20
342.8544
 30
0.0
 11
35.6183
 21
343.0113999999999
 31
0.0
  0
LINE
  5
4B2
330
1E
100
AcDbEntity
  8
0
100
AcDbLine
 10
49.8397
 20
340.9234
 30
0.0
 11
50.5487
 21
340.7524
 31
0.0
  0
LINE
  5
4B7
330
1E
100
AcDbEntity
  8
0
100
AcDbLine
 10
71.3689
 20
332.9703999999999
 30
0.0
 11
71.99339999999999
 21
333.2683999999999
 31
0.0
  0
LINE
  5
4B8
330
1E
100
AcDbEntity
  8
0
100
AcDbLine
 10
72.72
 20
333.1444
 30
0.0
 11
73.1287
 21
332.6874
 31
0.0
  0
LINE
  5
4B9
330
1E
100
AcDbEntity
  8
0
100
AcDbLine
 10
71.99339999999999
 20
333.2683999999999
 30
0.0
 11
72.72
 21
333.1444
 31
0.0
  0
LINE
  5
4BB
330
1E
100
AcDbEntity
  8
0
100
AcDbLine
 10
79.5651
 20
334.9844
 30
0.0
 11
80.15170000000001
 21
335.3213999999999
 31
0.0
  0
LINE
  5
4BC
330
1E
100
AcDbEntity
  8
0
100
AcDbLine
 10
86.67419999999999
 20
334.8913999999999
 30
0.0
 11
87.08289999999999
 21
334.4354
 31
0.0
  0
LINE
  5
4BD
330
1E
100
AcDbEntity
  8
0
100
AcDbLine
 10
86.67419999999999
 20
334.8913999999999
 30
0.0
 11
86.84470000000001
 21
335.4223999999999
 31
0.0
  0
LINE
  5
4BE
330
1E
100
AcDbEntity
  8
0
100
AcDbLine
 10
87.08289999999999
 20
334.4354
 30
0.0
 11
87.8095
 21
334.3104
 31
0.0
  0
LINE
  5
4BF
330
1E
100
AcDbEntity
  8
0
100
AcDbLine
 10
87.8095
 20
334.3104
 30
0.0
 11
88.4341
 21
334.6093999999999
 31
0.0
  0
LINE
  5
4C0
330
1E
100
AcDbEntity
  8
0
100
AcDbLine
 10
88.4341
 20
334.6093999999999
 30
0.0
 11
88.6045
 21
335.1404
 31
0.0
  0
LINE
  5
4C3
330
1E
100
AcDbEntity
  8
0
100
AcDbLine
 10
55.7613
 20
338.7703999999999
 30
0.0
 11
56.2588
 21
338.3643999999999
 31
0.0
  0
LINE
  5
4C4
330
1E
100
AcDbEntity
  8
0
100
AcDbLine
 10
55.7613
 20
338.7703999999999
 30
0.0
 11
55.78479999999999
 21
339.3154
 31
0.0
  0
LINE
  5
4C5
330
1E
100
AcDbEntity
  8
0
100
AcDbLine
 10
56.2588
 20
338.3643999999999
 30
0.0
 11
57.0048
 21
338.3474
 31
0.0
  0
LINE
  5
4C6
330
1E
100
AcDbEntity
  8
0
100
AcDbLine
 10
57.0048
 20
338.3474
 30
0.0
 11
57.5612
 21
338.7103999999999
 31
0.0
  0
LINE
  5
4C9
330
1E
100
AcDbEntity
  8
0
100
AcDbLine
 10
60.0277
 20
336.5484
 30
0.0
 11
60.3049
 21
336.0424
 31
0.0
  0
LINE
  5
4CA
330
1E
100
AcDbEntity
  8
0
100
AcDbLine
 10
60.0277
 20
336.5484
 30
0.0
 11
60.3049
 21
337.0543999999999
 31
0.0
  0
LINE
  5
4CC
330
1E
100
AcDbEntity
  8
0
100
AcDbLine
 10
60.3049
 20
336.0424
 30
0.0
 11
60.99779999999999
 21
335.8394
 31
0.0
  0
LINE
  5
4CD
330
1E
100
AcDbEntity
  8
0
100
AcDbLine
 10
60.99779999999999
 20
335.8394
 30
0.0
 11
61.69080000000001
 21
336.0424
 31
0.0
  0
LINE
  5
4CE
330
1E
100
AcDbEntity
  8
0
100
AcDbLine
 10
61.69080000000001
 20
336.0424
 30
0.0
 11
61.968
 21
336.5484
 31
0.0
  0
LINE
  5
4CF
330
1E
100
AcDbEntity
  8
0
100
AcDbLine
 10
61.69080000000001
 20
337.0543999999999
 30
0.0
 11
61.968
 21
336.5484
 31
0.0
  0
LINE
  5
4D1
330
1E
100
AcDbEntity
  8
0
100
AcDbLine
 10
60.99779999999999
 20
337.2574
 30
0.0
 11
61.69080000000001
 21
337.0543999999999
 31
0.0
  0
LINE
  5
4D3
330
1E
100
AcDbEntity
  8
0
100
AcDbLine
 10
60.3049
 20
337.0543999999999
 30
0.0
 11
60.99779999999999
 21
337.2574
 31
0.0
  0
LINE
  5
4D6
330
1E
100
AcDbEntity
  8
0
100
AcDbLine
 10
57.5612
 20
338.7103999999999
 30
0.0
 11
57.5846
 21
339.2554
 31
0.0
  0
LINE
  5
4D7
330
1E
100
AcDbEntity
  8
0
100
AcDbLine
 10
50.6683
 20
339.7543999999999
 30
0.0
 11
50.9014
 21
340.2724
 31
0.0
  0
LINE
  5
4D8
330
1E
100
AcDbEntity
  8
0
100
AcDbLine
 10
50.0105
 20
339.4963999999999
 30
0.0
 11
50.6683
 21
339.7543999999999
 31
0.0
  0
LINE
  5
4DA
330
1E
100
AcDbEntity
  8
0
100
AcDbLine
 10
50.5487
 20
340.7524
 30
0.0
 11
50.9014
 21
340.2724
 31
0.0
  0
LINE
  5
4DC
330
1E
100
AcDbEntity
  8
0
100
AcDbLine
 10
63.4998
 20
342.2433999999999
 30
0.0
 11
63.8363
 21
341.7564
 31
0.0
  0
LINE
  5
4DD
330
1E
100
AcDbEntity
  8
0
100
AcDbLine
 10
63.4998
 20
342.2433999999999
 30
0.0
 11
63.7155
 21
342.7653999999999
 31
0.0
  0
LINE
  5
4DE
330
1E
100
AcDbEntity
  8
0
100
AcDbLine
 10
63.8363
 20
341.7564
 30
0.0
 11
64.55079999999999
 21
341.5993999999999
 31
0.0
  0
LINE
  5
4DF
330
1E
100
AcDbEntity
  8
0
100
AcDbLine
 10
64.55079999999999
 20
341.5993999999999
 30
0.0
 11
65.217
 21
341.8454
 31
0.0
  0
LINE
  5
4E0
330
1E
100
AcDbEntity
  8
0
100
AcDbLine
 10
65.217
 20
341.8454
 30
0.0
 11
65.43269999999999
 21
342.3673999999999
 31
0.0
  0
LINE
  5
4E1
330
1E
100
AcDbEntity
  8
0
100
AcDbLine
 10
65.09619999999999
 20
342.8544
 30
0.0
 11
65.43269999999999
 21
342.3673999999999
 31
0.0
  0
LINE
  5
4E2
330
1E
100
AcDbEntity
  8
0
100
AcDbLine
 10
63.7155
 20
342.7653999999999
 30
0.0
 11
64.38169999999999
 21
343.0113999999999
 31
0.0
  0
LINE
  5
4E4
330
1E
100
AcDbEntity
  8
0
100
AcDbLine
 10
57.08709999999999
 20
339.6624
 30
0.0
 11
57.5846
 21
339.2554
 31
0.0
  0
LINE
  5
4E5
330
1E
100
AcDbEntity
  8
0
100
AcDbLine
 10
56.3412
 20
339.6793999999999
 30
0.0
 11
57.08709999999999
 21
339.6624
 31
0.0
  0
LINE
  5
4E7
330
1E
100
AcDbEntity
  8
0
100
AcDbLine
 10
55.78479999999999
 20
339.3154
 30
0.0
 11
56.3412
 21
339.6793999999999
 31
0.0
  0
LINE
  5
4E9
330
1E
100
AcDbEntity
  8
0
100
AcDbLine
 10
78.82640000000001
 20
335.0614
 30
0.0
 11
79.5651
 21
334.9844
 31
0.0
  0
LINE
  5
4EA
330
1E
100
AcDbEntity
  8
0
100
AcDbLine
 10
80.15170000000001
 20
335.3213999999999
 30
0.0
 11
80.25809999999999
 21
335.8614
 31
0.0
  0
LINE
  5
4EB
330
1E
100
AcDbEntity
  8
0
100
AcDbLine
 10
78.36490000000001
 20
335.4904
 30
0.0
 11
78.82640000000001
 21
335.0614
 31
0.0
  0
LINE
  5
4EC
330
1E
100
AcDbEntity
  8
0
100
AcDbLine
 10
78.36490000000001
 20
335.4904
 30
0.0
 11
78.47129999999999
 21
336.0303999999999
 31
0.0
  0
LINE
  5
4EE
330
1E
100
AcDbEntity
  8
0
100
AcDbLine
 10
86.84470000000001
 20
335.4223999999999
 30
0.0
 11
87.46920000000001
 21
335.7214
 31
0.0
  0
LINE
  5
4F0
330
1E
100
AcDbEntity
  8
0
100
AcDbLine
 10
88.1958
 20
335.5964
 30
0.0
 11
88.6045
 21
335.1404
 31
0.0
  0
LINE
  5
4F3
330
1E
100
AcDbEntity
  8
0
100
AcDbLine
 10
78.47129999999999
 20
336.0303999999999
 30
0.0
 11
79.0578
 21
336.3673999999999
 31
0.0
  0
LINE
  5
4F6
330
1E
100
AcDbEntity
  8
0
100
AcDbLine
 10
79.79659999999999
 20
336.2894
 30
0.0
 11
80.25809999999999
 21
335.8614
 31
0.0
  0
LINE
  5
4F7
330
1E
100
AcDbEntity
  8
0
100
AcDbLine
 10
79.0578
 20
336.3673999999999
 30
0.0
 11
79.79659999999999
 21
336.2894
 31
0.0
  0
LINE
  5
4F8
330
1E
100
AcDbEntity
  8
0
100
AcDbLine
 10
68.5532
 20
338.347057478334
 30
0.0
 11
68.5532
 21
338.1134
 31
0.0
  0
LINE
  5
4F9
330
1E
100
AcDbEntity
  8
0
100
AcDbLine
 10
68.5532
 20
338.1134
 30
0.0
 11
68.6416
 21
337.5724
 31
0.0
  0
LINE
  5
4FA
330
1E
100
AcDbEntity
  8
0
100
AcDbLine
 10
68.5532
 20
338.1134
 30
0.0
 11
69.0003
 21
338.5504
 31
0.0
  0
LINE
  5
4FB
330
1E
100
AcDbEntity
  8
0
100
AcDbLine
 10
68.5532
 20
338.1134
 30
0.0
 11
68.5532
 21
338.347057478334
 31
0.0
  0
LINE
  5
4FC
330
1E
100
AcDbEntity
  8
0
100
AcDbLine
 10
68.6416
 20
337.5724
 30
0.0
 11
69.23919999999999
 21
337.2454
 31
0.0
  0
LINE
  5
4FD
330
1E
100
AcDbEntity
  8
0
100
AcDbLine
 10
69.23919999999999
 20
337.2454
 30
0.0
 11
69.98029999999999
 21
337.3104
 31
0.0
  0
LINE
  5
4FE
330
1E
100
AcDbEntity
  8
0
100
AcDbLine
 10
69.98029999999999
 20
337.3104
 30
0.0
 11
70.42740000000001
 21
337.7463999999999
 31
0.0
  0
LINE
  5
500
330
1E
100
AcDbEntity
  8
0
100
AcDbLine
 10
70.339
 20
338.2884
 30
0.0
 11
70.42740000000001
 21
337.7463999999999
 31
0.0
  0
LINE
  5
502
330
1E
100
AcDbEntity
  8
0
100
AcDbLine
 10
77.1705
 20
338.6413999999999
 30
0.0
 11
77.9165
 21
338.6583999999999
 31
0.0
  0
LINE
  5
503
330
1E
100
AcDbEntity
  8
0
100
AcDbLine
 10
77.9165
 20
338.6583999999999
 30
0.0
 11
78.414
 21
339.0654
 31
0.0
  0
LINE
  5
505
330
1E
100
AcDbEntity
  8
0
100
AcDbLine
 10
76.61419999999999
 20
339.0054
 30
0.0
 11
77.1705
 21
338.6413999999999
 31
0.0
  0
LINE
  5
507
330
1E
100
AcDbEntity
  8
0
100
AcDbLine
 10
69.7414
 20
338.689283659491
 30
0.0
 11
69.7414
 21
338.6154
 31
0.0
  0
LINE
  5
508
330
1E
100
AcDbEntity
  8
0
100
AcDbLine
 10
69.7414
 20
338.6154
 30
0.0
 11
70.339
 21
338.2884
 31
0.0
  0
LINE
  5
509
330
1E
100
AcDbEntity
  8
0
100
AcDbLine
 10
69.7414
 20
338.6154
 30
0.0
 11
69.7414
 21
338.689283659491
 31
0.0
  0
LINE
  5
50A
330
1E
100
AcDbEntity
  8
0
100
AcDbLine
 10
69.0003
 20
338.5504
 30
0.0
 11
69.7414
 21
338.6154
 31
0.0
  0
LINE
  5
50B
330
1E
100
AcDbEntity
  8
0
100
AcDbLine
 10
76.59069999999999
 20
339.5504
 30
0.0
 11
76.61419999999999
 21
339.0054
 31
0.0
  0
LINE
  5
50C
330
1E
100
AcDbEntity
  8
0
100
AcDbLine
 10
76.59069999999999
 20
339.5504
 30
0.0
 11
77.0882
 21
339.9563999999999
 31
0.0
  0
LINE
  5
50D
330
1E
100
AcDbEntity
  8
0
100
AcDbLine
 10
78.3905
 20
339.6104
 30
0.0
 11
78.414
 21
339.0654
 31
0.0
  0
LINE
  5
50E
330
1E
100
AcDbEntity
  8
0
100
AcDbLine
 10
77.83419999999999
 20
339.9744
 30
0.0
 11
78.3905
 21
339.6104
 31
0.0
  0
LINE
  5
50F
330
1E
100
AcDbEntity
  8
0
100
AcDbLine
 10
77.0882
 20
339.9563999999999
 30
0.0
 11
77.83419999999999
 21
339.9744
 31
0.0
  0
LINE
  5
510
330
1E
100
AcDbEntity
  8
0
100
AcDbLine
 10
74.6891
 20
341.9574
 30
0.0
 11
75.4197
 21
342.0684
 31
0.0
  0
LINE
  5
511
330
1E
100
AcDbEntity
  8
0
100
AcDbLine
 10
73.90219999999999
 20
342.7783999999999
 30
0.0
 11
74.0548
 21
342.2444
 31
0.0
  0
LINE
  5
512
330
1E
100
AcDbEntity
  8
0
100
AcDbLine
 10
73.90219999999999
 20
342.7783999999999
 30
0.0
 11
74.2955
 21
343.2414
 31
0.0
  0
LINE
  5
513
330
1E
100
AcDbEntity
  8
0
100
AcDbLine
 10
74.0548
 20
342.2444
 30
0.0
 11
74.6891
 21
341.9574
 31
0.0
  0
LINE
  5
514
330
1E
100
AcDbEntity
  8
0
100
AcDbLine
 10
75.4197
 20
342.0684
 30
0.0
 11
75.813
 21
342.5323999999999
 31
0.0
  0
LINE
  5
516
330
1E
100
AcDbEntity
  8
0
100
AcDbLine
 10
85.03579999999999
 20
340.0183999999999
 30
0.0
 11
85.5799
 21
340.3913999999999
 31
0.0
  0
LINE
  5
517
330
1E
100
AcDbEntity
  8
0
100
AcDbLine
 10
84.9942
 20
339.4734
 30
0.0
 11
85.50499999999999
 21
339.0754
 31
0.0
  0
LINE
  5
518
330
1E
100
AcDbEntity
  8
0
100
AcDbLine
 10
84.9942
 20
339.4734
 30
0.0
 11
85.03579999999999
 21
340.0183999999999
 31
0.0
  0
LINE
  5
519
330
1E
100
AcDbEntity
  8
0
100
AcDbLine
 10
85.50499999999999
 20
339.0754
 30
0.0
 11
86.25020000000001
 21
339.0453999999999
 31
0.0
  0
LINE
  5
51A
330
1E
100
AcDbEntity
  8
0
100
AcDbLine
 10
86.25020000000001
 20
339.0453999999999
 30
0.0
 11
86.79430000000001
 21
339.4184
 31
0.0
  0
LINE
  5
51C
330
1E
100
AcDbEntity
  8
0
100
AcDbLine
 10
86.79430000000001
 20
339.4184
 30
0.0
 11
86.8359
 21
339.9633999999999
 31
0.0
  0
LINE
  5
51F
330
1E
100
AcDbEntity
  8
0
100
AcDbLine
 10
86.32510000000001
 20
340.3604
 30
0.0
 11
86.8359
 21
339.9633999999999
 31
0.0
  0
LINE
  5
521
330
1E
100
AcDbEntity
  8
0
100
AcDbLine
 10
85.5799
 20
340.3913999999999
 30
0.0
 11
86.32510000000001
 21
340.3604
 31
0.0
  0
LINE
  5
526
330
1E
100
AcDbEntity
  8
0
100
AcDbLine
 10
87.46920000000001
 20
335.7214
 30
0.0
 11
88.1958
 21
335.5964
 31
0.0
  0
LINE
  5
52B
330
1E
100
AcDbEntity
  8
0
100
AcDbLine
 10
27.8495
 20
345.1093999999999
 30
0.0
 11
28.5425
 21
344.9073999999999
 31
0.0
  0
LINE
  5
52C
330
1E
100
AcDbEntity
  8
0
100
AcDbLine
 10
27.57229999999999
 20
345.6164
 30
0.0
 11
27.8495
 21
346.1224
 31
0.0
  0
LINE
  5
52D
330
1E
100
AcDbEntity
  8
0
100
AcDbLine
 10
27.57229999999999
 20
345.6164
 30
0.0
 11
27.8495
 21
345.1093999999999
 31
0.0
  0
LINE
  5
52E
330
1E
100
AcDbEntity
  8
0
100
AcDbLine
 10
29.2355
 20
346.1224
 30
0.0
 11
29.5127
 21
345.6164
 31
0.0
  0
LINE
  5
52F
330
1E
100
AcDbEntity
  8
0
100
AcDbLine
 10
29.2355
 20
345.1093999999999
 30
0.0
 11
29.5127
 21
345.6164
 31
0.0
  0
LINE
  5
530
330
1E
100
AcDbEntity
  8
0
100
AcDbLine
 10
28.5425
 20
344.9073999999999
 30
0.0
 11
29.2355
 21
345.1093999999999
 31
0.0
  0
LINE
  5
531
330
1E
100
AcDbEntity
  8
0
100
AcDbLine
 10
27.8495
 20
346.1224
 30
0.0
 11
28.5425
 21
346.3254
 31
0.0
  0
LINE
  5
534
330
1E
100
AcDbEntity
  8
0
100
AcDbLine
 10
28.5425
 20
346.3254
 30
0.0
 11
29.2355
 21
346.1224
 31
0.0
  0
LINE
  5
535
330
1E
100
AcDbEntity
  8
0
100
AcDbLine
 10
35.6183
 20
343.0113999999999
 30
0.0
 11
36.2845
 21
342.7653999999999
 31
0.0
  0
LINE
  5
536
330
1E
100
AcDbEntity
  8
0
100
AcDbLine
 10
42.6379
 20
344.4884
 30
0.0
 11
43.1819
 21
344.8614
 31
0.0
  0
LINE
  5
537
330
1E
100
AcDbEntity
  8
0
100
AcDbLine
 10
43.1819
 20
344.8614
 30
0.0
 11
43.22359999999999
 21
345.4064
 31
0.0
  0
LINE
  5
538
330
1E
100
AcDbEntity
  8
0
100
AcDbLine
 10
41.89269999999999
 20
344.5183999999999
 30
0.0
 11
42.6379
 21
344.4884
 31
0.0
  0
LINE
  5
539
330
1E
100
AcDbEntity
  8
0
100
AcDbLine
 10
41.3818
 20
344.9164
 30
0.0
 11
41.42339999999999
 21
345.4603999999999
 31
0.0
  0
LINE
  5
53A
330
1E
100
AcDbEntity
  8
0
100
AcDbLine
 10
41.3818
 20
344.9164
 30
0.0
 11
41.89269999999999
 21
344.5183999999999
 31
0.0
  0
LINE
  5
53B
330
1E
100
AcDbEntity
  8
0
100
AcDbLine
 10
56.8181
 20
344.8614
 30
0.0
 11
57.36209999999999
 21
344.4884
 31
0.0
  0
LINE
  5
53C
330
1E
100
AcDbEntity
  8
0
100
AcDbLine
 10
57.36209999999999
 20
344.4884
 30
0.0
 11
58.1073
 21
344.5183999999999
 31
0.0
  0
LINE
  5
53D
330
1E
100
AcDbEntity
  8
0
100
AcDbLine
 10
64.38169999999999
 20
343.0113999999999
 30
0.0
 11
65.09619999999999
 21
342.8544
 31
0.0
  0
LINE
  5
53E
330
1E
100
AcDbEntity
  8
0
100
AcDbLine
 10
70.7645
 20
345.1093999999999
 30
0.0
 11
71.45749999999999
 21
344.9073999999999
 31
0.0
  0
LINE
  5
53F
330
1E
100
AcDbEntity
  8
0
100
AcDbLine
 10
71.45749999999999
 20
344.9073999999999
 30
0.0
 11
72.15049999999999
 21
345.1093999999999
 31
0.0
  0
LINE
  5
540
330
1E
100
AcDbEntity
  8
0
100
AcDbLine
 10
72.15049999999999
 20
345.1093999999999
 30
0.0
 11
72.4276
 21
345.6164
 31
0.0
  0
LINE
  5
541
330
1E
100
AcDbEntity
  8
0
100
AcDbLine
 10
58.1073
 20
344.5183999999999
 30
0.0
 11
58.6182
 21
344.9164
 31
0.0
  0
LINE
  5
542
330
1E
100
AcDbEntity
  8
0
100
AcDbLine
 10
41.42339999999999
 20
345.4603999999999
 30
0.0
 11
41.9675
 21
345.8344
 31
0.0
  0
LINE
  5
543
330
1E
100
AcDbEntity
  8
0
100
AcDbLine
 10
41.9675
 20
345.8344
 30
0.0
 11
42.7127
 21
345.8034
 31
0.0
  0
LINE
  5
544
330
1E
100
AcDbEntity
  8
0
100
AcDbLine
 10
42.7127
 20
345.8034
 30
0.0
 11
43.22359999999999
 21
345.4064
 31
0.0
  0
LINE
  5
545
330
1E
100
AcDbEntity
  8
0
100
AcDbLine
 10
49.314
 20
345.6514
 30
0.0
 11
50.0
 21
345.4363999999999
 31
0.0
  0
LINE
  5
546
330
1E
100
AcDbEntity
  8
0
100
AcDbLine
 10
50.0
 20
345.4363999999999
 30
0.0
 11
50.686
 21
345.6514
 31
0.0
  0
LINE
  5
547
330
1E
100
AcDbEntity
  8
0
100
AcDbLine
 10
50.686
 20
345.6514
 30
0.0
 11
50.97999999999999
 21
346.1524
 31
0.0
  0
LINE
  5
548
330
1E
100
AcDbEntity
  8
0
100
AcDbLine
 10
50.686
 20
346.6544
 30
0.0
 11
50.97999999999999
 21
346.1524
 31
0.0
  0
LINE
  5
549
330
1E
100
AcDbEntity
  8
0
100
AcDbLine
 10
49.314
 20
346.6544
 30
0.0
 11
50.0
 21
346.8693999999999
 31
0.0
  0
LINE
  5
54A
330
1E
100
AcDbEntity
  8
0
100
AcDbLine
 10
49.02000000000001
 20
346.1524
 30
0.0
 11
49.314
 21
346.6544
 31
0.0
  0
LINE
  5
54B
330
1E
100
AcDbEntity
  8
0
100
AcDbLine
 10
49.02000000000001
 20
346.1524
 30
0.0
 11
49.314
 21
345.6514
 31
0.0
  0
LINE
  5
54C
330
1E
100
AcDbEntity
  8
0
100
AcDbLine
 10
70.4873
 20
345.6164
 30
0.0
 11
70.7645
 21
345.1093999999999
 31
0.0
  0
LINE
  5
54D
330
1E
100
AcDbEntity
  8
0
100
AcDbLine
 10
70.4873
 20
345.6164
 30
0.0
 11
70.7645
 21
346.1224
 31
0.0
  0
LINE
  5
54E
330
1E
100
AcDbEntity
  8
0
100
AcDbLine
 10
58.5766
 20
345.4603999999999
 30
0.0
 11
58.6182
 21
344.9164
 31
0.0
  0
LINE
  5
54F
330
1E
100
AcDbEntity
  8
0
100
AcDbLine
 10
72.15049999999999
 20
346.1224
 30
0.0
 11
72.4276
 21
345.6164
 31
0.0
  0
LINE
  5
551
330
1E
100
AcDbEntity
  8
0
100
AcDbLine
 10
71.45749999999999
 20
346.3254
 30
0.0
 11
72.15049999999999
 21
346.1224
 31
0.0
  0
LINE
  5
552
330
1E
100
AcDbEntity
  8
0
100
AcDbLine
 10
70.7645
 20
346.1224
 30
0.0
 11
71.45749999999999
 21
346.3254
 31
0.0
  0
LINE
  5
553
330
1E
100
AcDbEntity
  8
0
100
AcDbLine
 10
58.0325
 20
345.8344
 30
0.0
 11
58.5766
 21
345.4603999999999
 31
0.0
  0
LINE
  5
554
330
1E
100
AcDbEntity
  8
0
100
AcDbLine
 10
57.2873
 20
345.8034
 30
0.0
 11
58.0325
 21
345.8344
 31
0.0
  0
LINE
  5
555
330
1E
100
AcDbEntity
  8
0
100
AcDbLine
 10
56.7764
 20
345.4064
 30
0.0
 11
57.2873
 21
345.8034
 31
0.0
  0
LINE
  5
556
330
1E
100
AcDbEntity
  8
0
100
AcDbLine
 10
56.7764
 20
345.4064
 30
0.0
 11
56.8181
 21
344.8614
 31
0.0
  0
LINE
  5
557
330
1E
100
AcDbEntity
  8
0
100
AcDbLine
 10
75.66030000000001
 20
343.0654
 30
0.0
 11
75.813
 21
342.5323999999999
 31
0.0
  0
LINE
  5
559
330
1E
100
AcDbEntity
  8
0
100
AcDbLine
 10
75.02600000000001
 20
343.3534
 30
0.0
 11
75.66030000000001
 21
343.0654
 31
0.0
  0
LINE
  5
55B
330
1E
100
AcDbEntity
  8
0
100
AcDbLine
 10
74.2955
 20
343.2414
 30
0.0
 11
75.02600000000001
 21
343.3534
 31
0.0
  0
LINE
  5
562
330
1E
100
AcDbEntity
  8
0
100
AcDbLine
 10
82.1624
 20
344.3134
 30
0.0
 11
82.2508
 21
343.7724
 31
0.0
  0
LINE
  5
563
330
1E
100
AcDbEntity
  8
0
100
AcDbLine
 10
82.1624
 20
344.3134
 30
0.0
 11
82.60949999999999
 21
344.7504
 31
0.0
  0
LINE
  5
565
330
1E
100
AcDbEntity
  8
0
100
AcDbLine
 10
82.2508
 20
343.7724
 30
0.0
 11
82.8484
 21
343.4454
 31
0.0
  0
LINE
  5
566
330
1E
100
AcDbEntity
  8
0
100
AcDbLine
 10
82.8484
 20
343.4454
 30
0.0
 11
83.5895
 21
343.5103999999999
 31
0.0
  0
LINE
  5
567
330
1E
100
AcDbEntity
  8
0
100
AcDbLine
 10
83.5895
 20
343.5103999999999
 30
0.0
 11
84.0366
 21
343.9464
 31
0.0
  0
LINE
  5
569
330
1E
100
AcDbEntity
  8
0
100
AcDbLine
 10
83.94820000000001
 20
344.4884
 30
0.0
 11
84.0366
 21
343.9464
 31
0.0
  0
LINE
  5
56E
330
1E
100
AcDbEntity
  8
0
100
AcDbLine
 10
83.3506
 20
344.8154
 30
0.0
 11
83.94820000000001
 21
344.4884
 31
0.0
  0
LINE
  5
570
330
1E
100
AcDbEntity
  8
0
100
AcDbLine
 10
82.60949999999999
 20
344.7504
 30
0.0
 11
83.3506
 21
344.8154
 31
0.0
  0
LINE
  5
572
330
1E
100
AcDbEntity
  8
0
100
AcDbLine
 10
97.23600000000001
 20
346.5754
 30
0.0
 11
99.0
 21
337.4093999999999
 31
0.0
  0
LINE
  5
575
330
1E
100
AcDbEntity
  8
0
100
AcDbLine
 10
32.42609999999999
 20
347.4024
 30
0.0
 11
33.1567
 21
347.5134
 31
0.0
  0
LINE
  5
576
330
1E
100
AcDbEntity
  8
0
100
AcDbLine
 10
33.1567
 20
347.5134
 30
0.0
 11
33.54999999999999
 21
347.9773999999999
 31
0.0
  0
LINE
  5
577
330
1E
100
AcDbEntity
  8
0
100
AcDbLine
 10
31.7918
 20
347.6893999999999
 30
0.0
 11
32.42609999999999
 21
347.4024
 31
0.0
  0
LINE
  5
578
330
1E
100
AcDbEntity
  8
0
100
AcDbLine
 10
66.8433
 20
347.5134
 30
0.0
 11
67.5739
 21
347.4024
 31
0.0
  0
LINE
  5
579
330
1E
100
AcDbEntity
  8
0
100
AcDbLine
 10
67.5739
 20
347.4024
 30
0.0
 11
68.20820000000001
 21
347.6893999999999
 31
0.0
  0
LINE
  5
57A
330
1E
100
AcDbEntity
  8
0
100
AcDbLine
 10
79.1937
 20
347.4114
 30
0.0
 11
79.90819999999999
 21
347.5693999999999
 31
0.0
  0
LINE
  5
57B
330
1E
100
AcDbEntity
  8
0
100
AcDbLine
 10
78.5275
 20
347.6573999999999
 30
0.0
 11
79.1937
 21
347.4114
 31
0.0
  0
LINE
  5
57C
330
1E
100
AcDbEntity
  8
0
100
AcDbLine
 10
79.90819999999999
 20
347.5693999999999
 30
0.0
 11
80.24469999999999
 21
348.0564
 31
0.0
  0
LINE
  5
57D
330
1E
100
AcDbEntity
  8
0
100
AcDbLine
 10
68.20820000000001
 20
347.6893999999999
 30
0.0
 11
68.3609
 21
348.2234
 31
0.0
  0
LINE
  5
57F
330
1E
100
AcDbEntity
  8
0
100
AcDbLine
 10
50.0
 20
346.8693999999999
 30
0.0
 11
50.686
 21
346.6544
 31
0.0
  0
LINE
  5
584
330
1E
100
AcDbEntity
  8
0
100
AcDbLine
 10
98.23364039288058
 20
330.3811685131429
 30
0.0
 11
98.3289
 21
330.6703999999999
 31
0.0
  0
LINE
  5
586
330
1E
100
AcDbEntity
  8
0
100
AcDbLine
 10
98.3289
 20
330.6703999999999
 30
0.0
 11
98.90830000000001
 21
333.2524
 31
0.0
  0
LINE
  5
589
330
1E
100
AcDbEntity
  8
0
100
AcDbLine
 10
98.90830000000001
 20
333.2524
 30
0.0
 11
99.13389999999999
 21
335.1874
 31
0.0
  0
LINE
  5
58A
330
1E
100
AcDbEntity
  8
0
100
AcDbLine
 10
99.0
 20
335.7814
 30
0.0
 11
99.0
 21
337.4093999999999
 31
0.0
  0
LINE
  5
58D
330
1E
100
AcDbEntity
  8
0
100
AcDbLine
 10
99.13389999999999
 20
335.1874
 30
0.0
 11
99.28370000000001
 21
336.9634
 31
0.0
  0
LINE
  5
58E
330
1E
100
AcDbEntity
  8
0
100
AcDbLine
 10
99.28370000000001
 20
336.9634
 30
0.0
 11
99.5625
 21
339.5724
 31
0.0
  0
LINE
  5
593
330
1E
100
AcDbEntity
  8
0
100
AcDbLine
 10
99.5625
 20
339.5724
 30
0.0
 11
100.0
 21
345.7214
 31
0.0
  0
LINE
  5
594
330
1E
100
AcDbEntity
  8
0
100
AcDbLine
 10
99.92910000000001
 20
347.6204
 30
0.0
 11
100.0
 21
345.7354
 31
0.0
  0
LINE
  5
597
330
1E
100
AcDbEntity
  8
0
100
AcDbLine
 10
98.8748
 20
335.0274
 30
0.0
 11
98.8810514840963
 21
335.163326248995
 31
0.0
  0
LINE
  5
599
330
1E
100
AcDbEntity
  8
0
100
AcDbLine
 10
2.5106
 20
356.9053999999999
 30
0.0
 11
3.9038
 21
359.5784
 31
0.0
  0
LINE
  5
59A
330
1E
100
AcDbEntity
  8
0
100
AcDbLine
 10
3.9038
 20
359.5784
 30
0.0
 11
5.288199999999999
 21
361.7414
 31
0.0
  0
LINE
  5
59B
330
1E
100
AcDbEntity
  8
0
100
AcDbLine
 10
5.288199999999999
 20
361.7414
 30
0.0
 11
6.868699999999999
 21
363.8374
 31
0.0
  0
LINE
  5
59C
330
1E
100
AcDbEntity
  8
0
100
AcDbLine
 10
5.57393529801886
 20
362.120331467667
 30
0.0
 11
6.170099999999999
 21
363.0203999999999
 31
0.0
  0
LINE
  5
59D
330
1E
100
AcDbEntity
  8
0
100
AcDbLine
 10
4.0605
 20
359.8354
 30
0.0
 11
4.291679398871729
 21
360.1844265383989
 31
0.0
  0
LINE
  5
59E
330
1E
100
AcDbEntity
  8
0
100
AcDbLine
 10
4.0605
 20
359.8354
 30
0.0
 11
4.291679398871729
 21
360.1844265383989
 31
0.0
  0
LINE
  5
59F
330
1E
100
AcDbEntity
  8
0
100
AcDbLine
 10
5.57393529801886
 20
362.120331467667
 30
0.0
 11
6.170099999999999
 21
363.0203999999999
 31
0.0
  0
LINE
  5
5A0
330
1E
100
AcDbEntity
  8
0
100
AcDbLine
 10
6.170099999999999
 20
363.0203999999999
 30
0.0
 11
8.704299999999999
 21
366.0473999999999
 31
0.0
  0
LINE
  5
5A1
330
1E
100
AcDbEntity
  8
0
100
AcDbLine
 10
4.02943236037735
 20
359.774689219515
 30
0.0
 11
4.0605
 21
359.8354
 31
0.0
  0
LINE
  5
5A2
330
1E
100
AcDbEntity
  8
0
100
AcDbLine
 10
4.744299999999999
 20
351.0484
 30
0.0
 11
6.8017
 21
354.2003999999999
 31
0.0
  0
LINE
  5
5A3
330
1E
100
AcDbEntity
  8
0
100
AcDbLine
 10
19.7553
 20
348.0564
 30
0.0
 11
19.9711
 21
348.5783999999999
 31
0.0
  0
LINE
  5
5A4
330
1E
100
AcDbEntity
  8
0
100
AcDbLine
 10
19.7553
 20
348.0564
 30
0.0
 11
20.09189999999999
 21
347.5693999999999
 31
0.0
  0
LINE
  5
5A9
330
1E
100
AcDbEntity
  8
0
100
AcDbLine
 10
19.9711
 20
348.5783999999999
 30
0.0
 11
20.63719999999999
 21
348.8244
 31
0.0
  0
LINE
  5
5AB
330
1E
100
AcDbEntity
  8
0
100
AcDbLine
 10
20.63719999999999
 20
348.8244
 30
0.0
 11
21.3517
 21
348.6664
 31
0.0
  0
LINE
  5
5B0
330
1E
100
AcDbEntity
  8
0
100
AcDbLine
 10
66.45
 20
347.9773999999999
 30
0.0
 11
66.8433
 21
347.5134
 31
0.0
  0
LINE
  5
5B1
330
1E
100
AcDbEntity
  8
0
100
AcDbLine
 10
66.45
 20
347.9773999999999
 30
0.0
 11
66.6027
 21
348.5113999999999
 31
0.0
  0
LINE
  5
5B2
330
1E
100
AcDbEntity
  8
0
100
AcDbLine
 10
33.3973
 20
348.5113999999999
 30
0.0
 11
33.54999999999999
 21
347.9773999999999
 31
0.0
  0
LINE
  5
5B3
330
1E
100
AcDbEntity
  8
0
100
AcDbLine
 10
31.6391
 20
348.2234
 30
0.0
 11
32.0324
 21
348.6874
 31
0.0
  0
LINE
  5
5B4
330
1E
100
AcDbEntity
  8
0
100
AcDbLine
 10
31.6391
 20
348.2234
 30
0.0
 11
31.7918
 21
347.6893999999999
 31
0.0
  0
LINE
  5
5B5
330
1E
100
AcDbEntity
  8
0
100
AcDbLine
 10
32.0324
 20
348.6874
 30
0.0
 11
32.763
 21
348.7984
 31
0.0
  0
LINE
  5
5B6
330
1E
100
AcDbEntity
  8
0
100
AcDbLine
 10
37.5896
 20
349.3844
 30
0.0
 11
38.08709999999999
 21
349.7903999999999
 31
0.0
  0
LINE
  5
5B7
330
1E
100
AcDbEntity
  8
0
100
AcDbLine
 10
36.8436
 20
349.3673999999999
 30
0.0
 11
37.5896
 21
349.3844
 31
0.0
  0
LINE
  5
5B8
330
1E
100
AcDbEntity
  8
0
100
AcDbLine
 10
42.3997
 20
350.6634
 30
0.0
 11
42.98619999999999
 21
351.0004
 31
0.0
  0
LINE
  5
5B9
330
1E
100
AcDbEntity
  8
0
100
AcDbLine
 10
38.0636
 20
350.3353999999999
 30
0.0
 11
38.08709999999999
 21
349.7903999999999
 31
0.0
  0
LINE
  5
5BB
330
1E
100
AcDbEntity
  8
0
100
AcDbLine
 10
36.2873
 20
349.7303999999999
 30
0.0
 11
36.8436
 21
349.3673999999999
 31
0.0
  0
LINE
  5
5BC
330
1E
100
AcDbEntity
  8
0
100
AcDbLine
 10
36.2638
 20
350.2753999999999
 30
0.0
 11
36.7613
 21
350.6823999999999
 31
0.0
  0
LINE
  5
5BD
330
1E
100
AcDbEntity
  8
0
100
AcDbLine
 10
36.2638
 20
350.2753999999999
 30
0.0
 11
36.2873
 21
349.7303999999999
 31
0.0
  0
LINE
  5
5BE
330
1E
100
AcDbEntity
  8
0
100
AcDbLine
 10
32.763
 20
348.7984
 30
0.0
 11
33.3973
 21
348.5113999999999
 31
0.0
  0
LINE
  5
5C0
330
1E
100
AcDbEntity
  8
0
100
AcDbLine
 10
21.3517
 20
348.6664
 30
0.0
 11
21.68819999999999
 21
348.1793999999999
 31
0.0
  0
LINE
  5
5C2
330
1E
100
AcDbEntity
  8
0
100
AcDbLine
 10
36.7613
 20
350.6823999999999
 30
0.0
 11
37.5073
 21
350.6994
 31
0.0
  0
LINE
  5
5C3
330
1E
100
AcDbEntity
  8
0
100
AcDbLine
 10
26.0626
 20
351.0113999999999
 30
0.0
 11
26.3991
 21
351.4984
 31
0.0
  0
LINE
  5
5C4
330
1E
100
AcDbEntity
  8
0
100
AcDbLine
 10
25.3481
 20
350.8544
 30
0.0
 11
26.0626
 21
351.0113999999999
 31
0.0
  0
LINE
  5
5C5
330
1E
100
AcDbEntity
  8
0
100
AcDbLine
 10
24.68189999999999
 20
351.1003999999999
 30
0.0
 11
25.3481
 21
350.8544
 31
0.0
  0
LINE
  5
5C6
330
1E
100
AcDbEntity
  8
0
100
AcDbLine
 10
42.98619999999999
 20
351.0004
 30
0.0
 11
43.0926
 21
351.5403999999999
 31
0.0
  0
LINE
  5
5C7
330
1E
100
AcDbEntity
  8
0
100
AcDbLine
 10
41.66089999999999
 20
350.7414
 30
0.0
 11
42.3997
 21
350.6634
 31
0.0
  0
LINE
  5
5C8
330
1E
100
AcDbEntity
  8
0
100
AcDbLine
 10
41.19939999999999
 20
351.1693999999999
 30
0.0
 11
41.3058
 21
351.7094
 31
0.0
  0
LINE
  5
5C9
330
1E
100
AcDbEntity
  8
0
100
AcDbLine
 10
41.19939999999999
 20
351.1693999999999
 30
0.0
 11
41.66089999999999
 21
350.7414
 31
0.0
  0
LINE
  5
5CB
330
1E
100
AcDbEntity
  8
0
100
AcDbLine
 10
37.5073
 20
350.6994
 30
0.0
 11
38.0636
 21
350.3353999999999
 31
0.0
  0
LINE
  5
5CD
330
1E
100
AcDbEntity
  8
0
100
AcDbLine
 10
47.4406
 20
351.3124
 30
0.0
 11
48.0984
 21
351.5703999999999
 31
0.0
  0
LINE
  5
5CE
330
1E
100
AcDbEntity
  8
0
100
AcDbLine
 10
46.7316
 20
351.4834
 30
0.0
 11
47.4406
 21
351.3124
 31
0.0
  0
LINE
  5
5CF
330
1E
100
AcDbEntity
  8
0
100
AcDbLine
 10
52.55939999999999
 20
351.3124
 30
0.0
 11
53.2684
 21
351.4834
 31
0.0
  0
LINE
  5
5D0
330
1E
100
AcDbEntity
  8
0
100
AcDbLine
 10
53.2684
 20
351.4834
 30
0.0
 11
53.6211
 21
351.9633999999999
 31
0.0
  0
LINE
  5
5D1
330
1E
100
AcDbEntity
  8
0
100
AcDbLine
 10
57.0138
 20
351.0004
 30
0.0
 11
57.6003
 21
350.6634
 31
0.0
  0
LINE
  5
5D2
330
1E
100
AcDbEntity
  8
0
100
AcDbLine
 10
57.6003
 20
350.6634
 30
0.0
 11
58.3391
 21
350.7414
 31
0.0
  0
LINE
  5
5D3
330
1E
100
AcDbEntity
  8
0
100
AcDbLine
 10
78.3118
 20
348.1793999999999
 30
0.0
 11
78.5275
 21
347.6573999999999
 31
0.0
  0
LINE
  5
5D4
330
1E
100
AcDbEntity
  8
0
100
AcDbLine
 10
78.3118
 20
348.1793999999999
 30
0.0
 11
78.64830000000001
 21
348.6664
 31
0.0
  0
LINE
  5
5D5
330
1E
100
AcDbEntity
  8
0
100
AcDbLine
 10
61.9129
 20
349.7903999999999
 30
0.0
 11
62.4104
 21
349.3844
 31
0.0
  0
LINE
  5
5D6
330
1E
100
AcDbEntity
  8
0
100
AcDbLine
 10
61.9129
 20
349.7903999999999
 30
0.0
 11
61.9364
 21
350.3353999999999
 31
0.0
  0
LINE
  5
5D7
330
1E
100
AcDbEntity
  8
0
100
AcDbLine
 10
62.4104
 20
349.3844
 30
0.0
 11
63.1564
 21
349.3673999999999
 31
0.0
  0
LINE
  5
5D8
330
1E
100
AcDbEntity
  8
0
100
AcDbLine
 10
63.1564
 20
349.3673999999999
 30
0.0
 11
63.71269999999999
 21
349.7303999999999
 31
0.0
  0
LINE
  5
5D9
330
1E
100
AcDbEntity
  8
0
100
AcDbLine
 10
63.71269999999999
 20
349.7303999999999
 30
0.0
 11
63.73619999999999
 21
350.2753999999999
 31
0.0
  0
LINE
  5
5DB
330
1E
100
AcDbEntity
  8
0
100
AcDbLine
 10
63.2387
 20
350.6823999999999
 30
0.0
 11
63.73619999999999
 21
350.2753999999999
 31
0.0
  0
LINE
  5
5DC
330
1E
100
AcDbEntity
  8
0
100
AcDbLine
 10
62.4927
 20
350.6994
 30
0.0
 11
63.2387
 21
350.6823999999999
 31
0.0
  0
LINE
  5
5DE
330
1E
100
AcDbEntity
  8
0
100
AcDbLine
 10
61.9364
 20
350.3353999999999
 30
0.0
 11
62.4927
 21
350.6994
 31
0.0
  0
LINE
  5
5E0
330
1E
100
AcDbEntity
  8
0
100
AcDbLine
 10
78.64830000000001
 20
348.6664
 30
0.0
 11
79.3628
 21
348.8244
 31
0.0
  0
LINE
  5
5E2
330
1E
100
AcDbEntity
  8
0
100
AcDbLine
 10
73.60089999999999
 20
351.4984
 30
0.0
 11
73.9374
 21
351.0113999999999
 31
0.0
  0
LINE
  5
5E3
330
1E
100
AcDbEntity
  8
0
100
AcDbLine
 10
73.60089999999999
 20
351.4984
 30
0.0
 11
73.8166
 21
352.0204
 31
0.0
  0
LINE
  5
5E4
330
1E
100
AcDbEntity
  8
0
100
AcDbLine
 10
73.9374
 20
351.0113999999999
 30
0.0
 11
74.65189999999999
 21
350.8544
 31
0.0
  0
LINE
  5
5E5
330
1E
100
AcDbEntity
  8
0
100
AcDbLine
 10
74.65189999999999
 20
350.8544
 30
0.0
 11
75.3181
 21
351.1003999999999
 31
0.0
  0
LINE
  5
5E7
330
1E
100
AcDbEntity
  8
0
100
AcDbLine
 10
75.3181
 20
351.1003999999999
 30
0.0
 11
75.5338
 21
351.6224
 31
0.0
  0
LINE
  5
5E8
330
1E
100
AcDbEntity
  8
0
100
AcDbLine
 10
67.9676
 20
348.6874
 30
0.0
 11
68.3609
 21
348.2234
 31
0.0
  0
LINE
  5
5E9
330
1E
100
AcDbEntity
  8
0
100
AcDbLine
 10
67.237
 20
348.7984
 30
0.0
 11
67.9676
 21
348.6874
 31
0.0
  0
LINE
  5
5EA
330
1E
100
AcDbEntity
  8
0
100
AcDbLine
 10
66.6027
 20
348.5113999999999
 30
0.0
 11
67.237
 21
348.7984
 31
0.0
  0
LINE
  5
5EB
330
1E
100
AcDbEntity
  8
0
100
AcDbLine
 10
58.3391
 20
350.7414
 30
0.0
 11
58.8006
 21
351.1693999999999
 31
0.0
  0
LINE
  5
5EC
330
1E
100
AcDbEntity
  8
0
100
AcDbLine
 10
24.4662
 20
351.6224
 30
0.0
 11
24.8027
 21
352.1094
 31
0.0
  0
LINE
  5
5ED
330
1E
100
AcDbEntity
  8
0
100
AcDbLine
 10
24.4662
 20
351.6224
 30
0.0
 11
24.68189999999999
 21
351.1003999999999
 31
0.0
  0
LINE
  5
5EF
330
1E
100
AcDbEntity
  8
0
100
AcDbLine
 10
41.3058
 20
351.7094
 30
0.0
 11
41.8924
 21
352.0464
 31
0.0
  0
LINE
  5
5F1
330
1E
100
AcDbEntity
  8
0
100
AcDbLine
 10
48.0984
 20
351.5703999999999
 30
0.0
 11
48.33149999999999
 21
352.0883999999999
 31
0.0
  0
LINE
  5
5F2
330
1E
100
AcDbEntity
  8
0
100
AcDbLine
 10
26.18339999999999
 20
352.0204
 30
0.0
 11
26.3991
 21
351.4984
 31
0.0
  0
LINE
  5
5F4
330
1E
100
AcDbEntity
  8
0
100
AcDbLine
 10
41.8924
 20
352.0464
 30
0.0
 11
42.6311
 21
351.9694
 31
0.0
  0
LINE
  5
5F6
330
1E
100
AcDbEntity
  8
0
100
AcDbLine
 10
42.6311
 20
351.9694
 30
0.0
 11
43.0926
 21
351.5403999999999
 31
0.0
  0
LINE
  5
5F7
330
1E
100
AcDbEntity
  8
0
100
AcDbLine
 10
46.3789
 20
352.08536635514
 30
0.0
 11
46.3789
 21
351.9633999999999
 31
0.0
  0
LINE
  5
5F8
330
1E
100
AcDbEntity
  8
0
100
AcDbLine
 10
46.3789
 20
351.9633999999999
 30
0.0
 11
46.612
 21
352.4814
 31
0.0
  0
LINE
  5
5F9
330
1E
100
AcDbEntity
  8
0
100
AcDbLine
 10
46.3789
 20
351.9633999999999
 30
0.0
 11
46.7316
 21
351.4834
 31
0.0
  0
LINE
  5
5FA
330
1E
100
AcDbEntity
  8
0
100
AcDbLine
 10
46.3789
 20
351.9633999999999
 30
0.0
 11
46.3789
 21
352.08536635514
 31
0.0
  0
LINE
  5
5FB
330
1E
100
AcDbEntity
  8
0
100
AcDbLine
 10
53.6211
 20
351.9633999999999
 30
0.0
 11
53.6211
 21
352.08536635514
 31
0.0
  0
LINE
  5
5FC
330
1E
100
AcDbEntity
  8
0
100
AcDbLine
 10
53.6211
 20
352.08536635514
 30
0.0
 11
53.6211
 21
351.9633999999999
 31
0.0
  0
LINE
  5
5FD
330
1E
100
AcDbEntity
  8
0
100
AcDbLine
 10
51.9016
 20
351.5703999999999
 30
0.0
 11
52.55939999999999
 21
351.3124
 31
0.0
  0
LINE
  5
5FE
330
1E
100
AcDbEntity
  8
0
100
AcDbLine
 10
24.8027
 20
352.1094
 30
0.0
 11
25.51719999999999
 21
352.2663999999999
 31
0.0
  0
LINE
  5
600
330
1E
100
AcDbEntity
  8
0
100
AcDbLine
 10
25.51719999999999
 20
352.2663999999999
 30
0.0
 11
26.18339999999999
 21
352.0204
 31
0.0
  0
LINE
  5
602
330
1E
100
AcDbEntity
  8
0
100
AcDbLine
 10
46.612
 20
352.4814
 30
0.0
 11
47.2698
 21
352.7394
 31
0.0
  0
LINE
  5
609
330
1E
100
AcDbEntity
  8
0
100
AcDbLine
 10
31.37999999999999
 20
353.7323999999999
 30
0.0
 11
31.8271
 21
354.1694
 31
0.0
  0
LINE
  5
60A
330
1E
100
AcDbEntity
  8
0
100
AcDbLine
 10
30.6389
 20
353.6674
 30
0.0
 11
31.37999999999999
 21
353.7323999999999
 31
0.0
  0
LINE
  5
60B
330
1E
100
AcDbEntity
  8
0
100
AcDbLine
 10
30.04129999999999
 20
353.9943999999999
 30
0.0
 11
30.6389
 21
353.6674
 31
0.0
  0
LINE
  5
60C
330
1E
100
AcDbEntity
  8
0
100
AcDbLine
 10
31.7387
 20
354.7104
 30
0.0
 11
31.8271
 21
354.1694
 31
0.0
  0
LINE
  5
60E
330
1E
100
AcDbEntity
  8
0
100
AcDbLine
 10
29.9529
 20
354.5364
 30
0.0
 11
30.4
 21
354.9723999999999
 31
0.0
  0
LINE
  5
60F
330
1E
100
AcDbEntity
  8
0
100
AcDbLine
 10
29.9529
 20
354.5364
 30
0.0
 11
30.04129999999999
 21
353.9943999999999
 31
0.0
  0
LINE
  5
611
330
1E
100
AcDbEntity
  8
0
100
AcDbLine
 10
47.2698
 20
352.7394
 30
0.0
 11
47.9788
 21
352.5693999999999
 31
0.0
  0
LINE
  5
612
330
1E
100
AcDbEntity
  8
0
100
AcDbLine
 10
47.9788
 20
352.5693999999999
 30
0.0
 11
48.33149999999999
 21
352.0883999999999
 31
0.0
  0
LINE
  5
613
330
1E
100
AcDbEntity
  8
0
100
AcDbLine
 10
53.388
 20
352.4814
 30
0.0
 11
53.6211
 21
351.9633999999999
 31
0.0
  0
LINE
  5
614
330
1E
100
AcDbEntity
  8
0
100
AcDbLine
 10
52.7302
 20
352.7394
 30
0.0
 11
53.388
 21
352.4814
 31
0.0
  0
LINE
  5
615
330
1E
100
AcDbEntity
  8
0
100
AcDbLine
 10
52.0212
 20
352.5693999999999
 30
0.0
 11
52.7302
 21
352.7394
 31
0.0
  0
LINE
  5
616
330
1E
100
AcDbEntity
  8
0
100
AcDbLine
 10
51.6685
 20
352.0883999999999
 30
0.0
 11
52.0212
 21
352.5693999999999
 31
0.0
  0
LINE
  5
617
330
1E
100
AcDbEntity
  8
0
100
AcDbLine
 10
51.6685
 20
352.0883999999999
 30
0.0
 11
51.9016
 21
351.5703999999999
 31
0.0
  0
LINE
  5
619
330
1E
100
AcDbEntity
  8
0
100
AcDbLine
 10
73.8166
 20
352.0204
 30
0.0
 11
74.4828
 21
352.2663999999999
 31
0.0
  0
LINE
  5
61C
330
1E
100
AcDbEntity
  8
0
100
AcDbLine
 10
58.6942
 20
351.7094
 30
0.0
 11
58.8006
 21
351.1693999999999
 31
0.0
  0
LINE
  5
61E
330
1E
100
AcDbEntity
  8
0
100
AcDbLine
 10
75.1973
 20
352.1094
 30
0.0
 11
75.5338
 21
351.6224
 31
0.0
  0
LINE
  5
620
330
1E
100
AcDbEntity
  8
0
100
AcDbLine
 10
74.4828
 20
352.2663999999999
 30
0.0
 11
75.1973
 21
352.1094
 31
0.0
  0
LINE
  5
622
330
1E
100
AcDbEntity
  8
0
100
AcDbLine
 10
68.17289999999999
 20
354.1694
 30
0.0
 11
68.62
 21
353.7323999999999
 31
0.0
  0
LINE
  5
623
330
1E
100
AcDbEntity
  8
0
100
AcDbLine
 10
68.17289999999999
 20
354.1694
 30
0.0
 11
68.2613
 21
354.7104
 31
0.0
  0
LINE
  5
625
330
1E
100
AcDbEntity
  8
0
100
AcDbLine
 10
68.62
 20
353.7323999999999
 30
0.0
 11
69.36109999999999
 21
353.6674
 31
0.0
  0
LINE
  5
629
330
1E
100
AcDbEntity
  8
0
100
AcDbLine
 10
69.36109999999999
 20
353.6674
 30
0.0
 11
69.9587
 21
353.9943999999999
 31
0.0
  0
LINE
  5
62B
330
1E
100
AcDbEntity
  8
0
100
AcDbLine
 10
69.9587
 20
353.9943999999999
 30
0.0
 11
70.0471
 21
354.5364
 31
0.0
  0
LINE
  5
62C
330
1E
100
AcDbEntity
  8
0
100
AcDbLine
 10
68.2613
 20
354.7104
 30
0.0
 11
68.8589
 21
355.0374
 31
0.0
  0
LINE
  5
62F
330
1E
100
AcDbEntity
  8
0
100
AcDbLine
 10
58.1076
 20
352.0464
 30
0.0
 11
58.6942
 21
351.7094
 31
0.0
  0
LINE
  5
631
330
1E
100
AcDbEntity
  8
0
100
AcDbLine
 10
57.36889999999999
 20
351.9694
 30
0.0
 11
58.1076
 21
352.0464
 31
0.0
  0
LINE
  5
632
330
1E
100
AcDbEntity
  8
0
100
AcDbLine
 10
56.9074
 20
351.5403999999999
 30
0.0
 11
57.36889999999999
 21
351.9694
 31
0.0
  0
LINE
  5
633
330
1E
100
AcDbEntity
  8
0
100
AcDbLine
 10
56.9074
 20
351.5403999999999
 30
0.0
 11
57.0138
 21
351.0004
 31
0.0
  0
LINE
  5
637
330
1E
100
AcDbEntity
  8
0
100
AcDbLine
 10
80.02889999999998
 20
348.5783999999999
 30
0.0
 11
80.24469999999999
 21
348.0564
 31
0.0
  0
LINE
  5
639
330
1E
100
AcDbEntity
  8
0
100
AcDbLine
 10
79.3628
 20
348.8244
 30
0.0
 11
80.02889999999998
 21
348.5783999999999
 31
0.0
  0
LINE
  5
640
330
1E
100
AcDbEntity
  8
0
100
AcDbLine
 10
30.4
 20
354.9723999999999
 30
0.0
 11
31.1411
 21
355.0374
 31
0.0
  0
LINE
  5
642
330
1E
100
AcDbEntity
  8
0
100
AcDbLine
 10
31.1411
 20
355.0374
 30
0.0
 11
31.7387
 21
354.7104
 31
0.0
  0
LINE
  5
644
330
1E
100
AcDbEntity
  8
0
100
AcDbLine
 10
69.59999999999999
 20
354.9723999999999
 30
0.0
 11
70.0471
 21
354.5364
 31
0.0
  0
LINE
  5
646
330
1E
100
AcDbEntity
  8
0
100
AcDbLine
 10
68.8589
 20
355.0374
 30
0.0
 11
69.59999999999999
 21
354.9723999999999
 31
0.0
  0
LINE
  5
64C
330
1E
100
AcDbEntity
  8
0
100
AcDbLine
 10
92.43399999999999
 20
355.2404
 30
0.0
 11
97.23600000000001
 21
346.5754
 31
0.0
  0
LINE
  5
64F
330
1E
100
AcDbEntity
  8
0
100
AcDbLine
 10
99.71820000000001
 20
349.5033999999999
 30
0.0
 11
99.92910000000001
 21
347.6204
 31
0.0
  0
LINE
  5
650
330
1E
100
AcDbEntity
  8
0
100
AcDbLine
 10
98.87770000000001
 20
353.2414
 30
0.0
 11
99.3674
 21
351.3784
 31
0.0
  0
LINE
  5
651
330
1E
100
AcDbEntity
  8
0
100
AcDbLine
 10
99.3674
 20
351.3784
 30
0.0
 11
99.71820000000001
 21
349.5033999999999
 31
0.0
  0
LINE
  5
652
330
1E
100
AcDbEntity
  8
0
100
AcDbLine
 10
98.2511
 20
355.0844
 30
0.0
 11
98.87770000000001
 21
353.2414
 31
0.0
  0
LINE
  5
655
330
1E
100
AcDbEntity
  8
0
100
AcDbLine
 10
8.270799999999999
 20
365.4583999999999
 30
0.0
 11
9.788199999999999
 21
367.0264
 31
0.0
  0
LINE
  5
656
330
1E
100
AcDbEntity
  8
0
100
AcDbLine
 10
8.704299999999999
 20
366.0473999999999
 30
0.0
 11
11.64059999999999
 21
368.8844
 31
0.0
  0
LINE
  5
657
330
1E
100
AcDbEntity
  8
0
100
AcDbLine
 10
9.788199999999999
 20
367.0264
 30
0.0
 11
11.42079999999999
 21
368.5344
 31
0.0
  0
LINE
  5
658
330
1E
100
AcDbEntity
  8
0
100
AcDbLine
 10
11.64059999999999
 20
368.8844
 30
0.0
 11
15.03009999999999
 21
371.5573999999999
 31
0.0
  0
LINE
  5
659
330
1E
100
AcDbEntity
  8
0
100
AcDbLine
 10
11.42079999999999
 20
368.5344
 30
0.0
 11
13.16089999999999
 21
369.9784
 31
0.0
  0
LINE
  5
65A
330
1E
100
AcDbEntity
  8
0
100
AcDbLine
 10
6.868699999999999
 20
363.8374
 30
0.0
 11
8.270799999999999
 21
365.4583999999999
 31
0.0
  0
LINE
  5
65B
330
1E
100
AcDbEntity
  8
0
100
AcDbLine
 10
9.2748
 20
357.1924
 30
0.0
 11
12.1401
 21
359.9923999999999
 31
0.0
  0
LINE
  5
660
330
1E
100
AcDbEntity
  8
0
100
AcDbLine
 10
37.26319999999999
 20
355.7373999999999
 30
0.0
 11
37.8072
 21
356.1104
 31
0.0
  0
LINE
  5
664
330
1E
100
AcDbEntity
  8
0
100
AcDbLine
 10
37.8072
 20
356.1104
 30
0.0
 11
37.8489
 21
356.6544
 31
0.0
  0
LINE
  5
665
330
1E
100
AcDbEntity
  8
0
100
AcDbLine
 10
36.518
 20
355.7674
 30
0.0
 11
37.26319999999999
 21
355.7373999999999
 31
0.0
  0
LINE
  5
667
330
1E
100
AcDbEntity
  8
0
100
AcDbLine
 10
36.0071
 20
356.1653999999999
 30
0.0
 11
36.0487
 21
356.7094
 31
0.0
  0
LINE
  5
668
330
1E
100
AcDbEntity
  8
0
100
AcDbLine
 10
36.0071
 20
356.1653999999999
 30
0.0
 11
36.518
 21
355.7674
 31
0.0
  0
LINE
  5
66A
330
1E
100
AcDbEntity
  8
0
100
AcDbLine
 10
62.1928
 20
356.1104
 30
0.0
 11
62.7368
 21
355.7373999999999
 31
0.0
  0
LINE
  5
66B
330
1E
100
AcDbEntity
  8
0
100
AcDbLine
 10
62.7368
 20
355.7373999999999
 30
0.0
 11
63.482
 21
355.7674
 31
0.0
  0
LINE
  5
670
330
1E
100
AcDbEntity
  8
0
100
AcDbLine
 10
63.482
 20
355.7674
 30
0.0
 11
63.9929
 21
356.1653999999999
 31
0.0
  0
LINE
  5
671
330
1E
100
AcDbEntity
  8
0
100
AcDbLine
 10
36.0487
 20
356.7094
 30
0.0
 11
36.59279999999999
 21
357.0823999999999
 31
0.0
  0
LINE
  5
673
330
1E
100
AcDbEntity
  8
0
100
AcDbLine
 10
63.9513
 20
356.7094
 30
0.0
 11
63.9929
 21
356.1653999999999
 31
0.0
  0
LINE
  5
675
330
1E
100
AcDbEntity
  8
0
100
AcDbLine
 10
62.1511
 20
356.6544
 30
0.0
 11
62.662
 21
357.0523999999999
 31
0.0
  0
LINE
  5
676
330
1E
100
AcDbEntity
  8
0
100
AcDbLine
 10
62.1511
 20
356.6544
 30
0.0
 11
62.1928
 21
356.1104
 31
0.0
  0
LINE
  5
67A
330
1E
100
AcDbEntity
  8
0
100
AcDbLine
 10
36.59279999999999
 20
357.0823999999999
 30
0.0
 11
37.338
 21
357.0523999999999
 31
0.0
  0
LINE
  5
67C
330
1E
100
AcDbEntity
  8
0
100
AcDbLine
 10
37.338
 20
357.0523999999999
 30
0.0
 11
37.8489
 21
356.6544
 31
0.0
  0
LINE
  5
681
330
1E
100
AcDbEntity
  8
0
100
AcDbLine
 10
42.3981
 20
357.5453999999999
 30
0.0
 11
42.5685
 21
358.0763999999999
 31
0.0
  0
LINE
  5
682
330
1E
100
AcDbEntity
  8
0
100
AcDbLine
 10
42.3981
 20
357.5453999999999
 30
0.0
 11
42.80669999999999
 21
357.0894
 31
0.0
  0
LINE
  5
684
330
1E
100
AcDbEntity
  8
0
100
AcDbLine
 10
43.53329999999999
 20
356.9644
 30
0.0
 11
44.1579
 21
357.2633999999999
 31
0.0
  0
LINE
  5
685
330
1E
100
AcDbEntity
  8
0
100
AcDbLine
 10
42.80669999999999
 20
357.0894
 30
0.0
 11
43.53329999999999
 21
356.9644
 31
0.0
  0
LINE
  5
686
330
1E
100
AcDbEntity
  8
0
100
AcDbLine
 10
42.5685
 20
358.0763999999999
 30
0.0
 11
43.19300000000001
 21
358.3754
 31
0.0
  0
LINE
  5
68B
330
1E
100
AcDbEntity
  8
0
100
AcDbLine
 10
43.19300000000001
 20
358.3754
 30
0.0
 11
43.9196
 21
358.2504
 31
0.0
  0
LINE
  5
68F
330
1E
100
AcDbEntity
  8
0
100
AcDbLine
 10
44.1579
 20
357.2633999999999
 30
0.0
 11
44.3283
 21
357.7944
 31
0.0
  0
LINE
  5
690
330
1E
100
AcDbEntity
  8
0
100
AcDbLine
 10
43.9196
 20
358.2504
 30
0.0
 11
44.3283
 21
357.7944
 31
0.0
  0
LINE
  5
695
330
1E
100
AcDbEntity
  8
0
100
AcDbLine
 10
49.314
 20
357.5933999999999
 30
0.0
 11
50.0
 21
357.3783999999999
 31
0.0
  0
LINE
  5
696
330
1E
100
AcDbEntity
  8
0
100
AcDbLine
 10
50.0
 20
357.3783999999999
 30
0.0
 11
50.686
 21
357.5933999999999
 31
0.0
  0
LINE
  5
698
330
1E
100
AcDbEntity
  8
0
100
AcDbLine
 10
50.0
 20
358.8104
 30
0.0
 11
50.686
 21
358.5954
 31
0.0
  0
LINE
  5
69A
330
1E
100
AcDbEntity
  8
0
100
AcDbLine
 10
49.314
 20
358.5954
 30
0.0
 11
50.0
 21
358.8104
 31
0.0
  0
LINE
  5
69C
330
1E
100
AcDbEntity
  8
0
100
AcDbLine
 10
49.02000000000001
 20
358.0944
 30
0.0
 11
49.314
 21
358.5954
 31
0.0
  0
LINE
  5
69D
330
1E
100
AcDbEntity
  8
0
100
AcDbLine
 10
49.02000000000001
 20
358.0944
 30
0.0
 11
49.314
 21
357.5933999999999
 31
0.0
  0
LINE
  5
6A1
330
1E
100
AcDbEntity
  8
0
100
AcDbLine
 10
50.686
 20
357.5933999999999
 30
0.0
 11
50.97999999999999
 21
358.0944
 31
0.0
  0
LINE
  5
6A2
330
1E
100
AcDbEntity
  8
0
100
AcDbLine
 10
55.8421
 20
357.2633999999999
 30
0.0
 11
56.4667
 21
356.9644
 31
0.0
  0
LINE
  5
6A3
330
1E
100
AcDbEntity
  8
0
100
AcDbLine
 10
56.4667
 20
356.9644
 30
0.0
 11
57.1933
 21
357.0894
 31
0.0
  0
LINE
  5
6A5
330
1E
100
AcDbEntity
  8
0
100
AcDbLine
 10
57.1933
 20
357.0894
 30
0.0
 11
57.6019
 21
357.5453999999999
 31
0.0
  0
LINE
  5
6A7
330
1E
100
AcDbEntity
  8
0
100
AcDbLine
 10
57.43149999999999
 20
358.0763999999999
 30
0.0
 11
57.6019
 21
357.5453999999999
 31
0.0
  0
LINE
  5
6A9
330
1E
100
AcDbEntity
  8
0
100
AcDbLine
 10
56.08039999999999
 20
358.2504
 30
0.0
 11
56.80699999999999
 21
358.3754
 31
0.0
  0
LINE
  5
6AB
330
1E
100
AcDbEntity
  8
0
100
AcDbLine
 10
55.6717
 20
357.7944
 30
0.0
 11
56.08039999999999
 21
358.2504
 31
0.0
  0
LINE
  5
6AC
330
1E
100
AcDbEntity
  8
0
100
AcDbLine
 10
55.6717
 20
357.7944
 30
0.0
 11
55.8421
 21
357.2633999999999
 31
0.0
  0
LINE
  5
6AF
330
1E
100
AcDbEntity
  8
0
100
AcDbLine
 10
50.686
 20
358.5954
 30
0.0
 11
50.97999999999999
 21
358.0944
 31
0.0
  0
LINE
  5
6B3
330
1E
100
AcDbEntity
  8
0
100
AcDbLine
 10
56.80699999999999
 20
358.3754
 30
0.0
 11
57.43149999999999
 21
358.0763999999999
 31
0.0
  0
LINE
  5
6B9
330
1E
100
AcDbEntity
  8
0
100
AcDbLine
 10
63.40720000000001
 20
357.0823999999999
 30
0.0
 11
63.9513
 21
356.7094
 31
0.0
  0
LINE
  5
6BB
330
1E
100
AcDbEntity
  8
0
100
AcDbLine
 10
62.662
 20
357.0523999999999
 30
0.0
 11
63.40720000000001
 21
357.0823999999999
 31
0.0
  0
LINE
  5
6C6
330
1E
100
AcDbEntity
  8
0
100
AcDbLine
 10
95.70832060112829
 20
360.1844265383989
 30
0.0
 11
95.93949999999999
 21
359.8354
 31
0.0
  0
LINE
  5
6C7
330
1E
100
AcDbEntity
  8
0
100
AcDbLine
 10
95.93949999999999
 20
359.8354
 30
0.0
 11
95.97056763962269
 21
359.774689219515
 31
0.0
  0
LINE
  5
6C8
330
1E
100
AcDbEntity
  8
0
100
AcDbLine
 10
95.93949999999999
 20
359.8354
 30
0.0
 11
95.97056763962269
 21
359.774689219515
 31
0.0
  0
LINE
  5
6C9
330
1E
100
AcDbEntity
  8
0
100
AcDbLine
 10
95.70832060112829
 20
360.1844265383989
 30
0.0
 11
95.93949999999999
 21
359.8354
 31
0.0
  0
LINE
  5
6CB
330
1E
100
AcDbEntity
  8
0
100
AcDbLine
 10
97.48940000000001
 20
356.9053999999999
 30
0.0
 11
98.2511
 21
355.0844
 31
0.0
  0
LINE
  5
6CC
330
1E
100
AcDbEntity
  8
0
100
AcDbLine
 10
96.09619999999999
 20
359.5784
 30
0.0
 11
97.48940000000001
 21
356.9053999999999
 31
0.0
  0
LINE
  5
6CD
330
1E
100
AcDbEntity
  8
0
100
AcDbLine
 10
94.7118
 20
361.7414
 30
0.0
 11
96.09619999999999
 21
359.5784
 31
0.0
  0
LINE
  5
6D1
330
1E
100
AcDbEntity
  8
0
100
AcDbLine
 10
84.594
 20
362.6874
 30
0.0
 11
92.43399999999999
 21
355.2404
 31
0.0
  0
LINE
  5
6D2
330
1E
100
AcDbEntity
  8
0
100
AcDbLine
 10
93.82989999999999
 20
363.0203999999999
 30
0.0
 11
94.42606470198109
 21
362.120331467667
 31
0.0
  0
LINE
  5
6D3
330
1E
100
AcDbEntity
  8
0
100
AcDbLine
 10
93.13129999999999
 20
363.8374
 30
0.0
 11
94.7118
 21
361.7414
 31
0.0
  0
LINE
  5
6D6
330
1E
100
AcDbEntity
  8
0
100
AcDbLine
 10
14.861949432836
 20
362.170621355399
 30
0.0
 11
18.93189999999999
 21
364.9173999999999
 31
0.0
  0
LINE
  5
6D7
330
1E
100
AcDbEntity
  8
0
100
AcDbLine
 10
15.03009999999999
 20
371.5573999999999
 30
0.0
 11
18.6334
 21
373.9024
 31
0.0
  0
LINE
  5
6D8
330
1E
100
AcDbEntity
  8
0
100
AcDbLine
 10
15.0044
 20
371.3564
 30
0.0
 11
17.9525
 21
373.2853999999999
 31
0.0
  0
LINE
  5
6D9
330
1E
100
AcDbEntity
  8
0
100
AcDbLine
 10
24.02171624108039
 20
367.530359021306
 30
0.0
 11
37.45599999999999
 21
371.9254
 31
0.0
  0
LINE
  5
6DA
330
1E
100
AcDbEntity
  8
0
100
AcDbLine
 10
17.9525
 20
373.2853999999999
 30
0.0
 11
21.1036
 21
375.0434
 31
0.0
  0
LINE
  5
6DB
330
1E
100
AcDbEntity
  8
0
100
AcDbLine
 10
23.3067
 20
376.1114
 30
0.0
 11
27.0973
 21
377.6844
 31
0.0
  0
LINE
  5
6DC
330
1E
100
AcDbEntity
  8
0
100
AcDbLine
 10
22.5362
 20
375.9854
 30
0.0
 11
26.7012
 21
377.7854
 31
0.0
  0
LINE
  5
6DD
330
1E
100
AcDbEntity
  8
0
100
AcDbLine
 10
27.0973
 20
377.6844
 30
0.0
 11
30.3409
 21
378.7943999999999
 31
0.0
  0
LINE
  5
6DE
330
1E
100
AcDbEntity
  8
0
100
AcDbLine
 10
26.7012
 20
377.7854
 30
0.0
 11
31.0898
 21
379.2844
 31
0.0
  0
LINE
  5
6DF
330
1E
100
AcDbEntity
  8
0
100
AcDbLine
 10
21.1036
 20
375.0434
 30
0.0
 11
23.3067
 21
376.1114
 31
0.0
  0
LINE
  5
6E0
330
1E
100
AcDbEntity
  8
0
100
AcDbLine
 10
18.6334
 20
373.9024
 30
0.0
 11
22.5362
 21
375.9854
 31
0.0
  0
LINE
  5
6E1
330
1E
100
AcDbEntity
  8
0
100
AcDbLine
 10
13.16089999999999
 20
369.9784
 30
0.0
 11
15.0044
 21
371.3564
 31
0.0
  0
LINE
  5
6E2
330
1E
100
AcDbEntity
  8
0
100
AcDbLine
 10
22.79139999999999
 20
366.9954
 30
0.0
 11
24.02171624108039
 21
367.530359021306
 31
0.0
  0
LINE
  5
6E4
330
1E
100
AcDbEntity
  8
0
100
AcDbLine
 10
91.29569999999999
 20
366.0473999999999
 30
0.0
 11
93.82989999999999
 21
363.0203999999999
 31
0.0
  0
LINE
  5
6E6
330
1E
100
AcDbEntity
  8
0
100
AcDbLine
 10
91.72920000000001
 20
365.4583999999999
 30
0.0
 11
93.13129999999999
 21
363.8374
 31
0.0
  0
LINE
  5
6E9
330
1E
100
AcDbEntity
  8
0
100
AcDbLine
 10
74.402
 20
368.4163999999999
 30
0.0
 11
84.594
 21
362.6874
 31
0.0
  0
LINE
  5
6EC
330
1E
100
AcDbEntity
  8
0
100
AcDbLine
 10
88.35939999999999
 20
368.8844
 30
0.0
 11
91.29569999999999
 21
366.0473999999999
 31
0.0
  0
LINE
  5
6ED
330
1E
100
AcDbEntity
  8
0
100
AcDbLine
 10
88.5792
 20
368.5344
 30
0.0
 11
90.21179999999999
 21
367.0264
 31
0.0
  0
LINE
  5
6EE
330
1E
100
AcDbEntity
  8
0
100
AcDbLine
 10
86.8391
 20
369.9784
 30
0.0
 11
88.5792
 21
368.5344
 31
0.0
  0
LINE
  5
6EF
330
1E
100
AcDbEntity
  8
0
100
AcDbLine
 10
84.9956
 20
371.3564
 30
0.0
 11
86.8391
 21
369.9784
 31
0.0
  0
LINE
  5
6F0
330
1E
100
AcDbEntity
  8
0
100
AcDbLine
 10
90.21179999999999
 20
367.0264
 30
0.0
 11
91.72920000000001
 21
365.4583999999999
 31
0.0
  0
LINE
  5
6F2
330
1E
100
AcDbEntity
  8
0
100
AcDbLine
 10
30.3409
 20
378.7943999999999
 30
0.0
 11
33.7432
 21
379.7464
 31
0.0
  0
LINE
  5
6F3
330
1E
100
AcDbEntity
  8
0
100
AcDbLine
 10
37.45599999999999
 20
371.9254
 30
0.0
 11
50.0
 21
373.2144
 31
0.0
  0
LINE
  5
6F4
330
1E
100
AcDbEntity
  8
0
100
AcDbLine
 10
35.9543
 20
380.2574
 30
0.0
 11
38.1949
 21
380.6943999999999
 31
0.0
  0
LINE
  5
6F5
330
1E
100
AcDbEntity
  8
0
100
AcDbLine
 10
33.7432
 20
379.7464
 30
0.0
 11
35.9543
 21
380.2574
 31
0.0
  0
LINE
  5
6F6
330
1E
100
AcDbEntity
  8
0
100
AcDbLine
 10
31.0898
 20
379.2844
 30
0.0
 11
35.6587
 21
380.4664
 31
0.0
  0
LINE
  5
6F7
330
1E
100
AcDbEntity
  8
0
100
AcDbLine
 10
38.1949
 20
380.6943999999999
 30
0.0
 11
40.4611
 21
381.0534
 31
0.0
  0
LINE
  5
6F8
330
1E
100
AcDbEntity
  8
0
100
AcDbLine
 10
35.6587
 20
380.4664
 30
0.0
 11
40.3656
 21
381.3184
 31
0.0
  0
LINE
  5
6F9
330
1E
100
AcDbEntity
  8
0
100
AcDbLine
 10
62.544
 20
371.9254
 30
0.0
 11
74.402
 21
368.4163999999999
 31
0.0
  0
LINE
  5
6FB
330
1E
100
AcDbEntity
  8
0
100
AcDbLine
 10
84.9699
 20
371.5573999999999
 30
0.0
 11
88.35939999999999
 21
368.8844
 31
0.0
  0
LINE
  5
6FC
330
1E
100
AcDbEntity
  8
0
100
AcDbLine
 10
64.0163515765359
 20
371.4897041253109
 30
0.0
 11
64.2162
 21
371.4534
 31
0.0
  0
LINE
  5
703
330
1E
100
AcDbEntity
  8
0
100
AcDbLine
 10
40.4611
 20
381.0534
 30
0.0
 11
43.7344
 21
381.4343999999999
 31
0.0
  0
LINE
  5
704
330
1E
100
AcDbEntity
  8
0
100
AcDbLine
 10
40.3656
 20
381.3184
 30
0.0
 11
45.1621
 21
381.8344
 31
0.0
  0
LINE
  5
705
330
1E
100
AcDbEntity
  8
0
100
AcDbLine
 10
50.0
 20
373.2144
 30
0.0
 11
62.544
 21
371.9254
 31
0.0
  0
LINE
  5
70A
330
1E
100
AcDbEntity
  8
0
100
AcDbLine
 10
50.0
 20
381.7214
 30
0.0
 11
52.9658
 21
381.6583999999999
 31
0.0
  0
LINE
  5
70B
330
1E
100
AcDbEntity
  8
0
100
AcDbLine
 10
52.9658
 20
381.6583999999999
 30
0.0
 11
56.2656
 21
381.4343999999999
 31
0.0
  0
LINE
  5
70C
330
1E
100
AcDbEntity
  8
0
100
AcDbLine
 10
47.0342
 20
381.6583999999999
 30
0.0
 11
50.0
 21
381.7214
 31
0.0
  0
LINE
  5
70F
330
1E
100
AcDbEntity
  8
0
100
AcDbLine
 10
43.7344
 20
381.4343999999999
 30
0.0
 11
47.0342
 21
381.6583999999999
 31
0.0
  0
LINE
  5
710
330
1E
100
AcDbEntity
  8
0
100
AcDbLine
 10
50.0
 20
382.0063999999999
 30
0.0
 11
54.83789999999999
 21
381.8344
 31
0.0
  0
LINE
  5
711
330
1E
100
AcDbEntity
  8
0
100
AcDbLine
 10
45.1621
 20
381.8344
 30
0.0
 11
50.0
 21
382.0063999999999
 31
0.0
  0
LINE
  5
715
330
1E
100
AcDbEntity
  8
0
100
AcDbLine
 10
59.6344
 20
381.3184
 30
0.0
 11
64.3413
 21
380.4664
 31
0.0
  0
LINE
  5
716
330
1E
100
AcDbEntity
  8
0
100
AcDbLine
 10
59.5389
 20
381.0534
 30
0.0
 11
61.8051
 21
380.6943999999999
 31
0.0
  0
LINE
  5
717
330
1E
100
AcDbEntity
  8
0
100
AcDbLine
 10
68.91020000000001
 20
379.2844
 30
0.0
 11
73.2988
 21
377.7854
 31
0.0
  0
LINE
  5
718
330
1E
100
AcDbEntity
  8
0
100
AcDbLine
 10
64.3413
 20
380.4664
 30
0.0
 11
68.91020000000001
 21
379.2844
 31
0.0
  0
LINE
  5
719
330
1E
100
AcDbEntity
  8
0
100
AcDbLine
 10
64.04569999999999
 20
380.2574
 30
0.0
 11
66.2568
 21
379.7464
 31
0.0
  0
LINE
  5
71A
330
1E
100
AcDbEntity
  8
0
100
AcDbLine
 10
66.2568
 20
379.7464
 30
0.0
 11
69.6591
 21
378.7943999999999
 31
0.0
  0
LINE
  5
71B
330
1E
100
AcDbEntity
  8
0
100
AcDbLine
 10
61.8051
 20
380.6943999999999
 30
0.0
 11
64.04569999999999
 21
380.2574
 31
0.0
  0
LINE
  5
71C
330
1E
100
AcDbEntity
  8
0
100
AcDbLine
 10
54.83789999999999
 20
381.8344
 30
0.0
 11
59.6344
 21
381.3184
 31
0.0
  0
LINE
  5
71D
330
1E
100
AcDbEntity
  8
0
100
AcDbLine
 10
56.2656
 20
381.4343999999999
 30
0.0
 11
59.5389
 21
381.0534
 31
0.0
  0
LINE
  5
71E
330
1E
100
AcDbEntity
  8
0
100
AcDbLine
 10
77.46380000000001
 20
375.9854
 30
0.0
 11
81.3666
 21
373.9024
 31
0.0
  0
LINE
  5
71F
330
1E
100
AcDbEntity
  8
0
100
AcDbLine
 10
81.3666
 20
373.9024
 30
0.0
 11
84.9699
 21
371.5573999999999
 31
0.0
  0
LINE
  5
720
330
1E
100
AcDbEntity
  8
0
100
AcDbLine
 10
78.89639999999999
 20
375.0434
 30
0.0
 11
82.0475
 21
373.2853999999999
 31
0.0
  0
LINE
  5
721
330
1E
100
AcDbEntity
  8
0
100
AcDbLine
 10
72.90269999999999
 20
377.6844
 30
0.0
 11
76.69329999999999
 21
376.1114
 31
0.0
  0
LINE
  5
722
330
1E
100
AcDbEntity
  8
0
100
AcDbLine
 10
73.2988
 20
377.7854
 30
0.0
 11
77.46380000000001
 21
375.9854
 31
0.0
  0
LINE
  5
723
330
1E
100
AcDbEntity
  8
0
100
AcDbLine
 10
76.69329999999999
 20
376.1114
 30
0.0
 11
78.89639999999999
 21
375.0434
 31
0.0
  0
LINE
  5
724
330
1E
100
AcDbEntity
  8
0
100
AcDbLine
 10
69.6591
 20
378.7943999999999
 30
0.0
 11
72.90269999999999
 21
377.6844
 31
0.0
  0
LINE
  5
725
330
1E
100
AcDbEntity
  8
0
100
AcDbLine
 10
82.0475
 20
373.2853999999999
 30
0.0
 11
84.9956
 21
371.3564
 31
0.0
  0
LINE
  5
72B
330
1E
100
AcDbEntity
  8
0
100
AcDbLine
 10
18.93189999999999
 20
364.9173999999999
 30
0.0
 11
22.79139999999999
 21
366.9954
 31
0.0
  0
LINE
  5
72C
330
1E
100
AcDbEntity
  8
0
100
AcDbLine
 10
12.1401
 20
359.9923999999999
 30
0.0
 11
14.861949432836
 21
362.170621355399
 31
0.0
  0
LINE
  5
72D
330
1E
100
AcDbEntity
  8
0
100
AcDbLine
 10
7.37203961272068
 20
354.8904069229959
 30
0.0
 11
9.2748
 21
357.1924
 31
0.0
  0
LINE
  5
72E
330
1E
100
AcDbEntity
  8
0
100
AcDbLine
 10
6.8017
 20
354.2003999999999
 30
0.0
 11
7.37203961272068
 21
354.8904069229959
 31
0.0
  0
LINE
  5
72F
330
1E
100
AcDbEntity
  8
0
100
AcDbLine
 10
3.123499999999999
 20
347.7644
 30
0.0
 11
4.744299999999999
 21
351.0484
 31
0.0
  0
LINE
  5
730
330
1E
100
AcDbEntity
  8
0
100
AcDbLine
 10
1.953899999999999
 20
344.3804
 30
0.0
 11
3.123499999999999
 21
347.7644
 31
0.0
  0
LINE
  5
731
330
1E
100
AcDbEntity
  8
0
100
AcDbLine
 10
2.0238
 20
330.2334
 30
0.0
 11
2.127570727114419
 21
329.9223788635309
 31
0.0
  0
ENDSEC
  0
SECTION
  2
OBJECTS
  0
DICTIONARY
  5
C
330
0
100
AcDbDictionary
281
     1
  3
ACAD_GROUP
350
D
  3
ACAD_LAYOUT
350
19
  3
ACAD_MLINESTYLE
350
16
  3
ACAD_PLOTSETTINGS
350
18
  3
ACAD_PLOTSTYLENAME
350
E
  3
AcDbVariableDictionary
350
738
  0
DICTIONARY
  5
D
102
{ACAD_REACTORS
330
C
102
}
330
C
100
AcDbDictionary
281
     1
  0
DICTIONARY
  5
19
102
{ACAD_REACTORS
330
C
102
}
330
C
100
AcDbDictionary
281
     1
  3
Layout1
350
1D
  3
Model
350
21
  0
DICTIONARY
  5
16
102
{ACAD_REACTORS
330
C
102
}
330
C
100
AcDbDictionary
281
     1
  3
Standard
350
17
  0
DICTIONARY
  5
18
102
{ACAD_REACTORS
330
C
102
}
330
C
100
AcDbDictionary
281
     1
  0
ACDBDICTIONARYWDFLT
  5
E
102
{ACAD_REACTORS
330
C
102
}
330
C
100
AcDbDictionary
281
     1
  3
Normal
350
F
100
AcDbDictionaryWithDefault
340
F
  0
DICTIONARY
  5
738
102
{ACAD_REACTORS
330
C
102
}
330
C
100
AcDbDictionary
281
     1
  3
DIMASSOC
350
739
  0
LAYOUT
  5
1D
102
{ACAD_REACTORS
330
19
102
}
330
19
100
AcDbPlotSettings
  1

  2
C:\Programme\AutoCAD LT 2002 Deu\plotters\DWF ePlot (optimized for plotting).pc3
  4

  6

 40
0.0
 41
0.0
 42
0.0
 43
0.0
 44
0.0
 45
0.0
 46
0.0
 47
0.0
 48
0.0
 49
0.0
140
0.0
141
0.0
142
1.0
143
1.0
 70
   688
 72
     0
 73
     0
 74
     5
  7

 75
    16
147
1.0
148
0.0
149
0.0
100
AcDbLayout
  1
Layout1
 70
     1
 71
     1
 10
0.0
 20
0.0
 11
12.0
 21
9.0
 12
0.0
 22
0.0
 32
0.0
 14
1.000000000000000E+20
 24
1.000000000000000E+20
 34
1.000000000000000E+20
 15
-1.000000000000000E+20
 25
-1.000000000000000E+20
 35
-1.000000000000000E+20
146
0.0
 13
0.0
 23
0.0
 33
0.0
 16
1.0
 26
0.0
 36
0.0
 17
0.0
 27
1.0
 37
0.0
 76
     0
330
1A
  0
LAYOUT
  5
21
102
{ACAD_REACTORS
330
19
102
}
330
19
100
AcDbPlotSettings
  1

  2
C:\Programme\AutoCAD LT 2002 Deu\plotters\DWF ePlot (optimized for plotting).pc3
  4

  6

 40
0.0
 41
0.0
 42
0.0
 43
0.0
 44
0.0
 45
0.0
 46
0.0
 47
0.0
 48
0.0
 49
0.0
140
0.0
141
0.0
142
1.0
143
1.0
 70
  1712
 72
     0
 73
     0
 74
     0
  7

 75
     0
147
1.0
148
0.0
149
0.0
100
AcDbLayout
  1
Model
 70
     1
 71
     0
 10
0.0
 20
0.0
 11
12.0
 21
9.0
 12
0.0
 22
0.0
 32
0.0
 14
0.0
 24
0.0
 34
0.0
 15
0.0
 25
0.0
 35
0.0
146
0.0
 13
0.0
 23
0.0
 33
0.0
 16
1.0
 26
0.0
 36
0.0
 17
0.0
 27
1.0
 37
0.0
 76
     0
330
1E
  0
MLINESTYLE
  5
17
102
{ACAD_REACTORS
330
16
102
}
330
16
100
AcDbMlineStyle
  2
STANDARD
 70
     0
  3

 62
   256
 51
90.0
 52
90.0
 71
     2
 49
0.5
 62
   256
  6
BYLAYER
 49
-0.5
 62
   256
  6
BYLAYER
  0
ACDBPLACEHOLDER
  5
F
102
{ACAD_REACTORS
330
E
102
}
330
E
  0
DICTIONARYVAR
  5
739
102
{ACAD_REACTORS
330
738
102
}
330
738
100
DictionaryVariables
280
     0
  1
1
  0
ENDSEC
  0
EOF
