  0
SECTION
  2
HEADER
  9
$ACADVER
  1
AC1015
  9
$ACADMAINTVER
 70
    13
  9
$DWGCODEPAGE
  3
ANSI_1252
  9
$INSBASE
 10
0.0
 20
0.0
 30
0.0
  9
$EXTMIN
 10
0.0
 20
0.0000000000000005
 30
0.0
  9
$EXTMAX
 10
158.0
 20
158.0
 30
0.0
  9
$LIMMIN
 10
0.0
 20
0.0
  9
$LIMMAX
 10
12.0
 20
9.0
  9
$ORTHOMODE
 70
     0
  9
$REGENMODE
 70
     1
  9
$FILLMODE
 70
     1
  9
$QTEXTMODE
 70
     0
  9
$MIRRTEXT
 70
     1
  9
$LTSCALE
 40
1.0
  9
$ATTMODE
 70
     1
  9
$TEXTSIZE
 40
0.2
  9
$TRACEWID
 40
0.05
  9
$TEXTSTYLE
  7
Standard
  9
$CLAYER
  8
0
  9
$CELTYPE
  6
Continuous
  9
$CECOLOR
 62
   256
  9
$CELTSCALE
 40
1.0
  9
$DISPSILH
 70
     0
  9
$DIMSCALE
 40
1.0
  9
$DIMASZ
 40
0.18
  9
$DIMEXO
 40
0.0625
  9
$DIMDLI
 40
0.38
  9
$DIMRND
 40
0.0
  9
$DIMDLE
 40
0.0
  9
$DIMEXE
 40
0.18
  9
$DIMTP
 40
0.0
  9
$DIMTM
 40
0.0
  9
$DIMTXT
 40
0.18
  9
$DIMCEN
 40
0.09
  9
$DIMTSZ
 40
0.0
  9
$DIMTOL
 70
     0
  9
$DIMLIM
 70
     0
  9
$DIMTIH
 70
     1
  9
$DIMTOH
 70
     1
  9
$DIMSE1
 70
     0
  9
$DIMSE2
 70
     0
  9
$DIMTAD
 70
     0
  9
$DIMZIN
 70
     0
  9
$DIMBLK
  1

  9
$DIMASO
 70
     1
  9
$DIMSHO
 70
     1
  9
$DIMPOST
  1

  9
$DIMAPOST
  1

  9
$DIMALT
 70
     0
  9
$DIMALTD
 70
     2
  9
$DIMALTF
 40
25.4
  9
$DIMLFAC
 40
1.0
  9
$DIMTOFL
 70
     0
  9
$DIMTVP
 40
0.0
  9
$DIMTIX
 70
     0
  9
$DIMSOXD
 70
     0
  9
$DIMSAH
 70
     0
  9
$DIMBLK1
  1

  9
$DIMBLK2
  1

  9
$DIMSTYLE
  2
Standard
  9
$DIMCLRD
 70
     0
  9
$DIMCLRE
 70
     0
  9
$DIMCLRT
 70
     0
  9
$DIMTFAC
 40
1.0
  9
$DIMGAP
 40
0.09
  9
$DIMJUST
 70
     0
  9
$DIMSD1
 70
     0
  9
$DIMSD2
 70
     0
  9
$DIMTOLJ
 70
     1
  9
$DIMTZIN
 70
     0
  9
$DIMALTZ
 70
     0
  9
$DIMALTTZ
 70
     0
  9
$DIMUPT
 70
     0
  9
$DIMDEC
 70
     4
  9
$DIMTDEC
 70
     4
  9
$DIMALTU
 70
     2
  9
$DIMALTTD
 70
     2
  9
$DIMTXSTY
  7
Standard
  9
$DIMAUNIT
 70
     0
  9
$DIMADEC
 70
     0
  9
$DIMALTRND
 40
0.0
  9
$DIMAZIN
 70
     0
  9
$DIMDSEP
 70
    46
  9
$DIMATFIT
 70
     3
  9
$DIMFRAC
 70
     0
  9
$DIMLDRBLK
  1

  9
$DIMLUNIT
 70
     2
  9
$DIMLWD
 70
    -2
  9
$DIMLWE
 70
    -2
  9
$DIMTMOVE
 70
     0
  9
$LUNITS
 70
     2
  9
$LUPREC
 70
     4
  9
$SKETCHINC
 40
0.1
  9
$FILLETRAD
 40
0.0
  9
$AUNITS
 70
     0
  9
$AUPREC
 70
     0
  9
$MENU
  1
.
  9
$ELEVATION
 40
0.0
  9
$PELEVATION
 40
0.0
  9
$THICKNESS
 40
0.0
  9
$LIMCHECK
 70
     0
  9
$CHAMFERA
 40
0.0
  9
$CHAMFERB
 40
0.0
  9
$CHAMFERC
 40
0.0
  9
$CHAMFERD
 40
0.0
  9
$SKPOLY
 70
     0
  9
$TDCREATE
 40
2455650.999834155
  9
$TDUCREATE
 40
2455650.916500821
  9
$TDUPDATE
 40
2455651.005133819
  9
$TDUUPDATE
 40
2455650.921800486
  9
$TDINDWG
 40
0.0052998495
  9
$TDUSRTIMER
 40
0.0052998495
  9
$USRTIMER
 70
     1
  9
$ANGBASE
 50
0.0
  9
$ANGDIR
 70
     0
  9
$PDMODE
 70
     0
  9
$PDSIZE
 40
0.0
  9
$PLINEWID
 40
0.0
  9
$SPLFRAME
 70
     0
  9
$SPLINETYPE
 70
     6
  9
$SPLINESEGS
 70
     8
  9
$HANDSEED
  5
44D
  9
$SURFTAB1
 70
     6
  9
$SURFTAB2
 70
     6
  9
$SURFTYPE
 70
     6
  9
$SURFU
 70
     6
  9
$SURFV
 70
     6
  9
$UCSBASE
  2

  9
$UCSNAME
  2

  9
$UCSORG
 10
0.0
 20
0.0
 30
0.0
  9
$UCSXDIR
 10
1.0
 20
0.0
 30
0.0
  9
$UCSYDIR
 10
0.0
 20
1.0
 30
0.0
  9
$UCSORTHOREF
  2

  9
$UCSORTHOVIEW
 70
     1
  9
$UCSORGTOP
 10
0.0
 20
0.0
 30
0.0
  9
$UCSORGBOTTOM
 10
0.0
 20
0.0
 30
0.0
  9
$UCSORGLEFT
 10
0.0
 20
0.0
 30
0.0
  9
$UCSORGRIGHT
 10
0.0
 20
0.0
 30
0.0
  9
$UCSORGFRONT
 10
0.0
 20
0.0
 30
0.0
  9
$UCSORGBACK
 10
0.0
 20
0.0
 30
0.0
  9
$PUCSBASE
  2

  9
$PUCSNAME
  2

  9
$PUCSORG
 10
0.0
 20
0.0
 30
0.0
  9
$PUCSXDIR
 10
1.0
 20
0.0
 30
0.0
  9
$PUCSYDIR
 10
0.0
 20
1.0
 30
0.0
  9
$PUCSORTHOREF
  2

  9
$PUCSORTHOVIEW
 70
     0
  9
$PUCSORGTOP
 10
0.0
 20
0.0
 30
0.0
  9
$PUCSORGBOTTOM
 10
0.0
 20
0.0
 30
0.0
  9
$PUCSORGLEFT
 10
0.0
 20
0.0
 30
0.0
  9
$PUCSORGRIGHT
 10
0.0
 20
0.0
 30
0.0
  9
$PUCSORGFRONT
 10
0.0
 20
0.0
 30
0.0
  9
$PUCSORGBACK
 10
0.0
 20
0.0
 30
0.0
  9
$USERI1
 70
     0
  9
$USERI2
 70
     0
  9
$USERI3
 70
     0
  9
$USERI4
 70
     0
  9
$USERI5
 70
     0
  9
$USERR1
 40
0.0
  9
$USERR2
 40
0.0
  9
$USERR3
 40
0.0
  9
$USERR4
 40
0.0
  9
$USERR5
 40
0.0
  9
$WORLDVIEW
 70
     1
  9
$SHADEDGE
 70
     3
  9
$SHADEDIF
 70
    70
  9
$TILEMODE
 70
     1
  9
$MAXACTVP
 70
    64
  9
$PINSBASE
 10
0.0
 20
0.0
 30
0.0
  9
$PLIMCHECK
 70
     0
  9
$PEXTMIN
 10
1.000000000000000E+20
 20
1.000000000000000E+20
 30
1.000000000000000E+20
  9
$PEXTMAX
 10
-1.000000000000000E+20
 20
-1.000000000000000E+20
 30
-1.000000000000000E+20
  9
$PLIMMIN
 10
0.0
 20
0.0
  9
$PLIMMAX
 10
12.0
 20
9.0
  9
$UNITMODE
 70
     0
  9
$VISRETAIN
 70
     1
  9
$PLINEGEN
 70
     0
  9
$PSLTSCALE
 70
     1
  9
$TREEDEPTH
 70
  3020
  9
$CMLSTYLE
  2
Standard
  9
$CMLJUST
 70
     0
  9
$CMLSCALE
 40
1.0
  9
$PROXYGRAPHICS
 70
     1
  9
$MEASUREMENT
 70
     0
  9
$CELWEIGHT
370
    -1
  9
$ENDCAPS
280
     0
  9
$JOINSTYLE
280
     0
  9
$LWDISPLAY
290
     0
  9
$INSUNITS
 70
     0
  9
$HYPERLINKBASE
  1

  9
$STYLESHEET
  1

  9
$XEDIT
290
     1
  9
$CEPSNTYPE
380
     0
  9
$PSTYLEMODE
290
     1
  9
$FINGERPRINTGUID
  2
{966DEE60-6F87-409E-9A52-5FF81DD589D8}
  9
$VERSIONGUID
  2
{DF34D8AF-1EB0-43EC-BA54-D0066A13E644}
  9
$EXTNAMES
290
     1
  9
$PSVPSCALE
 40
0.0
  9
$OLESTARTUP
290
     0
  0
ENDSEC
  0
SECTION
  2
CLASSES
  0
CLASS
  1
ACDBDICTIONARYWDFLT
  2
AcDbDictionaryWithDefault
  3
AutoCAD 2000
 90
        0
280
     0
281
     0
  0
CLASS
  1
ACDBPLACEHOLDER
  2
AcDbPlaceHolder
  3
AutoCAD 2000
 90
        0
280
     0
281
     0
  0
CLASS
  1
LAYOUT
  2
AcDbLayout
  3
AutoCAD 2000
 90
        0
280
     0
281
     0
  0
CLASS
  1
DICTIONARYVAR
  2
AcDbDictionaryVar
  3
AutoCAD 2000
 90
        0
280
     0
281
     0
  0
ENDSEC
  0
SECTION
  2
TABLES
  0
TABLE
  2
VPORT
  5
8
330
0
100
AcDbSymbolTable
 70
     3
  0
VPORT
  5
44C
330
8
100
AcDbSymbolTableRecord
100
AcDbViewportTableRecord
  2
*Active
 70
     0
 10
0.0
 20
0.0
 11
1.0
 21
1.0
 12
79.0
 22
79.0
 13
0.0
 23
0.0
 14
1.0
 24
1.0
 15
0.0
 25
0.0
 16
0.0
 26
0.0
 36
1.0
 17
0.0
 27
0.0
 37
0.0
 40
159.0687711386696
 41
2.073363431151241
 42
50.0
 43
0.0
 44
0.0
 50
0.0
 51
0.0
 71
     0
 72
   100
 73
     1
 74
     3
 75
     0
 76
     0
 77
     0
 78
     0
281
     0
 65
     1
110
0.0
120
0.0
130
0.0
111
1.0
121
0.0
131
0.0
112
0.0
122
1.0
132
0.0
 79
     1
146
0.0
  0
ENDTAB
  0
TABLE
  2
LTYPE
  5
5
330
0
100
AcDbSymbolTable
 70
     1
  0
LTYPE
  5
13
330
5
100
AcDbSymbolTableRecord
100
AcDbLinetypeTableRecord
  2
ByBlock
 70
     0
  3

 72
    65
 73
     0
 40
0.0
  0
LTYPE
  5
14
330
5
100
AcDbSymbolTableRecord
100
AcDbLinetypeTableRecord
  2
ByLayer
 70
     0
  3

 72
    65
 73
     0
 40
0.0
  0
LTYPE
  5
15
330
5
100
AcDbSymbolTableRecord
100
AcDbLinetypeTableRecord
  2
Continuous
 70
     0
  3
Solid line
 72
    65
 73
     0
 40
0.0
  0
ENDTAB
  0
TABLE
  2
LAYER
  5
2
330
0
100
AcDbSymbolTable
 70
     1
  0
LAYER
  5
10
330
2
100
AcDbSymbolTableRecord
100
AcDbLayerTableRecord
  2
0
 70
     0
 62
     7
  6
Continuous
370
    -3
390
F
  0
ENDTAB
  0
TABLE
  2
STYLE
  5
3
330
0
100
AcDbSymbolTable
 70
     1
  0
STYLE
  5
11
330
3
100
AcDbSymbolTableRecord
100
AcDbTextStyleTableRecord
  2
Standard
 70
     0
 40
0.0
 41
1.0
 50
0.0
 71
     0
 42
0.2
  3
txt
  4

  0
ENDTAB
  0
TABLE
  2
VIEW
  5
6
330
0
100
AcDbSymbolTable
 70
     0
  0
ENDTAB
  0
TABLE
  2
UCS
  5
7
330
0
100
AcDbSymbolTable
 70
     0
  0
ENDTAB
  0
TABLE
  2
APPID
  5
9
330
0
100
AcDbSymbolTable
 70
     1
  0
APPID
  5
12
330
9
100
AcDbSymbolTableRecord
100
AcDbRegAppTableRecord
  2
ACAD
 70
     0
  0
ENDTAB
  0
TABLE
  2
DIMSTYLE
  5
A
330
0
100
AcDbSymbolTable
 70
     1
100
AcDbDimStyleTable
 71
     0
  0
DIMSTYLE
105
303
330
A
100
AcDbSymbolTableRecord
100
AcDbDimStyleTableRecord
  2
Standard
 70
     0
340
11
  0
ENDTAB
  0
TABLE
  2
BLOCK_RECORD
  5
1
330
0
100
AcDbSymbolTable
 70
     0
  0
BLOCK_RECORD
  5
1E
330
1
100
AcDbSymbolTableRecord
100
AcDbBlockTableRecord
  2
*Model_Space
340
21
  0
BLOCK_RECORD
  5
1A
330
1
100
AcDbSymbolTableRecord
100
AcDbBlockTableRecord
  2
*Paper_Space
340
1D
  0
ENDTAB
  0
ENDSEC
  0
SECTION
  2
BLOCKS
  0
BLOCK
  5
1F
330
1E
100
AcDbEntity
  8
0
100
AcDbBlockBegin
  2
*Model_Space
 70
     0
 10
0.0
 20
0.0
 30
0.0
  3
*Model_Space
  1

  0
ENDBLK
  5
20
330
1E
100
AcDbEntity
  8
0
100
AcDbBlockEnd
  0
BLOCK
  5
1B
330
1A
100
AcDbEntity
 67
     1
  8
0
100
AcDbBlockBegin
  2
*Paper_Space
 70
     0
 10
0.0
 20
0.0
 30
0.0
  3
*Paper_Space
  1

  0
ENDBLK
  5
1C
330
1A
100
AcDbEntity
 67
     1
  8
0
100
AcDbBlockEnd
  0
ENDSEC
  0
SECTION
  2
ENTITIES
  0
LINE
  5
22
330
1E
100
AcDbEntity
  8
0
100
AcDbLine
 10
6.131339999999999
 20
48.8149
 30
0.0
 11
10.71739999999999
 21
39.56049999999999
 31
0.0
  0
LINE
  5
23
330
1E
100
AcDbEntity
  8
0
100
AcDbLine
 10
2.82985
 20
58.6015
 30
0.0
 11
6.131339999999999
 21
48.8149
 31
0.0
  0
LINE
  5
24
330
1E
100
AcDbEntity
  8
0
100
AcDbLine
 10
0.8253729999999999
 20
68.74179999999999
 30
0.0
 11
2.82985
 21
58.6015
 31
0.0
  0
LINE
  5
28
330
1E
100
AcDbEntity
  8
0
100
AcDbLine
 10
0.0
 20
79.0
 30
0.0
 11
0.8253729999999999
 21
68.74179999999999
 31
0.0
  0
LINE
  5
2B
330
1E
100
AcDbEntity
  8
0
100
AcDbLine
 10
23.1388
 20
23.1388
 30
0.0
 11
30.9731
 21
16.4707
 31
0.0
  0
LINE
  5
31
330
1E
100
AcDbEntity
  8
0
100
AcDbLine
 10
30.9731
 20
16.4707
 30
0.0
 11
39.56049999999999
 21
10.71739999999999
 31
0.0
  0
LINE
  5
39
330
1E
100
AcDbEntity
  8
0
100
AcDbLine
 10
23.14099999999999
 20
23.1361
 30
0.0
 11
30.9731
 21
16.4707
 31
0.0
  0
LINE
  5
48
330
1E
100
AcDbEntity
  8
0
100
AcDbLine
 10
16.4707
 20
30.9731
 30
0.0
 11
23.14099999999999
 21
23.1361
 31
0.0
  0
LINE
  5
49
330
1E
100
AcDbEntity
  8
0
100
AcDbLine
 10
16.4707
 20
30.9731
 30
0.0
 11
23.1388
 21
23.1388
 31
0.0
  0
LINE
  5
4D
330
1E
100
AcDbEntity
  8
0
100
AcDbLine
 10
39.56049999999999
 20
10.71739999999999
 30
0.0
 11
48.8149
 21
6.131339999999999
 31
0.0
  0
LINE
  5
4E
330
1E
100
AcDbEntity
  8
0
100
AcDbLine
 10
48.8149
 20
6.131339999999999
 30
0.0
 11
58.6015
 21
2.82985
 31
0.0
  0
LINE
  5
71
330
1E
100
AcDbEntity
  8
0
100
AcDbLine
 10
58.6015
 20
2.82985
 30
0.0
 11
68.74179999999999
 21
0.8253730000000009
 31
0.0
  0
LINE
  5
72
330
1E
100
AcDbEntity
  8
0
100
AcDbLine
 10
68.74179999999999
 20
0.8253730000000009
 30
0.0
 11
79.0
 21
0.0000000000000006
 31
0.0
  0
LINE
  5
73
330
1E
100
AcDbEntity
  8
0
100
AcDbLine
 10
68.74179999999999
 20
0.8253730000000009
 30
0.0
 11
79.0
 21
0.0000000000000005
 31
0.0
  0
LINE
  5
81
330
1E
100
AcDbEntity
  8
0
100
AcDbLine
 10
68.4902
 20
68.2959
 30
0.0
 11
69.58960000000001
 21
67.3173
 31
0.0
  0
LINE
  5
82
330
1E
100
AcDbEntity
  8
0
100
AcDbLine
 10
67.4915
 20
69.37820000000001
 30
0.0
 11
68.4902
 21
68.2959
 31
0.0
  0
LINE
  5
83
330
1E
100
AcDbEntity
  8
0
100
AcDbLine
 10
66.6035
 20
70.55209999999999
 30
0.0
 11
67.4915
 21
69.37820000000001
 31
0.0
  0
LINE
  5
84
330
1E
100
AcDbEntity
  8
0
100
AcDbLine
 10
65.83540000000001
 20
71.8086
 30
0.0
 11
66.6035
 21
70.55209999999999
 31
0.0
  0
LINE
  5
85
330
1E
100
AcDbEntity
  8
0
100
AcDbLine
 10
66.7193
 20
72.2908
 30
0.0
 11
67.46030000000001
 21
71.0827
 31
0.0
  0
LINE
  5
86
330
1E
100
AcDbEntity
  8
0
100
AcDbLine
 10
66.27729999999999
 20
72.0492
 30
0.0
 11
67.04550000000001
 21
70.79779999999999
 31
0.0
  0
LINE
  5
87
330
1E
100
AcDbEntity
  8
0
100
AcDbLine
 10
67.46030000000001
 20
71.0827
 30
0.0
 11
68.3211
 21
69.9561
 31
0.0
  0
LINE
  5
88
330
1E
100
AcDbEntity
  8
0
100
AcDbLine
 10
67.04550000000001
 20
70.79779999999999
 30
0.0
 11
67.93649999999999
 21
69.6309
 31
0.0
  0
LINE
  5
89
330
1E
100
AcDbEntity
  8
0
100
AcDbLine
 10
68.3211
 20
69.9561
 30
0.0
 11
69.29059999999999
 21
68.9221
 31
0.0
  0
LINE
  5
8A
330
1E
100
AcDbEntity
  8
0
100
AcDbLine
 10
67.93649999999999
 20
69.6309
 30
0.0
 11
68.9413
 21
68.55970000000001
 31
0.0
  0
LINE
  5
8B
330
1E
100
AcDbEntity
  8
0
100
AcDbLine
 10
68.9413
 20
68.55970000000001
 30
0.0
 11
70.0497
 21
67.59520000000001
 31
0.0
  0
LINE
  5
8C
330
1E
100
AcDbEntity
  8
0
100
AcDbLine
 10
65.194
 20
73.13349999999999
 30
0.0
 11
65.83540000000001
 21
71.8086
 31
0.0
  0
LINE
  5
8E
330
1E
100
AcDbEntity
  8
0
100
AcDbLine
 10
66.1032
 20
73.56740000000001
 30
0.0
 11
66.7193
 21
72.2908
 31
0.0
  0
LINE
  5
8F
330
1E
100
AcDbEntity
  8
0
100
AcDbLine
 10
65.639
 20
73.3721
 30
0.0
 11
66.27729999999999
 21
72.0492
 31
0.0
  0
LINE
  5
92
330
1E
100
AcDbEntity
  8
0
100
AcDbLine
 10
69.58960000000001
 20
67.3173
 30
0.0
 11
70.7796
 21
66.4515
 31
0.0
  0
LINE
  5
93
330
1E
100
AcDbEntity
  8
0
100
AcDbLine
 10
69.29059999999999
 20
68.9221
 30
0.0
 11
70.35980000000001
 21
67.9919
 31
0.0
  0
LINE
  5
94
330
1E
100
AcDbEntity
  8
0
100
AcDbLine
 10
70.0497
 20
67.59520000000001
 30
0.0
 11
71.2488
 21
66.74850000000001
 31
0.0
  0
LINE
  5
98
330
1E
100
AcDbEntity
  8
0
100
AcDbLine
 10
70.7796
 20
66.4515
 30
0.0
 11
72.0492
 21
65.7065
 31
0.0
  0
LINE
  5
99
330
1E
100
AcDbEntity
  8
0
100
AcDbLine
 10
70.35980000000001
 20
67.9919
 30
0.0
 11
71.5176
 21
67.1744
 31
0.0
  0
LINE
  5
9C
330
1E
100
AcDbEntity
  8
0
100
AcDbLine
 10
70.6427
 20
71.7341
 30
0.0
 11
71.7099
 21
70.66289999999999
 31
0.0
  0
LINE
  5
9F
330
1E
100
AcDbEntity
  8
0
100
AcDbLine
 10
71.06860000000001
 20
73.7396
 30
0.0
 11
71.9415
 21
72.61700000000001
 31
0.0
  0
LINE
  5
A0
330
1E
100
AcDbEntity
  8
0
100
AcDbLine
 10
69.7306
 20
72.93919999999999
 30
0.0
 11
70.6427
 21
71.7341
 31
0.0
  0
LINE
  5
A3
330
1E
100
AcDbEntity
  8
0
100
AcDbLine
 10
64.6856
 20
74.5148
 30
0.0
 11
65.194
 21
73.13349999999999
 31
0.0
  0
LINE
  5
A4
330
1E
100
AcDbEntity
  8
0
100
AcDbLine
 10
64.31409999999999
 20
75.9394
 30
0.0
 11
64.6856
 21
74.5148
 31
0.0
  0
LINE
  5
A5
330
1E
100
AcDbEntity
  8
0
100
AcDbLine
 10
64.3151
 20
75.9394
 30
0.0
 11
64.6856
 21
74.5148
 31
0.0
  0
LINE
  5
A6
330
1E
100
AcDbEntity
  8
0
100
AcDbLine
 10
65.2736
 20
76.27460000000001
 30
0.0
 11
65.6199
 21
74.9004
 31
0.0
  0
LINE
  5
A7
330
1E
100
AcDbEntity
  8
0
100
AcDbLine
 10
64.77920000000001
 20
76.17699999999999
 30
0.0
 11
65.1387
 21
74.7534
 31
0.0
  0
LINE
  5
A8
330
1E
100
AcDbEntity
  8
0
100
AcDbLine
 10
65.6199
 20
74.9004
 30
0.0
 11
66.1032
 21
73.56740000000001
 31
0.0
  0
LINE
  5
A9
330
1E
100
AcDbEntity
  8
0
100
AcDbLine
 10
65.1387
 20
74.7534
 30
0.0
 11
65.639
 21
73.3721
 31
0.0
  0
LINE
  5
AB
330
1E
100
AcDbEntity
  8
0
100
AcDbLine
 10
68.43989999999999
 20
75.6645
 30
0.0
 11
68.99259999999999
 21
74.2581
 31
0.0
  0
LINE
  5
B0
330
1E
100
AcDbEntity
  8
0
100
AcDbLine
 10
69.87149999999999
 20
76.3119
 30
0.0
 11
70.37390000000001
 21
74.98090000000001
 31
0.0
  0
LINE
  5
B2
330
1E
100
AcDbEntity
  8
0
100
AcDbLine
 10
68.0835
 20
77.13339999999999
 30
0.0
 11
68.43989999999999
 21
75.6645
 31
0.0
  0
LINE
  5
B6
330
1E
100
AcDbEntity
  8
0
100
AcDbLine
 10
64.0856
 20
77.39319999999999
 30
0.0
 11
64.3151
 21
75.9394
 31
0.0
  0
LINE
  5
B7
330
1E
100
AcDbEntity
  8
0
100
AcDbLine
 10
64.0856
 20
77.39319999999999
 30
0.0
 11
64.31409999999999
 21
75.9394
 31
0.0
  0
LINE
  5
B9
330
1E
100
AcDbEntity
  8
0
100
AcDbLine
 10
64.0
 20
79.13689999999999
 30
0.0
 11
64.0856
 21
77.39319999999999
 31
0.0
  0
LINE
  5
BA
330
1E
100
AcDbEntity
  8
0
100
AcDbLine
 10
65.06820000000001
 20
77.6771
 30
0.0
 11
65.2736
 21
76.27460000000001
 31
0.0
  0
LINE
  5
BB
330
1E
100
AcDbEntity
  8
0
100
AcDbLine
 10
64.5668
 20
77.6298
 30
0.0
 11
64.77920000000001
 21
76.17699999999999
 31
0.0
  0
LINE
  5
DD
330
1E
100
AcDbEntity
  8
0
100
AcDbLine
 10
65.0099
 20
79.0
 30
0.0
 11
65.06820000000001
 21
77.6771
 31
0.0
  0
LINE
  5
DF
330
1E
100
AcDbEntity
  8
0
100
AcDbLine
 10
64.50669999999999
 20
79.0
 30
0.0
 11
64.5668
 21
77.6298
 31
0.0
  0
LINE
  5
E3
330
1E
100
AcDbEntity
  8
0
100
AcDbLine
 10
69.57250000000001
 20
77.70229999999999
 30
0.0
 11
69.87149999999999
 21
76.3119
 31
0.0
  0
LINE
  5
E7
330
1E
100
AcDbEntity
  8
0
100
AcDbLine
 10
67.9315
 20
79.36239999999999
 30
0.0
 11
67.9443
 21
79.0
 31
0.0
  0
LINE
  5
109
330
1E
100
AcDbEntity
  8
0
100
AcDbLine
 10
69.4915
 20
79.0
 30
0.0
 11
69.57250000000001
 21
77.70229999999999
 31
0.0
  0
LINE
  5
10B
330
1E
100
AcDbEntity
  8
0
100
AcDbLine
 10
67.9315
 20
78.6376
 30
0.0
 11
67.9443
 21
79.0
 31
0.0
  0
LINE
  5
10E
330
1E
100
AcDbEntity
  8
0
100
AcDbLine
 10
67.9315
 20
78.6376
 30
0.0
 11
68.0835
 21
77.13339999999999
 31
0.0
  0
LINE
  5
11E
330
1E
100
AcDbEntity
  8
0
100
AcDbLine
 10
70.8724
 20
79.0
 30
0.0
 11
70.8793
 21
78.3295
 31
0.0
  0
LINE
  5
125
330
1E
100
AcDbEntity
  8
0
100
AcDbLine
 10
70.8793
 20
78.3295
 30
0.0
 11
71.0575
 21
77.1808
 31
0.0
  0
LINE
  5
126
330
1E
100
AcDbEntity
  8
0
100
AcDbLine
 10
71.0575
 20
77.1808
 30
0.0
 11
71.3978
 21
76.06829999999999
 31
0.0
  0
LINE
  5
127
330
1E
100
AcDbEntity
  8
0
100
AcDbLine
 10
70.37390000000001
 20
74.98090000000001
 30
0.0
 11
71.06860000000001
 21
73.7396
 31
0.0
  0
LINE
  5
128
330
1E
100
AcDbEntity
  8
0
100
AcDbLine
 10
68.99259999999999
 20
74.2581
 30
0.0
 11
69.7306
 21
72.93919999999999
 31
0.0
  0
LINE
  5
12F
330
1E
100
AcDbEntity
  8
0
100
AcDbLine
 10
79.0
 20
64.52079999999999
 30
0.0
 11
79.83159999999999
 21
64.5265
 31
0.0
  0
LINE
  5
131
330
1E
100
AcDbEntity
  8
0
100
AcDbLine
 10
77.666
 20
64.05840000000001
 30
0.0
 11
79.0
 21
64.00539999999999
 31
0.0
  0
LINE
  5
134
330
1E
100
AcDbEntity
  8
0
100
AcDbLine
 10
78.1684
 20
64.5265
 30
0.0
 11
79.0
 21
64.52079999999999
 31
0.0
  0
LINE
  5
135
330
1E
100
AcDbEntity
  8
0
100
AcDbLine
 10
76.20820000000001
 20
64.2608
 30
0.0
 11
77.666
 21
64.05840000000001
 31
0.0
  0
LINE
  5
136
330
1E
100
AcDbEntity
  8
0
100
AcDbLine
 10
71.5176
 20
67.1744
 30
0.0
 11
72.7529
 21
66.4777
 31
0.0
  0
LINE
  5
13A
330
1E
100
AcDbEntity
  8
0
100
AcDbLine
 10
71.3978
 20
76.06829999999999
 30
0.0
 11
71.8921
 21
75.0172
 31
0.0
  0
LINE
  5
13B
330
1E
100
AcDbEntity
  8
0
100
AcDbLine
 10
72.0492
 20
65.7065
 30
0.0
 11
73.3862
 21
65.08929999999999
 31
0.0
  0
LINE
  5
13C
330
1E
100
AcDbEntity
  8
0
100
AcDbLine
 10
72.5284
 20
66.0266
 30
0.0
 11
73.87350000000001
 21
65.4387
 31
0.0
  0
LINE
  5
13D
330
1E
100
AcDbEntity
  8
0
100
AcDbLine
 10
72.7529
 20
66.4777
 30
0.0
 11
74.0517
 21
65.90989999999999
 31
0.0
  0
LINE
  5
13E
330
1E
100
AcDbEntity
  8
0
100
AcDbLine
 10
73.3862
 20
65.08929999999999
 30
0.0
 11
74.7766
 21
64.60609999999999
 31
0.0
  0
LINE
  5
13F
330
1E
100
AcDbEntity
  8
0
100
AcDbLine
 10
73.87350000000001
 20
65.4387
 30
0.0
 11
75.2719
 21
64.98969999999999
 31
0.0
  0
LINE
  5
140
330
1E
100
AcDbEntity
  8
0
100
AcDbLine
 10
74.0517
 20
65.90989999999999
 30
0.0
 11
75.40179999999999
 21
65.47589999999999
 31
0.0
  0
LINE
  5
141
330
1E
100
AcDbEntity
  8
0
100
AcDbLine
 10
75.2719
 20
64.98969999999999
 30
0.0
 11
76.70860000000001
 21
64.6846
 31
0.0
  0
LINE
  5
142
330
1E
100
AcDbEntity
  8
0
100
AcDbLine
 10
75.40179999999999
 20
65.47589999999999
 30
0.0
 11
76.7881
 21
65.182
 31
0.0
  0
LINE
  5
143
330
1E
100
AcDbEntity
  8
0
100
AcDbLine
 10
76.70860000000001
 20
64.6846
 30
0.0
 11
78.1684
 21
64.5265
 31
0.0
  0
LINE
  5
145
330
1E
100
AcDbEntity
  8
0
100
AcDbLine
 10
76.7881
 20
65.182
 30
0.0
 11
78.19759999999999
 21
65.02889999999999
 31
0.0
  0
LINE
  5
146
330
1E
100
AcDbEntity
  8
0
100
AcDbLine
 10
78.19759999999999
 20
65.02889999999999
 30
0.0
 11
79.0
 21
65.02379999999999
 31
0.0
  0
LINE
  5
14A
330
1E
100
AcDbEntity
  8
0
100
AcDbLine
 10
79.0
 20
65.02379999999999
 30
0.0
 11
79.80240000000001
 21
65.02889999999999
 31
0.0
  0
LINE
  5
163
330
1E
100
AcDbEntity
  8
0
100
AcDbLine
 10
79.0
 20
67.9453
 30
0.0
 11
79.3937
 21
67.9325
 31
0.0
  0
LINE
  5
164
330
1E
100
AcDbEntity
  8
0
100
AcDbLine
 10
78.6063
 20
67.9325
 30
0.0
 11
79.0
 21
67.9453
 31
0.0
  0
LINE
  5
16E
330
1E
100
AcDbEntity
  8
0
100
AcDbLine
 10
77.1032
 20
68.0895
 30
0.0
 11
78.6063
 21
67.9325
 31
0.0
  0
LINE
  5
170
330
1E
100
AcDbEntity
  8
0
100
AcDbLine
 10
75.6353
 20
68.44899999999999
 30
0.0
 11
77.1032
 21
68.0895
 31
0.0
  0
LINE
  5
178
330
1E
100
AcDbEntity
  8
0
100
AcDbLine
 10
74.2299
 20
69.0057
 30
0.0
 11
75.6353
 21
68.44899999999999
 31
0.0
  0
LINE
  5
17C
330
1E
100
AcDbEntity
  8
0
100
AcDbLine
 10
71.7099
 20
70.66289999999999
 30
0.0
 11
72.91299999999999
 21
69.7487
 31
0.0
  0
LINE
  5
17D
330
1E
100
AcDbEntity
  8
0
100
AcDbLine
 10
71.9415
 20
72.61700000000001
 30
0.0
 11
72.9714
 21
71.6364
 31
0.0
  0
LINE
  5
183
330
1E
100
AcDbEntity
  8
0
100
AcDbLine
 10
71.8921
 20
75.0172
 30
0.0
 11
72.53140000000001
 21
74.0456
 31
0.0
  0
LINE
  5
186
330
1E
100
AcDbEntity
  8
0
100
AcDbLine
 10
79.0
 20
69.50960000000001
 30
0.0
 11
79.8326
 21
69.5202
 31
0.0
  0
LINE
  5
18D
330
1E
100
AcDbEntity
  8
0
100
AcDbLine
 10
78.1674
 20
69.5202
 30
0.0
 11
79.0
 21
69.50960000000001
 31
0.0
  0
LINE
  5
19C
330
1E
100
AcDbEntity
  8
0
100
AcDbLine
 10
76.76390000000001
 20
69.7497
 30
0.0
 11
78.1674
 21
69.5202
 31
0.0
  0
LINE
  5
19D
330
1E
100
AcDbEntity
  8
0
100
AcDbLine
 10
75.40980000000001
 20
70.1867
 30
0.0
 11
76.76390000000001
 21
69.7497
 31
0.0
  0
LINE
  5
19F
330
1E
100
AcDbEntity
  8
0
100
AcDbLine
 10
74.13630000000001
 20
70.81990000000001
 30
0.0
 11
75.40980000000001
 21
70.1867
 31
0.0
  0
LINE
  5
1A0
330
1E
100
AcDbEntity
  8
0
100
AcDbLine
 10
72.91299999999999
 20
69.7487
 30
0.0
 11
74.2299
 21
69.0057
 31
0.0
  0
LINE
  5
1A3
330
1E
100
AcDbEntity
  8
0
100
AcDbLine
 10
72.9714
 20
71.6364
 30
0.0
 11
74.13630000000001
 21
70.81990000000001
 31
0.0
  0
LINE
  5
1AB
330
1E
100
AcDbEntity
  8
0
100
AcDbLine
 10
72.53140000000001
 20
74.0456
 30
0.0
 11
73.30259999999999
 21
73.17579999999999
 31
0.0
  0
LINE
  5
1B6
330
1E
100
AcDbEntity
  8
0
100
AcDbLine
 10
73.30259999999999
 20
73.17579999999999
 30
0.0
 11
74.1896
 21
72.4237
 31
0.0
  0
LINE
  5
1B7
330
1E
100
AcDbEntity
  8
0
100
AcDbLine
 10
74.1896
 20
72.4237
 30
0.0
 11
75.1742
 21
71.8066
 31
0.0
  0
LINE
  5
1C8
330
1E
100
AcDbEntity
  8
0
100
AcDbLine
 10
75.1742
 20
71.8066
 30
0.0
 11
76.2364
 21
71.3354
 31
0.0
  0
LINE
  5
1C9
330
1E
100
AcDbEntity
  8
0
100
AcDbLine
 10
76.2364
 20
71.3354
 30
0.0
 11
77.35590000000001
 21
71.0193
 31
0.0
  0
LINE
  5
1CB
330
1E
100
AcDbEntity
  8
0
100
AcDbLine
 10
79.0
 20
70.87279999999999
 30
0.0
 11
79.4913
 21
70.86719999999999
 31
0.0
  0
LINE
  5
2B4
330
1E
100
AcDbEntity
  8
0
100
AcDbLine
 10
77.35590000000001
 20
71.0193
 30
0.0
 11
78.5087
 21
70.86719999999999
 31
0.0
  0
LINE
  5
2B5
330
1E
100
AcDbEntity
  8
0
100
AcDbLine
 10
78.5087
 20
70.86719999999999
 30
0.0
 11
79.0
 21
70.87279999999999
 31
0.0
  0
LINE
  5
2B9
330
1E
100
AcDbEntity
  8
0
100
AcDbLine
 10
74.7766
 20
64.60609999999999
 30
0.0
 11
76.20820000000001
 21
64.2608
 31
0.0
  0
LINE
  5
2BA
330
1E
100
AcDbEntity
  8
0
100
AcDbLine
 10
71.2488
 20
66.74850000000001
 30
0.0
 11
72.5284
 21
66.0266
 31
0.0
  0
LINE
  5
307
330
1E
100
AcDbEntity
  8
0
100
AcDbLine
 10
10.71739999999999
 20
39.56049999999999
 30
0.0
 11
16.4707
 21
30.9731
 31
0.0
  0
LINE
  5
308
330
1E
100
AcDbEntity
  8
0
100
AcDbLine
 10
79.0
 20
87.1272
 30
0.0
 11
79.4913
 21
87.13280000000001
 31
0.0
  0
LINE
  5
309
330
1E
100
AcDbEntity
  8
0
100
AcDbLine
 10
79.0
 20
88.4904
 30
0.0
 11
79.8326
 21
88.47979999999999
 31
0.0
  0
LINE
  5
30A
330
1E
100
AcDbEntity
  8
0
100
AcDbLine
 10
79.0
 20
90.0547
 30
0.0
 11
79.3937
 21
90.0675
 31
0.0
  0
LINE
  5
30B
330
1E
100
AcDbEntity
  8
0
100
AcDbLine
 10
79.0
 20
92.9762
 30
0.0
 11
79.80240000000001
 21
92.97110000000001
 31
0.0
  0
LINE
  5
30C
330
1E
100
AcDbEntity
  8
0
100
AcDbLine
 10
79.0
 20
93.4792
 30
0.0
 11
79.83159999999999
 21
93.4735
 31
0.0
  0
LINE
  5
30D
330
1E
100
AcDbEntity
  8
0
100
AcDbLine
 10
67.9315
 20
78.6376
 30
0.0
 11
67.9443
 21
79.0
 31
0.0
  0
LINE
  5
30E
330
1E
100
AcDbEntity
  8
0
100
AcDbLine
 10
23.14099999999999
 20
134.8639
 30
0.0
 11
30.9731
 21
141.5293
 31
0.0
  0
LINE
  5
30F
330
1E
100
AcDbEntity
  8
0
100
AcDbLine
 10
23.1388
 20
134.8611999999999
 30
0.0
 11
30.9731
 21
141.5293
 31
0.0
  0
LINE
  5
310
330
1E
100
AcDbEntity
  8
0
100
AcDbLine
 10
16.4707
 20
127.0269
 30
0.0
 11
23.1388
 21
134.8611999999999
 31
0.0
  0
LINE
  5
311
330
1E
100
AcDbEntity
  8
0
100
AcDbLine
 10
16.4707
 20
127.0269
 30
0.0
 11
23.14099999999999
 21
134.8639
 31
0.0
  0
LINE
  5
312
330
1E
100
AcDbEntity
  8
0
100
AcDbLine
 10
2.82985
 20
99.39849999999999
 30
0.0
 11
6.131339999999999
 21
109.1851
 31
0.0
  0
LINE
  5
313
330
1E
100
AcDbEntity
  8
0
100
AcDbLine
 10
0.8253729999999999
 20
89.25819999999999
 30
0.0
 11
2.82985
 21
99.39849999999999
 31
0.0
  0
LINE
  5
314
330
1E
100
AcDbEntity
  8
0
100
AcDbLine
 10
0.0
 20
79.0
 30
0.0
 11
0.8253729999999999
 21
89.25819999999999
 31
0.0
  0
LINE
  5
315
330
1E
100
AcDbEntity
  8
0
100
AcDbLine
 10
6.131339999999999
 20
109.1851
 30
0.0
 11
10.71739999999999
 21
118.4395
 31
0.0
  0
LINE
  5
316
330
1E
100
AcDbEntity
  8
0
100
AcDbLine
 10
10.71739999999999
 20
118.4395
 30
0.0
 11
16.4707
 21
127.0269
 31
0.0
  0
LINE
  5
317
330
1E
100
AcDbEntity
  8
0
100
AcDbLine
 10
48.8149
 20
151.86866
 30
0.0
 11
58.6015
 21
155.17015
 31
0.0
  0
LINE
  5
318
330
1E
100
AcDbEntity
  8
0
100
AcDbLine
 10
39.56049999999999
 20
147.2825999999999
 30
0.0
 11
48.8149
 21
151.86866
 31
0.0
  0
LINE
  5
319
330
1E
100
AcDbEntity
  8
0
100
AcDbLine
 10
30.9731
 20
141.5293
 30
0.0
 11
39.56049999999999
 21
147.2825999999999
 31
0.0
  0
LINE
  5
31A
330
1E
100
AcDbEntity
  8
0
100
AcDbLine
 10
58.6015
 20
155.17015
 30
0.0
 11
68.74179999999999
 21
157.174627
 31
0.0
  0
LINE
  5
31B
330
1E
100
AcDbEntity
  8
0
100
AcDbLine
 10
68.74179999999999
 20
157.174627
 30
0.0
 11
79.0
 21
158.0
 31
0.0
  0
LINE
  5
31C
330
1E
100
AcDbEntity
  8
0
100
AcDbLine
 10
68.74179999999999
 20
157.174627
 30
0.0
 11
79.0
 21
158.0
 31
0.0
  0
LINE
  5
31D
330
1E
100
AcDbEntity
  8
0
100
AcDbLine
 10
66.1032
 20
84.4326
 30
0.0
 11
66.7193
 21
85.70919999999999
 31
0.0
  0
LINE
  5
31E
330
1E
100
AcDbEntity
  8
0
100
AcDbLine
 10
66.27729999999999
 20
85.95080000000001
 30
0.0
 11
67.04550000000001
 21
87.20220000000001
 31
0.0
  0
LINE
  5
31F
330
1E
100
AcDbEntity
  8
0
100
AcDbLine
 10
66.6035
 20
87.4479
 30
0.0
 11
67.4915
 21
88.6218
 31
0.0
  0
LINE
  5
320
330
1E
100
AcDbEntity
  8
0
100
AcDbLine
 10
65.639
 20
84.6279
 30
0.0
 11
66.27729999999999
 21
85.95080000000001
 31
0.0
  0
LINE
  5
321
330
1E
100
AcDbEntity
  8
0
100
AcDbLine
 10
65.194
 20
84.8665
 30
0.0
 11
65.83540000000001
 21
86.19139999999999
 31
0.0
  0
LINE
  5
322
330
1E
100
AcDbEntity
  8
0
100
AcDbLine
 10
65.83540000000001
 20
86.19139999999999
 30
0.0
 11
66.6035
 21
87.4479
 31
0.0
  0
LINE
  5
323
330
1E
100
AcDbEntity
  8
0
100
AcDbLine
 10
64.77920000000001
 20
81.82300000000001
 30
0.0
 11
65.1387
 21
83.24659999999999
 31
0.0
  0
LINE
  5
324
330
1E
100
AcDbEntity
  8
0
100
AcDbLine
 10
65.2736
 20
81.72539999999999
 30
0.0
 11
65.6199
 21
83.0996
 31
0.0
  0
LINE
  5
325
330
1E
100
AcDbEntity
  8
0
100
AcDbLine
 10
64.3151
 20
82.06059999999999
 30
0.0
 11
64.6856
 21
83.4852
 31
0.0
  0
LINE
  5
326
330
1E
100
AcDbEntity
  8
0
100
AcDbLine
 10
64.31409999999999
 20
82.06059999999999
 30
0.0
 11
64.6856
 21
83.4852
 31
0.0
  0
LINE
  5
327
330
1E
100
AcDbEntity
  8
0
100
AcDbLine
 10
64.6856
 20
83.4852
 30
0.0
 11
65.194
 21
84.8665
 31
0.0
  0
LINE
  5
328
330
1E
100
AcDbEntity
  8
0
100
AcDbLine
 10
65.1387
 20
83.24659999999999
 30
0.0
 11
65.639
 21
84.6279
 31
0.0
  0
LINE
  5
329
330
1E
100
AcDbEntity
  8
0
100
AcDbLine
 10
65.6199
 20
83.0996
 30
0.0
 11
66.1032
 21
84.4326
 31
0.0
  0
LINE
  5
32A
330
1E
100
AcDbEntity
  8
0
100
AcDbLine
 10
65.06820000000001
 20
80.32290000000001
 30
0.0
 11
65.2736
 21
81.72539999999999
 31
0.0
  0
LINE
  5
32B
330
1E
100
AcDbEntity
  8
0
100
AcDbLine
 10
64.50669999999999
 20
79.0
 30
0.0
 11
64.5668
 21
80.3702
 31
0.0
  0
LINE
  5
32C
330
1E
100
AcDbEntity
  8
0
100
AcDbLine
 10
65.0099
 20
79.0
 30
0.0
 11
65.06820000000001
 21
80.32290000000001
 31
0.0
  0
LINE
  5
32D
330
1E
100
AcDbEntity
  8
0
100
AcDbLine
 10
64.5668
 20
80.3702
 30
0.0
 11
64.77920000000001
 21
81.82300000000001
 31
0.0
  0
LINE
  5
32E
330
1E
100
AcDbEntity
  8
0
100
AcDbLine
 10
64.0
 20
79.13689999999999
 30
0.0
 11
64.0856
 21
80.60680000000001
 31
0.0
  0
LINE
  5
32F
330
1E
100
AcDbEntity
  8
0
100
AcDbLine
 10
64.0856
 20
80.60680000000001
 30
0.0
 11
64.31409999999999
 21
82.06059999999999
 31
0.0
  0
LINE
  5
330
330
1E
100
AcDbEntity
  8
0
100
AcDbLine
 10
64.0856
 20
80.60680000000001
 30
0.0
 11
64.3151
 21
82.06059999999999
 31
0.0
  0
LINE
  5
331
330
1E
100
AcDbEntity
  8
0
100
AcDbLine
 10
71.2488
 20
91.25149999999999
 30
0.0
 11
72.5284
 21
91.9734
 31
0.0
  0
LINE
  5
332
330
1E
100
AcDbEntity
  8
0
100
AcDbLine
 10
71.5176
 20
90.82559999999999
 30
0.0
 11
72.7529
 21
91.52230000000001
 31
0.0
  0
LINE
  5
333
330
1E
100
AcDbEntity
  8
0
100
AcDbLine
 10
69.58960000000001
 20
90.6827
 30
0.0
 11
70.7796
 21
91.54850000000001
 31
0.0
  0
LINE
  5
334
330
1E
100
AcDbEntity
  8
0
100
AcDbLine
 10
72.7529
 20
91.52230000000001
 30
0.0
 11
74.0517
 21
92.09010000000001
 31
0.0
  0
LINE
  5
335
330
1E
100
AcDbEntity
  8
0
100
AcDbLine
 10
72.5284
 20
91.9734
 30
0.0
 11
73.87350000000001
 21
92.5613
 31
0.0
  0
LINE
  5
336
330
1E
100
AcDbEntity
  8
0
100
AcDbLine
 10
72.0492
 20
92.2935
 30
0.0
 11
73.3862
 21
92.91070000000001
 31
0.0
  0
LINE
  5
337
330
1E
100
AcDbEntity
  8
0
100
AcDbLine
 10
70.7796
 20
91.54850000000001
 30
0.0
 11
72.0492
 21
92.2935
 31
0.0
  0
LINE
  5
338
330
1E
100
AcDbEntity
  8
0
100
AcDbLine
 10
74.7766
 20
93.39389999999999
 30
0.0
 11
76.20820000000001
 21
93.7392
 31
0.0
  0
LINE
  5
339
330
1E
100
AcDbEntity
  8
0
100
AcDbLine
 10
75.40179999999999
 20
92.52410000000001
 30
0.0
 11
76.7881
 21
92.818
 31
0.0
  0
LINE
  5
33A
330
1E
100
AcDbEntity
  8
0
100
AcDbLine
 10
75.2719
 20
93.0103
 30
0.0
 11
76.70860000000001
 21
93.3154
 31
0.0
  0
LINE
  5
33B
330
1E
100
AcDbEntity
  8
0
100
AcDbLine
 10
74.0517
 20
92.09010000000001
 30
0.0
 11
75.40179999999999
 21
92.52410000000001
 31
0.0
  0
LINE
  5
33C
330
1E
100
AcDbEntity
  8
0
100
AcDbLine
 10
73.87350000000001
 20
92.5613
 30
0.0
 11
75.2719
 21
93.0103
 31
0.0
  0
LINE
  5
33D
330
1E
100
AcDbEntity
  8
0
100
AcDbLine
 10
73.3862
 20
92.91070000000001
 30
0.0
 11
74.7766
 21
93.39389999999999
 31
0.0
  0
LINE
  5
33E
330
1E
100
AcDbEntity
  8
0
100
AcDbLine
 10
76.7881
 20
92.818
 30
0.0
 11
78.19759999999999
 21
92.97110000000001
 31
0.0
  0
LINE
  5
33F
330
1E
100
AcDbEntity
  8
0
100
AcDbLine
 10
76.70860000000001
 20
93.3154
 30
0.0
 11
78.1684
 21
93.4735
 31
0.0
  0
LINE
  5
340
330
1E
100
AcDbEntity
  8
0
100
AcDbLine
 10
76.20820000000001
 20
93.7392
 30
0.0
 11
77.666
 21
93.94159999999999
 31
0.0
  0
LINE
  5
341
330
1E
100
AcDbEntity
  8
0
100
AcDbLine
 10
78.19759999999999
 20
92.97110000000001
 30
0.0
 11
79.0
 21
92.9762
 31
0.0
  0
LINE
  5
342
330
1E
100
AcDbEntity
  8
0
100
AcDbLine
 10
78.1684
 20
93.4735
 30
0.0
 11
79.0
 21
93.4792
 31
0.0
  0
LINE
  5
343
330
1E
100
AcDbEntity
  8
0
100
AcDbLine
 10
77.666
 20
93.94159999999999
 30
0.0
 11
79.0
 21
93.99460000000001
 31
0.0
  0
LINE
  5
344
330
1E
100
AcDbEntity
  8
0
100
AcDbLine
 10
72.53140000000001
 20
83.9544
 30
0.0
 11
73.30259999999999
 21
84.82420000000001
 31
0.0
  0
LINE
  5
345
330
1E
100
AcDbEntity
  8
0
100
AcDbLine
 10
71.9415
 20
85.38299999999999
 30
0.0
 11
72.9714
 21
86.36360000000001
 31
0.0
  0
LINE
  5
346
330
1E
100
AcDbEntity
  8
0
100
AcDbLine
 10
71.7099
 20
87.3371
 30
0.0
 11
72.91299999999999
 21
88.25129999999999
 31
0.0
  0
LINE
  5
347
330
1E
100
AcDbEntity
  8
0
100
AcDbLine
 10
69.7306
 20
85.0608
 30
0.0
 11
70.6427
 21
86.2659
 31
0.0
  0
LINE
  5
348
330
1E
100
AcDbEntity
  8
0
100
AcDbLine
 10
71.06860000000001
 20
84.2604
 30
0.0
 11
71.9415
 21
85.38299999999999
 31
0.0
  0
LINE
  5
349
330
1E
100
AcDbEntity
  8
0
100
AcDbLine
 10
69.29059999999999
 20
89.0779
 30
0.0
 11
70.35980000000001
 21
90.00809999999999
 31
0.0
  0
LINE
  5
34A
330
1E
100
AcDbEntity
  8
0
100
AcDbLine
 10
68.9413
 20
89.44029999999999
 30
0.0
 11
70.0497
 21
90.4048
 31
0.0
  0
LINE
  5
34B
330
1E
100
AcDbEntity
  8
0
100
AcDbLine
 10
68.3211
 20
88.04389999999999
 30
0.0
 11
69.29059999999999
 21
89.0779
 31
0.0
  0
LINE
  5
34C
330
1E
100
AcDbEntity
  8
0
100
AcDbLine
 10
67.04550000000001
 20
87.20220000000001
 30
0.0
 11
67.93649999999999
 21
88.36910000000001
 31
0.0
  0
LINE
  5
34D
330
1E
100
AcDbEntity
  8
0
100
AcDbLine
 10
67.93649999999999
 20
88.36910000000001
 30
0.0
 11
68.9413
 21
89.44029999999999
 31
0.0
  0
LINE
  5
34E
330
1E
100
AcDbEntity
  8
0
100
AcDbLine
 10
67.4915
 20
88.6218
 30
0.0
 11
68.4902
 21
89.70409999999999
 31
0.0
  0
LINE
  5
34F
330
1E
100
AcDbEntity
  8
0
100
AcDbLine
 10
68.4902
 20
89.70409999999999
 30
0.0
 11
69.58960000000001
 21
90.6827
 31
0.0
  0
LINE
  5
350
330
1E
100
AcDbEntity
  8
0
100
AcDbLine
 10
67.46030000000001
 20
86.91729999999999
 30
0.0
 11
68.3211
 21
88.04389999999999
 31
0.0
  0
LINE
  5
351
330
1E
100
AcDbEntity
  8
0
100
AcDbLine
 10
66.7193
 20
85.70919999999999
 30
0.0
 11
67.46030000000001
 21
86.91729999999999
 31
0.0
  0
LINE
  5
352
330
1E
100
AcDbEntity
  8
0
100
AcDbLine
 10
70.35980000000001
 20
90.00809999999999
 30
0.0
 11
71.5176
 21
90.82559999999999
 31
0.0
  0
LINE
  5
353
330
1E
100
AcDbEntity
  8
0
100
AcDbLine
 10
70.0497
 20
90.4048
 30
0.0
 11
71.2488
 21
91.25149999999999
 31
0.0
  0
LINE
  5
354
330
1E
100
AcDbEntity
  8
0
100
AcDbLine
 10
70.6427
 20
86.2659
 30
0.0
 11
71.7099
 21
87.3371
 31
0.0
  0
LINE
  5
355
330
1E
100
AcDbEntity
  8
0
100
AcDbLine
 10
69.57250000000001
 20
80.2977
 30
0.0
 11
69.87149999999999
 21
81.6881
 31
0.0
  0
LINE
  5
356
330
1E
100
AcDbEntity
  8
0
100
AcDbLine
 10
68.0835
 20
80.8666
 30
0.0
 11
68.43989999999999
 21
82.33549999999999
 31
0.0
  0
LINE
  5
357
330
1E
100
AcDbEntity
  8
0
100
AcDbLine
 10
68.99259999999999
 20
83.7419
 30
0.0
 11
69.7306
 21
85.0608
 31
0.0
  0
LINE
  5
358
330
1E
100
AcDbEntity
  8
0
100
AcDbLine
 10
68.43989999999999
 20
82.33549999999999
 30
0.0
 11
68.99259999999999
 21
83.7419
 31
0.0
  0
LINE
  5
359
330
1E
100
AcDbEntity
  8
0
100
AcDbLine
 10
67.9315
 20
79.36239999999999
 30
0.0
 11
68.0835
 21
80.8666
 31
0.0
  0
LINE
  5
35A
330
1E
100
AcDbEntity
  8
0
100
AcDbLine
 10
67.9315
 20
79.36239999999999
 30
0.0
 11
67.9443
 21
79.0
 31
0.0
  0
LINE
  5
35B
330
1E
100
AcDbEntity
  8
0
100
AcDbLine
 10
69.4915
 20
79.0
 30
0.0
 11
69.57250000000001
 21
80.2977
 31
0.0
  0
LINE
  5
35C
330
1E
100
AcDbEntity
  8
0
100
AcDbLine
 10
71.3978
 20
81.9317
 30
0.0
 11
71.8921
 21
82.9828
 31
0.0
  0
LINE
  5
35D
330
1E
100
AcDbEntity
  8
0
100
AcDbLine
 10
69.87149999999999
 20
81.6881
 30
0.0
 11
70.37390000000001
 21
83.01909999999999
 31
0.0
  0
LINE
  5
35E
330
1E
100
AcDbEntity
  8
0
100
AcDbLine
 10
70.37390000000001
 20
83.01909999999999
 30
0.0
 11
71.06860000000001
 21
84.2604
 31
0.0
  0
LINE
  5
35F
330
1E
100
AcDbEntity
  8
0
100
AcDbLine
 10
71.8921
 20
82.9828
 30
0.0
 11
72.53140000000001
 21
83.9544
 31
0.0
  0
LINE
  5
360
330
1E
100
AcDbEntity
  8
0
100
AcDbLine
 10
71.0575
 20
80.8192
 30
0.0
 11
71.3978
 21
81.9317
 31
0.0
  0
LINE
  5
361
330
1E
100
AcDbEntity
  8
0
100
AcDbLine
 10
70.8793
 20
79.6705
 30
0.0
 11
71.0575
 21
80.8192
 31
0.0
  0
LINE
  5
362
330
1E
100
AcDbEntity
  8
0
100
AcDbLine
 10
70.8724
 20
79.0
 30
0.0
 11
70.8793
 21
79.6705
 31
0.0
  0
LINE
  5
363
330
1E
100
AcDbEntity
  8
0
100
AcDbLine
 10
73.30259999999999
 20
84.82420000000001
 30
0.0
 11
74.1896
 21
85.57630000000001
 31
0.0
  0
LINE
  5
364
330
1E
100
AcDbEntity
  8
0
100
AcDbLine
 10
75.1742
 20
86.19339999999999
 30
0.0
 11
76.2364
 21
86.66459999999998
 31
0.0
  0
LINE
  5
365
330
1E
100
AcDbEntity
  8
0
100
AcDbLine
 10
75.40980000000001
 20
87.8133
 30
0.0
 11
76.76390000000001
 21
88.25029999999999
 31
0.0
  0
LINE
  5
366
330
1E
100
AcDbEntity
  8
0
100
AcDbLine
 10
75.6353
 20
89.55099999999999
 30
0.0
 11
77.1032
 21
89.91049999999999
 31
0.0
  0
LINE
  5
367
330
1E
100
AcDbEntity
  8
0
100
AcDbLine
 10
72.91299999999999
 20
88.25129999999999
 30
0.0
 11
74.2299
 21
88.9943
 31
0.0
  0
LINE
  5
368
330
1E
100
AcDbEntity
  8
0
100
AcDbLine
 10
74.2299
 20
88.9943
 30
0.0
 11
75.6353
 21
89.55099999999999
 31
0.0
  0
LINE
  5
369
330
1E
100
AcDbEntity
  8
0
100
AcDbLine
 10
74.1896
 20
85.57630000000001
 30
0.0
 11
75.1742
 21
86.19339999999999
 31
0.0
  0
LINE
  5
36A
330
1E
100
AcDbEntity
  8
0
100
AcDbLine
 10
74.13630000000001
 20
87.18009999999999
 30
0.0
 11
75.40980000000001
 21
87.8133
 31
0.0
  0
LINE
  5
36B
330
1E
100
AcDbEntity
  8
0
100
AcDbLine
 10
72.9714
 20
86.36360000000001
 30
0.0
 11
74.13630000000001
 21
87.18009999999999
 31
0.0
  0
LINE
  5
36C
330
1E
100
AcDbEntity
  8
0
100
AcDbLine
 10
76.76390000000001
 20
88.25029999999999
 30
0.0
 11
78.1674
 21
88.47979999999999
 31
0.0
  0
LINE
  5
36D
330
1E
100
AcDbEntity
  8
0
100
AcDbLine
 10
77.1032
 20
89.91049999999999
 30
0.0
 11
78.6063
 21
90.0675
 31
0.0
  0
LINE
  5
36E
330
1E
100
AcDbEntity
  8
0
100
AcDbLine
 10
78.1674
 20
88.47979999999999
 30
0.0
 11
79.0
 21
88.4904
 31
0.0
  0
LINE
  5
36F
330
1E
100
AcDbEntity
  8
0
100
AcDbLine
 10
78.6063
 20
90.0675
 30
0.0
 11
79.0
 21
90.0547
 31
0.0
  0
LINE
  5
370
330
1E
100
AcDbEntity
  8
0
100
AcDbLine
 10
77.35590000000001
 20
86.98069999999999
 30
0.0
 11
78.5087
 21
87.13280000000001
 31
0.0
  0
LINE
  5
371
330
1E
100
AcDbEntity
  8
0
100
AcDbLine
 10
76.2364
 20
86.66459999999998
 30
0.0
 11
77.35590000000001
 21
86.98069999999999
 31
0.0
  0
LINE
  5
372
330
1E
100
AcDbEntity
  8
0
100
AcDbLine
 10
78.5087
 20
87.13280000000001
 30
0.0
 11
79.0
 21
87.1272
 31
0.0
  0
LINE
  5
373
330
1E
100
AcDbEntity
  8
0
100
AcDbLine
 10
79.0
 20
93.4792
 30
0.0
 11
78.1684
 21
93.4735
 31
0.0
  0
LINE
  5
374
330
1E
100
AcDbEntity
  8
0
100
AcDbLine
 10
79.0
 20
92.9762
 30
0.0
 11
78.19759999999999
 21
92.97110000000001
 31
0.0
  0
LINE
  5
375
330
1E
100
AcDbEntity
  8
0
100
AcDbLine
 10
79.0
 20
90.0547
 30
0.0
 11
78.6063
 21
90.0675
 31
0.0
  0
LINE
  5
376
330
1E
100
AcDbEntity
  8
0
100
AcDbLine
 10
79.0
 20
88.4904
 30
0.0
 11
78.1674
 21
88.47979999999999
 31
0.0
  0
LINE
  5
377
330
1E
100
AcDbEntity
  8
0
100
AcDbLine
 10
79.0
 20
87.1272
 30
0.0
 11
78.5087
 21
87.13280000000001
 31
0.0
  0
LINE
  5
378
330
1E
100
AcDbEntity
  8
0
100
AcDbLine
 10
79.0
 20
70.87279999999999
 30
0.0
 11
78.5087
 21
70.86719999999999
 31
0.0
  0
LINE
  5
379
330
1E
100
AcDbEntity
  8
0
100
AcDbLine
 10
79.0
 20
69.50960000000001
 30
0.0
 11
78.1674
 21
69.5202
 31
0.0
  0
LINE
  5
37A
330
1E
100
AcDbEntity
  8
0
100
AcDbLine
 10
79.0
 20
67.9453
 30
0.0
 11
78.6063
 21
67.9325
 31
0.0
  0
LINE
  5
37B
330
1E
100
AcDbEntity
  8
0
100
AcDbLine
 10
79.0
 20
65.02379999999999
 30
0.0
 11
78.19759999999999
 21
65.02889999999999
 31
0.0
  0
LINE
  5
37C
330
1E
100
AcDbEntity
  8
0
100
AcDbLine
 10
79.0
 20
64.52079999999999
 30
0.0
 11
78.1684
 21
64.5265
 31
0.0
  0
LINE
  5
37D
330
1E
100
AcDbEntity
  8
0
100
AcDbLine
 10
94.0
 20
79.13689999999999
 30
0.0
 11
93.91440000000001
 21
77.39319999999999
 31
0.0
  0
LINE
  5
37E
330
1E
100
AcDbEntity
  8
0
100
AcDbLine
 10
87.12760000000001
 20
79.0
 30
0.0
 11
87.1207
 21
79.6705
 31
0.0
  0
LINE
  5
37F
330
1E
100
AcDbEntity
  8
0
100
AcDbLine
 10
88.50849999999999
 20
79.0
 30
0.0
 11
88.4275
 21
80.2977
 31
0.0
  0
LINE
  5
380
330
1E
100
AcDbEntity
  8
0
100
AcDbLine
 10
90.0685
 20
79.36239999999999
 30
0.0
 11
90.0557
 21
79.0
 31
0.0
  0
LINE
  5
381
330
1E
100
AcDbEntity
  8
0
100
AcDbLine
 10
92.9901
 20
79.0
 30
0.0
 11
92.93179999999999
 21
80.32290000000001
 31
0.0
  0
LINE
  5
382
330
1E
100
AcDbEntity
  8
0
100
AcDbLine
 10
93.4933
 20
79.0
 30
0.0
 11
93.4332
 21
80.3702
 31
0.0
  0
LINE
  5
383
330
1E
100
AcDbEntity
  8
0
100
AcDbLine
 10
158.0
 20
79.0
 30
0.0
 11
157.174627
 21
89.25819999999999
 31
0.0
  0
LINE
  5
384
330
1E
100
AcDbEntity
  8
0
100
AcDbLine
 10
90.0685
 20
79.36239999999999
 30
0.0
 11
90.0557
 21
79.0
 31
0.0
  0
LINE
  5
385
330
1E
100
AcDbEntity
  8
0
100
AcDbLine
 10
134.859
 20
23.1361
 30
0.0
 11
127.0269
 21
16.4707
 31
0.0
  0
LINE
  5
386
330
1E
100
AcDbEntity
  8
0
100
AcDbLine
 10
134.8611999999999
 20
23.1388
 30
0.0
 11
127.0269
 21
16.4707
 31
0.0
  0
LINE
  5
387
330
1E
100
AcDbEntity
  8
0
100
AcDbLine
 10
141.5293
 20
30.9731
 30
0.0
 11
134.8611999999999
 21
23.1388
 31
0.0
  0
LINE
  5
388
330
1E
100
AcDbEntity
  8
0
100
AcDbLine
 10
141.5293
 20
30.9731
 30
0.0
 11
134.859
 21
23.1361
 31
0.0
  0
LINE
  5
389
330
1E
100
AcDbEntity
  8
0
100
AcDbLine
 10
155.17015
 20
58.6015
 30
0.0
 11
151.86866
 21
48.8149
 31
0.0
  0
LINE
  5
38A
330
1E
100
AcDbEntity
  8
0
100
AcDbLine
 10
157.174627
 20
68.74179999999999
 30
0.0
 11
155.17015
 21
58.6015
 31
0.0
  0
LINE
  5
38B
330
1E
100
AcDbEntity
  8
0
100
AcDbLine
 10
158.0
 20
79.0
 30
0.0
 11
157.174627
 21
68.74179999999999
 31
0.0
  0
LINE
  5
38C
330
1E
100
AcDbEntity
  8
0
100
AcDbLine
 10
151.86866
 20
48.8149
 30
0.0
 11
147.2825999999999
 21
39.56049999999999
 31
0.0
  0
LINE
  5
38D
330
1E
100
AcDbEntity
  8
0
100
AcDbLine
 10
147.2825999999999
 20
39.56049999999999
 30
0.0
 11
141.5293
 21
30.9731
 31
0.0
  0
LINE
  5
38E
330
1E
100
AcDbEntity
  8
0
100
AcDbLine
 10
109.1851
 20
6.131339999999999
 30
0.0
 11
99.39849999999999
 21
2.82985
 31
0.0
  0
LINE
  5
38F
330
1E
100
AcDbEntity
  8
0
100
AcDbLine
 10
118.4395
 20
10.71739999999999
 30
0.0
 11
109.1851
 21
6.131339999999999
 31
0.0
  0
LINE
  5
390
330
1E
100
AcDbEntity
  8
0
100
AcDbLine
 10
127.0269
 20
16.4707
 30
0.0
 11
118.4395
 21
10.71739999999999
 31
0.0
  0
LINE
  5
391
330
1E
100
AcDbEntity
  8
0
100
AcDbLine
 10
99.39849999999999
 20
2.82985
 30
0.0
 11
89.25819999999999
 21
0.8253730000000009
 31
0.0
  0
LINE
  5
392
330
1E
100
AcDbEntity
  8
0
100
AcDbLine
 10
89.25819999999999
 20
0.8253730000000009
 30
0.0
 11
79.0
 21
0.0000000000000005
 31
0.0
  0
LINE
  5
393
330
1E
100
AcDbEntity
  8
0
100
AcDbLine
 10
89.25819999999999
 20
0.8253730000000009
 30
0.0
 11
79.0
 21
0.0000000000000006
 31
0.0
  0
LINE
  5
394
330
1E
100
AcDbEntity
  8
0
100
AcDbLine
 10
91.8968
 20
73.56740000000001
 30
0.0
 11
91.28069999999999
 21
72.2908
 31
0.0
  0
LINE
  5
395
330
1E
100
AcDbEntity
  8
0
100
AcDbLine
 10
91.72270000000001
 20
72.0492
 30
0.0
 11
90.95449999999999
 21
70.79779999999999
 31
0.0
  0
LINE
  5
396
330
1E
100
AcDbEntity
  8
0
100
AcDbLine
 10
91.39650000000001
 20
70.55209999999999
 30
0.0
 11
90.5085
 21
69.37820000000001
 31
0.0
  0
LINE
  5
397
330
1E
100
AcDbEntity
  8
0
100
AcDbLine
 10
92.361
 20
73.3721
 30
0.0
 11
91.72270000000001
 21
72.0492
 31
0.0
  0
LINE
  5
398
330
1E
100
AcDbEntity
  8
0
100
AcDbLine
 10
92.80599999999999
 20
73.13349999999999
 30
0.0
 11
92.16459999999999
 21
71.8086
 31
0.0
  0
LINE
  5
399
330
1E
100
AcDbEntity
  8
0
100
AcDbLine
 10
92.16459999999999
 20
71.8086
 30
0.0
 11
91.39650000000001
 21
70.55209999999999
 31
0.0
  0
LINE
  5
39A
330
1E
100
AcDbEntity
  8
0
100
AcDbLine
 10
93.22079999999999
 20
76.17699999999999
 30
0.0
 11
92.86129999999999
 21
74.7534
 31
0.0
  0
LINE
  5
39B
330
1E
100
AcDbEntity
  8
0
100
AcDbLine
 10
92.7264
 20
76.27460000000001
 30
0.0
 11
92.3801
 21
74.9004
 31
0.0
  0
LINE
  5
39C
330
1E
100
AcDbEntity
  8
0
100
AcDbLine
 10
93.68489999999999
 20
75.9394
 30
0.0
 11
93.3144
 21
74.5148
 31
0.0
  0
LINE
  5
39D
330
1E
100
AcDbEntity
  8
0
100
AcDbLine
 10
93.68590000000001
 20
75.9394
 30
0.0
 11
93.3144
 21
74.5148
 31
0.0
  0
LINE
  5
39E
330
1E
100
AcDbEntity
  8
0
100
AcDbLine
 10
93.3144
 20
74.5148
 30
0.0
 11
92.80599999999999
 21
73.13349999999999
 31
0.0
  0
LINE
  5
39F
330
1E
100
AcDbEntity
  8
0
100
AcDbLine
 10
92.86129999999999
 20
74.7534
 30
0.0
 11
92.361
 21
73.3721
 31
0.0
  0
LINE
  5
3A0
330
1E
100
AcDbEntity
  8
0
100
AcDbLine
 10
92.3801
 20
74.9004
 30
0.0
 11
91.8968
 21
73.56740000000001
 31
0.0
  0
LINE
  5
3A1
330
1E
100
AcDbEntity
  8
0
100
AcDbLine
 10
92.93179999999999
 20
77.6771
 30
0.0
 11
92.7264
 21
76.27460000000001
 31
0.0
  0
LINE
  5
3A2
330
1E
100
AcDbEntity
  8
0
100
AcDbLine
 10
93.4933
 20
79.0
 30
0.0
 11
93.4332
 21
77.6298
 31
0.0
  0
LINE
  5
3A3
330
1E
100
AcDbEntity
  8
0
100
AcDbLine
 10
92.9901
 20
79.0
 30
0.0
 11
92.93179999999999
 21
77.6771
 31
0.0
  0
LINE
  5
3A4
330
1E
100
AcDbEntity
  8
0
100
AcDbLine
 10
93.4332
 20
77.6298
 30
0.0
 11
93.22079999999999
 21
76.17699999999999
 31
0.0
  0
LINE
  5
3A5
330
1E
100
AcDbEntity
  8
0
100
AcDbLine
 10
93.91440000000001
 20
77.39319999999999
 30
0.0
 11
93.68590000000001
 21
75.9394
 31
0.0
  0
LINE
  5
3A6
330
1E
100
AcDbEntity
  8
0
100
AcDbLine
 10
93.91440000000001
 20
77.39319999999999
 30
0.0
 11
93.68489999999999
 21
75.9394
 31
0.0
  0
LINE
  5
3A7
330
1E
100
AcDbEntity
  8
0
100
AcDbLine
 10
86.75119999999999
 20
66.74850000000001
 30
0.0
 11
85.47159999999999
 21
66.0266
 31
0.0
  0
LINE
  5
3A8
330
1E
100
AcDbEntity
  8
0
100
AcDbLine
 10
86.48239999999999
 20
67.1744
 30
0.0
 11
85.2471
 21
66.4777
 31
0.0
  0
LINE
  5
3A9
330
1E
100
AcDbEntity
  8
0
100
AcDbLine
 10
88.41039999999999
 20
67.3173
 30
0.0
 11
87.22039999999999
 21
66.4515
 31
0.0
  0
LINE
  5
3AA
330
1E
100
AcDbEntity
  8
0
100
AcDbLine
 10
85.2471
 20
66.4777
 30
0.0
 11
83.9483
 21
65.90989999999999
 31
0.0
  0
LINE
  5
3AB
330
1E
100
AcDbEntity
  8
0
100
AcDbLine
 10
85.47159999999999
 20
66.0266
 30
0.0
 11
84.12649999999999
 21
65.4387
 31
0.0
  0
LINE
  5
3AC
330
1E
100
AcDbEntity
  8
0
100
AcDbLine
 10
85.95080000000001
 20
65.7065
 30
0.0
 11
84.6138
 21
65.08929999999999
 31
0.0
  0
LINE
  5
3AD
330
1E
100
AcDbEntity
  8
0
100
AcDbLine
 10
87.22039999999999
 20
66.4515
 30
0.0
 11
85.95080000000001
 21
65.7065
 31
0.0
  0
LINE
  5
3AE
330
1E
100
AcDbEntity
  8
0
100
AcDbLine
 10
83.2234
 20
64.60609999999999
 30
0.0
 11
81.7918
 21
64.2608
 31
0.0
  0
LINE
  5
3AF
330
1E
100
AcDbEntity
  8
0
100
AcDbLine
 10
82.59820000000001
 20
65.47589999999999
 30
0.0
 11
81.2119
 21
65.182
 31
0.0
  0
LINE
  5
3B0
330
1E
100
AcDbEntity
  8
0
100
AcDbLine
 10
82.72809999999999
 20
64.98969999999999
 30
0.0
 11
81.29139999999999
 21
64.6846
 31
0.0
  0
LINE
  5
3B1
330
1E
100
AcDbEntity
  8
0
100
AcDbLine
 10
83.9483
 20
65.90989999999999
 30
0.0
 11
82.59820000000001
 21
65.47589999999999
 31
0.0
  0
LINE
  5
3B2
330
1E
100
AcDbEntity
  8
0
100
AcDbLine
 10
84.12649999999999
 20
65.4387
 30
0.0
 11
82.72809999999999
 21
64.98969999999999
 31
0.0
  0
LINE
  5
3B3
330
1E
100
AcDbEntity
  8
0
100
AcDbLine
 10
84.6138
 20
65.08929999999999
 30
0.0
 11
83.2234
 21
64.60609999999999
 31
0.0
  0
LINE
  5
3B4
330
1E
100
AcDbEntity
  8
0
100
AcDbLine
 10
81.2119
 20
65.182
 30
0.0
 11
79.80240000000001
 21
65.02889999999999
 31
0.0
  0
LINE
  5
3B5
330
1E
100
AcDbEntity
  8
0
100
AcDbLine
 10
81.29139999999999
 20
64.6846
 30
0.0
 11
79.83159999999999
 21
64.5265
 31
0.0
  0
LINE
  5
3B6
330
1E
100
AcDbEntity
  8
0
100
AcDbLine
 10
81.7918
 20
64.2608
 30
0.0
 11
80.334
 21
64.05840000000001
 31
0.0
  0
LINE
  5
3B7
330
1E
100
AcDbEntity
  8
0
100
AcDbLine
 10
79.80240000000001
 20
65.02889999999999
 30
0.0
 11
79.0
 21
65.02379999999999
 31
0.0
  0
LINE
  5
3B8
330
1E
100
AcDbEntity
  8
0
100
AcDbLine
 10
79.83159999999999
 20
64.5265
 30
0.0
 11
79.0
 21
64.52079999999999
 31
0.0
  0
LINE
  5
3B9
330
1E
100
AcDbEntity
  8
0
100
AcDbLine
 10
80.334
 20
64.05840000000001
 30
0.0
 11
79.0
 21
64.00539999999999
 31
0.0
  0
LINE
  5
3BA
330
1E
100
AcDbEntity
  8
0
100
AcDbLine
 10
85.4686
 20
74.0456
 30
0.0
 11
84.69739999999999
 21
73.17579999999999
 31
0.0
  0
LINE
  5
3BB
330
1E
100
AcDbEntity
  8
0
100
AcDbLine
 10
86.0585
 20
72.61700000000001
 30
0.0
 11
85.0286
 21
71.6364
 31
0.0
  0
LINE
  5
3BC
330
1E
100
AcDbEntity
  8
0
100
AcDbLine
 10
86.29009999999999
 20
70.66289999999999
 30
0.0
 11
85.08700000000001
 21
69.7487
 31
0.0
  0
LINE
  5
3BD
330
1E
100
AcDbEntity
  8
0
100
AcDbLine
 10
88.2694
 20
72.93919999999999
 30
0.0
 11
87.3573
 21
71.7341
 31
0.0
  0
LINE
  5
3BE
330
1E
100
AcDbEntity
  8
0
100
AcDbLine
 10
86.93139999999999
 20
73.7396
 30
0.0
 11
86.0585
 21
72.61700000000001
 31
0.0
  0
LINE
  5
3BF
330
1E
100
AcDbEntity
  8
0
100
AcDbLine
 10
88.7094
 20
68.9221
 30
0.0
 11
87.6402
 21
67.9919
 31
0.0
  0
LINE
  5
3C0
330
1E
100
AcDbEntity
  8
0
100
AcDbLine
 10
89.0587
 20
68.55970000000001
 30
0.0
 11
87.9503
 21
67.59520000000001
 31
0.0
  0
LINE
  5
3C1
330
1E
100
AcDbEntity
  8
0
100
AcDbLine
 10
89.6789
 20
69.9561
 30
0.0
 11
88.7094
 21
68.9221
 31
0.0
  0
LINE
  5
3C2
330
1E
100
AcDbEntity
  8
0
100
AcDbLine
 10
90.95449999999999
 20
70.79779999999999
 30
0.0
 11
90.06350000000001
 21
69.6309
 31
0.0
  0
LINE
  5
3C3
330
1E
100
AcDbEntity
  8
0
100
AcDbLine
 10
90.06350000000001
 20
69.6309
 30
0.0
 11
89.0587
 21
68.55970000000001
 31
0.0
  0
LINE
  5
3C4
330
1E
100
AcDbEntity
  8
0
100
AcDbLine
 10
90.5085
 20
69.37820000000001
 30
0.0
 11
89.50979999999999
 21
68.2959
 31
0.0
  0
LINE
  5
3C5
330
1E
100
AcDbEntity
  8
0
100
AcDbLine
 10
89.50979999999999
 20
68.2959
 30
0.0
 11
88.41039999999999
 21
67.3173
 31
0.0
  0
LINE
  5
3C6
330
1E
100
AcDbEntity
  8
0
100
AcDbLine
 10
90.53969999999999
 20
71.0827
 30
0.0
 11
89.6789
 21
69.9561
 31
0.0
  0
LINE
  5
3C7
330
1E
100
AcDbEntity
  8
0
100
AcDbLine
 10
91.28069999999999
 20
72.2908
 30
0.0
 11
90.53969999999999
 21
71.0827
 31
0.0
  0
LINE
  5
3C8
330
1E
100
AcDbEntity
  8
0
100
AcDbLine
 10
87.6402
 20
67.9919
 30
0.0
 11
86.48239999999999
 21
67.1744
 31
0.0
  0
LINE
  5
3C9
330
1E
100
AcDbEntity
  8
0
100
AcDbLine
 10
87.9503
 20
67.59520000000001
 30
0.0
 11
86.75119999999999
 21
66.74850000000001
 31
0.0
  0
LINE
  5
3CA
330
1E
100
AcDbEntity
  8
0
100
AcDbLine
 10
87.3573
 20
71.7341
 30
0.0
 11
86.29009999999999
 21
70.66289999999999
 31
0.0
  0
LINE
  5
3CB
330
1E
100
AcDbEntity
  8
0
100
AcDbLine
 10
88.4275
 20
77.70229999999999
 30
0.0
 11
88.1285
 21
76.3119
 31
0.0
  0
LINE
  5
3CC
330
1E
100
AcDbEntity
  8
0
100
AcDbLine
 10
89.91649999999999
 20
77.13339999999999
 30
0.0
 11
89.5601
 21
75.6645
 31
0.0
  0
LINE
  5
3CD
330
1E
100
AcDbEntity
  8
0
100
AcDbLine
 10
89.0074
 20
74.2581
 30
0.0
 11
88.2694
 21
72.93919999999999
 31
0.0
  0
LINE
  5
3CE
330
1E
100
AcDbEntity
  8
0
100
AcDbLine
 10
89.5601
 20
75.6645
 30
0.0
 11
89.0074
 21
74.2581
 31
0.0
  0
LINE
  5
3CF
330
1E
100
AcDbEntity
  8
0
100
AcDbLine
 10
90.0685
 20
78.6376
 30
0.0
 11
90.0557
 21
79.0
 31
0.0
  0
LINE
  5
3D0
330
1E
100
AcDbEntity
  8
0
100
AcDbLine
 10
90.0685
 20
78.6376
 30
0.0
 11
89.91649999999999
 21
77.13339999999999
 31
0.0
  0
LINE
  5
3D1
330
1E
100
AcDbEntity
  8
0
100
AcDbLine
 10
90.0685
 20
78.6376
 30
0.0
 11
90.0557
 21
79.0
 31
0.0
  0
LINE
  5
3D2
330
1E
100
AcDbEntity
  8
0
100
AcDbLine
 10
88.50849999999999
 20
79.0
 30
0.0
 11
88.4275
 21
77.70229999999999
 31
0.0
  0
LINE
  5
3D3
330
1E
100
AcDbEntity
  8
0
100
AcDbLine
 10
86.6022
 20
76.06829999999999
 30
0.0
 11
86.10789999999999
 21
75.0172
 31
0.0
  0
LINE
  5
3D4
330
1E
100
AcDbEntity
  8
0
100
AcDbLine
 10
88.1285
 20
76.3119
 30
0.0
 11
87.6261
 21
74.98090000000001
 31
0.0
  0
LINE
  5
3D5
330
1E
100
AcDbEntity
  8
0
100
AcDbLine
 10
87.6261
 20
74.98090000000001
 30
0.0
 11
86.93139999999999
 21
73.7396
 31
0.0
  0
LINE
  5
3D6
330
1E
100
AcDbEntity
  8
0
100
AcDbLine
 10
86.10789999999999
 20
75.0172
 30
0.0
 11
85.4686
 21
74.0456
 31
0.0
  0
LINE
  5
3D7
330
1E
100
AcDbEntity
  8
0
100
AcDbLine
 10
86.9425
 20
77.1808
 30
0.0
 11
86.6022
 21
76.06829999999999
 31
0.0
  0
LINE
  5
3D8
330
1E
100
AcDbEntity
  8
0
100
AcDbLine
 10
87.1207
 20
78.3295
 30
0.0
 11
86.9425
 21
77.1808
 31
0.0
  0
LINE
  5
3D9
330
1E
100
AcDbEntity
  8
0
100
AcDbLine
 10
87.12760000000001
 20
79.0
 30
0.0
 11
87.1207
 21
78.3295
 31
0.0
  0
LINE
  5
3DA
330
1E
100
AcDbEntity
  8
0
100
AcDbLine
 10
84.69739999999999
 20
73.17579999999999
 30
0.0
 11
83.8104
 21
72.4237
 31
0.0
  0
LINE
  5
3DB
330
1E
100
AcDbEntity
  8
0
100
AcDbLine
 10
82.82580000000001
 20
71.8066
 30
0.0
 11
81.7636
 21
71.3354
 31
0.0
  0
LINE
  5
3DC
330
1E
100
AcDbEntity
  8
0
100
AcDbLine
 10
82.59019999999999
 20
70.1867
 30
0.0
 11
81.23609999999999
 21
69.7497
 31
0.0
  0
LINE
  5
3DD
330
1E
100
AcDbEntity
  8
0
100
AcDbLine
 10
82.3647
 20
68.44899999999999
 30
0.0
 11
80.89679999999999
 21
68.0895
 31
0.0
  0
LINE
  5
3DE
330
1E
100
AcDbEntity
  8
0
100
AcDbLine
 10
85.08700000000001
 20
69.7487
 30
0.0
 11
83.7701
 21
69.0057
 31
0.0
  0
LINE
  5
3DF
330
1E
100
AcDbEntity
  8
0
100
AcDbLine
 10
83.7701
 20
69.0057
 30
0.0
 11
82.3647
 21
68.44899999999999
 31
0.0
  0
LINE
  5
3E0
330
1E
100
AcDbEntity
  8
0
100
AcDbLine
 10
83.8104
 20
72.4237
 30
0.0
 11
82.82580000000001
 21
71.8066
 31
0.0
  0
LINE
  5
3E1
330
1E
100
AcDbEntity
  8
0
100
AcDbLine
 10
83.86369999999999
 20
70.81990000000001
 30
0.0
 11
82.59019999999999
 21
70.1867
 31
0.0
  0
LINE
  5
3E2
330
1E
100
AcDbEntity
  8
0
100
AcDbLine
 10
85.0286
 20
71.6364
 30
0.0
 11
83.86369999999999
 21
70.81990000000001
 31
0.0
  0
LINE
  5
3E3
330
1E
100
AcDbEntity
  8
0
100
AcDbLine
 10
81.23609999999999
 20
69.7497
 30
0.0
 11
79.8326
 21
69.5202
 31
0.0
  0
LINE
  5
3E4
330
1E
100
AcDbEntity
  8
0
100
AcDbLine
 10
80.89679999999999
 20
68.0895
 30
0.0
 11
79.3937
 21
67.9325
 31
0.0
  0
LINE
  5
3E5
330
1E
100
AcDbEntity
  8
0
100
AcDbLine
 10
79.8326
 20
69.5202
 30
0.0
 11
79.0
 21
69.50960000000001
 31
0.0
  0
LINE
  5
3E6
330
1E
100
AcDbEntity
  8
0
100
AcDbLine
 10
79.3937
 20
67.9325
 30
0.0
 11
79.0
 21
67.9453
 31
0.0
  0
LINE
  5
3E7
330
1E
100
AcDbEntity
  8
0
100
AcDbLine
 10
80.6441
 20
71.0193
 30
0.0
 11
79.4913
 21
70.86719999999999
 31
0.0
  0
LINE
  5
3E8
330
1E
100
AcDbEntity
  8
0
100
AcDbLine
 10
81.7636
 20
71.3354
 30
0.0
 11
80.6441
 21
71.0193
 31
0.0
  0
LINE
  5
3E9
330
1E
100
AcDbEntity
  8
0
100
AcDbLine
 10
79.4913
 20
70.86719999999999
 30
0.0
 11
79.0
 21
70.87279999999999
 31
0.0
  0
LINE
  5
3EA
330
1E
100
AcDbEntity
  8
0
100
AcDbLine
 10
134.8611999999999
 20
134.8611999999999
 30
0.0
 11
127.0269
 21
141.5293
 31
0.0
  0
LINE
  5
3EB
330
1E
100
AcDbEntity
  8
0
100
AcDbLine
 10
134.859
 20
134.8639
 30
0.0
 11
127.0269
 21
141.5293
 31
0.0
  0
LINE
  5
3EC
330
1E
100
AcDbEntity
  8
0
100
AcDbLine
 10
141.5293
 20
127.0269
 30
0.0
 11
134.859
 21
134.8639
 31
0.0
  0
LINE
  5
3ED
330
1E
100
AcDbEntity
  8
0
100
AcDbLine
 10
141.5293
 20
127.0269
 30
0.0
 11
134.8611999999999
 21
134.8611999999999
 31
0.0
  0
LINE
  5
3EE
330
1E
100
AcDbEntity
  8
0
100
AcDbLine
 10
155.17015
 20
99.39849999999999
 30
0.0
 11
151.86866
 21
109.1851
 31
0.0
  0
LINE
  5
3EF
330
1E
100
AcDbEntity
  8
0
100
AcDbLine
 10
157.174627
 20
89.25819999999999
 30
0.0
 11
155.17015
 21
99.39849999999999
 31
0.0
  0
LINE
  5
3F0
330
1E
100
AcDbEntity
  8
0
100
AcDbLine
 10
151.86866
 20
109.1851
 30
0.0
 11
147.2825999999999
 21
118.4395
 31
0.0
  0
LINE
  5
3F1
330
1E
100
AcDbEntity
  8
0
100
AcDbLine
 10
147.2825999999999
 20
118.4395
 30
0.0
 11
141.5293
 21
127.0269
 31
0.0
  0
LINE
  5
3F2
330
1E
100
AcDbEntity
  8
0
100
AcDbLine
 10
91.39650000000001
 20
87.4479
 30
0.0
 11
90.5085
 21
88.6218
 31
0.0
  0
LINE
  5
3F3
330
1E
100
AcDbEntity
  8
0
100
AcDbLine
 10
91.72270000000001
 20
85.95080000000001
 30
0.0
 11
90.95449999999999
 21
87.20220000000001
 31
0.0
  0
LINE
  5
3F4
330
1E
100
AcDbEntity
  8
0
100
AcDbLine
 10
91.8968
 20
84.4326
 30
0.0
 11
91.28069999999999
 21
85.70919999999999
 31
0.0
  0
LINE
  5
3F5
330
1E
100
AcDbEntity
  8
0
100
AcDbLine
 10
92.80599999999999
 20
84.8665
 30
0.0
 11
92.16459999999999
 21
86.19139999999999
 31
0.0
  0
LINE
  5
3F6
330
1E
100
AcDbEntity
  8
0
100
AcDbLine
 10
92.361
 20
84.6279
 30
0.0
 11
91.72270000000001
 21
85.95080000000001
 31
0.0
  0
LINE
  5
3F7
330
1E
100
AcDbEntity
  8
0
100
AcDbLine
 10
93.68590000000001
 20
82.06059999999999
 30
0.0
 11
93.3144
 21
83.4852
 31
0.0
  0
LINE
  5
3F8
330
1E
100
AcDbEntity
  8
0
100
AcDbLine
 10
93.68489999999999
 20
82.06059999999999
 30
0.0
 11
93.3144
 21
83.4852
 31
0.0
  0
LINE
  5
3F9
330
1E
100
AcDbEntity
  8
0
100
AcDbLine
 10
92.7264
 20
81.72539999999999
 30
0.0
 11
92.3801
 21
83.0996
 31
0.0
  0
LINE
  5
3FA
330
1E
100
AcDbEntity
  8
0
100
AcDbLine
 10
93.22079999999999
 20
81.82300000000001
 30
0.0
 11
92.86129999999999
 21
83.24659999999999
 31
0.0
  0
LINE
  5
3FB
330
1E
100
AcDbEntity
  8
0
100
AcDbLine
 10
92.93179999999999
 20
80.32290000000001
 30
0.0
 11
92.7264
 21
81.72539999999999
 31
0.0
  0
LINE
  5
3FC
330
1E
100
AcDbEntity
  8
0
100
AcDbLine
 10
93.91440000000001
 20
80.60680000000001
 30
0.0
 11
93.68489999999999
 21
82.06059999999999
 31
0.0
  0
LINE
  5
3FD
330
1E
100
AcDbEntity
  8
0
100
AcDbLine
 10
93.91440000000001
 20
80.60680000000001
 30
0.0
 11
93.68590000000001
 21
82.06059999999999
 31
0.0
  0
LINE
  5
3FE
330
1E
100
AcDbEntity
  8
0
100
AcDbLine
 10
94.0
 20
79.13689999999999
 30
0.0
 11
93.91440000000001
 21
80.60680000000001
 31
0.0
  0
LINE
  5
3FF
330
1E
100
AcDbEntity
  8
0
100
AcDbLine
 10
93.4332
 20
80.3702
 30
0.0
 11
93.22079999999999
 21
81.82300000000001
 31
0.0
  0
LINE
  5
400
330
1E
100
AcDbEntity
  8
0
100
AcDbLine
 10
93.3144
 20
83.4852
 30
0.0
 11
92.80599999999999
 21
84.8665
 31
0.0
  0
LINE
  5
401
330
1E
100
AcDbEntity
  8
0
100
AcDbLine
 10
92.3801
 20
83.0996
 30
0.0
 11
91.8968
 21
84.4326
 31
0.0
  0
LINE
  5
402
330
1E
100
AcDbEntity
  8
0
100
AcDbLine
 10
92.86129999999999
 20
83.24659999999999
 30
0.0
 11
92.361
 21
84.6279
 31
0.0
  0
LINE
  5
403
330
1E
100
AcDbEntity
  8
0
100
AcDbLine
 10
92.16459999999999
 20
86.19139999999999
 30
0.0
 11
91.39650000000001
 21
87.4479
 31
0.0
  0
LINE
  5
404
330
1E
100
AcDbEntity
  8
0
100
AcDbLine
 10
88.41039999999999
 20
90.6827
 30
0.0
 11
87.22039999999999
 21
91.54850000000001
 31
0.0
  0
LINE
  5
405
330
1E
100
AcDbEntity
  8
0
100
AcDbLine
 10
86.48239999999999
 20
90.82559999999999
 30
0.0
 11
85.2471
 21
91.52230000000001
 31
0.0
  0
LINE
  5
406
330
1E
100
AcDbEntity
  8
0
100
AcDbLine
 10
86.75119999999999
 20
91.25149999999999
 30
0.0
 11
85.47159999999999
 21
91.9734
 31
0.0
  0
LINE
  5
407
330
1E
100
AcDbEntity
  8
0
100
AcDbLine
 10
86.29009999999999
 20
87.3371
 30
0.0
 11
85.08700000000001
 21
88.25129999999999
 31
0.0
  0
LINE
  5
408
330
1E
100
AcDbEntity
  8
0
100
AcDbLine
 10
86.0585
 20
85.38299999999999
 30
0.0
 11
85.0286
 21
86.36360000000001
 31
0.0
  0
LINE
  5
409
330
1E
100
AcDbEntity
  8
0
100
AcDbLine
 10
85.4686
 20
83.9544
 30
0.0
 11
84.69739999999999
 21
84.82420000000001
 31
0.0
  0
LINE
  5
40A
330
1E
100
AcDbEntity
  8
0
100
AcDbLine
 10
86.93139999999999
 20
84.2604
 30
0.0
 11
86.0585
 21
85.38299999999999
 31
0.0
  0
LINE
  5
40B
330
1E
100
AcDbEntity
  8
0
100
AcDbLine
 10
88.2694
 20
85.0608
 30
0.0
 11
87.3573
 21
86.2659
 31
0.0
  0
LINE
  5
40C
330
1E
100
AcDbEntity
  8
0
100
AcDbLine
 10
88.4275
 20
80.2977
 30
0.0
 11
88.1285
 21
81.6881
 31
0.0
  0
LINE
  5
40D
330
1E
100
AcDbEntity
  8
0
100
AcDbLine
 10
89.91649999999999
 20
80.8666
 30
0.0
 11
89.5601
 21
82.33549999999999
 31
0.0
  0
LINE
  5
40E
330
1E
100
AcDbEntity
  8
0
100
AcDbLine
 10
90.0685
 20
79.36239999999999
 30
0.0
 11
89.91649999999999
 21
80.8666
 31
0.0
  0
LINE
  5
40F
330
1E
100
AcDbEntity
  8
0
100
AcDbLine
 10
89.5601
 20
82.33549999999999
 30
0.0
 11
89.0074
 21
83.7419
 31
0.0
  0
LINE
  5
410
330
1E
100
AcDbEntity
  8
0
100
AcDbLine
 10
89.0074
 20
83.7419
 30
0.0
 11
88.2694
 21
85.0608
 31
0.0
  0
LINE
  5
411
330
1E
100
AcDbEntity
  8
0
100
AcDbLine
 10
88.1285
 20
81.6881
 30
0.0
 11
87.6261
 21
83.01909999999999
 31
0.0
  0
LINE
  5
412
330
1E
100
AcDbEntity
  8
0
100
AcDbLine
 10
86.6022
 20
81.9317
 30
0.0
 11
86.10789999999999
 21
82.9828
 31
0.0
  0
LINE
  5
413
330
1E
100
AcDbEntity
  8
0
100
AcDbLine
 10
86.9425
 20
80.8192
 30
0.0
 11
86.6022
 21
81.9317
 31
0.0
  0
LINE
  5
414
330
1E
100
AcDbEntity
  8
0
100
AcDbLine
 10
87.1207
 20
79.6705
 30
0.0
 11
86.9425
 21
80.8192
 31
0.0
  0
LINE
  5
415
330
1E
100
AcDbEntity
  8
0
100
AcDbLine
 10
87.6261
 20
83.01909999999999
 30
0.0
 11
86.93139999999999
 21
84.2604
 31
0.0
  0
LINE
  5
416
330
1E
100
AcDbEntity
  8
0
100
AcDbLine
 10
86.10789999999999
 20
82.9828
 30
0.0
 11
85.4686
 21
83.9544
 31
0.0
  0
LINE
  5
417
330
1E
100
AcDbEntity
  8
0
100
AcDbLine
 10
89.0587
 20
89.44029999999999
 30
0.0
 11
87.9503
 21
90.4048
 31
0.0
  0
LINE
  5
418
330
1E
100
AcDbEntity
  8
0
100
AcDbLine
 10
88.7094
 20
89.0779
 30
0.0
 11
87.6402
 21
90.00809999999999
 31
0.0
  0
LINE
  5
419
330
1E
100
AcDbEntity
  8
0
100
AcDbLine
 10
90.95449999999999
 20
87.20220000000001
 30
0.0
 11
90.06350000000001
 21
88.36910000000001
 31
0.0
  0
LINE
  5
41A
330
1E
100
AcDbEntity
  8
0
100
AcDbLine
 10
89.6789
 20
88.04389999999999
 30
0.0
 11
88.7094
 21
89.0779
 31
0.0
  0
LINE
  5
41B
330
1E
100
AcDbEntity
  8
0
100
AcDbLine
 10
90.53969999999999
 20
86.91729999999999
 30
0.0
 11
89.6789
 21
88.04389999999999
 31
0.0
  0
LINE
  5
41C
330
1E
100
AcDbEntity
  8
0
100
AcDbLine
 10
91.28069999999999
 20
85.70919999999999
 30
0.0
 11
90.53969999999999
 21
86.91729999999999
 31
0.0
  0
LINE
  5
41D
330
1E
100
AcDbEntity
  8
0
100
AcDbLine
 10
90.5085
 20
88.6218
 30
0.0
 11
89.50979999999999
 21
89.70409999999999
 31
0.0
  0
LINE
  5
41E
330
1E
100
AcDbEntity
  8
0
100
AcDbLine
 10
90.06350000000001
 20
88.36910000000001
 30
0.0
 11
89.0587
 21
89.44029999999999
 31
0.0
  0
LINE
  5
41F
330
1E
100
AcDbEntity
  8
0
100
AcDbLine
 10
89.50979999999999
 20
89.70409999999999
 30
0.0
 11
88.41039999999999
 21
90.6827
 31
0.0
  0
LINE
  5
420
330
1E
100
AcDbEntity
  8
0
100
AcDbLine
 10
87.3573
 20
86.2659
 30
0.0
 11
86.29009999999999
 21
87.3371
 31
0.0
  0
LINE
  5
421
330
1E
100
AcDbEntity
  8
0
100
AcDbLine
 10
87.6402
 20
90.00809999999999
 30
0.0
 11
86.48239999999999
 21
90.82559999999999
 31
0.0
  0
LINE
  5
422
330
1E
100
AcDbEntity
  8
0
100
AcDbLine
 10
87.9503
 20
90.4048
 30
0.0
 11
86.75119999999999
 21
91.25149999999999
 31
0.0
  0
LINE
  5
423
330
1E
100
AcDbEntity
  8
0
100
AcDbLine
 10
84.69739999999999
 20
84.82420000000001
 30
0.0
 11
83.8104
 21
85.57630000000001
 31
0.0
  0
LINE
  5
424
330
1E
100
AcDbEntity
  8
0
100
AcDbLine
 10
82.3647
 20
89.55099999999999
 30
0.0
 11
80.89679999999999
 21
89.91049999999999
 31
0.0
  0
LINE
  5
425
330
1E
100
AcDbEntity
  8
0
100
AcDbLine
 10
82.59019999999999
 20
87.8133
 30
0.0
 11
81.23609999999999
 21
88.25029999999999
 31
0.0
  0
LINE
  5
426
330
1E
100
AcDbEntity
  8
0
100
AcDbLine
 10
82.82580000000001
 20
86.19339999999999
 30
0.0
 11
81.7636
 21
86.66459999999998
 31
0.0
  0
LINE
  5
427
330
1E
100
AcDbEntity
  8
0
100
AcDbLine
 10
85.08700000000001
 20
88.25129999999999
 30
0.0
 11
83.7701
 21
88.9943
 31
0.0
  0
LINE
  5
428
330
1E
100
AcDbEntity
  8
0
100
AcDbLine
 10
83.86369999999999
 20
87.18009999999999
 30
0.0
 11
82.59019999999999
 21
87.8133
 31
0.0
  0
LINE
  5
429
330
1E
100
AcDbEntity
  8
0
100
AcDbLine
 10
83.8104
 20
85.57630000000001
 30
0.0
 11
82.82580000000001
 21
86.19339999999999
 31
0.0
  0
LINE
  5
42A
330
1E
100
AcDbEntity
  8
0
100
AcDbLine
 10
85.0286
 20
86.36360000000001
 30
0.0
 11
83.86369999999999
 21
87.18009999999999
 31
0.0
  0
LINE
  5
42B
330
1E
100
AcDbEntity
  8
0
100
AcDbLine
 10
83.7701
 20
88.9943
 30
0.0
 11
82.3647
 21
89.55099999999999
 31
0.0
  0
LINE
  5
42C
330
1E
100
AcDbEntity
  8
0
100
AcDbLine
 10
81.23609999999999
 20
88.25029999999999
 30
0.0
 11
79.8326
 21
88.47979999999999
 31
0.0
  0
LINE
  5
42D
330
1E
100
AcDbEntity
  8
0
100
AcDbLine
 10
80.6441
 20
86.98069999999999
 30
0.0
 11
79.4913
 21
87.13280000000001
 31
0.0
  0
LINE
  5
42E
330
1E
100
AcDbEntity
  8
0
100
AcDbLine
 10
81.7636
 20
86.66459999999998
 30
0.0
 11
80.6441
 21
86.98069999999999
 31
0.0
  0
LINE
  5
42F
330
1E
100
AcDbEntity
  8
0
100
AcDbLine
 10
79.4913
 20
87.13280000000001
 30
0.0
 11
79.0
 21
87.1272
 31
0.0
  0
LINE
  5
430
330
1E
100
AcDbEntity
  8
0
100
AcDbLine
 10
80.89679999999999
 20
89.91049999999999
 30
0.0
 11
79.3937
 21
90.0675
 31
0.0
  0
LINE
  5
431
330
1E
100
AcDbEntity
  8
0
100
AcDbLine
 10
79.3937
 20
90.0675
 30
0.0
 11
79.0
 21
90.0547
 31
0.0
  0
LINE
  5
432
330
1E
100
AcDbEntity
  8
0
100
AcDbLine
 10
79.8326
 20
88.47979999999999
 30
0.0
 11
79.0
 21
88.4904
 31
0.0
  0
LINE
  5
433
330
1E
100
AcDbEntity
  8
0
100
AcDbLine
 10
85.95080000000001
 20
92.2935
 30
0.0
 11
84.6138
 21
92.91070000000001
 31
0.0
  0
LINE
  5
434
330
1E
100
AcDbEntity
  8
0
100
AcDbLine
 10
85.47159999999999
 20
91.9734
 30
0.0
 11
84.12649999999999
 21
92.5613
 31
0.0
  0
LINE
  5
435
330
1E
100
AcDbEntity
  8
0
100
AcDbLine
 10
85.2471
 20
91.52230000000001
 30
0.0
 11
83.9483
 21
92.09010000000001
 31
0.0
  0
LINE
  5
436
330
1E
100
AcDbEntity
  8
0
100
AcDbLine
 10
87.22039999999999
 20
91.54850000000001
 30
0.0
 11
85.95080000000001
 21
92.2935
 31
0.0
  0
LINE
  5
437
330
1E
100
AcDbEntity
  8
0
100
AcDbLine
 10
82.72809999999999
 20
93.0103
 30
0.0
 11
81.29139999999999
 21
93.3154
 31
0.0
  0
LINE
  5
438
330
1E
100
AcDbEntity
  8
0
100
AcDbLine
 10
82.59820000000001
 20
92.52410000000001
 30
0.0
 11
81.2119
 21
92.818
 31
0.0
  0
LINE
  5
439
330
1E
100
AcDbEntity
  8
0
100
AcDbLine
 10
83.2234
 20
93.39389999999999
 30
0.0
 11
81.7918
 21
93.7392
 31
0.0
  0
LINE
  5
43A
330
1E
100
AcDbEntity
  8
0
100
AcDbLine
 10
84.6138
 20
92.91070000000001
 30
0.0
 11
83.2234
 21
93.39389999999999
 31
0.0
  0
LINE
  5
43B
330
1E
100
AcDbEntity
  8
0
100
AcDbLine
 10
84.12649999999999
 20
92.5613
 30
0.0
 11
82.72809999999999
 21
93.0103
 31
0.0
  0
LINE
  5
43C
330
1E
100
AcDbEntity
  8
0
100
AcDbLine
 10
83.9483
 20
92.09010000000001
 30
0.0
 11
82.59820000000001
 21
92.52410000000001
 31
0.0
  0
LINE
  5
43D
330
1E
100
AcDbEntity
  8
0
100
AcDbLine
 10
81.7918
 20
93.7392
 30
0.0
 11
80.334
 21
93.94159999999999
 31
0.0
  0
LINE
  5
43E
330
1E
100
AcDbEntity
  8
0
100
AcDbLine
 10
81.29139999999999
 20
93.3154
 30
0.0
 11
79.83159999999999
 21
93.4735
 31
0.0
  0
LINE
  5
43F
330
1E
100
AcDbEntity
  8
0
100
AcDbLine
 10
81.2119
 20
92.818
 30
0.0
 11
79.80240000000001
 21
92.97110000000001
 31
0.0
  0
LINE
  5
440
330
1E
100
AcDbEntity
  8
0
100
AcDbLine
 10
80.334
 20
93.94159999999999
 30
0.0
 11
79.0
 21
93.99460000000001
 31
0.0
  0
LINE
  5
441
330
1E
100
AcDbEntity
  8
0
100
AcDbLine
 10
79.83159999999999
 20
93.4735
 30
0.0
 11
79.0
 21
93.4792
 31
0.0
  0
LINE
  5
442
330
1E
100
AcDbEntity
  8
0
100
AcDbLine
 10
79.80240000000001
 20
92.97110000000001
 30
0.0
 11
79.0
 21
92.9762
 31
0.0
  0
LINE
  5
443
330
1E
100
AcDbEntity
  8
0
100
AcDbLine
 10
109.1851
 20
151.86866
 30
0.0
 11
99.39849999999999
 21
155.17015
 31
0.0
  0
LINE
  5
444
330
1E
100
AcDbEntity
  8
0
100
AcDbLine
 10
118.4395
 20
147.2825999999999
 30
0.0
 11
109.1851
 21
151.86866
 31
0.0
  0
LINE
  5
445
330
1E
100
AcDbEntity
  8
0
100
AcDbLine
 10
127.0269
 20
141.5293
 30
0.0
 11
118.4395
 21
147.2825999999999
 31
0.0
  0
LINE
  5
446
330
1E
100
AcDbEntity
  8
0
100
AcDbLine
 10
99.39849999999999
 20
155.17015
 30
0.0
 11
89.25819999999999
 21
157.174627
 31
0.0
  0
LINE
  5
447
330
1E
100
AcDbEntity
  8
0
100
AcDbLine
 10
89.25819999999999
 20
157.174627
 30
0.0
 11
79.0
 21
158.0
 31
0.0
  0
LINE
  5
448
330
1E
100
AcDbEntity
  8
0
100
AcDbLine
 10
89.25819999999999
 20
157.174627
 30
0.0
 11
79.0
 21
158.0
 31
0.0
  0
ENDSEC
  0
SECTION
  2
OBJECTS
  0
DICTIONARY
  5
C
330
0
100
AcDbDictionary
281
     1
  3
ACAD_GROUP
350
D
  3
ACAD_LAYOUT
350
19
  3
ACAD_MLINESTYLE
350
16
  3
ACAD_PLOTSETTINGS
350
18
  3
ACAD_PLOTSTYLENAME
350
E
  3
AcDbVariableDictionary
350
44A
  0
DICTIONARY
  5
D
102
{ACAD_REACTORS
330
C
102
}
330
C
100
AcDbDictionary
281
     1
  0
DICTIONARY
  5
19
102
{ACAD_REACTORS
330
C
102
}
330
C
100
AcDbDictionary
281
     1
  3
Layout1
350
1D
  3
Model
350
21
  0
DICTIONARY
  5
16
102
{ACAD_REACTORS
330
C
102
}
330
C
100
AcDbDictionary
281
     1
  3
Standard
350
17
  0
DICTIONARY
  5
18
102
{ACAD_REACTORS
330
C
102
}
330
C
100
AcDbDictionary
281
     1
  0
ACDBDICTIONARYWDFLT
  5
E
102
{ACAD_REACTORS
330
C
102
}
330
C
100
AcDbDictionary
281
     1
  3
Normal
350
F
100
AcDbDictionaryWithDefault
340
F
  0
DICTIONARY
  5
44A
102
{ACAD_REACTORS
330
C
102
}
330
C
100
AcDbDictionary
281
     1
  3
DIMASSOC
350
44B
  0
LAYOUT
  5
1D
102
{ACAD_REACTORS
330
19
102
}
330
19
100
AcDbPlotSettings
  1

  2
C:\Programme\AutoCAD LT 2002 Deu\plotters\DWF ePlot (optimized for plotting).pc3
  4

  6

 40
0.0
 41
0.0
 42
0.0
 43
0.0
 44
0.0
 45
0.0
 46
0.0
 47
0.0
 48
0.0
 49
0.0
140
0.0
141
0.0
142
1.0
143
1.0
 70
   688
 72
     0
 73
     0
 74
     5
  7

 75
    16
147
1.0
148
0.0
149
0.0
100
AcDbLayout
  1
Layout1
 70
     1
 71
     1
 10
0.0
 20
0.0
 11
12.0
 21
9.0
 12
0.0
 22
0.0
 32
0.0
 14
1.000000000000000E+20
 24
1.000000000000000E+20
 34
1.000000000000000E+20
 15
-1.000000000000000E+20
 25
-1.000000000000000E+20
 35
-1.000000000000000E+20
146
0.0
 13
0.0
 23
0.0
 33
0.0
 16
1.0
 26
0.0
 36
0.0
 17
0.0
 27
1.0
 37
0.0
 76
     0
330
1A
  0
LAYOUT
  5
21
102
{ACAD_REACTORS
330
19
102
}
330
19
100
AcDbPlotSettings
  1

  2
C:\Programme\AutoCAD LT 2002 Deu\plotters\DWF ePlot (optimized for plotting).pc3
  4

  6

 40
0.0
 41
0.0
 42
0.0
 43
0.0
 44
0.0
 45
0.0
 46
0.0
 47
0.0
 48
0.0
 49
0.0
140
0.0
141
0.0
142
1.0
143
1.0
 70
  1712
 72
     0
 73
     0
 74
     0
  7

 75
     0
147
1.0
148
0.0
149
0.0
100
AcDbLayout
  1
Model
 70
     1
 71
     0
 10
0.0
 20
0.0
 11
12.0
 21
9.0
 12
0.0
 22
0.0
 32
0.0
 14
0.0
 24
0.0
 34
0.0
 15
0.0
 25
0.0
 35
0.0
146
0.0
 13
0.0
 23
0.0
 33
0.0
 16
1.0
 26
0.0
 36
0.0
 17
0.0
 27
1.0
 37
0.0
 76
     0
330
1E
  0
MLINESTYLE
  5
17
102
{ACAD_REACTORS
330
16
102
}
330
16
100
AcDbMlineStyle
  2
STANDARD
 70
     0
  3

 62
   256
 51
90.0
 52
90.0
 71
     2
 49
0.5
 62
   256
  6
BYLAYER
 49
-0.5
 62
   256
  6
BYLAYER
  0
ACDBPLACEHOLDER
  5
F
102
{ACAD_REACTORS
330
E
102
}
330
E
  0
DICTIONARYVAR
  5
44B
102
{ACAD_REACTORS
330
44A
102
}
330
44A
100
DictionaryVariables
280
     0
  1
1
  0
ENDSEC
  0
EOF
