  0
SECTION
  2
HEADER
  9
$ACADVER
  1
AC1015
  9
$ACADMAINTVER
 70
    13
  9
$DWGCODEPAGE
  3
ANSI_1252
  9
$INSBASE
 10
0.0
 20
0.0
 30
0.0
  9
$EXTMIN
 10
0.0
 20
0.0007179999999928
 30
0.0
  9
$EXTMAX
 10
158.0
 20
78.99928199999999
 30
0.0
  9
$LIMMIN
 10
0.0
 20
0.0
  9
$LIMMAX
 10
12.0
 20
9.0
  9
$ORTHOMODE
 70
     0
  9
$REGENMODE
 70
     1
  9
$FILLMODE
 70
     1
  9
$QTEXTMODE
 70
     0
  9
$MIRRTEXT
 70
     1
  9
$LTSCALE
 40
1.0
  9
$ATTMODE
 70
     1
  9
$TEXTSIZE
 40
0.2
  9
$TRACEWID
 40
0.05
  9
$TEXTSTYLE
  7
Standard
  9
$CLAYER
  8
0
  9
$CELTYPE
  6
Continuous
  9
$CECOLOR
 62
   256
  9
$CELTSCALE
 40
1.0
  9
$DISPSILH
 70
     0
  9
$DIMSCALE
 40
1.0
  9
$DIMASZ
 40
0.18
  9
$DIMEXO
 40
0.0625
  9
$DIMDLI
 40
0.38
  9
$DIMRND
 40
0.0
  9
$DIMDLE
 40
0.0
  9
$DIMEXE
 40
0.18
  9
$DIMTP
 40
0.0
  9
$DIMTM
 40
0.0
  9
$DIMTXT
 40
0.18
  9
$DIMCEN
 40
0.09
  9
$DIMTSZ
 40
0.0
  9
$DIMTOL
 70
     0
  9
$DIMLIM
 70
     0
  9
$DIMTIH
 70
     1
  9
$DIMTOH
 70
     1
  9
$DIMSE1
 70
     0
  9
$DIMSE2
 70
     0
  9
$DIMTAD
 70
     0
  9
$DIMZIN
 70
     0
  9
$DIMBLK
  1

  9
$DIMASO
 70
     1
  9
$DIMSHO
 70
     1
  9
$DIMPOST
  1

  9
$DIMAPOST
  1

  9
$DIMALT
 70
     0
  9
$DIMALTD
 70
     2
  9
$DIMALTF
 40
25.4
  9
$DIMLFAC
 40
1.0
  9
$DIMTOFL
 70
     0
  9
$DIMTVP
 40
0.0
  9
$DIMTIX
 70
     0
  9
$DIMSOXD
 70
     0
  9
$DIMSAH
 70
     0
  9
$DIMBLK1
  1

  9
$DIMBLK2
  1

  9
$DIMSTYLE
  2
Standard
  9
$DIMCLRD
 70
     0
  9
$DIMCLRE
 70
     0
  9
$DIMCLRT
 70
     0
  9
$DIMTFAC
 40
1.0
  9
$DIMGAP
 40
0.09
  9
$DIMJUST
 70
     0
  9
$DIMSD1
 70
     0
  9
$DIMSD2
 70
     0
  9
$DIMTOLJ
 70
     1
  9
$DIMTZIN
 70
     0
  9
$DIMALTZ
 70
     0
  9
$DIMALTTZ
 70
     0
  9
$DIMUPT
 70
     0
  9
$DIMDEC
 70
     4
  9
$DIMTDEC
 70
     4
  9
$DIMALTU
 70
     2
  9
$DIMALTTD
 70
     2
  9
$DIMTXSTY
  7
Standard
  9
$DIMAUNIT
 70
     0
  9
$DIMADEC
 70
     0
  9
$DIMALTRND
 40
0.0
  9
$DIMAZIN
 70
     0
  9
$DIMDSEP
 70
    46
  9
$DIMATFIT
 70
     3
  9
$DIMFRAC
 70
     0
  9
$DIMLDRBLK
  1

  9
$DIMLUNIT
 70
     2
  9
$DIMLWD
 70
    -2
  9
$DIMLWE
 70
    -2
  9
$DIMTMOVE
 70
     0
  9
$LUNITS
 70
     2
  9
$LUPREC
 70
     4
  9
$SKETCHINC
 40
0.1
  9
$FILLETRAD
 40
0.0
  9
$AUNITS
 70
     0
  9
$AUPREC
 70
     0
  9
$MENU
  1
.
  9
$ELEVATION
 40
0.0
  9
$PELEVATION
 40
0.0
  9
$THICKNESS
 40
0.0
  9
$LIMCHECK
 70
     0
  9
$CHAMFERA
 40
0.0
  9
$CHAMFERB
 40
0.0
  9
$CHAMFERC
 40
0.0
  9
$CHAMFERD
 40
0.0
  9
$SKPOLY
 70
     0
  9
$TDCREATE
 40
2455650.999837418
  9
$TDUCREATE
 40
2455650.916504085
  9
$TDUPDATE
 40
2455651.003989618
  9
$TDUUPDATE
 40
2455650.920656284
  9
$TDINDWG
 40
0.0041523727
  9
$TDUSRTIMER
 40
0.0041523727
  9
$USRTIMER
 70
     1
  9
$ANGBASE
 50
0.0
  9
$ANGDIR
 70
     0
  9
$PDMODE
 70
     0
  9
$PDSIZE
 40
0.0
  9
$PLINEWID
 40
0.0
  9
$SPLFRAME
 70
     0
  9
$SPLINETYPE
 70
     6
  9
$SPLINESEGS
 70
     8
  9
$HANDSEED
  5
6AC
  9
$SURFTAB1
 70
     6
  9
$SURFTAB2
 70
     6
  9
$SURFTYPE
 70
     6
  9
$SURFU
 70
     6
  9
$SURFV
 70
     6
  9
$UCSBASE
  2

  9
$UCSNAME
  2

  9
$UCSORG
 10
0.0
 20
0.0
 30
0.0
  9
$UCSXDIR
 10
1.0
 20
0.0
 30
0.0
  9
$UCSYDIR
 10
0.0
 20
1.0
 30
0.0
  9
$UCSORTHOREF
  2

  9
$UCSORTHOVIEW
 70
     1
  9
$UCSORGTOP
 10
0.0
 20
0.0
 30
0.0
  9
$UCSORGBOTTOM
 10
0.0
 20
0.0
 30
0.0
  9
$UCSORGLEFT
 10
0.0
 20
0.0
 30
0.0
  9
$UCSORGRIGHT
 10
0.0
 20
0.0
 30
0.0
  9
$UCSORGFRONT
 10
0.0
 20
0.0
 30
0.0
  9
$UCSORGBACK
 10
0.0
 20
0.0
 30
0.0
  9
$PUCSBASE
  2

  9
$PUCSNAME
  2

  9
$PUCSORG
 10
0.0
 20
0.0
 30
0.0
  9
$PUCSXDIR
 10
1.0
 20
0.0
 30
0.0
  9
$PUCSYDIR
 10
0.0
 20
1.0
 30
0.0
  9
$PUCSORTHOREF
  2

  9
$PUCSORTHOVIEW
 70
     0
  9
$PUCSORGTOP
 10
0.0
 20
0.0
 30
0.0
  9
$PUCSORGBOTTOM
 10
0.0
 20
0.0
 30
0.0
  9
$PUCSORGLEFT
 10
0.0
 20
0.0
 30
0.0
  9
$PUCSORGRIGHT
 10
0.0
 20
0.0
 30
0.0
  9
$PUCSORGFRONT
 10
0.0
 20
0.0
 30
0.0
  9
$PUCSORGBACK
 10
0.0
 20
0.0
 30
0.0
  9
$USERI1
 70
     0
  9
$USERI2
 70
     0
  9
$USERI3
 70
     0
  9
$USERI4
 70
     0
  9
$USERI5
 70
     0
  9
$USERR1
 40
0.0
  9
$USERR2
 40
0.0
  9
$USERR3
 40
0.0
  9
$USERR4
 40
0.0
  9
$USERR5
 40
0.0
  9
$WORLDVIEW
 70
     1
  9
$SHADEDGE
 70
     3
  9
$SHADEDIF
 70
    70
  9
$TILEMODE
 70
     1
  9
$MAXACTVP
 70
    64
  9
$PINSBASE
 10
0.0
 20
0.0
 30
0.0
  9
$PLIMCHECK
 70
     0
  9
$PEXTMIN
 10
1.000000000000000E+20
 20
1.000000000000000E+20
 30
1.000000000000000E+20
  9
$PEXTMAX
 10
-1.000000000000000E+20
 20
-1.000000000000000E+20
 30
-1.000000000000000E+20
  9
$PLIMMIN
 10
0.0
 20
0.0
  9
$PLIMMAX
 10
12.0
 20
9.0
  9
$UNITMODE
 70
     0
  9
$VISRETAIN
 70
     1
  9
$PLINEGEN
 70
     0
  9
$PSLTSCALE
 70
     1
  9
$TREEDEPTH
 70
  3020
  9
$CMLSTYLE
  2
Standard
  9
$CMLJUST
 70
     0
  9
$CMLSCALE
 40
1.0
  9
$PROXYGRAPHICS
 70
     1
  9
$MEASUREMENT
 70
     0
  9
$CELWEIGHT
370
    -1
  9
$ENDCAPS
280
     0
  9
$JOINSTYLE
280
     0
  9
$LWDISPLAY
290
     0
  9
$INSUNITS
 70
     0
  9
$HYPERLINKBASE
  1

  9
$STYLESHEET
  1

  9
$XEDIT
290
     1
  9
$CEPSNTYPE
380
     0
  9
$PSTYLEMODE
290
     1
  9
$FINGERPRINTGUID
  2
{552358C6-DBD0-4EC7-822D-E826C2B9F075}
  9
$VERSIONGUID
  2
{3BAABFFB-4CFD-4493-907E-C55684F923D5}
  9
$EXTNAMES
290
     1
  9
$PSVPSCALE
 40
0.0
  9
$OLESTARTUP
290
     0
  0
ENDSEC
  0
SECTION
  2
CLASSES
  0
CLASS
  1
ACDBDICTIONARYWDFLT
  2
AcDbDictionaryWithDefault
  3
AutoCAD 2000
 90
        0
280
     0
281
     0
  0
CLASS
  1
ACDBPLACEHOLDER
  2
AcDbPlaceHolder
  3
AutoCAD 2000
 90
        0
280
     0
281
     0
  0
CLASS
  1
LAYOUT
  2
AcDbLayout
  3
AutoCAD 2000
 90
        0
280
     0
281
     0
  0
CLASS
  1
DICTIONARYVAR
  2
AcDbDictionaryVar
  3
AutoCAD 2000
 90
        0
280
     0
281
     0
  0
ENDSEC
  0
SECTION
  2
TABLES
  0
TABLE
  2
VPORT
  5
8
330
0
100
AcDbSymbolTable
 70
     3
  0
VPORT
  5
6AB
330
8
100
AcDbSymbolTableRecord
100
AcDbViewportTableRecord
  2
*Active
 70
     0
 10
0.0
 20
0.0
 11
1.0
 21
1.0
 12
79.0
 22
39.49999999999999
 13
0.0
 23
0.0
 14
1.0
 24
1.0
 15
0.0
 25
0.0
 16
0.0
 26
0.0
 36
1.0
 17
0.0
 27
0.0
 37
0.0
 40
79.53293985569335
 41
2.073363431151241
 42
50.0
 43
0.0
 44
0.0
 50
0.0
 51
0.0
 71
     0
 72
   100
 73
     1
 74
     3
 75
     0
 76
     0
 77
     0
 78
     0
281
     0
 65
     1
110
0.0
120
0.0
130
0.0
111
1.0
121
0.0
131
0.0
112
0.0
122
1.0
132
0.0
 79
     1
146
0.0
  0
ENDTAB
  0
TABLE
  2
LTYPE
  5
5
330
0
100
AcDbSymbolTable
 70
     1
  0
LTYPE
  5
13
330
5
100
AcDbSymbolTableRecord
100
AcDbLinetypeTableRecord
  2
ByBlock
 70
     0
  3

 72
    65
 73
     0
 40
0.0
  0
LTYPE
  5
14
330
5
100
AcDbSymbolTableRecord
100
AcDbLinetypeTableRecord
  2
ByLayer
 70
     0
  3

 72
    65
 73
     0
 40
0.0
  0
LTYPE
  5
15
330
5
100
AcDbSymbolTableRecord
100
AcDbLinetypeTableRecord
  2
Continuous
 70
     0
  3
Solid line
 72
    65
 73
     0
 40
0.0
  0
ENDTAB
  0
TABLE
  2
LAYER
  5
2
330
0
100
AcDbSymbolTable
 70
     1
  0
LAYER
  5
10
330
2
100
AcDbSymbolTableRecord
100
AcDbLayerTableRecord
  2
0
 70
     0
 62
     7
  6
Continuous
370
    -3
390
F
  0
ENDTAB
  0
TABLE
  2
STYLE
  5
3
330
0
100
AcDbSymbolTable
 70
     1
  0
STYLE
  5
11
330
3
100
AcDbSymbolTableRecord
100
AcDbTextStyleTableRecord
  2
Standard
 70
     0
 40
0.0
 41
1.0
 50
0.0
 71
     0
 42
0.2
  3
txt
  4

  0
ENDTAB
  0
TABLE
  2
VIEW
  5
6
330
0
100
AcDbSymbolTable
 70
     0
  0
ENDTAB
  0
TABLE
  2
UCS
  5
7
330
0
100
AcDbSymbolTable
 70
     0
  0
ENDTAB
  0
TABLE
  2
APPID
  5
9
330
0
100
AcDbSymbolTable
 70
     1
  0
APPID
  5
12
330
9
100
AcDbSymbolTableRecord
100
AcDbRegAppTableRecord
  2
ACAD
 70
     0
  0
ENDTAB
  0
TABLE
  2
DIMSTYLE
  5
A
330
0
100
AcDbSymbolTable
 70
     1
100
AcDbDimStyleTable
 71
     0
  0
DIMSTYLE
105
4BC
330
A
100
AcDbSymbolTableRecord
100
AcDbDimStyleTableRecord
  2
Standard
 70
     0
340
11
  0
ENDTAB
  0
TABLE
  2
BLOCK_RECORD
  5
1
330
0
100
AcDbSymbolTable
 70
     0
  0
BLOCK_RECORD
  5
1E
330
1
100
AcDbSymbolTableRecord
100
AcDbBlockTableRecord
  2
*Model_Space
340
21
  0
BLOCK_RECORD
  5
1A
330
1
100
AcDbSymbolTableRecord
100
AcDbBlockTableRecord
  2
*Paper_Space
340
1D
  0
ENDTAB
  0
ENDSEC
  0
SECTION
  2
BLOCKS
  0
BLOCK
  5
1F
330
1E
100
AcDbEntity
  8
0
100
AcDbBlockBegin
  2
*Model_Space
 70
     0
 10
0.0
 20
0.0
 30
0.0
  3
*Model_Space
  1

  0
ENDBLK
  5
20
330
1E
100
AcDbEntity
  8
0
100
AcDbBlockEnd
  0
BLOCK
  5
1B
330
1A
100
AcDbEntity
 67
     1
  8
0
100
AcDbBlockBegin
  2
*Paper_Space
 70
     0
 10
0.0
 20
0.0
 30
0.0
  3
*Paper_Space
  1

  0
ENDBLK
  5
1C
330
1A
100
AcDbEntity
 67
     1
  8
0
100
AcDbBlockEnd
  0
ENDSEC
  0
SECTION
  2
ENTITIES
  0
LINE
  5
22
330
1E
100
AcDbEntity
  8
0
100
AcDbLine
 10
1.768659999999999
 20
7.99928199999999
 30
0.0
 11
2.59403
 21
7.99928199999999
 31
0.0
  0
LINE
  5
23
330
1E
100
AcDbEntity
  8
0
100
AcDbLine
 10
1.41492
 20
8.49928199999999
 30
0.0
 11
3.419399999999999
 21
8.499282
 31
0.0
  0
LINE
  5
24
330
1E
100
AcDbEntity
  8
0
100
AcDbLine
 10
0.5895520000000002
 20
8.49928199999999
 30
0.0
 11
1.768659999999999
 21
7.99928199999999
 31
0.0
  0
LINE
  5
25
330
1E
100
AcDbEntity
  8
0
100
AcDbLine
 10
0.5895520000000002
 20
8.49928199999999
 30
0.0
 11
1.41492
 21
8.49928199999999
 31
0.0
  0
LINE
  5
26
330
1E
100
AcDbEntity
  8
0
100
AcDbLine
 10
0.0
 20
9.99928199999999
 30
0.0
 11
0.0
 21
9.49928199999999
 31
0.0
  0
LINE
  5
27
330
1E
100
AcDbEntity
  8
0
100
AcDbLine
 10
0.0
 20
9.99928199999999
 30
0.0
 11
0.5895520000000002
 21
10.999282
 31
0.0
  0
LINE
  5
28
330
1E
100
AcDbEntity
  8
0
100
AcDbLine
 10
0.5895520000000002
 20
10.999282
 30
0.0
 11
2.358209999999999
 21
11.999282
 31
0.0
  0
LINE
  5
29
330
1E
100
AcDbEntity
  8
0
100
AcDbLine
 10
2.358209999999999
 20
11.999282
 30
0.0
 11
5.0
 21
15.999282
 31
0.0
  0
LINE
  5
2A
330
1E
100
AcDbEntity
  8
0
100
AcDbLine
 10
0.5895520000000002
 20
10.999282
 30
0.0
 11
2.358209999999999
 21
11.999282
 31
0.0
  0
LINE
  5
2B
330
1E
100
AcDbEntity
  8
0
100
AcDbLine
 10
0.0
 20
9.49928199999999
 30
0.0
 11
0.5895520000000002
 21
8.49928199999999
 31
0.0
  0
LINE
  5
2C
330
1E
100
AcDbEntity
  8
0
100
AcDbLine
 10
0.0
 20
9.49928199999999
 30
0.0
 11
0.0
 21
9.99928199999999
 31
0.0
  0
LINE
  5
2D
330
1E
100
AcDbEntity
  8
0
100
AcDbLine
 10
0.5895520000000002
 20
8.49928199999999
 30
0.0
 11
1.41492
 21
8.49928199999999
 31
0.0
  0
LINE
  5
2E
330
1E
100
AcDbEntity
  8
0
100
AcDbLine
 10
0.5895520000000002
 20
8.49928199999999
 30
0.0
 11
1.768659999999999
 21
7.99928199999999
 31
0.0
  0
LINE
  5
2F
330
1E
100
AcDbEntity
  8
0
100
AcDbLine
 10
7.79882
 20
7.99928199999999
 30
0.0
 11
12.3015
 21
7.99928199999999
 31
0.0
  0
LINE
  5
30
330
1E
100
AcDbEntity
  8
0
100
AcDbLine
 10
3.18358
 20
7.99928199999999
 30
0.0
 11
7.79882
 21
7.99928199999999
 31
0.0
  0
LINE
  5
31
330
1E
100
AcDbEntity
  8
0
100
AcDbLine
 10
12.3015
 20
7.99928199999999
 30
0.0
 11
17.88799999999999
 21
7.99928199999999
 31
0.0
  0
LINE
  5
32
330
1E
100
AcDbEntity
  8
0
100
AcDbLine
 10
24.3868
 20
7.99928199999999
 30
0.0
 11
29.7612603015712
 21
7.99928199999999
 31
0.0
  0
LINE
  5
33
330
1E
100
AcDbEntity
  8
0
100
AcDbLine
 10
17.88799999999999
 20
7.99928199999999
 30
0.0
 11
24.3868
 21
7.99928199999999
 31
0.0
  0
LINE
  5
34
330
1E
100
AcDbEntity
  8
0
100
AcDbLine
 10
12.7183
 20
7.99928199999999
 30
0.0
 11
18.3049
 21
7.99928199999999
 31
0.0
  0
LINE
  5
35
330
1E
100
AcDbEntity
  8
0
100
AcDbLine
 10
32.14679999999999
 20
7.74927199999999
 30
0.0
 11
32.7299
 21
7.73749199999999
 31
0.0
  0
LINE
  5
36
330
1E
100
AcDbEntity
  8
0
100
AcDbLine
 10
32.14679999999999
 20
7.74927199999999
 30
0.0
 11
32.7299
 21
7.73749199999999
 31
0.0
  0
LINE
  5
37
330
1E
100
AcDbEntity
  8
0
100
AcDbLine
 10
35.0656
 20
7.74927199999999
 30
0.0
 11
35.88309999999999
 21
7.73749199999999
 31
0.0
  0
LINE
  5
38
330
1E
100
AcDbEntity
  8
0
100
AcDbLine
 10
32.7299
 20
7.73749199999999
 30
0.0
 11
32.73669137376249
 21
7.999282
 31
0.0
  0
LINE
  5
39
330
1E
100
AcDbEntity
  8
0
100
AcDbLine
 10
32.4209
 20
7.74927199999999
 30
0.0
 11
32.7299
 21
7.73749199999999
 31
0.0
  0
LINE
  5
3A
330
1E
100
AcDbEntity
  8
0
100
AcDbLine
 10
32.4209
 20
7.74927199999999
 30
0.0
 11
32.42739406937619
 21
7.999282
 31
0.0
  0
LINE
  5
3B
330
1E
100
AcDbEntity
  8
0
100
AcDbLine
 10
31.0474
 20
7.77675199999999
 30
0.0
 11
32.14679999999999
 21
7.74927199999999
 31
0.0
  0
LINE
  5
3C
330
1E
100
AcDbEntity
  8
0
100
AcDbLine
 10
33.92369999999999
 20
7.77675199999999
 30
0.0
 11
35.0656
 21
7.74927199999999
 31
0.0
  0
LINE
  5
3D
330
1E
100
AcDbEntity
  8
0
100
AcDbLine
 10
31.0474
 20
7.77675199999999
 30
0.0
 11
32.14679999999999
 21
7.74927199999999
 31
0.0
  0
LINE
  5
3E
330
1E
100
AcDbEntity
  8
0
100
AcDbLine
 10
31.439
 20
7.77675199999999
 30
0.0
 11
32.4209
 21
7.74927199999999
 31
0.0
  0
LINE
  5
3F
330
1E
100
AcDbEntity
  8
0
100
AcDbLine
 10
31.439
 20
7.77675199999999
 30
0.0
 11
31.4447730037047
 21
7.999282
 31
0.0
  0
LINE
  5
40
330
1E
100
AcDbEntity
  8
0
100
AcDbLine
 10
33.92369999999999
 20
7.77675199999999
 30
0.0
 11
35.0656
 21
7.74927199999999
 31
0.0
  0
LINE
  5
41
330
1E
100
AcDbEntity
  8
0
100
AcDbLine
 10
35.0656
 20
7.74927199999999
 30
0.0
 11
35.88309999999999
 21
7.737491999999999
 31
0.0
  0
LINE
  5
42
330
1E
100
AcDbEntity
  8
0
100
AcDbLine
 10
35.88309999999999
 20
7.737491999999999
 30
0.0
 11
35.8894287223365
 21
7.999282
 31
0.0
  0
LINE
  5
43
330
1E
100
AcDbEntity
  8
0
100
AcDbLine
 10
39.8719
 20
7.77675199999999
 30
0.0
 11
40.97859999999999
 21
7.74927199999999
 31
0.0
  0
LINE
  5
44
330
1E
100
AcDbEntity
  8
0
100
AcDbLine
 10
35.8693
 20
7.74927199999999
 30
0.0
 11
35.875352239239
 21
7.999282
 31
0.0
  0
LINE
  5
45
330
1E
100
AcDbEntity
  8
0
100
AcDbLine
 10
35.0718
 20
7.77675199999999
 30
0.0
 11
35.8693
 21
7.74927199999999
 31
0.0
  0
LINE
  5
46
330
1E
100
AcDbEntity
  8
0
100
AcDbLine
 10
35.0718
 20
7.77675199999999
 30
0.0
 11
35.0771797271027
 21
7.999282
 31
0.0
  0
LINE
  5
47
330
1E
100
AcDbEntity
  8
0
100
AcDbLine
 10
30.0655
 20
7.80424199999999
 30
0.0
 11
31.0474
 21
7.77675199999999
 31
0.0
  0
LINE
  5
48
330
1E
100
AcDbEntity
  8
0
100
AcDbLine
 10
30.0655
 20
7.80424199999999
 30
0.0
 11
31.0474
 21
7.77675199999999
 31
0.0
  0
LINE
  5
49
330
1E
100
AcDbEntity
  8
0
100
AcDbLine
 10
33.12619999999999
 20
7.80424199999999
 30
0.0
 11
33.92369999999999
 21
7.77675199999999
 31
0.0
  0
LINE
  5
4A
330
1E
100
AcDbEntity
  8
0
100
AcDbLine
 10
30.3396
 20
7.80424199999999
 30
0.0
 11
31.439
 21
7.77675199999999
 31
0.0
  0
LINE
  5
4B
330
1E
100
AcDbEntity
  8
0
100
AcDbLine
 10
30.3396
 20
7.80424199999999
 30
0.0
 11
30.3446663287695
 21
7.999282
 31
0.0
  0
LINE
  5
4C
330
1E
100
AcDbEntity
  8
0
100
AcDbLine
 10
29.75649999999999
 20
7.81602199999999
 30
0.0
 11
30.0655
 21
7.80424199999999
 31
0.0
  0
LINE
  5
4D
330
1E
100
AcDbEntity
  8
0
100
AcDbLine
 10
29.75649999999999
 20
7.81602199999999
 30
0.0
 11
29.7612603015712
 21
7.999282
 31
0.0
  0
LINE
  5
4E
330
1E
100
AcDbEntity
  8
0
100
AcDbLine
 10
29.75649999999999
 20
7.81602199999999
 30
0.0
 11
30.3396
 21
7.80424199999999
 31
0.0
  0
LINE
  5
4F
330
1E
100
AcDbEntity
  8
0
100
AcDbLine
 10
29.75649999999999
 20
7.81602199999999
 30
0.0
 11
30.0655
 21
7.80424199999999
 31
0.0
  0
LINE
  5
50
330
1E
100
AcDbEntity
  8
0
100
AcDbLine
 10
29.75649999999999
 20
7.81602199999999
 30
0.0
 11
29.7612603015712
 21
7.999282
 31
0.0
  0
LINE
  5
51
330
1E
100
AcDbEntity
  8
0
100
AcDbLine
 10
33.12619999999999
 20
7.80424199999999
 30
0.0
 11
33.92369999999999
 21
7.77675199999999
 31
0.0
  0
LINE
  5
52
330
1E
100
AcDbEntity
  8
0
100
AcDbLine
 10
39.31309999999999
 20
7.80424199999999
 30
0.0
 11
39.8719
 21
7.77675199999999
 31
0.0
  0
LINE
  5
53
330
1E
100
AcDbEntity
  8
0
100
AcDbLine
 10
33.9299
 20
7.80424199999999
 30
0.0
 11
35.0718
 21
7.77675199999999
 31
0.0
  0
LINE
  5
54
330
1E
100
AcDbEntity
  8
0
100
AcDbLine
 10
33.9299
 20
7.80424199999999
 30
0.0
 11
33.9346151326802
 21
7.999282
 31
0.0
  0
LINE
  5
55
330
1E
100
AcDbEntity
  8
0
100
AcDbLine
 10
33.1124
 20
7.81602199999999
 30
0.0
 11
33.9299
 21
7.80424199999999
 31
0.0
  0
LINE
  5
56
330
1E
100
AcDbEntity
  8
0
100
AcDbLine
 10
33.1124
 20
7.81602199999999
 30
0.0
 11
33.11683031917729
 21
7.999282
 31
0.0
  0
LINE
  5
57
330
1E
100
AcDbEntity
  8
0
100
AcDbLine
 10
39.31309999999999
 20
7.80424199999999
 30
0.0
 11
39.8719
 21
7.77675199999999
 31
0.0
  0
LINE
  5
58
330
1E
100
AcDbEntity
  8
0
100
AcDbLine
 10
39.31309999999999
 20
7.80424199999999
 30
0.0
 11
39.5954
 21
7.81602199999999
 31
0.0
  0
LINE
  5
59
330
1E
100
AcDbEntity
  8
0
100
AcDbLine
 10
39.31309999999999
 20
7.80424199999999
 30
0.0
 11
39.31715176228929
 21
7.999282
 31
0.0
  0
LINE
  5
5A
330
1E
100
AcDbEntity
  8
0
100
AcDbLine
 10
39.8719
 20
7.77675199999999
 30
0.0
 11
40.97859999999999
 21
7.74927199999999
 31
0.0
  0
LINE
  5
5B
330
1E
100
AcDbEntity
  8
0
100
AcDbLine
 10
41.69109999999999
 20
7.68595199999999
 30
0.0
 11
41.8539
 21
7.67416199999999
 31
0.0
  0
LINE
  5
5C
330
1E
100
AcDbEntity
  8
0
100
AcDbLine
 10
41.69109999999999
 20
7.68595199999999
 30
0.0
 11
41.69248706582989
 21
7.740829484554279
 31
0.0
  0
LINE
  5
5D
330
1E
100
AcDbEntity
  8
0
100
AcDbLine
 10
40.97859999999999
 20
7.74927199999999
 30
0.0
 11
41.69248706582989
 21
7.740829484554279
 31
0.0
  0
LINE
  5
5E
330
1E
100
AcDbEntity
  8
0
100
AcDbLine
 10
41.8539
 20
7.67416199999999
 30
0.0
 11
42.75129999999999
 21
7.64668199999999
 31
0.0
  0
LINE
  5
5F
330
1E
100
AcDbEntity
  8
0
100
AcDbLine
 10
41.8539
 20
7.67416199999999
 30
0.0
 11
42.75129999999999
 21
7.64668199999999
 31
0.0
  0
LINE
  5
60
330
1E
100
AcDbEntity
  8
0
100
AcDbLine
 10
41.69109999999999
 20
7.68595199999999
 30
0.0
 11
42.3974
 21
7.67416199999999
 31
0.0
  0
LINE
  5
61
330
1E
100
AcDbEntity
  8
0
100
AcDbLine
 10
41.69109999999999
 20
7.68595199999999
 30
0.0
 11
41.8539
 21
7.67416199999999
 31
0.0
  0
LINE
  5
62
330
1E
100
AcDbEntity
  8
0
100
AcDbLine
 10
41.69109999999999
 20
7.68595199999999
 30
0.0
 11
41.69248706582989
 21
7.740829484554279
 31
0.0
  0
LINE
  5
63
330
1E
100
AcDbEntity
  8
0
100
AcDbLine
 10
40.97859999999999
 20
7.74927199999999
 30
0.0
 11
41.9747
 21
7.737491999999999
 31
0.0
  0
LINE
  5
64
330
1E
100
AcDbEntity
  8
0
100
AcDbLine
 10
43.8816
 20
7.61920199999999
 30
0.0
 11
44.58789999999999
 21
7.60742199999999
 31
0.0
  0
LINE
  5
65
330
1E
100
AcDbEntity
  8
0
100
AcDbLine
 10
42.75129999999999
 20
7.64668199999999
 30
0.0
 11
43.8816
 21
7.61920199999999
 31
0.0
  0
LINE
  5
66
330
1E
100
AcDbEntity
  8
0
100
AcDbLine
 10
42.75129999999999
 20
7.64668199999999
 30
0.0
 11
43.8816
 21
7.61920199999999
 31
0.0
  0
LINE
  5
67
330
1E
100
AcDbEntity
  8
0
100
AcDbLine
 10
43.8816
 20
7.61920199999999
 30
0.0
 11
44.58789999999999
 21
7.60742199999999
 31
0.0
  0
LINE
  5
68
330
1E
100
AcDbEntity
  8
0
100
AcDbLine
 10
52.0494
 20
7.58745199999999
 30
0.0
 11
53.0313
 21
7.55996199999999
 31
0.0
  0
LINE
  5
69
330
1E
100
AcDbEntity
  8
0
100
AcDbLine
 10
53.0313
 20
7.55996199999999
 30
0.0
 11
54.1306
 21
7.53248199999999
 31
0.0
  0
LINE
  5
6A
330
1E
100
AcDbEntity
  8
0
100
AcDbLine
 10
56.3688
 20
7.52070199999999
 30
0.0
 11
56.3803696170031
 21
7.99928199999999
 31
0.0
  0
LINE
  5
6B
330
1E
100
AcDbEntity
  8
0
100
AcDbLine
 10
55.5513
 20
7.53248199999999
 30
0.0
 11
56.3688
 21
7.52070199999999
 31
0.0
  0
LINE
  5
6C
330
1E
100
AcDbEntity
  8
0
100
AcDbLine
 10
55.5513
 20
7.53248199999999
 30
0.0
 11
55.5626003267756
 21
7.99928199999999
 31
0.0
  0
LINE
  5
6D
330
1E
100
AcDbEntity
  8
0
100
AcDbLine
 10
54.7137
 20
7.52070199999999
 30
0.0
 11
54.7261313539937
 21
7.99928199999999
 31
0.0
  0
LINE
  5
6E
330
1E
100
AcDbEntity
  8
0
100
AcDbLine
 10
54.1306
 20
7.53248199999999
 30
0.0
 11
54.7137
 21
7.52070199999999
 31
0.0
  0
LINE
  5
6F
330
1E
100
AcDbEntity
  8
0
100
AcDbLine
 10
54.71452906055169
 20
7.55261902199495
 30
0.0
 11
55.5513
 21
7.53248199999999
 31
0.0
  0
LINE
  5
70
330
1E
100
AcDbEntity
  8
0
100
AcDbLine
 10
54.71452906055169
 20
7.55261902199495
 30
0.0
 11
55.5513
 21
7.53248199999999
 31
0.0
  0
LINE
  5
71
330
1E
100
AcDbEntity
  8
0
100
AcDbLine
 10
54.4047
 20
7.53248199999999
 30
0.0
 11
54.7137
 21
7.52070199999999
 31
0.0
  0
LINE
  5
72
330
1E
100
AcDbEntity
  8
0
100
AcDbLine
 10
54.4047
 20
7.53248199999999
 30
0.0
 11
54.41684084694899
 21
7.99928199999999
 31
0.0
  0
LINE
  5
73
330
1E
100
AcDbEntity
  8
0
100
AcDbLine
 10
53.4229
 20
7.55996199999999
 30
0.0
 11
54.4047
 21
7.53248199999999
 31
0.0
  0
LINE
  5
74
330
1E
100
AcDbEntity
  8
0
100
AcDbLine
 10
53.4229
 20
7.55996199999999
 30
0.0
 11
53.4242419446609
 21
7.611691034406839
 31
0.0
  0
LINE
  5
75
330
1E
100
AcDbEntity
  8
0
100
AcDbLine
 10
53.4229
 20
7.55996199999999
 30
0.0
 11
53.4242419446609
 21
7.611691034406829
 31
0.0
  0
LINE
  5
76
330
1E
100
AcDbEntity
  8
0
100
AcDbLine
 10
52.3235
 20
7.58745199999999
 30
0.0
 11
53.4229
 21
7.55996199999999
 31
0.0
  0
LINE
  5
77
330
1E
100
AcDbEntity
  8
0
100
AcDbLine
 10
51.7404
 20
7.59923199999999
 30
0.0
 11
52.3235
 21
7.58745199999999
 31
0.0
  0
LINE
  5
78
330
1E
100
AcDbEntity
  8
0
100
AcDbLine
 10
51.7404
 20
7.59923199999999
 30
0.0
 11
52.0494
 21
7.58745199999999
 31
0.0
  0
LINE
  5
79
330
1E
100
AcDbEntity
  8
0
100
AcDbLine
 10
51.6876
 20
7.64668199999999
 30
0.0
 11
51.74159466736939
 21
7.64528274173961
 31
0.0
  0
LINE
  5
7A
330
1E
100
AcDbEntity
  8
0
100
AcDbLine
 10
52.748
 20
7.61920199999999
 30
0.0
 11
53.8086
 21
7.60742199999999
 31
0.0
  0
LINE
  5
7B
330
1E
100
AcDbEntity
  8
0
100
AcDbLine
 10
54.2329
 20
7.61920199999999
 30
0.0
 11
54.2399465451587
 21
7.999282
 31
0.0
  0
LINE
  5
7C
330
1E
100
AcDbEntity
  8
0
100
AcDbLine
 10
53.8086
 20
7.60742199999999
 30
0.0
 11
54.2329
 21
7.61920199999999
 31
0.0
  0
LINE
  5
7D
330
1E
100
AcDbEntity
  8
0
100
AcDbLine
 10
44.58789999999999
 20
7.60742199999999
 30
0.0
 11
44.59781749606529
 21
7.999282
 31
0.0
  0
LINE
  5
7E
330
1E
100
AcDbEntity
  8
0
100
AcDbLine
 10
44.4251
 20
7.61920199999999
 30
0.0
 11
44.58789999999999
 21
7.60742199999999
 31
0.0
  0
LINE
  5
7F
330
1E
100
AcDbEntity
  8
0
100
AcDbLine
 10
44.4251
 20
7.61920199999999
 30
0.0
 11
44.4347192945602
 21
7.999282
 31
0.0
  0
LINE
  5
80
330
1E
100
AcDbEntity
  8
0
100
AcDbLine
 10
51.2637
 20
7.67416199999999
 30
0.0
 11
51.6876
 21
7.64668199999999
 31
0.0
  0
LINE
  5
81
330
1E
100
AcDbEntity
  8
0
100
AcDbLine
 10
51.2637
 20
7.67416199999999
 30
0.0
 11
51.2697166854506
 21
7.99928199999999
 31
0.0
  0
LINE
  5
82
330
1E
100
AcDbEntity
  8
0
100
AcDbLine
 10
50.5895
 20
7.73749199999999
 30
0.0
 11
51.1486
 21
7.74927199999999
 31
0.0
  0
LINE
  5
83
330
1E
100
AcDbEntity
  8
0
100
AcDbLine
 10
51.1486
 20
7.74927199999999
 30
0.0
 11
51.1525931440709
 21
7.99928199999999
 31
0.0
  0
LINE
  5
84
330
1E
100
AcDbEntity
  8
0
100
AcDbLine
 10
49.4826
 20
7.74927199999999
 30
0.0
 11
50.5895
 21
7.73749199999999
 31
0.0
  0
LINE
  5
85
330
1E
100
AcDbEntity
  8
0
100
AcDbLine
 10
50.5895
 20
7.737491999999999
 30
0.0
 11
51.1486
 21
7.749272
 31
0.0
  0
LINE
  5
86
330
1E
100
AcDbEntity
  8
0
100
AcDbLine
 10
51.2637
 20
7.67416199999999
 30
0.0
 11
51.6876
 21
7.64668199999999
 31
0.0
  0
LINE
  5
87
330
1E
100
AcDbEntity
  8
0
100
AcDbLine
 10
51.2637
 20
7.67416199999999
 30
0.0
 11
51.688
 21
7.685952
 31
0.0
  0
LINE
  5
88
330
1E
100
AcDbEntity
  8
0
100
AcDbLine
 10
51.2637
 20
7.67416199999999
 30
0.0
 11
51.2697166854506
 21
7.999282
 31
0.0
  0
LINE
  5
89
330
1E
100
AcDbEntity
  8
0
100
AcDbLine
 10
51.6876
 20
7.64668199999999
 30
0.0
 11
52.748
 21
7.61920199999999
 31
0.0
  0
LINE
  5
8A
330
1E
100
AcDbEntity
  8
0
100
AcDbLine
 10
53.809
 20
7.64668199999999
 30
0.0
 11
54.2329
 21
7.61920199999999
 31
0.0
  0
LINE
  5
8B
330
1E
100
AcDbEntity
  8
0
100
AcDbLine
 10
53.809
 20
7.64668199999999
 30
0.0
 11
53.81552527509171
 21
7.999282
 31
0.0
  0
LINE
  5
8C
330
1E
100
AcDbEntity
  8
0
100
AcDbLine
 10
52.7486
 20
7.67416199999999
 30
0.0
 11
53.809
 21
7.64668199999999
 31
0.0
  0
LINE
  5
8D
330
1E
100
AcDbEntity
  8
0
100
AcDbLine
 10
52.7486
 20
7.67416199999999
 30
0.0
 11
52.7546166854506
 21
7.999282
 31
0.0
  0
LINE
  5
8E
330
1E
100
AcDbEntity
  8
0
100
AcDbLine
 10
51.688
 20
7.685952
 30
0.0
 11
52.7486
 21
7.67416199999999
 31
0.0
  0
LINE
  5
8F
330
1E
100
AcDbEntity
  8
0
100
AcDbLine
 10
51.688
 20
7.685952
 30
0.0
 11
51.6937986731934
 21
7.999282
 31
0.0
  0
LINE
  5
90
330
1E
100
AcDbEntity
  8
0
100
AcDbLine
 10
43.5277
 20
7.64668199999999
 30
0.0
 11
44.4251
 21
7.61920199999999
 31
0.0
  0
LINE
  5
91
330
1E
100
AcDbEntity
  8
0
100
AcDbLine
 10
43.5277
 20
7.64668199999999
 30
0.0
 11
43.53662375458489
 21
7.999282
 31
0.0
  0
LINE
  5
92
330
1E
100
AcDbEntity
  8
0
100
AcDbLine
 10
42.3974
 20
7.67416199999999
 30
0.0
 11
43.5277
 21
7.64668199999999
 31
0.0
  0
LINE
  5
93
330
1E
100
AcDbEntity
  8
0
100
AcDbLine
 10
42.3974
 20
7.67416199999999
 30
0.0
 11
42.4056282238865
 21
7.999282
 31
0.0
  0
LINE
  5
94
330
1E
100
AcDbEntity
  8
0
100
AcDbLine
 10
48.4866
 20
7.77675199999999
 30
0.0
 11
49.4826
 21
7.74927199999999
 31
0.0
  0
LINE
  5
95
330
1E
100
AcDbEntity
  8
0
100
AcDbLine
 10
51.1486
 20
7.749272
 30
0.0
 11
51.1525931440709
 21
7.999282
 31
0.0
  0
LINE
  5
96
330
1E
100
AcDbEntity
  8
0
100
AcDbLine
 10
49.4826
 20
7.749272
 30
0.0
 11
50.5895
 21
7.737491999999999
 31
0.0
  0
LINE
  5
97
330
1E
100
AcDbEntity
  8
0
100
AcDbLine
 10
42.25699999999999
 20
7.74927199999999
 30
0.0
 11
42.26219358821739
 21
7.999282
 31
0.0
  0
LINE
  5
98
330
1E
100
AcDbEntity
  8
0
100
AcDbLine
 10
41.9747
 20
7.737491999999999
 30
0.0
 11
42.25699999999999
 21
7.74927199999999
 31
0.0
  0
LINE
  5
99
330
1E
100
AcDbEntity
  8
0
100
AcDbLine
 10
48.2047
 20
7.80424199999999
 30
0.0
 11
48.4866
 21
7.77675199999999
 31
0.0
  0
LINE
  5
9A
330
1E
100
AcDbEntity
  8
0
100
AcDbLine
 10
48.2047
 20
7.80424199999999
 30
0.0
 11
48.20780223212199
 21
7.99928199999999
 31
0.0
  0
LINE
  5
9B
330
1E
100
AcDbEntity
  8
0
100
AcDbLine
 10
50.8667
 20
7.776752
 30
0.0
 11
51.1486
 21
7.749272
 31
0.0
  0
LINE
  5
9C
330
1E
100
AcDbEntity
  8
0
100
AcDbLine
 10
50.8667
 20
7.776752
 30
0.0
 11
50.8702469097311
 21
7.999282
 31
0.0
  0
LINE
  5
9D
330
1E
100
AcDbEntity
  8
0
100
AcDbLine
 10
50.8667
 20
7.776752
 30
0.0
 11
50.8702469097311
 21
7.999282
 31
0.0
  0
LINE
  5
9E
330
1E
100
AcDbEntity
  8
0
100
AcDbLine
 10
49.8707
 20
7.804241999999999
 30
0.0
 11
50.8667
 21
7.776752
 31
0.0
  0
LINE
  5
9F
330
1E
100
AcDbEntity
  8
0
100
AcDbLine
 10
49.8707
 20
7.804241999999999
 30
0.0
 11
49.8738087357533
 21
7.999282
 31
0.0
  0
LINE
  5
A0
330
1E
100
AcDbEntity
  8
0
100
AcDbLine
 10
48.4866
 20
7.776752
 30
0.0
 11
49.4826
 21
7.749272
 31
0.0
  0
LINE
  5
A1
330
1E
100
AcDbEntity
  8
0
100
AcDbLine
 10
48.2047
 20
7.804241999999999
 30
0.0
 11
48.76380000000001
 21
7.816022
 31
0.0
  0
LINE
  5
A2
330
1E
100
AcDbEntity
  8
0
100
AcDbLine
 10
48.2047
 20
7.804241999999999
 30
0.0
 11
48.4866
 21
7.776752
 31
0.0
  0
LINE
  5
A3
330
1E
100
AcDbEntity
  8
0
100
AcDbLine
 10
48.2047
 20
7.804241999999999
 30
0.0
 11
48.20780223212199
 21
7.999282
 31
0.0
  0
LINE
  5
A4
330
1E
100
AcDbEntity
  8
0
100
AcDbLine
 10
41.6982
 20
7.77675199999999
 30
0.0
 11
42.25699999999999
 21
7.74927199999999
 31
0.0
  0
LINE
  5
A5
330
1E
100
AcDbEntity
  8
0
100
AcDbLine
 10
41.6982
 20
7.77675199999999
 30
0.0
 11
41.70282285515169
 21
7.999282
 31
0.0
  0
LINE
  5
A6
330
1E
100
AcDbEntity
  8
0
100
AcDbLine
 10
40.5915
 20
7.80424199999999
 30
0.0
 11
41.6982
 21
7.77675199999999
 31
0.0
  0
LINE
  5
A7
330
1E
100
AcDbEntity
  8
0
100
AcDbLine
 10
40.5915
 20
7.80424199999999
 30
0.0
 11
40.59555176228929
 21
7.999282
 31
0.0
  0
LINE
  5
A8
330
1E
100
AcDbEntity
  8
0
100
AcDbLine
 10
48.76380000000001
 20
7.816022
 30
0.0
 11
49.8707
 21
7.804241999999999
 31
0.0
  0
LINE
  5
A9
330
1E
100
AcDbEntity
  8
0
100
AcDbLine
 10
48.76380000000001
 20
7.816022
 30
0.0
 11
48.7667209552645
 21
7.999282
 31
0.0
  0
LINE
  5
AA
330
1E
100
AcDbEntity
  8
0
100
AcDbLine
 10
39.5954
 20
7.81602199999999
 30
0.0
 11
40.5915
 21
7.80424199999999
 31
0.0
  0
LINE
  5
AB
330
1E
100
AcDbEntity
  8
0
100
AcDbLine
 10
39.5954
 20
7.81602199999999
 30
0.0
 11
39.5992070191
 21
7.999282
 31
0.0
  0
LINE
  5
AC
330
1E
100
AcDbEntity
  8
0
100
AcDbLine
 10
65.2727
 20
5.99928199999999
 30
0.0
 11
66.1267
 21
5.99928199999999
 31
0.0
  0
LINE
  5
AD
330
1E
100
AcDbEntity
  8
0
100
AcDbLine
 10
64.6007
 20
5.99928199999999
 30
0.0
 11
65.2727
 21
5.99928199999999
 31
0.0
  0
LINE
  5
AE
330
1E
100
AcDbEntity
  8
0
100
AcDbLine
 10
67.1348
 20
5.99928199999999
 30
0.0
 11
68.22669999999999
 21
5.99928199999999
 31
0.0
  0
LINE
  5
AF
330
1E
100
AcDbEntity
  8
0
100
AcDbLine
 10
66.1267
 20
5.99928199999999
 30
0.0
 11
67.1348
 21
5.99928199999999
 31
0.0
  0
LINE
  5
B0
330
1E
100
AcDbEntity
  8
0
100
AcDbLine
 10
68.22669999999999
 20
5.99928199999999
 30
0.0
 11
69.3187
 21
5.99928199999999
 31
0.0
  0
LINE
  5
B1
330
1E
100
AcDbEntity
  8
0
100
AcDbLine
 10
69.3187
 20
5.99928199999999
 30
0.0
 11
70.3267
 21
5.99928199999999
 31
0.0
  0
LINE
  5
B2
330
1E
100
AcDbEntity
  8
0
100
AcDbLine
 10
68.22669999999999
 20
5.99928199999999
 30
0.0
 11
69.3187
 21
5.99928199999999
 31
0.0
  0
LINE
  5
B3
330
1E
100
AcDbEntity
  8
0
100
AcDbLine
 10
70.3267
 20
5.99928199999999
 30
0.0
 11
71.1807
 21
5.99928199999999
 31
0.0
  0
LINE
  5
B4
330
1E
100
AcDbEntity
  8
0
100
AcDbLine
 10
71.1807
 20
5.99928199999999
 30
0.0
 11
71.8527
 21
5.99928199999999
 31
0.0
  0
LINE
  5
B5
330
1E
100
AcDbEntity
  8
0
100
AcDbLine
 10
69.3187
 20
5.99928199999999
 30
0.0
 11
70.3267
 21
5.99928199999999
 31
0.0
  0
LINE
  5
B6
330
1E
100
AcDbEntity
  8
0
100
AcDbLine
 10
70.3267
 20
5.99928199999999
 30
0.0
 11
71.1807
 21
5.99928199999999
 31
0.0
  0
LINE
  5
B7
330
1E
100
AcDbEntity
  8
0
100
AcDbLine
 10
71.8527
 20
5.99928199999999
 30
0.0
 11
72.2587
 21
5.99928199999999
 31
0.0
  0
LINE
  5
B8
330
1E
100
AcDbEntity
  8
0
100
AcDbLine
 10
71.1807
 20
5.99928199999999
 30
0.0
 11
71.8527
 21
5.99928199999999
 31
0.0
  0
LINE
  5
B9
330
1E
100
AcDbEntity
  8
0
100
AcDbLine
 10
71.8527
 20
5.99928199999999
 30
0.0
 11
72.2587
 21
5.99928199999999
 31
0.0
  0
LINE
  5
BA
330
1E
100
AcDbEntity
  8
0
100
AcDbLine
 10
80.7708
 20
5.99928199999999
 30
0.0
 11
81.4623
 21
5.99928199999999
 31
0.0
  0
LINE
  5
BB
330
1E
100
AcDbEntity
  8
0
100
AcDbLine
 10
80.37029999999999
 20
5.99928199999999
 30
0.0
 11
80.7708
 21
5.99928199999999
 31
0.0
  0
LINE
  5
BC
330
1E
100
AcDbEntity
  8
0
100
AcDbLine
 10
80.21790000000001
 20
5.99928199999999
 30
0.0
 11
80.3728
 21
5.99928199999999
 31
0.0
  0
LINE
  5
BD
330
1E
100
AcDbEntity
  8
0
100
AcDbLine
 10
80.21790000000001
 20
5.99928199999999
 30
0.0
 11
80.37029999999999
 21
5.99928199999999
 31
0.0
  0
LINE
  5
BE
330
1E
100
AcDbEntity
  8
0
100
AcDbLine
 10
80.3728
 20
5.99928199999999
 30
0.0
 11
80.7764
 21
5.99928199999999
 31
0.0
  0
LINE
  5
BF
330
1E
100
AcDbEntity
  8
0
100
AcDbLine
 10
81.4623
 20
5.99928199999999
 30
0.0
 11
82.3179
 21
5.99928199999999
 31
0.0
  0
LINE
  5
C0
330
1E
100
AcDbEntity
  8
0
100
AcDbLine
 10
82.3179
 20
5.99928199999999
 30
0.0
 11
83.32680000000001
 21
5.99928199999999
 31
0.0
  0
LINE
  5
C1
330
1E
100
AcDbEntity
  8
0
100
AcDbLine
 10
83.32680000000001
 20
5.99928199999999
 30
0.0
 11
84.40240000000001
 21
5.99928199999999
 31
0.0
  0
LINE
  5
C2
330
1E
100
AcDbEntity
  8
0
100
AcDbLine
 10
80.7764
 20
5.99928199999999
 30
0.0
 11
81.4464
 21
5.99928199999999
 31
0.0
  0
LINE
  5
C3
330
1E
100
AcDbEntity
  8
0
100
AcDbLine
 10
81.4464
 20
5.99928199999999
 30
0.0
 11
82.30809999999999
 21
5.99928199999999
 31
0.0
  0
LINE
  5
C4
330
1E
100
AcDbEntity
  8
0
100
AcDbLine
 10
84.40240000000001
 20
5.99928199999999
 30
0.0
 11
85.47839999999998
 21
5.99928199999999
 31
0.0
  0
LINE
  5
C5
330
1E
100
AcDbEntity
  8
0
100
AcDbLine
 10
85.47839999999998
 20
5.99928199999999
 30
0.0
 11
86.50809999999999
 21
5.99928199999999
 31
0.0
  0
LINE
  5
C6
330
1E
100
AcDbEntity
  8
0
100
AcDbLine
 10
87.3539
 20
5.99928199999999
 30
0.0
 11
88.04540000000001
 21
5.99928199999999
 31
0.0
  0
LINE
  5
C7
330
1E
100
AcDbEntity
  8
0
100
AcDbLine
 10
86.49829999999999
 20
5.99928199999999
 30
0.0
 11
87.3539
 21
5.99928199999999
 31
0.0
  0
LINE
  5
C8
330
1E
100
AcDbEntity
  8
0
100
AcDbLine
 10
85.4893
 20
5.99928199999999
 30
0.0
 11
86.49829999999999
 21
5.99928199999999
 31
0.0
  0
LINE
  5
C9
330
1E
100
AcDbEntity
  8
0
100
AcDbLine
 10
84.4137
 20
5.99928199999999
 30
0.0
 11
85.4893
 21
5.99928199999999
 31
0.0
  0
LINE
  5
CA
330
1E
100
AcDbEntity
  8
0
100
AcDbLine
 10
83.3378
 20
5.99928199999999
 30
0.0
 11
84.4137
 21
5.99928199999999
 31
0.0
  0
LINE
  5
CB
330
1E
100
AcDbEntity
  8
0
100
AcDbLine
 10
82.30809999999999
 20
5.99928199999999
 30
0.0
 11
83.3378
 21
5.99928199999999
 31
0.0
  0
LINE
  5
CC
330
1E
100
AcDbEntity
  8
0
100
AcDbLine
 10
88.04540000000001
 20
5.99928199999999
 30
0.0
 11
88.4459
 21
5.99928199999999
 31
0.0
  0
LINE
  5
CD
330
1E
100
AcDbEntity
  8
0
100
AcDbLine
 10
88.4459
 20
5.99928199999999
 30
0.0
 11
88.5983
 21
5.99928199999999
 31
0.0
  0
LINE
  5
CE
330
1E
100
AcDbEntity
  8
0
100
AcDbLine
 10
88.44329999999999
 20
5.99928199999999
 30
0.0
 11
88.5983
 21
5.99928199999999
 31
0.0
  0
LINE
  5
CF
330
1E
100
AcDbEntity
  8
0
100
AcDbLine
 10
88.03969999999999
 20
5.99928199999999
 30
0.0
 11
88.44329999999999
 21
5.99928199999999
 31
0.0
  0
LINE
  5
D0
330
1E
100
AcDbEntity
  8
0
100
AcDbLine
 10
87.3698
 20
5.99928199999999
 30
0.0
 11
88.03969999999999
 21
5.99928199999999
 31
0.0
  0
LINE
  5
D1
330
1E
100
AcDbEntity
  8
0
100
AcDbLine
 10
80.7708
 20
5.99928199999999
 30
0.0
 11
81.4623
 21
5.99928199999999
 31
0.0
  0
LINE
  5
D2
330
1E
100
AcDbEntity
  8
0
100
AcDbLine
 10
80.37029999999999
 20
5.99928199999999
 30
0.0
 11
80.7708
 21
5.99928199999999
 31
0.0
  0
LINE
  5
D3
330
1E
100
AcDbEntity
  8
0
100
AcDbLine
 10
80.21790000000001
 20
5.99928199999999
 30
0.0
 11
80.3728
 21
5.99928199999999
 31
0.0
  0
LINE
  5
D4
330
1E
100
AcDbEntity
  8
0
100
AcDbLine
 10
80.21790000000001
 20
5.99928199999999
 30
0.0
 11
80.37029999999999
 21
5.99928199999999
 31
0.0
  0
LINE
  5
D5
330
1E
100
AcDbEntity
  8
0
100
AcDbLine
 10
80.3728
 20
5.99928199999999
 30
0.0
 11
80.7764
 21
5.99928199999999
 31
0.0
  0
LINE
  5
D6
330
1E
100
AcDbEntity
  8
0
100
AcDbLine
 10
81.4623
 20
5.99928199999999
 30
0.0
 11
82.3179
 21
5.99928199999999
 31
0.0
  0
LINE
  5
D7
330
1E
100
AcDbEntity
  8
0
100
AcDbLine
 10
82.3179
 20
5.99928199999999
 30
0.0
 11
83.32680000000001
 21
5.99928199999999
 31
0.0
  0
LINE
  5
D8
330
1E
100
AcDbEntity
  8
0
100
AcDbLine
 10
83.32680000000001
 20
5.99928199999999
 30
0.0
 11
84.40240000000001
 21
5.99928199999999
 31
0.0
  0
LINE
  5
D9
330
1E
100
AcDbEntity
  8
0
100
AcDbLine
 10
80.7764
 20
5.99928199999999
 30
0.0
 11
81.4464
 21
5.99928199999999
 31
0.0
  0
LINE
  5
DA
330
1E
100
AcDbEntity
  8
0
100
AcDbLine
 10
81.4464
 20
5.99928199999999
 30
0.0
 11
82.30809999999999
 21
5.99928199999999
 31
0.0
  0
LINE
  5
DB
330
1E
100
AcDbEntity
  8
0
100
AcDbLine
 10
84.40240000000001
 20
5.99928199999999
 30
0.0
 11
85.47839999999998
 21
5.99928199999999
 31
0.0
  0
LINE
  5
DC
330
1E
100
AcDbEntity
  8
0
100
AcDbLine
 10
85.47839999999998
 20
5.99928199999999
 30
0.0
 11
86.50809999999999
 21
5.99928199999999
 31
0.0
  0
LINE
  5
DD
330
1E
100
AcDbEntity
  8
0
100
AcDbLine
 10
86.49829999999999
 20
5.99928199999999
 30
0.0
 11
87.3539
 21
5.99928199999999
 31
0.0
  0
LINE
  5
DE
330
1E
100
AcDbEntity
  8
0
100
AcDbLine
 10
85.4893
 20
5.99928199999999
 30
0.0
 11
86.49829999999999
 21
5.99928199999999
 31
0.0
  0
LINE
  5
DF
330
1E
100
AcDbEntity
  8
0
100
AcDbLine
 10
84.4137
 20
5.99928199999999
 30
0.0
 11
85.4893
 21
5.99928199999999
 31
0.0
  0
LINE
  5
E0
330
1E
100
AcDbEntity
  8
0
100
AcDbLine
 10
83.3378
 20
5.99928199999999
 30
0.0
 11
84.4137
 21
5.99928199999999
 31
0.0
  0
LINE
  5
E1
330
1E
100
AcDbEntity
  8
0
100
AcDbLine
 10
82.30809999999999
 20
5.99928199999999
 30
0.0
 11
83.3378
 21
5.99928199999999
 31
0.0
  0
LINE
  5
E2
330
1E
100
AcDbEntity
  8
0
100
AcDbLine
 10
87.3539
 20
5.99928199999999
 30
0.0
 11
88.04540000000001
 21
5.99928199999999
 31
0.0
  0
LINE
  5
E3
330
1E
100
AcDbEntity
  8
0
100
AcDbLine
 10
88.04540000000001
 20
5.99928199999999
 30
0.0
 11
88.4459
 21
5.99928199999999
 31
0.0
  0
LINE
  5
E4
330
1E
100
AcDbEntity
  8
0
100
AcDbLine
 10
88.4459
 20
5.99928199999999
 30
0.0
 11
88.5983
 21
5.99928199999999
 31
0.0
  0
LINE
  5
E5
330
1E
100
AcDbEntity
  8
0
100
AcDbLine
 10
88.44329999999999
 20
5.99928199999999
 30
0.0
 11
88.5983
 21
5.99928199999999
 31
0.0
  0
LINE
  5
E6
330
1E
100
AcDbEntity
  8
0
100
AcDbLine
 10
88.5983
 20
5.99928199999999
 30
0.0
 11
89.75715857682059
 21
7.634990496165099
 31
0.0
  0
LINE
  5
E7
330
1E
100
AcDbEntity
  8
0
100
AcDbLine
 10
88.03969999999999
 20
5.99928199999999
 30
0.0
 11
88.44329999999999
 21
5.99928199999999
 31
0.0
  0
LINE
  5
E8
330
1E
100
AcDbEntity
  8
0
100
AcDbLine
 10
87.3698
 20
5.99928199999999
 30
0.0
 11
88.03969999999999
 21
5.99928199999999
 31
0.0
  0
LINE
  5
E9
330
1E
100
AcDbEntity
  8
0
100
AcDbLine
 10
86.50809999999999
 20
5.99928199999999
 30
0.0
 11
87.3698
 21
5.99928199999999
 31
0.0
  0
LINE
  5
EA
330
1E
100
AcDbEntity
  8
0
100
AcDbLine
 10
86.50809999999999
 20
5.99928199999999
 30
0.0
 11
87.3698
 21
5.99928199999999
 31
0.0
  0
LINE
  5
EB
330
1E
100
AcDbEntity
  8
0
100
AcDbLine
 10
72.2587
 20
5.99928199999999
 30
0.0
 11
72.4268
 21
5.99928199999999
 31
0.0
  0
LINE
  5
EC
330
1E
100
AcDbEntity
  8
0
100
AcDbLine
 10
72.4268
 20
5.99928199999999
 30
0.0
 11
73.64972644975259
 21
7.74638218179587
 31
0.0
  0
LINE
  5
ED
330
1E
100
AcDbEntity
  8
0
100
AcDbLine
 10
67.1348
 20
5.99928199999999
 30
0.0
 11
68.22669999999999
 21
5.99928199999999
 31
0.0
  0
LINE
  5
EE
330
1E
100
AcDbEntity
  8
0
100
AcDbLine
 10
66.1267
 20
5.99928199999999
 30
0.0
 11
67.1348
 21
5.99928199999999
 31
0.0
  0
LINE
  5
EF
330
1E
100
AcDbEntity
  8
0
100
AcDbLine
 10
65.2727
 20
5.99928199999999
 30
0.0
 11
66.1267
 21
5.99928199999999
 31
0.0
  0
LINE
  5
F0
330
1E
100
AcDbEntity
  8
0
100
AcDbLine
 10
64.6007
 20
5.99928199999999
 30
0.0
 11
65.2727
 21
5.99928199999999
 31
0.0
  0
LINE
  5
F1
330
1E
100
AcDbEntity
  8
0
100
AcDbLine
 10
64.1947
 20
5.99928199999999
 30
0.0
 11
64.6007
 21
5.99928199999999
 31
0.0
  0
LINE
  5
F2
330
1E
100
AcDbEntity
  8
0
100
AcDbLine
 10
64.1947
 20
5.99928199999999
 30
0.0
 11
64.6007
 21
5.99928199999999
 31
0.0
  0
LINE
  5
F3
330
1E
100
AcDbEntity
  8
0
100
AcDbLine
 10
56.9046
 20
7.58745199999999
 30
0.0
 11
57.4634
 21
7.55996199999999
 31
0.0
  0
LINE
  5
F4
330
1E
100
AcDbEntity
  8
0
100
AcDbLine
 10
56.9046
 20
7.58745199999999
 30
0.0
 11
57.1869
 21
7.59923199999999
 31
0.0
  0
LINE
  5
F5
330
1E
100
AcDbEntity
  8
0
100
AcDbLine
 10
56.9046
 20
7.58745199999999
 30
0.0
 11
56.91315538775501
 21
7.99928199999999
 31
0.0
  0
LINE
  5
F6
330
1E
100
AcDbEntity
  8
0
100
AcDbLine
 10
57.4634
 20
7.55996199999999
 30
0.0
 11
58.57
 21
7.53248199999999
 31
0.0
  0
LINE
  5
F7
330
1E
100
AcDbEntity
  8
0
100
AcDbLine
 10
58.57
 20
7.53248199999999
 30
0.0
 11
59.5662
 21
7.52070199999999
 31
0.0
  0
LINE
  5
F8
330
1E
100
AcDbEntity
  8
0
100
AcDbLine
 10
75.8027
 20
7.52070199999999
 30
0.0
 11
76.7849
 21
7.53248199999999
 31
0.0
  0
LINE
  5
F9
330
1E
100
AcDbEntity
  8
0
100
AcDbLine
 10
75.8027
 20
7.52070199999999
 30
0.0
 11
75.80432772542661
 21
7.99928199999999
 31
0.0
  0
LINE
  5
FA
330
1E
100
AcDbEntity
  8
0
100
AcDbLine
 10
98.43389999999999
 20
7.52070199999999
 30
0.0
 11
99.43000000000001
 21
7.53248199999999
 31
0.0
  0
LINE
  5
FB
330
1E
100
AcDbEntity
  8
0
100
AcDbLine
 10
61.985
 20
7.55996199999999
 30
0.0
 11
62.9529176382422
 21
7.533256802511139
 31
0.0
  0
LINE
  5
FC
330
1E
100
AcDbEntity
  8
0
100
AcDbLine
 10
61.985
 20
7.55996199999999
 30
0.0
 11
61.992002119359
 21
7.99928199999999
 31
0.0
  0
LINE
  5
FD
330
1E
100
AcDbEntity
  8
0
100
AcDbLine
 10
61.7031
 20
7.58745199999999
 30
0.0
 11
61.985
 21
7.55996199999999
 31
0.0
  0
LINE
  5
FE
330
1E
100
AcDbEntity
  8
0
100
AcDbLine
 10
61.7031
 20
7.58745199999999
 30
0.0
 11
61.7056244987905
 21
7.74583683593903
 31
0.0
  0
LINE
  5
FF
330
1E
100
AcDbEntity
  8
0
100
AcDbLine
 10
82.1973
 20
7.52070199999999
 30
0.0
 11
83.2971
 21
7.53248199999999
 31
0.0
  0
LINE
  5
100
330
1E
100
AcDbEntity
  8
0
100
AcDbLine
 10
76.7849
 20
7.53248199999999
 30
0.0
 11
77.0941
 21
7.55996199999999
 31
0.0
  0
LINE
  5
101
330
1E
100
AcDbEntity
  8
0
100
AcDbLine
 10
76.7849
 20
7.53248199999999
 30
0.0
 11
76.78650321440478
 21
7.99928199999999
 31
0.0
  0
LINE
  5
102
330
1E
100
AcDbEntity
  8
0
100
AcDbLine
 10
74.7029
 20
7.53248199999999
 30
0.0
 11
75.8027
 21
7.52070199999999
 31
0.0
  0
LINE
  5
103
330
1E
100
AcDbEntity
  8
0
100
AcDbLine
 10
74.7029
 20
7.53248199999999
 30
0.0
 11
74.7045032144048
 21
7.99928199999999
 31
0.0
  0
LINE
  5
104
330
1E
100
AcDbEntity
  8
0
100
AcDbLine
 10
81.2151
 20
7.53248199999999
 30
0.0
 11
82.1973
 21
7.52070199999999
 31
0.0
  0
LINE
  5
105
330
1E
100
AcDbEntity
  8
0
100
AcDbLine
 10
83.2971
 20
7.53248199999999
 30
0.0
 11
83.8802
 21
7.55996199999999
 31
0.0
  0
LINE
  5
106
330
1E
100
AcDbEntity
  8
0
100
AcDbLine
 10
93.353
 20
7.53248199999999
 30
0.0
 11
93.91209999999999
 21
7.52070199999999
 31
0.0
  0
LINE
  5
107
330
1E
100
AcDbEntity
  8
0
100
AcDbLine
 10
93.353
 20
7.53248199999999
 30
0.0
 11
93.6349
 21
7.55996199999999
 31
0.0
  0
LINE
  5
108
330
1E
100
AcDbEntity
  8
0
100
AcDbLine
 10
93.91209999999999
 20
7.52070199999999
 30
0.0
 11
95.01899999999999
 21
7.53248199999999
 31
0.0
  0
LINE
  5
109
330
1E
100
AcDbEntity
  8
0
100
AcDbLine
 10
99.43000000000001
 20
7.53248199999999
 30
0.0
 11
100.537
 21
7.55996199999999
 31
0.0
  0
LINE
  5
10A
330
1E
100
AcDbEntity
  8
0
100
AcDbLine
 10
98.1516
 20
7.53248199999999
 30
0.0
 11
98.43389999999999
 21
7.52070199999999
 31
0.0
  0
LINE
  5
10B
330
1E
100
AcDbEntity
  8
0
100
AcDbLine
 10
95.01899999999999
 20
7.53248199999999
 30
0.0
 11
96.01500000000001
 21
7.55996199999999
 31
0.0
  0
LINE
  5
10C
330
1E
100
AcDbEntity
  8
0
100
AcDbLine
 10
69.6259
 20
7.52070199999999
 30
0.0
 11
70.4238
 21
7.53248199999999
 31
0.0
  0
LINE
  5
10D
330
1E
100
AcDbEntity
  8
0
100
AcDbLine
 10
77.0941
 20
7.55996199999999
 30
0.0
 11
77.09559417609749
 21
7.99928199999999
 31
0.0
  0
LINE
  5
10E
330
1E
100
AcDbEntity
  8
0
100
AcDbLine
 10
74.11979999999999
 20
7.55996199999999
 30
0.0
 11
74.7029
 21
7.53248199999999
 31
0.0
  0
LINE
  5
10F
330
1E
100
AcDbEntity
  8
0
100
AcDbLine
 10
74.11979999999999
 20
7.55996199999999
 30
0.0
 11
74.12051333048541
 21
7.76969654825917
 31
0.0
  0
LINE
  5
110
330
1E
100
AcDbEntity
  8
0
100
AcDbLine
 10
89.68863620451989
 20
7.53827237301223
 30
0.0
 11
90.33379999999999
 21
7.55996199999999
 31
0.0
  0
LINE
  5
111
330
1E
100
AcDbEntity
  8
0
100
AcDbLine
 10
80.9059
 20
7.55996199999999
 30
0.0
 11
81.2151
 21
7.53248199999999
 31
0.0
  0
LINE
  5
112
330
1E
100
AcDbEntity
  8
0
100
AcDbLine
 10
80.9059
 20
7.55996199999999
 30
0.0
 11
81.48909999999998
 21
7.58745199999999
 31
0.0
  0
LINE
  5
113
330
1E
100
AcDbEntity
  8
0
100
AcDbLine
 10
93.6349
 20
7.55996199999999
 30
0.0
 11
94.63089999999999
 21
7.58745199999999
 31
0.0
  0
LINE
  5
114
330
1E
100
AcDbEntity
  8
0
100
AcDbLine
 10
100.537
 20
7.55996199999999
 30
0.0
 11
101.095
 21
7.58745199999999
 31
0.0
  0
LINE
  5
115
330
1E
100
AcDbEntity
  8
0
100
AcDbLine
 10
96.01500000000001
 20
7.55996199999999
 30
0.0
 11
96.2969
 21
7.58745199999999
 31
0.0
  0
LINE
  5
116
330
1E
100
AcDbEntity
  8
0
100
AcDbLine
 10
81.48909999999998
 20
7.58745199999999
 30
0.0
 11
82.58880000000001
 21
7.59923199999999
 31
0.0
  0
LINE
  5
117
330
1E
100
AcDbEntity
  8
0
100
AcDbLine
 10
83.5711
 20
7.58745199999999
 30
0.0
 11
83.8802
 21
7.55996199999999
 31
0.0
  0
LINE
  5
118
330
1E
100
AcDbEntity
  8
0
100
AcDbLine
 10
94.63089999999999
 20
7.58745199999999
 30
0.0
 11
95.73779999999999
 21
7.59923199999999
 31
0.0
  0
LINE
  5
119
330
1E
100
AcDbEntity
  8
0
100
AcDbLine
 10
70.43779999999999
 20
7.55996199999999
 30
0.0
 11
70.43836312963221
 21
7.616069542511769
 31
0.0
  0
LINE
  5
11A
330
1E
100
AcDbEntity
  8
0
100
AcDbLine
 10
69.6204
 20
7.58745199999999
 30
0.0
 11
70.43779999999999
 21
7.55996199999999
 31
0.0
  0
LINE
  5
11B
330
1E
100
AcDbEntity
  8
0
100
AcDbLine
 10
68.48359999999999
 20
7.53248199999999
 30
0.0
 11
69.6259
 21
7.52070199999999
 31
0.0
  0
LINE
  5
11C
330
1E
100
AcDbEntity
  8
0
100
AcDbLine
 10
67.6662
 20
7.55996199999999
 30
0.0
 11
68.48359999999999
 21
7.53248199999999
 31
0.0
  0
LINE
  5
11D
330
1E
100
AcDbEntity
  8
0
100
AcDbLine
 10
67.6662
 20
7.55996199999999
 30
0.0
 11
67.670594635581
 21
7.99928199999999
 31
0.0
  0
LINE
  5
11E
330
1E
100
AcDbEntity
  8
0
100
AcDbLine
 10
67.6803
 20
7.58745199999999
 30
0.0
 11
68.4782
 21
7.59923199999999
 31
0.0
  0
LINE
  5
11F
330
1E
100
AcDbEntity
  8
0
100
AcDbLine
 10
67.6803
 20
7.58745199999999
 30
0.0
 11
67.68441976938439
 21
7.99928199999999
 31
0.0
  0
LINE
  5
120
330
1E
100
AcDbEntity
  8
0
100
AcDbLine
 10
59.8484
 20
7.53248199999999
 30
0.0
 11
59.8530122825484
 21
7.754152438502219
 31
0.0
  0
LINE
  5
121
330
1E
100
AcDbEntity
  8
0
100
AcDbLine
 10
59.5662
 20
7.52070199999999
 30
0.0
 11
59.8484
 21
7.53248199999999
 31
0.0
  0
LINE
  5
122
330
1E
100
AcDbEntity
  8
0
100
AcDbLine
 10
59.2897
 20
7.55996199999999
 30
0.0
 11
59.8484
 21
7.53248199999999
 31
0.0
  0
LINE
  5
123
330
1E
100
AcDbEntity
  8
0
100
AcDbLine
 10
59.2897
 20
7.55996199999999
 30
0.0
 11
59.294117176818
 21
7.77293951801962
 31
0.0
  0
LINE
  5
124
330
1E
100
AcDbEntity
  8
0
100
AcDbLine
 10
59.1807
 20
7.776752
 30
0.0
 11
59.99819999999999
 21
7.749272
 31
0.0
  0
LINE
  5
125
330
1E
100
AcDbEntity
  8
0
100
AcDbLine
 10
59.1807
 20
7.776752
 30
0.0
 11
59.1829335142868
 21
7.999282
 31
0.0
  0
LINE
  5
126
330
1E
100
AcDbEntity
  8
0
100
AcDbLine
 10
59.1807
 20
7.776752
 30
0.0
 11
59.1829335142868
 21
7.999282
 31
0.0
  0
LINE
  5
127
330
1E
100
AcDbEntity
  8
0
100
AcDbLine
 10
61.1404
 20
7.73749199999999
 30
0.0
 11
61.7056244987905
 21
7.745836835939019
 31
0.0
  0
LINE
  5
128
330
1E
100
AcDbEntity
  8
0
100
AcDbLine
 10
59.99819999999999
 20
7.74927199999999
 30
0.0
 11
61.1404
 21
7.73749199999999
 31
0.0
  0
LINE
  5
129
330
1E
100
AcDbEntity
  8
0
100
AcDbLine
 10
68.4782
 20
7.59923199999999
 30
0.0
 11
69.6204
 21
7.58745199999999
 31
0.0
  0
LINE
  5
12A
330
1E
100
AcDbEntity
  8
0
100
AcDbLine
 10
70.67709999999999
 20
7.619202
 30
0.0
 11
70.84010000000001
 21
7.64668199999999
 31
0.0
  0
LINE
  5
12B
330
1E
100
AcDbEntity
  8
0
100
AcDbLine
 10
69.7793
 20
7.607421999999999
 30
0.0
 11
70.67709999999999
 21
7.619202
 31
0.0
  0
LINE
  5
12C
330
1E
100
AcDbEntity
  8
0
100
AcDbLine
 10
70.84010000000001
 20
7.64668199999999
 30
0.0
 11
70.84248672224081
 21
7.999282
 31
0.0
  0
LINE
  5
12D
330
1E
100
AcDbEntity
  8
0
100
AcDbLine
 10
70.13379999999999
 20
7.67416199999999
 30
0.0
 11
70.84010000000001
 21
7.64668199999999
 31
0.0
  0
LINE
  5
12E
330
1E
100
AcDbEntity
  8
0
100
AcDbLine
 10
70.13379999999999
 20
7.67416199999999
 30
0.0
 11
70.1360006975612
 21
7.999282
 31
0.0
  0
LINE
  5
12F
330
1E
100
AcDbEntity
  8
0
100
AcDbLine
 10
70.13379999999999
 20
7.67416199999999
 30
0.0
 11
70.1360006975612
 21
7.999282
 31
0.0
  0
LINE
  5
130
330
1E
100
AcDbEntity
  8
0
100
AcDbLine
 10
68.6487
 20
7.619202
 30
0.0
 11
69.7793
 21
7.607421999999999
 31
0.0
  0
LINE
  5
131
330
1E
100
AcDbEntity
  8
0
100
AcDbLine
 10
67.9423
 20
7.64668199999999
 30
0.0
 11
68.10529999999999
 21
7.67416199999999
 31
0.0
  0
LINE
  5
132
330
1E
100
AcDbEntity
  8
0
100
AcDbLine
 10
67.9423
 20
7.64668199999999
 30
0.0
 11
68.6487
 21
7.619202
 31
0.0
  0
LINE
  5
133
330
1E
100
AcDbEntity
  8
0
100
AcDbLine
 10
67.9423
 20
7.64668199999999
 30
0.0
 11
67.9446867222407
 21
7.999282
 31
0.0
  0
LINE
  5
134
330
1E
100
AcDbEntity
  8
0
100
AcDbLine
 10
69.00310000000001
 20
7.685952
 30
0.0
 11
70.13379999999999
 21
7.67416199999999
 31
0.0
  0
LINE
  5
135
330
1E
100
AcDbEntity
  8
0
100
AcDbLine
 10
69.00310000000001
 20
7.685952
 30
0.0
 11
69.005220956141
 21
7.999282
 31
0.0
  0
LINE
  5
136
330
1E
100
AcDbEntity
  8
0
100
AcDbLine
 10
68.10529999999999
 20
7.67416199999999
 30
0.0
 11
69.00310000000001
 21
7.685952
 31
0.0
  0
LINE
  5
137
330
1E
100
AcDbEntity
  8
0
100
AcDbLine
 10
68.10529999999999
 20
7.67416199999999
 30
0.0
 11
68.10750069756121
 21
7.999282
 31
0.0
  0
LINE
  5
138
330
1E
100
AcDbEntity
  8
0
100
AcDbLine
 10
82.58880000000001
 20
7.59923199999999
 30
0.0
 11
83.5711
 21
7.58745199999999
 31
0.0
  0
LINE
  5
139
330
1E
100
AcDbEntity
  8
0
100
AcDbLine
 10
87.15989999999999
 20
7.64668199999999
 30
0.0
 11
87.3229
 21
7.619202
 31
0.0
  0
LINE
  5
13A
330
1E
100
AcDbEntity
  8
0
100
AcDbLine
 10
87.15989999999999
 20
7.64668199999999
 30
0.0
 11
87.8662
 21
7.67416199999999
 31
0.0
  0
LINE
  5
13B
330
1E
100
AcDbEntity
  8
0
100
AcDbLine
 10
87.8662
 20
7.67416199999999
 30
0.0
 11
88.99689999999999
 21
7.685952
 31
0.0
  0
LINE
  5
13C
330
1E
100
AcDbEntity
  8
0
100
AcDbLine
 10
87.3229
 20
7.619202
 30
0.0
 11
88.2207
 21
7.607421999999999
 31
0.0
  0
LINE
  5
13D
330
1E
100
AcDbEntity
  8
0
100
AcDbLine
 10
88.2207
 20
7.607421999999999
 30
0.0
 11
89.35129999999999
 21
7.619202
 31
0.0
  0
LINE
  5
13E
330
1E
100
AcDbEntity
  8
0
100
AcDbLine
 10
95.73779999999999
 20
7.59923199999999
 30
0.0
 11
96.2969
 21
7.58745199999999
 31
0.0
  0
LINE
  5
13F
330
1E
100
AcDbEntity
  8
0
100
AcDbLine
 10
89.35129999999999
 20
7.619202
 30
0.0
 11
90.0577
 21
7.64668199999999
 31
0.0
  0
LINE
  5
140
330
1E
100
AcDbEntity
  8
0
100
AcDbLine
 10
96.85960000000001
 20
7.73749199999999
 30
0.0
 11
98.00180000000001
 21
7.74927199999999
 31
0.0
  0
LINE
  5
141
330
1E
100
AcDbEntity
  8
0
100
AcDbLine
 10
89.8947
 20
7.67416199999999
 30
0.0
 11
90.0577
 21
7.64668199999999
 31
0.0
  0
LINE
  5
142
330
1E
100
AcDbEntity
  8
0
100
AcDbLine
 10
88.99689999999999
 20
7.685952
 30
0.0
 11
89.8947
 21
7.67416199999999
 31
0.0
  0
LINE
  5
143
330
1E
100
AcDbEntity
  8
0
100
AcDbLine
 10
85.09159999999999
 20
7.737491999999999
 30
0.0
 11
86.1913
 21
7.749272
 31
0.0
  0
LINE
  5
144
330
1E
100
AcDbEntity
  8
0
100
AcDbLine
 10
96.85960000000001
 20
7.737491999999999
 30
0.0
 11
98.00180000000001
 21
7.749272
 31
0.0
  0
LINE
  5
145
330
1E
100
AcDbEntity
  8
0
100
AcDbLine
 10
73.8907
 20
7.74927199999999
 30
0.0
 11
74.12051333048541
 21
7.76969654825917
 31
0.0
  0
LINE
  5
146
330
1E
100
AcDbEntity
  8
0
100
AcDbLine
 10
73.64972644975259
 20
7.74638218179586
 30
0.0
 11
73.8907
 21
7.74927199999999
 31
0.0
  0
LINE
  5
147
330
1E
100
AcDbEntity
  8
0
100
AcDbLine
 10
84.1093
 20
7.749272
 30
0.0
 11
85.09159999999999
 21
7.737491999999999
 31
0.0
  0
LINE
  5
148
330
1E
100
AcDbEntity
  8
0
100
AcDbLine
 10
86.1913
 20
7.749272
 30
0.0
 11
86.7745
 21
7.776752
 31
0.0
  0
LINE
  5
149
330
1E
100
AcDbEntity
  8
0
100
AcDbLine
 10
96.2943755012095
 20
7.745836835939019
 30
0.0
 11
96.85960000000001
 21
7.73749199999999
 31
0.0
  0
LINE
  5
14A
330
1E
100
AcDbEntity
  8
0
100
AcDbLine
 10
98.00180000000001
 20
7.74927199999999
 30
0.0
 11
98.1469877174516
 21
7.754152438502219
 31
0.0
  0
LINE
  5
14B
330
1E
100
AcDbEntity
  8
0
100
AcDbLine
 10
96.2943755012095
 20
7.74583683593903
 30
0.0
 11
96.2969
 21
7.58745199999999
 31
0.0
  0
LINE
  5
14C
330
1E
100
AcDbEntity
  8
0
100
AcDbLine
 10
96.0617
 20
7.749272
 30
0.0
 11
96.85960000000001
 21
7.737491999999999
 31
0.0
  0
LINE
  5
14D
330
1E
100
AcDbEntity
  8
0
100
AcDbLine
 10
98.00180000000001
 20
7.749272
 30
0.0
 11
98.8193
 21
7.776752
 31
0.0
  0
LINE
  5
14E
330
1E
100
AcDbEntity
  8
0
100
AcDbLine
 10
73.8907
 20
7.749272
 30
0.0
 11
74.1999
 21
7.776752
 31
0.0
  0
LINE
  5
14F
330
1E
100
AcDbEntity
  8
0
100
AcDbLine
 10
72.9084
 20
7.737491999999999
 30
0.0
 11
73.8907
 21
7.749272
 31
0.0
  0
LINE
  5
150
330
1E
100
AcDbEntity
  8
0
100
AcDbLine
 10
71.8087
 20
7.749272
 30
0.0
 11
72.9084
 21
7.737491999999999
 31
0.0
  0
LINE
  5
151
330
1E
100
AcDbEntity
  8
0
100
AcDbLine
 10
61.1404
 20
7.737491999999999
 30
0.0
 11
61.9383
 21
7.749272
 31
0.0
  0
LINE
  5
152
330
1E
100
AcDbEntity
  8
0
100
AcDbLine
 10
59.8530122825484
 20
7.754152438502219
 30
0.0
 11
59.99819999999999
 21
7.74927199999999
 31
0.0
  0
LINE
  5
153
330
1E
100
AcDbEntity
  8
0
100
AcDbLine
 10
59.9927
 20
7.816022
 30
0.0
 11
61.135
 21
7.804241999999999
 31
0.0
  0
LINE
  5
154
330
1E
100
AcDbEntity
  8
0
100
AcDbLine
 10
59.9927
 20
7.816022
 30
0.0
 11
59.9945393463067
 21
7.999282
 31
0.0
  0
LINE
  5
155
330
1E
100
AcDbEntity
  8
0
100
AcDbLine
 10
83.87948666951459
 20
7.76969654825917
 30
0.0
 11
83.8802
 21
7.55996199999999
 31
0.0
  0
LINE
  5
156
330
1E
100
AcDbEntity
  8
0
100
AcDbLine
 10
83.8001
 20
7.776752
 30
0.0
 11
84.1093
 21
7.749272
 31
0.0
  0
LINE
  5
157
330
1E
100
AcDbEntity
  8
0
100
AcDbLine
 10
83.8001
 20
7.776752
 30
0.0
 11
84.3833
 21
7.804241999999999
 31
0.0
  0
LINE
  5
158
330
1E
100
AcDbEntity
  8
0
100
AcDbLine
 10
98.4288535361474
 20
7.763627267490309
 30
0.0
 11
98.43389999999999
 21
7.52070199999999
 31
0.0
  0
LINE
  5
159
330
1E
100
AcDbEntity
  8
0
100
AcDbLine
 10
98.1469877174516
 20
7.754152438502219
 30
0.0
 11
98.1516
 21
7.53248199999999
 31
0.0
  0
LINE
  5
15A
330
1E
100
AcDbEntity
  8
0
100
AcDbLine
 10
96.0476
 20
7.776752
 30
0.0
 11
96.865
 21
7.804241999999999
 31
0.0
  0
LINE
  5
15B
330
1E
100
AcDbEntity
  8
0
100
AcDbLine
 10
74.1999
 20
7.776752
 30
0.0
 11
74.200656871951
 21
7.999282
 31
0.0
  0
LINE
  5
15C
330
1E
100
AcDbEntity
  8
0
100
AcDbLine
 10
71.2255
 20
7.776752
 30
0.0
 11
71.5347
 21
7.804241999999999
 31
0.0
  0
LINE
  5
15D
330
1E
100
AcDbEntity
  8
0
100
AcDbLine
 10
71.2255
 20
7.776752
 30
0.0
 11
71.8087
 21
7.749272
 31
0.0
  0
LINE
  5
15E
330
1E
100
AcDbEntity
  8
0
100
AcDbLine
 10
71.2255
 20
7.776752
 30
0.0
 11
71.2262642922642
 21
7.999282
 31
0.0
  0
LINE
  5
15F
330
1E
100
AcDbEntity
  8
0
100
AcDbLine
 10
84.3833
 20
7.804241999999999
 30
0.0
 11
85.48299999999999
 21
7.816022
 31
0.0
  0
LINE
  5
160
330
1E
100
AcDbEntity
  8
0
100
AcDbLine
 10
86.4653
 20
7.804241999999999
 30
0.0
 11
86.7745
 21
7.776752
 31
0.0
  0
LINE
  5
161
330
1E
100
AcDbEntity
  8
0
100
AcDbLine
 10
96.865
 20
7.804241999999999
 30
0.0
 11
98.00730000000001
 21
7.816022
 31
0.0
  0
LINE
  5
162
330
1E
100
AcDbEntity
  8
0
100
AcDbLine
 10
85.48299999999999
 20
7.816022
 30
0.0
 11
86.4653
 21
7.804241999999999
 31
0.0
  0
LINE
  5
163
330
1E
100
AcDbEntity
  8
0
100
AcDbLine
 10
98.00730000000001
 20
7.816022
 30
0.0
 11
98.8052
 21
7.804241999999999
 31
0.0
  0
LINE
  5
164
330
1E
100
AcDbEntity
  8
0
100
AcDbLine
 10
72.51699999999999
 20
7.816022
 30
0.0
 11
73.6167
 21
7.804241999999999
 31
0.0
  0
LINE
  5
165
330
1E
100
AcDbEntity
  8
0
100
AcDbLine
 10
72.51699999999999
 20
7.816022
 30
0.0
 11
72.5176233000774
 21
7.999282
 31
0.0
  0
LINE
  5
166
330
1E
100
AcDbEntity
  8
0
100
AcDbLine
 10
73.6167
 20
7.804241999999999
 30
0.0
 11
74.1999
 21
7.776752
 31
0.0
  0
LINE
  5
167
330
1E
100
AcDbEntity
  8
0
100
AcDbLine
 10
73.6167
 20
7.804241999999999
 30
0.0
 11
73.6173698740222
 21
7.999282
 31
0.0
  0
LINE
  5
168
330
1E
100
AcDbEntity
  8
0
100
AcDbLine
 10
73.6167
 20
7.804241999999999
 30
0.0
 11
73.6173698740222
 21
7.999282
 31
0.0
  0
LINE
  5
169
330
1E
100
AcDbEntity
  8
0
100
AcDbLine
 10
71.5347
 20
7.804241999999999
 30
0.0
 11
72.51699999999999
 21
7.816022
 31
0.0
  0
LINE
  5
16A
330
1E
100
AcDbEntity
  8
0
100
AcDbLine
 10
71.5347
 20
7.804241999999999
 30
0.0
 11
71.53536337039089
 21
7.999282
 31
0.0
  0
LINE
  5
16B
330
1E
100
AcDbEntity
  8
0
100
AcDbLine
 10
71.5347
 20
7.804241999999999
 30
0.0
 11
71.53536337039089
 21
7.999282
 31
0.0
  0
LINE
  5
16C
330
1E
100
AcDbEntity
  8
0
100
AcDbLine
 10
61.9524
 20
7.776752
 30
0.0
 11
61.9546260939735
 21
7.999282
 31
0.0
  0
LINE
  5
16D
330
1E
100
AcDbEntity
  8
0
100
AcDbLine
 10
61.9524
 20
7.776752
 30
0.0
 11
61.9546260939735
 21
7.999282
 31
0.0
  0
LINE
  5
16E
330
1E
100
AcDbEntity
  8
0
100
AcDbLine
 10
61.135
 20
7.804241999999999
 30
0.0
 11
61.9524
 21
7.776752
 31
0.0
  0
LINE
  5
16F
330
1E
100
AcDbEntity
  8
0
100
AcDbLine
 10
61.135
 20
7.804241999999999
 30
0.0
 11
61.1369510893849
 21
7.999282
 31
0.0
  0
LINE
  5
170
330
1E
100
AcDbEntity
  8
0
100
AcDbLine
 10
59.99819999999999
 20
7.749272
 30
0.0
 11
61.1404
 21
7.737491999999999
 31
0.0
  0
LINE
  5
171
330
1E
100
AcDbEntity
  8
0
100
AcDbLine
 10
59.1948
 20
7.804241999999999
 30
0.0
 11
59.9927
 21
7.816022
 31
0.0
  0
LINE
  5
172
330
1E
100
AcDbEntity
  8
0
100
AcDbLine
 10
59.1948
 20
7.804241999999999
 30
0.0
 11
59.1967575930162
 21
7.999282
 31
0.0
  0
LINE
  5
173
330
1E
100
AcDbEntity
  8
0
100
AcDbLine
 10
58.183
 20
7.58745199999999
 30
0.0
 11
59.2897
 21
7.55996199999999
 31
0.0
  0
LINE
  5
174
330
1E
100
AcDbEntity
  8
0
100
AcDbLine
 10
58.183
 20
7.58745199999999
 30
0.0
 11
58.191555387755
 21
7.99928199999999
 31
0.0
  0
LINE
  5
175
330
1E
100
AcDbEntity
  8
0
100
AcDbLine
 10
57.1869
 20
7.59923199999999
 30
0.0
 11
58.183
 21
7.58745199999999
 31
0.0
  0
LINE
  5
176
330
1E
100
AcDbEntity
  8
0
100
AcDbLine
 10
57.1869
 20
7.59923199999999
 30
0.0
 11
57.1952106137148
 21
7.99928199999999
 31
0.0
  0
LINE
  5
177
330
1E
100
AcDbEntity
  8
0
100
AcDbLine
 10
64.0267
 20
5.99928199999999
 30
0.0
 11
64.1947
 21
5.99928199999999
 31
0.0
  0
LINE
  5
178
330
1E
100
AcDbEntity
  8
0
100
AcDbLine
 10
56.3803696170031
 20
7.99928199999999
 30
0.0
 11
56.91315538775501
 21
7.99928199999999
 31
0.0
  0
LINE
  5
179
330
1E
100
AcDbEntity
  8
0
100
AcDbLine
 10
77.09559417609749
 20
7.99928199999999
 30
0.0
 11
78.80095
 21
7.99928199999999
 31
0.0
  0
LINE
  5
17A
330
1E
100
AcDbEntity
  8
0
100
AcDbLine
 10
145.1179999999999
 20
0.536830999999993
 30
0.0
 11
146.185
 21
0.126674999999993
 31
0.0
  0
LINE
  5
17B
330
1E
100
AcDbEntity
  8
0
100
AcDbLine
 10
145.1179999999999
 20
0.536830999999993
 30
0.0
 11
146.185
 21
0.126674999999993
 31
0.0
  0
LINE
  5
17C
330
1E
100
AcDbEntity
  8
0
100
AcDbLine
 10
145.1179999999999
 20
0.536830999999993
 30
0.0
 11
146.185
 21
0.126674999999993
 31
0.0
  0
LINE
  5
17D
330
1E
100
AcDbEntity
  8
0
100
AcDbLine
 10
146.918
 20
0.000717999999993
 30
0.0
 11
147.445
 21
0.023618999999993
 31
0.0
  0
LINE
  5
17E
330
1E
100
AcDbEntity
  8
0
100
AcDbLine
 10
147.445
 20
0.023618999999993
 30
0.0
 11
147.743
 21
0.0923229999999931
 31
0.0
  0
LINE
  5
17F
330
1E
100
AcDbEntity
  8
0
100
AcDbLine
 10
147.743
 20
0.0923229999999931
 30
0.0
 11
148.0069999999999
 21
0.172476999999993
 31
0.0
  0
LINE
  5
180
330
1E
100
AcDbEntity
  8
0
100
AcDbLine
 10
146.918
 20
0.000717999999993
 30
0.0
 11
147.445
 21
0.023618999999993
 31
0.0
  0
LINE
  5
181
330
1E
100
AcDbEntity
  8
0
100
AcDbLine
 10
148.0069999999999
 20
0.172476999999993
 30
0.0
 11
148.397
 21
0.368818999999993
 31
0.0
  0
LINE
  5
182
330
1E
100
AcDbEntity
  8
0
100
AcDbLine
 10
148.397
 20
0.368818999999993
 30
0.0
 11
149.0699999999999
 21
0.9568609999999928
 31
0.0
  0
LINE
  5
183
330
1E
100
AcDbEntity
  8
0
100
AcDbLine
 10
146.185
 20
0.126674999999993
 30
0.0
 11
146.918
 21
0.000717999999993
 31
0.0
  0
LINE
  5
184
330
1E
100
AcDbEntity
  8
0
100
AcDbLine
 10
146.185
 20
0.126674999999993
 30
0.0
 11
146.918
 21
0.000717999999993
 31
0.0
  0
LINE
  5
185
330
1E
100
AcDbEntity
  8
0
100
AcDbLine
 10
149.0699999999999
 20
0.9568609999999928
 30
0.0
 11
149.364
 21
1.754921999999989
 31
0.0
  0
LINE
  5
186
330
1E
100
AcDbEntity
  8
0
100
AcDbLine
 10
146.185
 20
0.126674999999993
 30
0.0
 11
146.918
 21
0.0007179999999928
 31
0.0
  0
LINE
  5
187
330
1E
100
AcDbEntity
  8
0
100
AcDbLine
 10
146.185
 20
0.126674999999993
 30
0.0
 11
146.918
 21
0.0007179999999929
 31
0.0
  0
LINE
  5
188
330
1E
100
AcDbEntity
  8
0
100
AcDbLine
 10
145.1179999999999
 20
0.536830999999993
 30
0.0
 11
146.185
 21
0.126674999999993
 31
0.0
  0
LINE
  5
189
330
1E
100
AcDbEntity
  8
0
100
AcDbLine
 10
143.0169999999999
 20
1.670911999999989
 30
0.0
 11
145.1179999999999
 21
0.536830999999993
 31
0.0
  0
LINE
  5
18A
330
1E
100
AcDbEntity
  8
0
100
AcDbLine
 10
149.347
 20
2.95702199999999
 30
0.0
 11
149.364
 21
1.754921999999989
 31
0.0
  0
LINE
  5
18B
330
1E
100
AcDbEntity
  8
0
100
AcDbLine
 10
148.986
 20
4.22003199999999
 30
0.0
 11
149.347
 21
2.95702199999999
 31
0.0
  0
LINE
  5
18C
330
1E
100
AcDbEntity
  8
0
100
AcDbLine
 10
143.0169999999999
 20
1.670911999999989
 30
0.0
 11
145.1179999999999
 21
0.536830999999993
 31
0.0
  0
LINE
  5
18D
330
1E
100
AcDbEntity
  8
0
100
AcDbLine
 10
143.0169999999999
 20
1.670911999999989
 30
0.0
 11
145.1179999999999
 21
0.536830999999993
 31
0.0
  0
LINE
  5
18E
330
1E
100
AcDbEntity
  8
0
100
AcDbLine
 10
141.0409999999999
 20
3.14101199999999
 30
0.0
 11
143.0169999999999
 21
1.670911999999989
 31
0.0
  0
LINE
  5
18F
330
1E
100
AcDbEntity
  8
0
100
AcDbLine
 10
141.0409999999999
 20
3.14101199999999
 30
0.0
 11
143.0169999999999
 21
1.670911999999989
 31
0.0
  0
LINE
  5
190
330
1E
100
AcDbEntity
  8
0
100
AcDbLine
 10
101.631
 20
7.52070199999999
 30
0.0
 11
102.4489999999999
 21
7.53248199999999
 31
0.0
  0
LINE
  5
191
330
1E
100
AcDbEntity
  8
0
100
AcDbLine
 10
101.645
 20
7.53248199999999
 30
0.0
 11
102.4429999999999
 21
7.55996199999999
 31
0.0
  0
LINE
  5
192
330
1E
100
AcDbEntity
  8
0
100
AcDbLine
 10
103.286
 20
7.52070199999999
 30
0.0
 11
103.869
 21
7.53248199999999
 31
0.0
  0
LINE
  5
193
330
1E
100
AcDbEntity
  8
0
100
AcDbLine
 10
103.591
 20
7.55996199999999
 30
0.0
 11
104.3879999999999
 21
7.58745199999999
 31
0.0
  0
LINE
  5
194
330
1E
100
AcDbEntity
  8
0
100
AcDbLine
 10
102.4489999999999
 20
7.53248199999999
 30
0.0
 11
103.591
 21
7.55996199999999
 31
0.0
  0
LINE
  5
195
330
1E
100
AcDbEntity
  8
0
100
AcDbLine
 10
102.4429999999999
 20
7.55996199999999
 30
0.0
 11
103.584
 21
7.58745199999999
 31
0.0
  0
LINE
  5
196
330
1E
100
AcDbEntity
  8
0
100
AcDbLine
 10
103.584
 20
7.58745199999999
 30
0.0
 11
104.4019999999999
 21
7.59923199999999
 31
0.0
  0
LINE
  5
197
330
1E
100
AcDbEntity
  8
0
100
AcDbLine
 10
103.869
 20
7.53248199999999
 30
0.0
 11
104.969
 21
7.55996199999999
 31
0.0
  0
LINE
  5
198
330
1E
100
AcDbEntity
  8
0
100
AcDbLine
 10
104.969
 20
7.55996199999999
 30
0.0
 11
105.951
 21
7.58745199999999
 31
0.0
  0
LINE
  5
199
330
1E
100
AcDbEntity
  8
0
100
AcDbLine
 10
104.967541398491
 20
7.616043732020941
 30
0.0
 11
104.969
 21
7.55996199999999
 31
0.0
  0
LINE
  5
19A
330
1E
100
AcDbEntity
  8
0
100
AcDbLine
 10
104.191
 20
7.60742199999999
 30
0.0
 11
105.252
 21
7.61920199999999
 31
0.0
  0
LINE
  5
19B
330
1E
100
AcDbEntity
  8
0
100
AcDbLine
 10
103.767
 20
7.61920199999999
 30
0.0
 11
104.191
 21
7.64668199999999
 31
0.0
  0
LINE
  5
19C
330
1E
100
AcDbEntity
  8
0
100
AcDbLine
 10
103.767
 20
7.61920199999999
 30
0.0
 11
104.191
 21
7.60742199999999
 31
0.0
  0
LINE
  5
19D
330
1E
100
AcDbEntity
  8
0
100
AcDbLine
 10
104.191
 20
7.64668199999999
 30
0.0
 11
105.251
 21
7.67416199999999
 31
0.0
  0
LINE
  5
19E
330
1E
100
AcDbEntity
  8
0
100
AcDbLine
 10
105.951
 20
7.58745199999999
 30
0.0
 11
106.2599999999999
 21
7.59923199999999
 31
0.0
  0
LINE
  5
19F
330
1E
100
AcDbEntity
  8
0
100
AcDbLine
 10
106.312
 20
7.64668199999999
 30
0.0
 11
106.736
 21
7.67416199999999
 31
0.0
  0
LINE
  5
1A0
330
1E
100
AcDbEntity
  8
0
100
AcDbLine
 10
106.258801738244
 20
7.64530286015749
 30
0.0
 11
106.312
 21
7.64668199999999
 31
0.0
  0
LINE
  5
1A1
330
1E
100
AcDbEntity
  8
0
100
AcDbLine
 10
106.312
 20
7.685952
 30
0.0
 11
106.736
 21
7.67416199999999
 31
0.0
  0
LINE
  5
1A2
330
1E
100
AcDbEntity
  8
0
100
AcDbLine
 10
106.851
 20
7.74927199999999
 30
0.0
 11
107.411
 21
7.73749199999999
 31
0.0
  0
LINE
  5
1A3
330
1E
100
AcDbEntity
  8
0
100
AcDbLine
 10
107.411
 20
7.73749199999999
 30
0.0
 11
108.517
 21
7.74927199999999
 31
0.0
  0
LINE
  5
1A4
330
1E
100
AcDbEntity
  8
0
100
AcDbLine
 10
106.312
 20
7.64668199999999
 30
0.0
 11
106.736
 21
7.67416199999999
 31
0.0
  0
LINE
  5
1A5
330
1E
100
AcDbEntity
  8
0
100
AcDbLine
 10
105.252
 20
7.61920199999999
 30
0.0
 11
106.312
 21
7.64668199999999
 31
0.0
  0
LINE
  5
1A6
330
1E
100
AcDbEntity
  8
0
100
AcDbLine
 10
105.251
 20
7.67416199999999
 30
0.0
 11
106.312
 21
7.685952
 31
0.0
  0
LINE
  5
1A7
330
1E
100
AcDbEntity
  8
0
100
AcDbLine
 10
106.851
 20
7.749272
 30
0.0
 11
107.411
 21
7.737491999999999
 31
0.0
  0
LINE
  5
1A8
330
1E
100
AcDbEntity
  8
0
100
AcDbLine
 10
106.851
 20
7.749272
 30
0.0
 11
107.1329999999999
 21
7.776752
 31
0.0
  0
LINE
  5
1A9
330
1E
100
AcDbEntity
  8
0
100
AcDbLine
 10
108.517
 20
7.74927199999999
 30
0.0
 11
109.5129999999999
 21
7.77675199999999
 31
0.0
  0
LINE
  5
1AA
330
1E
100
AcDbEntity
  8
0
100
AcDbLine
 10
107.411
 20
7.737491999999999
 30
0.0
 11
108.517
 21
7.749272
 31
0.0
  0
LINE
  5
1AB
330
1E
100
AcDbEntity
  8
0
100
AcDbLine
 10
109.5129999999999
 20
7.77675199999999
 30
0.0
 11
109.7949999999999
 21
7.80424199999999
 31
0.0
  0
LINE
  5
1AC
330
1E
100
AcDbEntity
  8
0
100
AcDbLine
 10
108.1289999999999
 20
7.804241999999999
 30
0.0
 11
109.236
 21
7.816022
 31
0.0
  0
LINE
  5
1AD
330
1E
100
AcDbEntity
  8
0
100
AcDbLine
 10
107.1329999999999
 20
7.776752
 30
0.0
 11
108.1289999999999
 21
7.804241999999999
 31
0.0
  0
LINE
  5
1AE
330
1E
100
AcDbEntity
  8
0
100
AcDbLine
 10
108.517
 20
7.749272
 30
0.0
 11
109.5129999999999
 21
7.776752
 31
0.0
  0
LINE
  5
1AF
330
1E
100
AcDbEntity
  8
0
100
AcDbLine
 10
113.412
 20
7.60742199999999
 30
0.0
 11
114.118
 21
7.61920199999999
 31
0.0
  0
LINE
  5
1B0
330
1E
100
AcDbEntity
  8
0
100
AcDbLine
 10
114.118
 20
7.61920199999999
 30
0.0
 11
115.249
 21
7.64668199999999
 31
0.0
  0
LINE
  5
1B1
330
1E
100
AcDbEntity
  8
0
100
AcDbLine
 10
114.118
 20
7.61920199999999
 30
0.0
 11
115.249
 21
7.64668199999999
 31
0.0
  0
LINE
  5
1B2
330
1E
100
AcDbEntity
  8
0
100
AcDbLine
 10
113.412
 20
7.60742199999999
 30
0.0
 11
113.575
 21
7.61920199999999
 31
0.0
  0
LINE
  5
1B3
330
1E
100
AcDbEntity
  8
0
100
AcDbLine
 10
113.412
 20
7.60742199999999
 30
0.0
 11
114.118
 21
7.61920199999999
 31
0.0
  0
LINE
  5
1B4
330
1E
100
AcDbEntity
  8
0
100
AcDbLine
 10
113.575
 20
7.61920199999999
 30
0.0
 11
114.472
 21
7.64668199999999
 31
0.0
  0
LINE
  5
1B5
330
1E
100
AcDbEntity
  8
0
100
AcDbLine
 10
115.249
 20
7.64668199999999
 30
0.0
 11
116.1459999999999
 21
7.67416199999999
 31
0.0
  0
LINE
  5
1B6
330
1E
100
AcDbEntity
  8
0
100
AcDbLine
 10
115.249
 20
7.64668199999999
 30
0.0
 11
116.1459999999999
 21
7.67416199999999
 31
0.0
  0
LINE
  5
1B7
330
1E
100
AcDbEntity
  8
0
100
AcDbLine
 10
114.472
 20
7.64668199999999
 30
0.0
 11
115.6029999999999
 21
7.67416199999999
 31
0.0
  0
LINE
  5
1B8
330
1E
100
AcDbEntity
  8
0
100
AcDbLine
 10
115.6029999999999
 20
7.67416199999999
 30
0.0
 11
116.3089999999999
 21
7.68595199999999
 31
0.0
  0
LINE
  5
1B9
330
1E
100
AcDbEntity
  8
0
100
AcDbLine
 10
116.1459999999999
 20
7.67416199999999
 30
0.0
 11
116.3089999999999
 21
7.68595199999999
 31
0.0
  0
LINE
  5
1BA
330
1E
100
AcDbEntity
  8
0
100
AcDbLine
 10
116.3076091471159
 20
7.74083450577612
 30
0.0
 11
117.0209999999999
 21
7.74927199999999
 31
0.0
  0
LINE
  5
1BB
330
1E
100
AcDbEntity
  8
0
100
AcDbLine
 10
122.117
 20
7.73749199999999
 30
0.0
 11
122.934
 21
7.74927199999999
 31
0.0
  0
LINE
  5
1BC
330
1E
100
AcDbEntity
  8
0
100
AcDbLine
 10
116.3076091471159
 20
7.740834505776129
 30
0.0
 11
116.3089999999999
 21
7.68595199999999
 31
0.0
  0
LINE
  5
1BD
330
1E
100
AcDbEntity
  8
0
100
AcDbLine
 10
117.0209999999999
 20
7.74927199999999
 30
0.0
 11
118.1279999999999
 21
7.77675199999999
 31
0.0
  0
LINE
  5
1BE
330
1E
100
AcDbEntity
  8
0
100
AcDbLine
 10
116.3076091471159
 20
7.740834505776129
 30
0.0
 11
116.3089999999999
 21
7.68595199999999
 31
0.0
  0
LINE
  5
1BF
330
1E
100
AcDbEntity
  8
0
100
AcDbLine
 10
116.1459999999999
 20
7.67416199999999
 30
0.0
 11
116.3089999999999
 21
7.68595199999999
 31
0.0
  0
LINE
  5
1C0
330
1E
100
AcDbEntity
  8
0
100
AcDbLine
 10
117.0209999999999
 20
7.74927199999999
 30
0.0
 11
118.1279999999999
 21
7.77675199999999
 31
0.0
  0
LINE
  5
1C1
330
1E
100
AcDbEntity
  8
0
100
AcDbLine
 10
116.025
 20
7.737491999999999
 30
0.0
 11
117.0209999999999
 21
7.74927199999999
 31
0.0
  0
LINE
  5
1C2
330
1E
100
AcDbEntity
  8
0
100
AcDbLine
 10
115.7429999999999
 20
7.74927199999999
 30
0.0
 11
116.302
 21
7.77675199999999
 31
0.0
  0
LINE
  5
1C3
330
1E
100
AcDbEntity
  8
0
100
AcDbLine
 10
115.7429999999999
 20
7.74927199999999
 30
0.0
 11
116.025
 21
7.737491999999999
 31
0.0
  0
LINE
  5
1C4
330
1E
100
AcDbEntity
  8
0
100
AcDbLine
 10
122.117
 20
7.737491999999999
 30
0.0
 11
122.934
 21
7.74927199999999
 31
0.0
  0
LINE
  5
1C5
330
1E
100
AcDbEntity
  8
0
100
AcDbLine
 10
116.302
 20
7.77675199999999
 30
0.0
 11
117.4079999999999
 21
7.80424199999999
 31
0.0
  0
LINE
  5
1C6
330
1E
100
AcDbEntity
  8
0
100
AcDbLine
 10
118.1279999999999
 20
7.77675199999999
 30
0.0
 11
118.687
 21
7.80424199999999
 31
0.0
  0
LINE
  5
1C7
330
1E
100
AcDbEntity
  8
0
100
AcDbLine
 10
118.1279999999999
 20
7.77675199999999
 30
0.0
 11
118.687
 21
7.80424199999999
 31
0.0
  0
LINE
  5
1C8
330
1E
100
AcDbEntity
  8
0
100
AcDbLine
 10
117.4079999999999
 20
7.80424199999999
 30
0.0
 11
118.405
 21
7.81602199999999
 31
0.0
  0
LINE
  5
1C9
330
1E
100
AcDbEntity
  8
0
100
AcDbLine
 10
122.131
 20
7.74927199999999
 30
0.0
 11
122.9279999999999
 21
7.77675199999999
 31
0.0
  0
LINE
  5
1CA
330
1E
100
AcDbEntity
  8
0
100
AcDbLine
 10
125.2699999999999
 20
7.73749199999999
 30
0.0
 11
125.8529999999999
 21
7.74927199999999
 31
0.0
  0
LINE
  5
1CB
330
1E
100
AcDbEntity
  8
0
100
AcDbLine
 10
122.934
 20
7.74927199999999
 30
0.0
 11
124.076
 21
7.77675199999999
 31
0.0
  0
LINE
  5
1CC
330
1E
100
AcDbEntity
  8
0
100
AcDbLine
 10
125.2699999999999
 20
7.73749199999999
 30
0.0
 11
125.5789999999999
 21
7.74927199999999
 31
0.0
  0
LINE
  5
1CD
330
1E
100
AcDbEntity
  8
0
100
AcDbLine
 10
125.2699999999999
 20
7.73749199999999
 30
0.0
 11
125.8529999999999
 21
7.74927199999999
 31
0.0
  0
LINE
  5
1CE
330
1E
100
AcDbEntity
  8
0
100
AcDbLine
 10
125.8529999999999
 20
7.74927199999999
 30
0.0
 11
126.9529999999999
 21
7.77675199999999
 31
0.0
  0
LINE
  5
1CF
330
1E
100
AcDbEntity
  8
0
100
AcDbLine
 10
125.8529999999999
 20
7.74927199999999
 30
0.0
 11
126.9529999999999
 21
7.77675199999999
 31
0.0
  0
LINE
  5
1D0
330
1E
100
AcDbEntity
  8
0
100
AcDbLine
 10
125.5789999999999
 20
7.74927199999999
 30
0.0
 11
126.561
 21
7.77675199999999
 31
0.0
  0
LINE
  5
1D1
330
1E
100
AcDbEntity
  8
0
100
AcDbLine
 10
124.076
 20
7.77675199999999
 30
0.0
 11
124.8739999999999
 21
7.80424199999999
 31
0.0
  0
LINE
  5
1D2
330
1E
100
AcDbEntity
  8
0
100
AcDbLine
 10
126.9529999999999
 20
7.77675199999999
 30
0.0
 11
127.9339999999999
 21
7.80424199999999
 31
0.0
  0
LINE
  5
1D3
330
1E
100
AcDbEntity
  8
0
100
AcDbLine
 10
126.9529999999999
 20
7.77675199999999
 30
0.0
 11
127.9339999999999
 21
7.80424199999999
 31
0.0
  0
LINE
  5
1D4
330
1E
100
AcDbEntity
  8
0
100
AcDbLine
 10
126.561
 20
7.77675199999999
 30
0.0
 11
127.6599999999999
 21
7.80424199999999
 31
0.0
  0
LINE
  5
1D5
330
1E
100
AcDbEntity
  8
0
100
AcDbLine
 10
127.9339999999999
 20
7.80424199999999
 30
0.0
 11
128.2429999999999
 21
7.81602199999999
 31
0.0
  0
LINE
  5
1D6
330
1E
100
AcDbEntity
  8
0
100
AcDbLine
 10
127.9339999999999
 20
7.80424199999999
 30
0.0
 11
128.2429999999999
 21
7.81602199999999
 31
0.0
  0
LINE
  5
1D7
330
1E
100
AcDbEntity
  8
0
100
AcDbLine
 10
127.6599999999999
 20
7.80424199999999
 30
0.0
 11
128.2429999999999
 21
7.81602199999999
 31
0.0
  0
LINE
  5
1D8
330
1E
100
AcDbEntity
  8
0
100
AcDbLine
 10
124.076
 20
7.77675199999999
 30
0.0
 11
124.8739999999999
 21
7.80424199999999
 31
0.0
  0
LINE
  5
1D9
330
1E
100
AcDbEntity
  8
0
100
AcDbLine
 10
122.934
 20
7.74927199999999
 30
0.0
 11
124.076
 21
7.77675199999999
 31
0.0
  0
LINE
  5
1DA
330
1E
100
AcDbEntity
  8
0
100
AcDbLine
 10
122.9279999999999
 20
7.77675199999999
 30
0.0
 11
124.0699999999999
 21
7.80424199999999
 31
0.0
  0
LINE
  5
1DB
330
1E
100
AcDbEntity
  8
0
100
AcDbLine
 10
118.405
 20
7.81602199999999
 30
0.0
 11
118.687
 21
7.80424199999999
 31
0.0
  0
LINE
  5
1DC
330
1E
100
AcDbEntity
  8
0
100
AcDbLine
 10
124.0699999999999
 20
7.80424199999999
 30
0.0
 11
124.8879999999999
 21
7.81602199999999
 31
0.0
  0
LINE
  5
1DD
330
1E
100
AcDbEntity
  8
0
100
AcDbLine
 10
109.5129999999999
 20
7.776752
 30
0.0
 11
109.7949999999999
 21
7.804241999999999
 31
0.0
  0
LINE
  5
1DE
330
1E
100
AcDbEntity
  8
0
100
AcDbLine
 10
109.236
 20
7.816022
 30
0.0
 11
109.7949999999999
 21
7.804241999999999
 31
0.0
  0
LINE
  5
1DF
330
1E
100
AcDbEntity
  8
0
100
AcDbLine
 10
148.1279999999999
 20
6.52051199999999
 30
0.0
 11
148.986
 21
4.22003199999999
 31
0.0
  0
LINE
  5
1E0
330
1E
100
AcDbEntity
  8
0
100
AcDbLine
 10
139.066
 20
5.36717199999999
 30
0.0
 11
141.0409999999999
 21
3.14101199999999
 31
0.0
  0
LINE
  5
1E1
330
1E
100
AcDbEntity
  8
0
100
AcDbLine
 10
101.0864858099389
 20
7.99928199999999
 30
0.0
 11
101.6195101734589
 21
7.99928199999999
 31
0.0
  0
LINE
  5
1E2
330
1E
100
AcDbEntity
  8
0
100
AcDbLine
 10
44.59781749606529
 20
7.99928199999999
 30
0.0
 11
48.20780223212199
 21
7.99928199999999
 31
0.0
  0
LINE
  5
1E3
330
1E
100
AcDbEntity
  8
0
100
AcDbLine
 10
35.8894287223365
 20
7.99928199999999
 30
0.0
 11
39.31715176228929
 21
7.99928199999999
 31
0.0
  0
LINE
  5
1E4
330
1E
100
AcDbEntity
  8
0
100
AcDbLine
 10
32.73669137376249
 20
7.99928199999999
 30
0.0
 11
33.11683031917729
 21
7.99928199999999
 31
0.0
  0
LINE
  5
1E5
330
1E
100
AcDbEntity
  8
0
100
AcDbLine
 10
32.73669137376249
 20
7.99928199999999
 30
0.0
 11
33.11683031917729
 21
7.99928199999999
 31
0.0
  0
LINE
  5
1E6
330
1E
100
AcDbEntity
  8
0
100
AcDbLine
 10
51.1525931440709
 20
7.99928199999999
 30
0.0
 11
51.2697166854506
 21
7.99928199999999
 31
0.0
  0
LINE
  5
1E7
330
1E
100
AcDbEntity
  8
0
100
AcDbLine
 10
109.791943293297
 20
7.99928199999999
 30
0.0
 11
113.4020694374049
 21
7.99928199999999
 31
0.0
  0
LINE
  5
1E8
330
1E
100
AcDbEntity
  8
0
100
AcDbLine
 10
118.682967748605
 20
7.99928199999999
 30
0.0
 11
122.110627631303
 21
7.99928199999999
 31
0.0
  0
LINE
  5
1E9
330
1E
100
AcDbEntity
  8
0
100
AcDbLine
 10
124.883539126897
 20
7.99928199999999
 30
0.0
 11
125.263191167693
 21
7.99928199999999
 31
0.0
  0
LINE
  5
1EA
330
1E
100
AcDbEntity
  8
0
100
AcDbLine
 10
147.4512613308499
 20
7.99928199999999
 30
0.0
 11
150.201
 21
7.99928199999999
 31
0.0
  0
LINE
  5
1EB
330
1E
100
AcDbEntity
  8
0
100
AcDbLine
 10
133.613
 20
7.99928199999999
 30
0.0
 11
137.2186082869799
 21
7.99928199999999
 31
0.0
  0
LINE
  5
1EC
330
1E
100
AcDbEntity
  8
0
100
AcDbLine
 10
133.196
 20
7.99928199999999
 30
0.0
 11
137.2186082869799
 21
7.99928199999999
 31
0.0
  0
LINE
  5
1ED
330
1E
100
AcDbEntity
  8
0
100
AcDbLine
 10
128.238294695494
 20
7.99928199999999
 30
0.0
 11
133.196
 21
7.99928199999999
 31
0.0
  0
LINE
  5
1EE
330
1E
100
AcDbEntity
  8
0
100
AcDbLine
 10
128.238294695494
 20
7.99928199999999
 30
0.0
 11
133.613
 21
7.99928199999999
 31
0.0
  0
LINE
  5
1EF
330
1E
100
AcDbEntity
  8
0
100
AcDbLine
 10
106.730037518923
 20
7.99928199999999
 30
0.0
 11
106.8470818836879
 21
7.99928199999999
 31
0.0
  0
LINE
  5
1F0
330
1E
100
AcDbEntity
  8
0
100
AcDbLine
 10
90.329405364419
 20
7.99928199999999
 30
0.0
 11
93.34554427475829
 21
7.99928199999999
 31
0.0
  0
LINE
  5
1F1
330
1E
100
AcDbEntity
  8
0
100
AcDbLine
 10
24.8037
 20
7.99928199999999
 30
0.0
 11
29.7612603015712
 21
7.99928199999999
 31
0.0
  0
LINE
  5
1F2
330
1E
100
AcDbEntity
  8
0
100
AcDbLine
 10
77.09559417609749
 20
7.99928199999999
 30
0.0
 11
78.80095
 21
7.99928199999999
 31
0.0
  0
LINE
  5
1F3
330
1E
100
AcDbEntity
  8
0
100
AcDbLine
 10
56.3803696170031
 20
7.99928199999999
 30
0.0
 11
56.89779999999999
 21
7.99928199999999
 31
0.0
  0
LINE
  5
1F4
330
1E
100
AcDbEntity
  8
0
100
AcDbLine
 10
90.99909999999999
 20
7.99928199999999
 30
0.0
 11
93.34554427475829
 21
7.99928199999999
 31
0.0
  0
LINE
  5
1F5
330
1E
100
AcDbEntity
  8
0
100
AcDbLine
 10
90.329405364419
 20
7.99928199999999
 30
0.0
 11
90.99909999999999
 21
7.99928199999999
 31
0.0
  0
LINE
  5
1F6
330
1E
100
AcDbEntity
  8
0
100
AcDbLine
 10
101.102
 20
7.99928199999999
 30
0.0
 11
101.6195101734589
 21
7.99928199999999
 31
0.0
  0
LINE
  5
1F7
330
1E
100
AcDbEntity
  8
0
100
AcDbLine
 10
51.1525931440709
 20
7.99928199999999
 30
0.0
 11
51.2697166854506
 21
7.99928199999999
 31
0.0
  0
LINE
  5
1F8
330
1E
100
AcDbEntity
  8
0
100
AcDbLine
 10
48.0418
 20
7.99928199999999
 30
0.0
 11
48.20780223212199
 21
7.99928199999999
 31
0.0
  0
LINE
  5
1F9
330
1E
100
AcDbEntity
  8
0
100
AcDbLine
 10
47.7442
 20
7.99928199999999
 30
0.0
 11
48.0418
 21
7.99928199999999
 31
0.0
  0
LINE
  5
1FA
330
1E
100
AcDbEntity
  8
0
100
AcDbLine
 10
106.730037518923
 20
7.99928199999999
 30
0.0
 11
106.8470818836879
 21
7.99928199999999
 31
0.0
  0
LINE
  5
1FB
330
1E
100
AcDbEntity
  8
0
100
AcDbLine
 10
109.791943293297
 20
7.99928199999999
 30
0.0
 11
109.958
 21
7.99928199999999
 31
0.0
  0
LINE
  5
1FC
330
1E
100
AcDbEntity
  8
0
100
AcDbLine
 10
109.958
 20
7.99928199999999
 30
0.0
 11
110.2559999999999
 21
7.99928199999999
 31
0.0
  0
LINE
  5
1FD
330
1E
100
AcDbEntity
  8
0
100
AcDbLine
 10
106.8470818836879
 20
7.99928199999999
 30
0.0
 11
106.851
 21
7.74927199999999
 31
0.0
  0
LINE
  5
1FE
330
1E
100
AcDbEntity
  8
0
100
AcDbLine
 10
150.201
 20
7.99928199999999
 30
0.0
 11
154.816
 21
7.99928199999999
 31
0.0
  0
LINE
  5
1FF
330
1E
100
AcDbEntity
  8
0
100
AcDbLine
 10
155.4059999999999
 20
7.99928199999999
 30
0.0
 11
156.231
 21
7.99928199999999
 31
0.0
  0
LINE
  5
200
330
1E
100
AcDbEntity
  8
0
100
AcDbLine
 10
18.3049
 20
7.99928199999999
 30
0.0
 11
24.8037
 21
7.99928199999999
 31
0.0
  0
LINE
  5
201
330
1E
100
AcDbEntity
  8
0
100
AcDbLine
 10
156.231
 20
7.99928199999999
 30
0.0
 11
157.41
 21
8.49928199999999
 31
0.0
  0
LINE
  5
202
330
1E
100
AcDbEntity
  8
0
100
AcDbLine
 10
81.48768554584471
 20
7.99928199999999
 30
0.0
 11
81.48909999999998
 21
7.58745199999999
 31
0.0
  0
LINE
  5
203
330
1E
100
AcDbEntity
  8
0
100
AcDbLine
 10
80.9044058239025
 20
7.99928199999999
 30
0.0
 11
80.9059
 21
7.55996199999999
 31
0.0
  0
LINE
  5
204
330
1E
100
AcDbEntity
  8
0
100
AcDbLine
 10
90.329405364419
 20
7.99928199999999
 30
0.0
 11
90.33379999999999
 21
7.55996199999999
 31
0.0
  0
LINE
  5
205
330
1E
100
AcDbEntity
  8
0
100
AcDbLine
 10
83.5696855458447
 20
7.99928199999999
 30
0.0
 11
83.5711
 21
7.58745199999999
 31
0.0
  0
LINE
  5
206
330
1E
100
AcDbEntity
  8
0
100
AcDbLine
 10
82.58743935377379
 20
7.99928199999999
 30
0.0
 11
82.58880000000001
 21
7.59923199999999
 31
0.0
  0
LINE
  5
207
330
1E
100
AcDbEntity
  8
0
100
AcDbLine
 10
94.62433583411408
 20
7.99928199999999
 30
0.0
 11
94.63089999999999
 21
7.58745199999999
 31
0.0
  0
LINE
  5
208
330
1E
100
AcDbEntity
  8
0
100
AcDbLine
 10
93.627897880641
 20
7.99928199999999
 30
0.0
 11
93.6349
 21
7.55996199999999
 31
0.0
  0
LINE
  5
209
330
1E
100
AcDbEntity
  8
0
100
AcDbLine
 10
93.3455442747582
 20
7.99928199999999
 30
0.0
 11
93.353
 21
7.53248199999999
 31
0.0
  0
LINE
  5
20A
330
1E
100
AcDbEntity
  8
0
100
AcDbLine
 10
101.0864858099389
 20
7.99928199999999
 30
0.0
 11
101.095
 21
7.58745199999999
 31
0.0
  0
LINE
  5
20B
330
1E
100
AcDbEntity
  8
0
100
AcDbLine
 10
100.5277712652799
 20
7.99928199999999
 30
0.0
 11
100.537
 21
7.55996199999999
 31
0.0
  0
LINE
  5
20C
330
1E
100
AcDbEntity
  8
0
100
AcDbLine
 10
99.42028732244081
 20
7.99928199999999
 30
0.0
 11
99.43000000000001
 21
7.53248199999999
 31
0.0
  0
LINE
  5
20D
330
1E
100
AcDbEntity
  8
0
100
AcDbLine
 10
95.73142363827342
 20
7.99928199999999
 30
0.0
 11
95.73779999999999
 21
7.59923199999999
 31
0.0
  0
LINE
  5
20E
330
1E
100
AcDbEntity
  8
0
100
AcDbLine
 10
101.6195101734589
 20
7.99928199999999
 30
0.0
 11
101.631
 21
7.52070199999999
 31
0.0
  0
LINE
  5
20F
330
1E
100
AcDbEntity
  8
0
100
AcDbLine
 10
101.633637412471
 20
7.99928199999999
 30
0.0
 11
101.645
 21
7.53248199999999
 31
0.0
  0
LINE
  5
210
330
1E
100
AcDbEntity
  8
0
100
AcDbLine
 10
102.432306386753
 20
7.99928199999999
 30
0.0
 11
102.4429999999999
 21
7.55996199999999
 31
0.0
  0
LINE
  5
211
330
1E
100
AcDbEntity
  8
0
100
AcDbLine
 10
103.574112553477
 20
7.99928199999999
 30
0.0
 11
103.584
 21
7.58745199999999
 31
0.0
  0
LINE
  5
212
330
1E
100
AcDbEntity
  8
0
100
AcDbLine
 10
147.4512613308499
 20
7.99928199999999
 30
0.0
 11
148.1279999999999
 21
6.52051199999999
 31
0.0
  0
LINE
  5
213
330
1E
100
AcDbEntity
  8
0
100
AcDbLine
 10
78.80095
 20
7.99928199999999
 30
0.0
 11
80.21790000000001
 21
5.99928199999999
 31
0.0
  0
LINE
  5
214
330
1E
100
AcDbEntity
  8
0
100
AcDbLine
 10
78.80095
 20
7.99928199999999
 30
0.0
 11
80.21790000000001
 21
5.99928199999999
 31
0.0
  0
LINE
  5
215
330
1E
100
AcDbEntity
  8
0
100
AcDbLine
 10
62.62669999999999
 20
7.99928199999999
 30
0.0
 11
64.0267
 21
5.99928199999999
 31
0.0
  0
LINE
  5
216
330
1E
100
AcDbEntity
  8
0
100
AcDbLine
 10
149.618
 20
7.99928199999999
 30
0.0
 11
152.93
 21
7.99928199999999
 31
0.0
  0
LINE
  5
217
330
1E
100
AcDbEntity
  8
0
100
AcDbLine
 10
154.816
 20
7.99928199999999
 30
0.0
 11
155.6419999999999
 21
7.99928199999999
 31
0.0
  0
LINE
  5
218
330
1E
100
AcDbEntity
  8
0
100
AcDbLine
 10
8.382430000000001
 20
7.99928199999999
 30
0.0
 11
12.7183
 21
7.999282
 31
0.0
  0
LINE
  5
219
330
1E
100
AcDbEntity
  8
0
100
AcDbLine
 10
2.358209999999999
 20
11.999282
 30
0.0
 11
5.0
 21
15.999282
 31
0.0
  0
LINE
  5
21A
330
1E
100
AcDbEntity
  8
0
100
AcDbLine
 10
6.7209
 20
8.499282
 30
0.0
 11
11.21759999999999
 21
8.499282
 31
0.0
  0
LINE
  5
21E
330
1E
100
AcDbEntity
  8
0
100
AcDbLine
 10
11.21759999999999
 20
8.499282
 30
0.0
 11
16.9709
 21
8.499282
 31
0.0
  0
LINE
  5
21F
330
1E
100
AcDbEntity
  8
0
100
AcDbLine
 10
40.7278
 20
7.999282
 30
0.0
 11
49.7322
 21
7.999282
 31
0.0
  0
LINE
  5
220
330
1E
100
AcDbEntity
  8
0
100
AcDbLine
 10
32.4739
 20
7.999282
 30
0.0
 11
40.7278
 21
7.999282
 31
0.0
  0
LINE
  5
221
330
1E
100
AcDbEntity
  8
0
100
AcDbLine
 10
24.8037
 20
7.999282
 30
0.0
 11
32.4739
 21
7.999282
 31
0.0
  0
LINE
  5
222
330
1E
100
AcDbEntity
  8
0
100
AcDbLine
 10
49.7322
 20
7.999282
 30
0.0
 11
59.191
 21
7.999282
 31
0.0
  0
LINE
  5
223
330
1E
100
AcDbEntity
  8
0
100
AcDbLine
 10
59.191
 20
7.999282
 30
0.0
 11
68.97759999999999
 21
7.999282
 31
0.0
  0
LINE
  5
224
330
1E
100
AcDbEntity
  8
0
100
AcDbLine
 10
137.2186082869799
 20
7.999282
 30
0.0
 11
139.066
 21
5.36717199999999
 31
0.0
  0
LINE
  5
226
330
1E
100
AcDbEntity
  8
0
100
AcDbLine
 10
145.282
 20
7.999282
 30
0.0
 11
149.618
 21
7.99928199999999
 31
0.0
  0
LINE
  5
227
330
1E
100
AcDbEntity
  8
0
100
AcDbLine
 10
84.38263012597779
 20
7.999282
 30
0.0
 11
84.3833
 21
7.804241999999999
 31
0.0
  0
LINE
  5
228
330
1E
100
AcDbEntity
  8
0
100
AcDbLine
 10
83.799343128049
 20
7.999282
 30
0.0
 11
83.8001
 21
7.776752
 31
0.0
  0
LINE
  5
229
330
1E
100
AcDbEntity
  8
0
100
AcDbLine
 10
87.86399930243879
 20
7.999282
 30
0.0
 11
87.8662
 21
7.67416199999999
 31
0.0
  0
LINE
  5
22A
330
1E
100
AcDbEntity
  8
0
100
AcDbLine
 10
87.15751327775931
 20
7.999282
 30
0.0
 11
87.15989999999999
 21
7.64668199999999
 31
0.0
  0
LINE
  5
22B
330
1E
100
AcDbEntity
  8
0
100
AcDbLine
 10
88.99477904385902
 20
7.999282
 30
0.0
 11
88.99689999999999
 21
7.685952
 31
0.0
  0
LINE
  5
22C
330
1E
100
AcDbEntity
  8
0
100
AcDbLine
 10
86.7737357077358
 20
7.999282
 30
0.0
 11
86.7745
 21
7.776752
 31
0.0
  0
LINE
  5
22D
330
1E
100
AcDbEntity
  8
0
100
AcDbLine
 10
86.46463662960909
 20
7.999282
 30
0.0
 11
86.4653
 21
7.804241999999999
 31
0.0
  0
LINE
  5
22E
330
1E
100
AcDbEntity
  8
0
100
AcDbLine
 10
85.48237669992259
 20
7.999282
 30
0.0
 11
85.48299999999999
 21
7.816022
 31
0.0
  0
LINE
  5
22F
330
1E
100
AcDbEntity
  8
0
100
AcDbLine
 10
98.0054606536933
 20
7.999282
 30
0.0
 11
98.00730000000001
 21
7.816022
 31
0.0
  0
LINE
  5
230
330
1E
100
AcDbEntity
  8
0
100
AcDbLine
 10
106.730037518923
 20
7.999282
 30
0.0
 11
106.736
 21
7.67416199999999
 31
0.0
  0
LINE
  5
231
330
1E
100
AcDbEntity
  8
0
100
AcDbLine
 10
105.245037518923
 20
7.999282
 30
0.0
 11
105.251
 21
7.67416199999999
 31
0.0
  0
LINE
  5
232
330
1E
100
AcDbEntity
  8
0
100
AcDbLine
 10
113.4020694374049
 20
7.999282
 30
0.0
 11
113.412
 21
7.60742199999999
 31
0.0
  0
LINE
  5
233
330
1E
100
AcDbEntity
  8
0
100
AcDbLine
 10
113.4020694374049
 20
7.999282
 30
0.0
 11
113.412
 21
7.60742199999999
 31
0.0
  0
LINE
  5
234
330
1E
100
AcDbEntity
  8
0
100
AcDbLine
 10
113.565368031797
 20
7.999282
 30
0.0
 11
113.575
 21
7.61920199999999
 31
0.0
  0
LINE
  5
235
330
1E
100
AcDbEntity
  8
0
100
AcDbLine
 10
114.4630644881629
 20
7.999282
 30
0.0
 11
114.472
 21
7.64668199999999
 31
0.0
  0
LINE
  5
236
330
1E
100
AcDbEntity
  8
0
100
AcDbLine
 10
115.5947609352389
 20
7.999282
 30
0.0
 11
115.6029999999999
 21
7.67416199999999
 31
0.0
  0
LINE
  5
237
330
1E
100
AcDbEntity
  8
0
100
AcDbLine
 10
115.7378314210359
 20
7.999282
 30
0.0
 11
115.7429999999999
 21
7.74927199999999
 31
0.0
  0
LINE
  5
238
330
1E
100
AcDbEntity
  8
0
100
AcDbLine
 10
116.297399405788
 20
7.999282
 30
0.0
 11
116.302
 21
7.77675199999999
 31
0.0
  0
LINE
  5
239
330
1E
100
AcDbEntity
  8
0
100
AcDbLine
 10
118.682967748605
 20
7.999282
 30
0.0
 11
118.687
 21
7.80424199999999
 31
0.0
  0
LINE
  5
23A
330
1E
100
AcDbEntity
  8
0
100
AcDbLine
 10
118.401150205405
 20
7.999282
 30
0.0
 11
118.405
 21
7.81602199999999
 31
0.0
  0
LINE
  5
23B
330
1E
100
AcDbEntity
  8
0
100
AcDbLine
 10
117.4039677486049
 20
7.999282
 30
0.0
 11
117.4079999999999
 21
7.80424199999999
 31
0.0
  0
LINE
  5
23C
330
1E
100
AcDbEntity
  8
0
100
AcDbLine
 10
122.110627631303
 20
7.999282
 30
0.0
 11
122.117
 21
7.737491999999999
 31
0.0
  0
LINE
  5
23D
330
1E
100
AcDbEntity
  8
0
100
AcDbLine
 10
122.110627631303
 20
7.999282
 30
0.0
 11
122.117
 21
7.73749199999999
 31
0.0
  0
LINE
  5
23E
330
1E
100
AcDbEntity
  8
0
100
AcDbLine
 10
122.1249144150899
 20
7.999282
 30
0.0
 11
122.131
 21
7.74927199999999
 31
0.0
  0
LINE
  5
23F
330
1E
100
AcDbEntity
  8
0
100
AcDbLine
 10
122.9226573744639
 20
7.999282
 30
0.0
 11
122.9279999999999
 21
7.77675199999999
 31
0.0
  0
LINE
  5
240
330
1E
100
AcDbEntity
  8
0
100
AcDbLine
 10
125.263191167693
 20
7.999282
 30
0.0
 11
125.2699999999999
 21
7.73749199999999
 31
0.0
  0
LINE
  5
241
330
1E
100
AcDbEntity
  8
0
100
AcDbLine
 10
125.263191167693
 20
7.999282
 30
0.0
 11
125.2699999999999
 21
7.73749199999999
 31
0.0
  0
LINE
  5
242
330
1E
100
AcDbEntity
  8
0
100
AcDbLine
 10
124.883539126897
 20
7.999282
 30
0.0
 11
124.8879999999999
 21
7.81602199999999
 31
0.0
  0
LINE
  5
243
330
1E
100
AcDbEntity
  8
0
100
AcDbLine
 10
124.0653173854759
 20
7.999282
 30
0.0
 11
124.0699999999999
 21
7.80424199999999
 31
0.0
  0
LINE
  5
244
330
1E
100
AcDbEntity
  8
0
100
AcDbLine
 10
107.1295124527749
 20
7.999282
 30
0.0
 11
107.1329999999999
 21
7.776752
 31
0.0
  0
LINE
  5
245
330
1E
100
AcDbEntity
  8
0
100
AcDbLine
 10
106.8470818836879
 20
7.999282
 30
0.0
 11
106.851
 21
7.749272
 31
0.0
  0
LINE
  5
246
330
1E
100
AcDbEntity
  8
0
100
AcDbLine
 10
90.05531327775921
 20
7.999282
 30
0.0
 11
90.0577
 21
7.64668199999999
 31
0.0
  0
LINE
  5
247
330
1E
100
AcDbEntity
  8
0
100
AcDbLine
 10
89.89249930243879
 20
7.999282
 30
0.0
 11
89.8947
 21
7.67416199999999
 31
0.0
  0
LINE
  5
248
330
1E
100
AcDbEntity
  8
0
100
AcDbLine
 10
98.0054606536933
 20
7.999282
 30
0.0
 11
98.00730000000001
 21
7.816022
 31
0.0
  0
LINE
  5
249
330
1E
100
AcDbEntity
  8
0
100
AcDbLine
 10
96.8630489106151
 20
7.999282
 30
0.0
 11
96.865
 21
7.804241999999999
 31
0.0
  0
LINE
  5
24A
330
1E
100
AcDbEntity
  8
0
100
AcDbLine
 10
96.04537390602651
 20
7.999282
 30
0.0
 11
96.0476
 21
7.776752
 31
0.0
  0
LINE
  5
24B
330
1E
100
AcDbEntity
  8
0
100
AcDbLine
 10
98.8170664857132
 20
7.999282
 30
0.0
 11
98.8193
 21
7.776752
 31
0.0
  0
LINE
  5
24C
330
1E
100
AcDbEntity
  8
0
100
AcDbLine
 10
98.8032424069838
 20
7.999282
 30
0.0
 11
98.8052
 21
7.804241999999999
 31
0.0
  0
LINE
  5
24D
330
1E
100
AcDbEntity
  8
0
100
AcDbLine
 10
103.759902760272
 20
7.999282
 30
0.0
 11
103.767
 21
7.61920199999999
 31
0.0
  0
LINE
  5
24E
330
1E
100
AcDbEntity
  8
0
100
AcDbLine
 10
104.1845335111699
 20
7.999282
 30
0.0
 11
104.191
 21
7.64668199999999
 31
0.0
  0
LINE
  5
24F
330
1E
100
AcDbEntity
  8
0
100
AcDbLine
 10
106.730037518923
 20
7.999282
 30
0.0
 11
106.736
 21
7.67416199999999
 31
0.0
  0
LINE
  5
250
330
1E
100
AcDbEntity
  8
0
100
AcDbLine
 10
106.3061490865079
 20
7.999282
 30
0.0
 11
106.312
 21
7.685952
 31
0.0
  0
LINE
  5
251
330
1E
100
AcDbEntity
  8
0
100
AcDbLine
 10
105.245037518923
 20
7.999282
 30
0.0
 11
105.251
 21
7.67416199999999
 31
0.0
  0
LINE
  5
252
330
1E
100
AcDbEntity
  8
0
100
AcDbLine
 10
108.125943293297
 20
7.999282
 30
0.0
 11
108.1289999999999
 21
7.804241999999999
 31
0.0
  0
LINE
  5
253
330
1E
100
AcDbEntity
  8
0
100
AcDbLine
 10
107.1295124527749
 20
7.999282
 30
0.0
 11
107.1329999999999
 21
7.776752
 31
0.0
  0
LINE
  5
254
330
1E
100
AcDbEntity
  8
0
100
AcDbLine
 10
106.8470818836879
 20
7.999282
 30
0.0
 11
106.851
 21
7.749272
 31
0.0
  0
LINE
  5
255
330
1E
100
AcDbEntity
  8
0
100
AcDbLine
 10
109.233066823165
 20
7.999282
 30
0.0
 11
109.236
 21
7.816022
 31
0.0
  0
LINE
  5
256
330
1E
100
AcDbEntity
  8
0
100
AcDbLine
 10
109.791943293297
 20
7.999282
 30
0.0
 11
109.7949999999999
 21
7.804241999999999
 31
0.0
  0
LINE
  5
257
330
1E
100
AcDbEntity
  8
0
100
AcDbLine
 10
108.2679999999999
 20
7.999282
 30
0.0
 11
117.2719999999999
 21
7.999282
 31
0.0
  0
LINE
  5
258
330
1E
100
AcDbEntity
  8
0
100
AcDbLine
 10
117.2719999999999
 20
7.999282
 30
0.0
 11
125.526
 21
7.999282
 31
0.0
  0
LINE
  5
259
330
1E
100
AcDbEntity
  8
0
100
AcDbLine
 10
125.572497594206
 20
7.999282
 30
0.0
 11
125.5789999999999
 21
7.74927199999999
 31
0.0
  0
LINE
  5
25A
330
1E
100
AcDbEntity
  8
0
100
AcDbLine
 10
126.555212155669
 20
7.999282
 30
0.0
 11
126.561
 21
7.77675199999999
 31
0.0
  0
LINE
  5
25B
330
1E
100
AcDbEntity
  8
0
100
AcDbLine
 10
128.238294695494
 20
7.999282
 30
0.0
 11
128.2429999999999
 21
7.81602199999999
 31
0.0
  0
LINE
  5
25C
330
1E
100
AcDbEntity
  8
0
100
AcDbLine
 10
127.6549922039119
 20
7.999282
 30
0.0
 11
127.6599999999999
 21
7.80424199999999
 31
0.0
  0
LINE
  5
25E
330
1E
100
AcDbEntity
  8
0
100
AcDbLine
 10
125.526
 20
7.999282
 30
0.0
 11
133.196
 21
7.999282
 31
0.0
  0
LINE
  5
25F
330
1E
100
AcDbEntity
  8
0
100
AcDbLine
 10
98.809
 20
7.999282
 30
0.0
 11
108.2679999999999
 21
7.999282
 31
0.0
  0
LINE
  5
260
330
1E
100
AcDbEntity
  8
0
100
AcDbLine
 10
89.0224
 20
7.999282
 30
0.0
 11
98.809
 21
7.999282
 31
0.0
  0
LINE
  5
261
330
1E
100
AcDbEntity
  8
0
100
AcDbLine
 10
84.38263012597779
 20
7.999282
 30
0.0
 11
84.3833
 21
7.804241999999999
 31
0.0
  0
LINE
  5
262
330
1E
100
AcDbEntity
  8
0
100
AcDbLine
 10
87.86399930243879
 20
7.999282
 30
0.0
 11
87.8662
 21
7.67416199999999
 31
0.0
  0
LINE
  5
263
330
1E
100
AcDbEntity
  8
0
100
AcDbLine
 10
86.46463662960909
 20
7.999282
 30
0.0
 11
86.4653
 21
7.804241999999999
 31
0.0
  0
LINE
  5
264
330
1E
100
AcDbEntity
  8
0
100
AcDbLine
 10
79.0
 20
7.999282
 30
0.0
 11
89.0224
 21
7.999282
 31
0.0
  0
LINE
  5
265
330
1E
100
AcDbEntity
  8
0
100
AcDbLine
 10
137.2186082869799
 20
7.999282
 30
0.0
 11
139.066
 21
5.36717199999999
 31
0.0
  0
LINE
  5
269
330
1E
100
AcDbEntity
  8
0
100
AcDbLine
 10
139.6949999999999
 20
7.999282
 30
0.0
 11
145.282
 21
7.999282
 31
0.0
  0
LINE
  5
26A
330
1E
100
AcDbEntity
  8
0
100
AcDbLine
 10
68.97759999999999
 20
7.999282
 30
0.0
 11
79.0
 21
7.999282
 31
0.0
  0
LINE
  5
275
330
1E
100
AcDbEntity
  8
0
100
AcDbLine
 10
151.279
 20
8.499282
 30
0.0
 11
154.581
 21
8.499282
 31
0.0
  0
LINE
  5
276
330
1E
100
AcDbEntity
  8
0
100
AcDbLine
 10
118.106
 20
8.499282
 30
0.0
 11
126.693
 21
8.499282
 31
0.0
  0
LINE
  5
278
330
1E
100
AcDbEntity
  8
0
100
AcDbLine
 10
126.693
 20
8.499282
 30
0.0
 11
134.4439999999999
 21
8.499282
 31
0.0
  0
LINE
  5
27A
330
1E
100
AcDbEntity
  8
0
100
AcDbLine
 10
146.782
 20
8.499282
 30
0.0
 11
151.279
 21
8.499282
 31
0.0
  0
LINE
  5
27B
330
1E
100
AcDbEntity
  8
0
100
AcDbLine
 10
141.0289999999999
 20
8.499282
 30
0.0
 11
146.782
 21
8.499282
 31
0.0
  0
LINE
  5
27D
330
1E
100
AcDbEntity
  8
0
100
AcDbLine
 10
134.4439999999999
 20
8.499282
 30
0.0
 11
141.0289999999999
 21
8.499282
 31
0.0
  0
LINE
  5
27F
330
1E
100
AcDbEntity
  8
0
100
AcDbLine
 10
154.581
 20
8.499282
 30
0.0
 11
156.585
 21
8.49928199999999
 31
0.0
  0
LINE
  5
280
330
1E
100
AcDbEntity
  8
0
100
AcDbLine
 10
157.41
 20
8.49928199999999
 30
0.0
 11
158.0
 21
9.49928199999999
 31
0.0
  0
LINE
  5
281
330
1E
100
AcDbEntity
  8
0
100
AcDbLine
 10
156.585
 20
8.49928199999999
 30
0.0
 11
157.41
 21
8.49928199999999
 31
0.0
  0
LINE
  5
282
330
1E
100
AcDbEntity
  8
0
100
AcDbLine
 10
39.89399999999999
 20
8.499282
 30
0.0
 11
49.0507
 21
8.499282
 31
0.0
  0
LINE
  5
284
330
1E
100
AcDbEntity
  8
0
100
AcDbLine
 10
31.3066
 20
8.499282
 30
0.0
 11
39.89399999999999
 21
8.499282
 31
0.0
  0
LINE
  5
28E
330
1E
100
AcDbEntity
  8
0
100
AcDbLine
 10
49.0507
 20
8.499282
 30
0.0
 11
58.7194
 21
8.499282
 31
0.0
  0
LINE
  5
296
330
1E
100
AcDbEntity
  8
0
100
AcDbLine
 10
58.7194
 20
8.499282
 30
0.0
 11
68.8597
 21
8.499282
 31
0.0
  0
LINE
  5
297
330
1E
100
AcDbEntity
  8
0
100
AcDbLine
 10
108.949
 20
8.499282
 30
0.0
 11
118.106
 21
8.499282
 31
0.0
  0
LINE
  5
298
330
1E
100
AcDbEntity
  8
0
100
AcDbLine
 10
99.28060000000002
 20
8.499282
 30
0.0
 11
108.949
 21
8.499282
 31
0.0
  0
LINE
  5
299
330
1E
100
AcDbEntity
  8
0
100
AcDbLine
 10
89.1403
 20
8.499282
 30
0.0
 11
99.28060000000002
 21
8.499282
 31
0.0
  0
LINE
  5
29A
330
1E
100
AcDbEntity
  8
0
100
AcDbLine
 10
79.0
 20
8.499282
 30
0.0
 11
89.1403
 21
8.499282
 31
0.0
  0
LINE
  5
2AF
330
1E
100
AcDbEntity
  8
0
100
AcDbLine
 10
158.0
 20
9.99928199999999
 30
0.0
 11
158.0
 21
9.49928199999999
 31
0.0
  0
LINE
  5
2B0
330
1E
100
AcDbEntity
  8
0
100
AcDbLine
 10
157.41
 20
10.999282
 30
0.0
 11
158.0
 21
9.99928199999999
 31
0.0
  0
LINE
  5
2B1
330
1E
100
AcDbEntity
  8
0
100
AcDbLine
 10
158.0
 20
9.49928199999999
 30
0.0
 11
158.0
 21
9.99928199999999
 31
0.0
  0
LINE
  5
2B2
330
1E
100
AcDbEntity
  8
0
100
AcDbLine
 10
68.8597
 20
8.499282
 30
0.0
 11
79.0
 21
8.499282
 31
0.0
  0
LINE
  5
2C3
330
1E
100
AcDbEntity
  8
0
100
AcDbLine
 10
153.0
 20
15.999282
 30
0.0
 11
155.6419999999999
 21
11.999282
 31
0.0
  0
LINE
  5
2C4
330
1E
100
AcDbEntity
  8
0
100
AcDbLine
 10
155.6419999999999
 20
11.999282
 30
0.0
 11
157.41
 21
10.999282
 31
0.0
  0
LINE
  5
2D2
330
1E
100
AcDbEntity
  8
0
100
AcDbLine
 10
23.5556
 20
8.499282
 30
0.0
 11
31.3066
 21
8.499282
 31
0.0
  0
LINE
  5
2D5
330
1E
100
AcDbEntity
  8
0
100
AcDbLine
 10
16.9709
 20
8.499282
 30
0.0
 11
23.5556
 21
8.499282
 31
0.0
  0
LINE
  5
2D8
330
1E
100
AcDbEntity
  8
0
100
AcDbLine
 10
12.7183
 20
7.999282
 30
0.0
 11
18.3049
 21
7.999282
 31
0.0
  0
LINE
  5
2E7
330
1E
100
AcDbEntity
  8
0
100
AcDbLine
 10
148.5
 20
29.999282
 30
0.0
 11
150.0
 21
22.999282
 31
0.0
  0
LINE
  5
2E8
330
1E
100
AcDbEntity
  8
0
100
AcDbLine
 10
150.0
 20
22.999282
 30
0.0
 11
153.0
 21
15.999282
 31
0.0
  0
LINE
  5
2EF
330
1E
100
AcDbEntity
  8
0
100
AcDbLine
 10
148.0
 20
34.999282
 30
0.0
 11
148.5
 21
29.999282
 31
0.0
  0
LINE
  5
2F0
330
1E
100
AcDbEntity
  8
0
100
AcDbLine
 10
147.0
 20
36.499282
 30
0.0
 11
148.0
 21
34.999282
 31
0.0
  0
LINE
  5
2F1
330
1E
100
AcDbEntity
  8
0
100
AcDbLine
 10
146.0
 20
36.999282
 30
0.0
 11
147.0
 21
36.499282
 31
0.0
  0
LINE
  5
2F2
330
1E
100
AcDbEntity
  8
0
100
AcDbLine
 10
145.434
 20
37.02358199999999
 30
0.0
 11
146.0
 21
36.999282
 31
0.0
  0
LINE
  5
2F4
330
1E
100
AcDbEntity
  8
0
100
AcDbLine
 10
127.584
 20
37.505582
 30
0.0
 11
145.434
 21
37.02358199999999
 31
0.0
  0
LINE
  5
2F5
330
1E
100
AcDbEntity
  8
0
100
AcDbLine
 10
97.84970000000001
 20
38.004782
 30
0.0
 11
127.584
 21
37.505582
 31
0.0
  0
LINE
  5
2F7
330
1E
100
AcDbEntity
  8
0
100
AcDbLine
 10
97.32799999999999
 20
38.004782
 30
0.0
 11
97.84970000000001
 21
38.004782
 31
0.0
  0
LINE
  5
300
330
1E
100
AcDbEntity
  8
0
100
AcDbLine
 10
61.4545
 20
38.004782
 30
0.0
 11
62.58469999999999
 21
38.021982
 31
0.0
  0
LINE
  5
301
330
1E
100
AcDbEntity
  8
0
100
AcDbLine
 10
60.67199999999999
 20
38.004782
 30
0.0
 11
61.4545
 21
38.004782
 31
0.0
  0
LINE
  5
30C
330
1E
100
AcDbEntity
  8
0
100
AcDbLine
 10
64.3943
 20
38.206082
 30
0.0
 11
64.5680507938852
 21
38.0373887409602
 31
0.0
  0
LINE
  5
30F
330
1E
100
AcDbEntity
  8
0
100
AcDbLine
 10
64.7813
 20
38.496882
 30
0.0
 11
65.28669999999999
 21
38.496882
 31
0.0
  0
LINE
  5
310
330
1E
100
AcDbEntity
  8
0
100
AcDbLine
 10
64.4128
 20
38.496882
 30
0.0
 11
64.7813
 21
38.496882
 31
0.0
  0
LINE
  5
311
330
1E
100
AcDbEntity
  8
0
100
AcDbLine
 10
64.1852
 20
38.496882
 30
0.0
 11
64.4128
 21
38.496882
 31
0.0
  0
LINE
  5
313
330
1E
100
AcDbEntity
  8
0
100
AcDbLine
 10
64.10070000000001
 20
38.496882
 30
0.0
 11
64.10070000000001
 21
47.858182
 31
0.0
  0
LINE
  5
314
330
1E
100
AcDbEntity
  8
0
100
AcDbLine
 10
64.10070000000001
 20
38.496882
 30
0.0
 11
64.1852
 21
38.496882
 31
0.0
  0
LINE
  5
315
330
1E
100
AcDbEntity
  8
0
100
AcDbLine
 10
64.10070000000001
 20
38.496882
 30
0.0
 11
64.3943
 21
38.206082
 31
0.0
  0
LINE
  5
317
330
1E
100
AcDbEntity
  8
0
100
AcDbLine
 10
64.0
 20
57.00658199999999
 30
0.0
 11
64.0
 21
49.244382
 31
0.0
  0
LINE
  5
318
330
1E
100
AcDbEntity
  8
0
100
AcDbLine
 10
64.0
 20
57.00658199999999
 30
0.0
 11
64.0856
 21
57.00658199999999
 31
0.0
  0
LINE
  5
319
330
1E
100
AcDbEntity
  8
0
100
AcDbLine
 10
64.0
 20
57.00658199999999
 30
0.0
 11
64.2938
 21
57.08438199999999
 31
0.0
  0
LINE
  5
31A
330
1E
100
AcDbEntity
  8
0
100
AcDbLine
 10
64.00539999999999
 20
49.244382
 30
0.0
 11
64.00539999999999
 21
57.00658199999999
 31
0.0
  0
LINE
  5
31B
330
1E
100
AcDbEntity
  8
0
100
AcDbLine
 10
64.0856
 20
57.00658199999999
 30
0.0
 11
64.3151
 21
57.00658199999999
 31
0.0
  0
LINE
  5
31C
330
1E
100
AcDbEntity
  8
0
100
AcDbLine
 10
64.0856
 20
49.244382
 30
0.0
 11
64.31409999999999
 21
49.244382
 31
0.0
  0
LINE
  5
31D
330
1E
100
AcDbEntity
  8
0
100
AcDbLine
 10
64.00539999999999
 20
57.00658199999999
 30
0.0
 11
64.00539999999999
 21
49.244382
 31
0.0
  0
LINE
  5
31E
330
1E
100
AcDbEntity
  8
0
100
AcDbLine
 10
64.00539999999999
 20
57.00658199999999
 30
0.0
 11
64.2938
 21
57.08438199999999
 31
0.0
  0
LINE
  5
31F
330
1E
100
AcDbEntity
  8
0
100
AcDbLine
 10
64.0
 20
49.244382
 30
0.0
 11
64.0
 21
57.00658199999999
 31
0.0
  0
LINE
  5
320
330
1E
100
AcDbEntity
  8
0
100
AcDbLine
 10
64.0
 20
49.244382
 30
0.0
 11
64.0856
 21
49.244382
 31
0.0
  0
LINE
  5
321
330
1E
100
AcDbEntity
  8
0
100
AcDbLine
 10
64.10070000000001
 20
47.858182
 30
0.0
 11
64.10070000000001
 21
38.496882
 31
0.0
  0
LINE
  5
322
330
1E
100
AcDbEntity
  8
0
100
AcDbLine
 10
64.10070000000001
 20
47.858182
 30
0.0
 11
64.3344
 21
48.259482
 31
0.0
  0
LINE
  5
323
330
1E
100
AcDbEntity
  8
0
100
AcDbLine
 10
64.3344
 20
48.259482
 30
0.0
 11
64.5668
 21
48.547782
 31
0.0
  0
LINE
  5
324
330
1E
100
AcDbEntity
  8
0
100
AcDbLine
 10
64.3344
 20
48.259482
 30
0.0
 11
64.50669999999999
 21
48.547782
 31
0.0
  0
LINE
  5
325
330
1E
100
AcDbEntity
  8
0
100
AcDbLine
 10
64.2938
 20
57.08438199999999
 30
0.0
 11
64.56780000000001
 21
57.13988199999999
 31
0.0
  0
LINE
  5
326
330
1E
100
AcDbEntity
  8
0
100
AcDbLine
 10
64.2938
 20
57.08438199999999
 30
0.0
 11
64.5077
 21
57.13988199999999
 31
0.0
  0
LINE
  5
327
330
1E
100
AcDbEntity
  8
0
100
AcDbLine
 10
64.3151
 20
57.00658199999999
 30
0.0
 11
64.6856
 21
57.00658199999999
 31
0.0
  0
LINE
  5
328
330
1E
100
AcDbEntity
  8
0
100
AcDbLine
 10
64.31409999999999
 20
49.244382
 30
0.0
 11
64.6856
 21
49.244382
 31
0.0
  0
LINE
  5
329
330
1E
100
AcDbEntity
  8
0
100
AcDbLine
 10
64.31409999999999
 20
49.244382
 30
0.0
 11
64.50669999999999
 21
49.244382
 31
0.0
  0
LINE
  5
32A
330
1E
100
AcDbEntity
  8
0
100
AcDbLine
 10
64.50669999999999
 20
49.244382
 30
0.0
 11
64.50669999999999
 21
48.547782
 31
0.0
  0
LINE
  5
32B
330
1E
100
AcDbEntity
  8
0
100
AcDbLine
 10
64.50669999999999
 20
49.244382
 30
0.0
 11
64.5668
 21
49.244382
 31
0.0
  0
LINE
  5
32C
330
1E
100
AcDbEntity
  8
0
100
AcDbLine
 10
64.50669999999999
 20
48.547782
 30
0.0
 11
64.5668
 21
48.547782
 31
0.0
  0
LINE
  5
32D
330
1E
100
AcDbEntity
  8
0
100
AcDbLine
 10
64.50669999999999
 20
48.547782
 30
0.0
 11
64.50669999999999
 21
49.244382
 31
0.0
  0
LINE
  5
32E
330
1E
100
AcDbEntity
  8
0
100
AcDbLine
 10
64.5668
 20
49.244382
 30
0.0
 11
64.77920000000001
 21
49.244382
 31
0.0
  0
LINE
  5
32F
330
1E
100
AcDbEntity
  8
0
100
AcDbLine
 10
64.5077
 20
57.13988199999999
 30
0.0
 11
64.56780000000001
 21
57.13988199999999
 31
0.0
  0
LINE
  5
330
330
1E
100
AcDbEntity
  8
0
100
AcDbLine
 10
64.50669999999999
 20
57.90218199999999
 30
0.0
 11
64.5668
 21
57.90218199999999
 31
0.0
  0
LINE
  5
331
330
1E
100
AcDbEntity
  8
0
100
AcDbLine
 10
64.50669999999999
 20
57.90218199999999
 30
0.0
 11
65.0099
 21
58.399782
 31
0.0
  0
LINE
  5
332
330
1E
100
AcDbEntity
  8
0
100
AcDbLine
 10
64.50669999999999
 20
57.90218199999999
 30
0.0
 11
64.5077
 21
57.13988199999999
 31
0.0
  0
LINE
  5
333
330
1E
100
AcDbEntity
  8
0
100
AcDbLine
 10
64.6856
 20
49.244382
 30
0.0
 11
65.194
 21
49.244382
 31
0.0
  0
LINE
  5
334
330
1E
100
AcDbEntity
  8
0
100
AcDbLine
 10
64.6856
 20
57.00658199999999
 30
0.0
 11
65.194
 21
57.00658199999999
 31
0.0
  0
LINE
  5
335
330
1E
100
AcDbEntity
  8
0
100
AcDbLine
 10
64.77920000000001
 20
49.244382
 30
0.0
 11
65.1387
 21
49.244382
 31
0.0
  0
LINE
  5
336
330
1E
100
AcDbEntity
  8
0
100
AcDbLine
 10
65.1387
 20
49.244382
 30
0.0
 11
65.639
 21
49.244382
 31
0.0
  0
LINE
  5
337
330
1E
100
AcDbEntity
  8
0
100
AcDbLine
 10
65.1387
 20
57.13988199999999
 30
0.0
 11
65.639
 21
57.13988199999999
 31
0.0
  0
LINE
  5
338
330
1E
100
AcDbEntity
  8
0
100
AcDbLine
 10
64.7803
 20
57.13988199999999
 30
0.0
 11
65.1387
 21
57.13988199999999
 31
0.0
  0
LINE
  5
339
330
1E
100
AcDbEntity
  8
0
100
AcDbLine
 10
64.56780000000001
 20
57.13988199999999
 30
0.0
 11
64.7803
 21
57.13988199999999
 31
0.0
  0
LINE
  5
33A
330
1E
100
AcDbEntity
  8
0
100
AcDbLine
 10
64.5668
 20
57.90218199999999
 30
0.0
 11
64.77920000000001
 21
57.90218199999999
 31
0.0
  0
LINE
  5
33B
330
1E
100
AcDbEntity
  8
0
100
AcDbLine
 10
64.77920000000001
 20
57.90218199999999
 30
0.0
 11
65.1387
 21
57.90218199999999
 31
0.0
  0
LINE
  5
33C
330
1E
100
AcDbEntity
  8
0
100
AcDbLine
 10
65.194
 20
57.00658199999999
 30
0.0
 11
65.83540000000001
 21
57.00658199999999
 31
0.0
  0
LINE
  5
33D
330
1E
100
AcDbEntity
  8
0
100
AcDbLine
 10
65.83540000000001
 20
49.244382
 30
0.0
 11
66.6035
 21
49.244382
 31
0.0
  0
LINE
  5
33E
330
1E
100
AcDbEntity
  8
0
100
AcDbLine
 10
65.83540000000001
 20
57.00658199999999
 30
0.0
 11
66.6035
 21
57.00658199999999
 31
0.0
  0
LINE
  5
33F
330
1E
100
AcDbEntity
  8
0
100
AcDbLine
 10
65.639
 20
49.244382
 30
0.0
 11
66.27729999999999
 21
49.244382
 31
0.0
  0
LINE
  5
340
330
1E
100
AcDbEntity
  8
0
100
AcDbLine
 10
65.194
 20
49.244382
 30
0.0
 11
65.83540000000001
 21
49.244382
 31
0.0
  0
LINE
  5
341
330
1E
100
AcDbEntity
  8
0
100
AcDbLine
 10
65.639
 20
57.13988199999999
 30
0.0
 11
66.27729999999999
 21
57.13988199999999
 31
0.0
  0
LINE
  5
342
330
1E
100
AcDbEntity
  8
0
100
AcDbLine
 10
65.1387
 20
57.90218199999999
 30
0.0
 11
65.639
 21
57.90218199999999
 31
0.0
  0
LINE
  5
343
330
1E
100
AcDbEntity
  8
0
100
AcDbLine
 10
65.0099
 20
58.399782
 30
0.0
 11
65.06820000000001
 21
58.399782
 31
0.0
  0
LINE
  5
344
330
1E
100
AcDbEntity
  8
0
100
AcDbLine
 10
65.06820000000001
 20
58.399782
 30
0.0
 11
65.2736
 21
58.399782
 31
0.0
  0
LINE
  5
345
330
1E
100
AcDbEntity
  8
0
100
AcDbLine
 10
65.2736
 20
58.399782
 30
0.0
 11
65.6199
 21
58.399782
 31
0.0
  0
LINE
  5
346
330
1E
100
AcDbEntity
  8
0
100
AcDbLine
 10
65.6199
 20
58.399782
 30
0.0
 11
66.1032
 21
58.399782
 31
0.0
  0
LINE
  5
347
330
1E
100
AcDbEntity
  8
0
100
AcDbLine
 10
65.639
 20
57.90218199999999
 30
0.0
 11
66.27729999999999
 21
57.90218199999999
 31
0.0
  0
LINE
  5
349
330
1E
100
AcDbEntity
  8
0
100
AcDbLine
 10
64.1061
 20
47.858182
 30
0.0
 11
64.3344
 21
48.259482
 31
0.0
  0
LINE
  5
34A
330
1E
100
AcDbEntity
  8
0
100
AcDbLine
 10
65.28669999999999
 20
38.496882
 30
0.0
 11
65.92399999999999
 21
38.496882
 31
0.0
  0
LINE
  5
34B
330
1E
100
AcDbEntity
  8
0
100
AcDbLine
 10
68.56069999999999
 20
38.496882
 30
0.0
 11
69.65309999999999
 21
38.496882
 31
0.0
  0
LINE
  5
34C
330
1E
100
AcDbEntity
  8
0
100
AcDbLine
 10
67.568
 20
38.496882
 30
0.0
 11
68.56069999999999
 21
38.496882
 31
0.0
  0
LINE
  5
34D
330
1E
100
AcDbEntity
  8
0
100
AcDbLine
 10
66.27729999999999
 20
49.244382
 30
0.0
 11
67.04550000000001
 21
49.244382
 31
0.0
  0
LINE
  5
34E
330
1E
100
AcDbEntity
  8
0
100
AcDbLine
 10
66.6035
 20
57.00658199999999
 30
0.0
 11
67.4915
 21
57.00658199999999
 31
0.0
  0
LINE
  5
34F
330
1E
100
AcDbEntity
  8
0
100
AcDbLine
 10
66.6035
 20
49.244382
 30
0.0
 11
67.4915
 21
49.244382
 31
0.0
  0
LINE
  5
350
330
1E
100
AcDbEntity
  8
0
100
AcDbLine
 10
67.04550000000001
 20
49.244382
 30
0.0
 11
67.93649999999999
 21
49.244382
 31
0.0
  0
LINE
  5
351
330
1E
100
AcDbEntity
  8
0
100
AcDbLine
 10
67.04550000000001
 20
57.13988199999999
 30
0.0
 11
67.93649999999999
 21
57.13988199999999
 31
0.0
  0
LINE
  5
352
330
1E
100
AcDbEntity
  8
0
100
AcDbLine
 10
66.27729999999999
 20
57.13988199999999
 30
0.0
 11
67.04550000000001
 21
57.13988199999999
 31
0.0
  0
LINE
  5
353
330
1E
100
AcDbEntity
  8
0
100
AcDbLine
 10
66.27729999999999
 20
57.90218199999999
 30
0.0
 11
67.04550000000001
 21
57.90218199999999
 31
0.0
  0
LINE
  5
354
330
1E
100
AcDbEntity
  8
0
100
AcDbLine
 10
68.4902
 20
49.244382
 30
0.0
 11
69.58960000000001
 21
49.244382
 31
0.0
  0
LINE
  5
355
330
1E
100
AcDbEntity
  8
0
100
AcDbLine
 10
67.4915
 20
49.244382
 30
0.0
 11
68.4902
 21
49.244382
 31
0.0
  0
LINE
  5
356
330
1E
100
AcDbEntity
  8
0
100
AcDbLine
 10
68.9413
 20
49.244382
 30
0.0
 11
70.0497
 21
49.244382
 31
0.0
  0
LINE
  5
357
330
1E
100
AcDbEntity
  8
0
100
AcDbLine
 10
68.4902
 20
57.00658199999999
 30
0.0
 11
69.58960000000001
 21
57.00658199999999
 31
0.0
  0
LINE
  5
358
330
1E
100
AcDbEntity
  8
0
100
AcDbLine
 10
67.4915
 20
57.00658199999999
 30
0.0
 11
68.4902
 21
57.00658199999999
 31
0.0
  0
LINE
  5
359
330
1E
100
AcDbEntity
  8
0
100
AcDbLine
 10
67.93649999999999
 20
49.244382
 30
0.0
 11
68.9413
 21
49.244382
 31
0.0
  0
LINE
  5
35A
330
1E
100
AcDbEntity
  8
0
100
AcDbLine
 10
68.9413
 20
57.13988199999999
 30
0.0
 11
70.0497
 21
57.13988199999999
 31
0.0
  0
LINE
  5
35B
330
1E
100
AcDbEntity
  8
0
100
AcDbLine
 10
67.93649999999999
 20
57.13988199999999
 30
0.0
 11
68.9413
 21
57.13988199999999
 31
0.0
  0
LINE
  5
35C
330
1E
100
AcDbEntity
  8
0
100
AcDbLine
 10
67.04550000000001
 20
57.90218199999999
 30
0.0
 11
67.93649999999999
 21
57.90218199999999
 31
0.0
  0
LINE
  5
35D
330
1E
100
AcDbEntity
  8
0
100
AcDbLine
 10
66.1032
 20
58.399782
 30
0.0
 11
66.7193
 21
58.399782
 31
0.0
  0
LINE
  5
35E
330
1E
100
AcDbEntity
  8
0
100
AcDbLine
 10
66.7193
 20
58.399782
 30
0.0
 11
67.46030000000001
 21
58.399782
 31
0.0
  0
LINE
  5
35F
330
1E
100
AcDbEntity
  8
0
100
AcDbLine
 10
67.46030000000001
 20
58.399782
 30
0.0
 11
68.3211
 21
58.399782
 31
0.0
  0
LINE
  5
360
330
1E
100
AcDbEntity
  8
0
100
AcDbLine
 10
68.3211
 20
58.399782
 30
0.0
 11
69.29059999999999
 21
58.399782
 31
0.0
  0
LINE
  5
361
330
1E
100
AcDbEntity
  8
0
100
AcDbLine
 10
67.93649999999999
 20
57.90218199999999
 30
0.0
 11
68.9413
 21
57.90218199999999
 31
0.0
  0
LINE
  5
362
330
1E
100
AcDbEntity
  8
0
100
AcDbLine
 10
68.9413
 20
57.90218199999999
 30
0.0
 11
70.0497
 21
57.90218199999999
 31
0.0
  0
LINE
  5
363
330
1E
100
AcDbEntity
  8
0
100
AcDbLine
 10
66.6871
 20
38.496882
 30
0.0
 11
67.568
 21
38.496882
 31
0.0
  0
LINE
  5
364
330
1E
100
AcDbEntity
  8
0
100
AcDbLine
 10
65.92399999999999
 20
38.496882
 30
0.0
 11
66.6871
 21
38.496882
 31
0.0
  0
LINE
  5
365
330
1E
100
AcDbEntity
  8
0
100
AcDbLine
 10
68.1367879099726
 20
58.399782
 30
0.0
 11
69.0155
 21
59.69748199999999
 31
0.0
  0
LINE
  5
366
330
1E
100
AcDbEntity
  8
0
100
AcDbLine
 10
69.58960000000001
 20
57.00658199999999
 30
0.0
 11
70.7796
 21
57.00658199999999
 31
0.0
  0
LINE
  5
367
330
1E
100
AcDbEntity
  8
0
100
AcDbLine
 10
69.58960000000001
 20
49.244382
 30
0.0
 11
70.7796
 21
49.244382
 31
0.0
  0
LINE
  5
368
330
1E
100
AcDbEntity
  8
0
100
AcDbLine
 10
70.0497
 20
57.13988199999999
 30
0.0
 11
71.2488
 21
57.13988199999999
 31
0.0
  0
LINE
  5
369
330
1E
100
AcDbEntity
  8
0
100
AcDbLine
 10
69.29059999999999
 20
58.399782
 30
0.0
 11
70.35980000000001
 21
58.399782
 31
0.0
  0
LINE
  5
36A
330
1E
100
AcDbEntity
  8
0
100
AcDbLine
 10
70.0497
 20
57.90218199999999
 30
0.0
 11
71.2488
 21
57.90218199999999
 31
0.0
  0
LINE
  5
36B
330
1E
100
AcDbEntity
  8
0
100
AcDbLine
 10
69.65309999999999
 20
38.496882
 30
0.0
 11
70.83499999999999
 21
38.496882
 31
0.0
  0
LINE
  5
36C
330
1E
100
AcDbEntity
  8
0
100
AcDbLine
 10
69.0155
 20
59.69748199999999
 30
0.0
 11
70.1003
 21
60.918782
 31
0.0
  0
LINE
  5
372
330
1E
100
AcDbEntity
  8
0
100
AcDbLine
 10
67.423
 20
78.99928199999999
 30
0.0
 11
67.423
 21
68.55028199999999
 31
0.0
  0
LINE
  5
373
330
1E
100
AcDbEntity
  8
0
100
AcDbLine
 10
67.423
 20
78.99928199999999
 30
0.0
 11
67.54789999999999
 21
78.99928199999999
 31
0.0
  0
LINE
  5
376
330
1E
100
AcDbEntity
  8
0
100
AcDbLine
 10
68.4308
 20
78.99928199999999
 30
0.0
 11
69.17279999999999
 21
78.99928199999999
 31
0.0
  0
LINE
  5
377
330
1E
100
AcDbEntity
  8
0
100
AcDbLine
 10
67.8862
 20
78.99928199999999
 30
0.0
 11
68.4308
 21
78.99928199999999
 31
0.0
  0
LINE
  5
378
330
1E
100
AcDbEntity
  8
0
100
AcDbLine
 10
67.54789999999999
 20
78.99928199999999
 30
0.0
 11
67.8862
 21
78.99928199999999
 31
0.0
  0
LINE
  5
37B
330
1E
100
AcDbEntity
  8
0
100
AcDbLine
 10
69.17279999999999
 20
78.99928199999999
 30
0.0
 11
70.0981
 21
78.99928199999999
 31
0.0
  0
LINE
  5
37F
330
1E
100
AcDbEntity
  8
0
100
AcDbLine
 10
73.4234
 20
38.496882
 30
0.0
 11
74.8048
 21
38.496882
 31
0.0
  0
LINE
  5
380
330
1E
100
AcDbEntity
  8
0
100
AcDbLine
 10
72.0965
 20
38.496882
 30
0.0
 11
73.4234
 21
38.496882
 31
0.0
  0
LINE
  5
381
330
1E
100
AcDbEntity
  8
0
100
AcDbLine
 10
72.0492
 20
49.244382
 30
0.0
 11
73.3862
 21
49.244382
 31
0.0
  0
LINE
  5
382
330
1E
100
AcDbEntity
  8
0
100
AcDbLine
 10
70.7796
 20
49.244382
 30
0.0
 11
72.0492
 21
49.244382
 31
0.0
  0
LINE
  5
383
330
1E
100
AcDbEntity
  8
0
100
AcDbLine
 10
73.3862
 20
49.244382
 30
0.0
 11
74.7766
 21
49.244382
 31
0.0
  0
LINE
  5
384
330
1E
100
AcDbEntity
  8
0
100
AcDbLine
 10
73.87350000000001
 20
49.244382
 30
0.0
 11
75.2719
 21
49.244382
 31
0.0
  0
LINE
  5
385
330
1E
100
AcDbEntity
  8
0
100
AcDbLine
 10
72.5284
 20
49.244382
 30
0.0
 11
73.87350000000001
 21
49.244382
 31
0.0
  0
LINE
  5
386
330
1E
100
AcDbEntity
  8
0
100
AcDbLine
 10
70.83499999999999
 20
38.496882
 30
0.0
 11
72.0965
 21
38.496882
 31
0.0
  0
LINE
  5
3CE
330
1E
100
AcDbEntity
  8
0
100
AcDbLine
 10
76.70860000000001
 20
49.244382
 30
0.0
 11
78.5006
 21
49.244382
 31
0.0
  0
LINE
  5
3CF
330
1E
100
AcDbEntity
  8
0
100
AcDbLine
 10
75.2719
 20
49.244382
 30
0.0
 11
76.70860000000001
 21
49.244382
 31
0.0
  0
LINE
  5
3D0
330
1E
100
AcDbEntity
  8
0
100
AcDbLine
 10
76.2263
 20
38.496882
 30
0.0
 11
78.99390000000001
 21
38.496882
 31
0.0
  0
LINE
  5
3D1
330
1E
100
AcDbEntity
  8
0
100
AcDbLine
 10
74.8048
 20
38.496882
 30
0.0
 11
76.2263
 21
38.496882
 31
0.0
  0
LINE
  5
3D2
330
1E
100
AcDbEntity
  8
0
100
AcDbLine
 10
76.20820000000001
 20
49.244382
 30
0.0
 11
77.666
 21
49.244382
 31
0.0
  0
LINE
  5
3D3
330
1E
100
AcDbEntity
  8
0
100
AcDbLine
 10
74.7766
 20
49.244382
 30
0.0
 11
76.20820000000001
 21
49.244382
 31
0.0
  0
LINE
  5
3D4
330
1E
100
AcDbEntity
  8
0
100
AcDbLine
 10
70.7796
 20
57.00658199999999
 30
0.0
 11
72.0492
 21
57.00658199999999
 31
0.0
  0
LINE
  5
3D5
330
1E
100
AcDbEntity
  8
0
100
AcDbLine
 10
70.1003
 20
60.918782
 30
0.0
 11
70.5322
 21
61.32448199999999
 31
0.0
  0
LINE
  5
3D6
330
1E
100
AcDbEntity
  8
0
100
AcDbLine
 10
70.5322
 20
61.32448199999999
 30
0.0
 11
70.7822
 21
61.647882
 31
0.0
  0
LINE
  5
3D7
330
1E
100
AcDbEntity
  8
0
100
AcDbLine
 10
70.5642
 20
62.76448199999999
 30
0.0
 11
70.65699999999999
 21
62.62988199999999
 31
0.0
  0
LINE
  5
3D8
330
1E
100
AcDbEntity
  8
0
100
AcDbLine
 10
70.65699999999999
 20
62.62988199999999
 30
0.0
 11
70.80029999999999
 21
62.43008199999999
 31
0.0
  0
LINE
  5
3D9
330
1E
100
AcDbEntity
  8
0
100
AcDbLine
 10
70.48309999999999
 20
62.841382
 30
0.0
 11
70.5642
 21
62.76448199999999
 31
0.0
  0
LINE
  5
3DA
330
1E
100
AcDbEntity
  8
0
100
AcDbLine
 10
70.48309999999999
 20
62.841382
 30
0.0
 11
70.5472273194725
 21
62.78897614593589
 31
0.0
  0
LINE
  5
3DB
330
1E
100
AcDbEntity
  8
0
100
AcDbLine
 10
70.4422
 20
62.888482
 30
0.0
 11
70.4423
 21
62.98828199999999
 31
0.0
  0
LINE
  5
3DC
330
1E
100
AcDbEntity
  8
0
100
AcDbLine
 10
70.4422
 20
62.888482
 30
0.0
 11
70.48309999999999
 21
62.841382
 31
0.0
  0
LINE
  5
3DD
330
1E
100
AcDbEntity
  8
0
100
AcDbLine
 10
70.4419
 20
66.69068199999999
 30
0.0
 11
70.442
 21
65.79498199999999
 31
0.0
  0
LINE
  5
3DE
330
1E
100
AcDbEntity
  8
0
100
AcDbLine
 10
70.4419
 20
66.69068199999999
 30
0.0
 11
70.442
 21
66.84468199999999
 31
0.0
  0
LINE
  5
3E8
330
1E
100
AcDbEntity
  8
0
100
AcDbLine
 10
70.44159999999999
 20
64.358582
 30
0.0
 11
70.442
 21
65.79498199999999
 31
0.0
  0
LINE
  5
3E9
330
1E
100
AcDbEntity
  8
0
100
AcDbLine
 10
70.44159999999999
 20
64.358582
 30
0.0
 11
70.4423
 21
62.98828199999999
 31
0.0
  0
LINE
  5
3EC
330
1E
100
AcDbEntity
  8
0
100
AcDbLine
 10
70.4419
 20
67.75018199999999
 30
0.0
 11
70.442
 21
66.84468199999999
 31
0.0
  0
LINE
  5
3ED
330
1E
100
AcDbEntity
  8
0
100
AcDbLine
 10
67.423
 20
68.55028199999999
 30
0.0
 11
70.4419
 21
67.75018199999999
 31
0.0
  0
LINE
  5
3EE
330
1E
100
AcDbEntity
  8
0
100
AcDbLine
 10
70.35980000000001
 20
58.399782
 30
0.0
 11
71.5176
 21
58.399782
 31
0.0
  0
LINE
  5
3EF
330
1E
100
AcDbEntity
  8
0
100
AcDbLine
 10
71.2488
 20
57.13988199999999
 30
0.0
 11
72.5284
 21
57.13988199999999
 31
0.0
  0
LINE
  5
3F0
330
1E
100
AcDbEntity
  8
0
100
AcDbLine
 10
73.3862
 20
57.00658199999999
 30
0.0
 11
74.7766
 21
57.00658199999999
 31
0.0
  0
LINE
  5
3F1
330
1E
100
AcDbEntity
  8
0
100
AcDbLine
 10
72.0492
 20
57.00658199999999
 30
0.0
 11
73.3862
 21
57.00658199999999
 31
0.0
  0
LINE
  5
3F2
330
1E
100
AcDbEntity
  8
0
100
AcDbLine
 10
73.87350000000001
 20
57.13988199999999
 30
0.0
 11
75.2719
 21
57.13988199999999
 31
0.0
  0
LINE
  5
3F3
330
1E
100
AcDbEntity
  8
0
100
AcDbLine
 10
72.5284
 20
57.13988199999999
 30
0.0
 11
73.87350000000001
 21
57.13988199999999
 31
0.0
  0
LINE
  5
3F4
330
1E
100
AcDbEntity
  8
0
100
AcDbLine
 10
71.2488
 20
57.90218199999999
 30
0.0
 11
72.5284
 21
57.90218199999999
 31
0.0
  0
LINE
  5
3F5
330
1E
100
AcDbEntity
  8
0
100
AcDbLine
 10
71.5176
 20
58.399782
 30
0.0
 11
72.7529
 21
58.399782
 31
0.0
  0
LINE
  5
3F6
330
1E
100
AcDbEntity
  8
0
100
AcDbLine
 10
72.7529
 20
58.399782
 30
0.0
 11
74.0517
 21
58.399782
 31
0.0
  0
LINE
  5
3F7
330
1E
100
AcDbEntity
  8
0
100
AcDbLine
 10
72.5284
 20
57.90218199999999
 30
0.0
 11
73.87350000000001
 21
57.90218199999999
 31
0.0
  0
LINE
  5
3F8
330
1E
100
AcDbEntity
  8
0
100
AcDbLine
 10
74.0517
 20
58.399782
 30
0.0
 11
75.40179999999999
 21
58.399782
 31
0.0
  0
LINE
  5
3F9
330
1E
100
AcDbEntity
  8
0
100
AcDbLine
 10
73.87350000000001
 20
57.90218199999999
 30
0.0
 11
75.2719
 21
57.90218199999999
 31
0.0
  0
LINE
  5
3FA
330
1E
100
AcDbEntity
  8
0
100
AcDbLine
 10
70.80029999999999
 20
62.43008199999999
 30
0.0
 11
70.8724
 21
62.03698199999999
 31
0.0
  0
LINE
  5
3FB
330
1E
100
AcDbEntity
  8
0
100
AcDbLine
 10
70.7822
 20
61.647882
 30
0.0
 11
70.8724
 21
62.03698199999999
 31
0.0
  0
LINE
  5
3FC
330
1E
100
AcDbEntity
  8
0
100
AcDbLine
 10
73.78489999999999
 20
78.99928199999999
 30
0.0
 11
75.2407
 21
78.99928199999999
 31
0.0
  0
LINE
  5
3FD
330
1E
100
AcDbEntity
  8
0
100
AcDbLine
 10
72.4257
 20
78.99928199999999
 30
0.0
 11
73.78489999999999
 21
78.99928199999999
 31
0.0
  0
LINE
  5
3FE
330
1E
100
AcDbEntity
  8
0
100
AcDbLine
 10
71.18940000000001
 20
78.99928199999999
 30
0.0
 11
72.4257
 21
78.99928199999999
 31
0.0
  0
LINE
  5
3FF
330
1E
100
AcDbEntity
  8
0
100
AcDbLine
 10
70.0981
 20
78.99928199999999
 30
0.0
 11
71.18940000000001
 21
78.99928199999999
 31
0.0
  0
LINE
  5
415
330
1E
100
AcDbEntity
  8
0
100
AcDbLine
 10
75.2719
 20
57.13988199999999
 30
0.0
 11
76.70860000000001
 21
57.13988199999999
 31
0.0
  0
LINE
  5
416
330
1E
100
AcDbEntity
  8
0
100
AcDbLine
 10
75.40179999999999
 20
58.399782
 30
0.0
 11
76.7881
 21
58.399782
 31
0.0
  0
LINE
  5
417
330
1E
100
AcDbEntity
  8
0
100
AcDbLine
 10
75.2719
 20
57.90218199999999
 30
0.0
 11
76.70860000000001
 21
57.90218199999999
 31
0.0
  0
LINE
  5
418
330
1E
100
AcDbEntity
  8
0
100
AcDbLine
 10
76.70860000000001
 20
57.13988199999999
 30
0.0
 11
78.5006
 21
57.13988199999999
 31
0.0
  0
LINE
  5
41A
330
1E
100
AcDbEntity
  8
0
100
AcDbLine
 10
76.7881
 20
58.399782
 30
0.0
 11
78.47140000000002
 21
58.399782
 31
0.0
  0
LINE
  5
41B
330
1E
100
AcDbEntity
  8
0
100
AcDbLine
 10
76.70860000000001
 20
57.90218199999999
 30
0.0
 11
78.5006
 21
57.90218199999999
 31
0.0
  0
LINE
  5
4A5
330
1E
100
AcDbEntity
  8
0
100
AcDbLine
 10
76.767
 20
78.99928199999999
 30
0.0
 11
78.3345
 21
78.99928199999999
 31
0.0
  0
LINE
  5
4A6
330
1E
100
AcDbEntity
  8
0
100
AcDbLine
 10
75.2407
 20
78.99928199999999
 30
0.0
 11
76.767
 21
78.99928199999999
 31
0.0
  0
LINE
  5
4A7
330
1E
100
AcDbEntity
  8
0
100
AcDbLine
 10
76.20820000000001
 20
57.00658199999999
 30
0.0
 11
79.00300000000001
 21
57.00658199999999
 31
0.0
  0
LINE
  5
4A8
330
1E
100
AcDbEntity
  8
0
100
AcDbLine
 10
74.7766
 20
57.00658199999999
 30
0.0
 11
76.20820000000001
 21
57.00658199999999
 31
0.0
  0
LINE
  5
4A9
330
1E
100
AcDbEntity
  8
0
100
AcDbLine
 10
71.2488
 20
49.244382
 30
0.0
 11
72.5284
 21
49.244382
 31
0.0
  0
LINE
  5
4AA
330
1E
100
AcDbEntity
  8
0
100
AcDbLine
 10
70.0497
 20
49.244382
 30
0.0
 11
71.2488
 21
49.244382
 31
0.0
  0
LINE
  5
4AB
330
1E
100
AcDbEntity
  8
0
100
AcDbLine
 10
63.88889999999999
 20
38.039182
 30
0.0
 11
66.89909738601949
 21
38.03123374502829
 31
0.0
  0
LINE
  5
4AC
330
1E
100
AcDbEntity
  8
0
100
AcDbLine
 10
63.88889999999999
 20
38.039182
 30
0.0
 11
64.5680507938852
 21
38.0373887409602
 31
0.0
  0
LINE
  5
4AD
330
1E
100
AcDbEntity
  8
0
100
AcDbLine
 10
62.58469999999999
 20
38.021982
 30
0.0
 11
63.88889999999999
 21
38.039182
 31
0.0
  0
LINE
  5
4AE
330
1E
100
AcDbEntity
  8
0
100
AcDbLine
 10
60.1503
 20
38.004782
 30
0.0
 11
60.67199999999999
 21
38.004782
 31
0.0
  0
LINE
  5
4AF
330
1E
100
AcDbEntity
  8
0
100
AcDbLine
 10
30.4156
 20
37.505582
 30
0.0
 11
60.1503
 21
38.004782
 31
0.0
  0
LINE
  5
4B1
330
1E
100
AcDbEntity
  8
0
100
AcDbLine
 10
12.5665
 20
37.02358199999999
 30
0.0
 11
23.6364608328356
 21
37.32251702313429
 31
0.0
  0
LINE
  5
4B2
330
1E
100
AcDbEntity
  8
0
100
AcDbLine
 10
12.5665
 20
37.02358199999999
 30
0.0
 11
30.4156
 21
37.505582
 31
0.0
  0
LINE
  5
4B3
330
1E
100
AcDbEntity
  8
0
100
AcDbLine
 10
12.0
 20
36.999282
 30
0.0
 11
12.5665
 21
37.02358199999999
 31
0.0
  0
LINE
  5
4B4
330
1E
100
AcDbEntity
  8
0
100
AcDbLine
 10
11.0
 20
36.499282
 30
0.0
 11
12.0
 21
36.999282
 31
0.0
  0
LINE
  5
4B5
330
1E
100
AcDbEntity
  8
0
100
AcDbLine
 10
10.0
 20
34.999282
 30
0.0
 11
11.0
 21
36.499282
 31
0.0
  0
LINE
  5
4B6
330
1E
100
AcDbEntity
  8
0
100
AcDbLine
 10
9.5
 20
29.999282
 30
0.0
 11
10.0
 21
34.999282
 31
0.0
  0
LINE
  5
4B7
330
1E
100
AcDbEntity
  8
0
100
AcDbLine
 10
8.0
 20
22.999282
 30
0.0
 11
9.5
 21
29.999282
 31
0.0
  0
LINE
  5
4B8
330
1E
100
AcDbEntity
  8
0
100
AcDbLine
 10
5.0
 20
15.999282
 30
0.0
 11
8.0
 21
22.999282
 31
0.0
  0
LINE
  5
4B9
330
1E
100
AcDbEntity
  8
0
100
AcDbLine
 10
3.419399999999999
 20
8.499282
 30
0.0
 11
6.7209
 21
8.499282
 31
0.0
  0
LINE
  5
4BA
330
1E
100
AcDbEntity
  8
0
100
AcDbLine
 10
5.070149999999999
 20
7.99928199999999
 30
0.0
 11
8.382430000000001
 21
7.99928199999999
 31
0.0
  0
LINE
  5
4BB
330
1E
100
AcDbEntity
  8
0
100
AcDbLine
 10
2.358209999999999
 20
7.99928199999999
 30
0.0
 11
3.18358
 21
7.99928199999999
 31
0.0
  0
LINE
  5
605
330
1E
100
AcDbEntity
  8
0
100
AcDbLine
 10
92.5683
 20
47.858182
 30
0.0
 11
92.5683
 21
38.496882
 31
0.0
  0
LINE
  5
606
330
1E
100
AcDbEntity
  8
0
100
AcDbLine
 10
92.5683
 20
38.496882
 30
0.0
 11
92.5683
 21
47.858182
 31
0.0
  0
LINE
  5
608
330
1E
100
AcDbEntity
  8
0
100
AcDbLine
 10
86.22740000000002
 20
64.358582
 30
0.0
 11
86.22670000000001
 21
62.98828199999999
 31
0.0
  0
LINE
  5
609
330
1E
100
AcDbEntity
  8
0
100
AcDbLine
 10
92.66900000000001
 20
49.244382
 30
0.0
 11
92.66900000000001
 21
57.00658199999999
 31
0.0
  0
LINE
  5
60A
330
1E
100
AcDbEntity
  8
0
100
AcDbLine
 10
92.66360000000002
 20
57.00658199999999
 30
0.0
 11
92.66360000000002
 21
49.244382
 31
0.0
  0
LINE
  5
60B
330
1E
100
AcDbEntity
  8
0
100
AcDbLine
 10
92.66360000000002
 20
49.244382
 30
0.0
 11
92.66360000000002
 21
57.00658199999999
 31
0.0
  0
LINE
  5
60C
330
1E
100
AcDbEntity
  8
0
100
AcDbLine
 10
92.66900000000001
 20
57.00658199999999
 30
0.0
 11
92.66900000000001
 21
49.244382
 31
0.0
  0
LINE
  5
60D
330
1E
100
AcDbEntity
  8
0
100
AcDbLine
 10
90.06550000000002
 20
49.244382
 30
0.0
 11
89.17750000000001
 21
49.244382
 31
0.0
  0
LINE
  5
60E
330
1E
100
AcDbEntity
  8
0
100
AcDbLine
 10
90.39170000000002
 20
49.244382
 30
0.0
 11
89.6235
 21
49.244382
 31
0.0
  0
LINE
  5
60F
330
1E
100
AcDbEntity
  8
0
100
AcDbLine
 10
92.16230000000001
 20
48.547782
 30
0.0
 11
92.16230000000001
 21
49.244382
 31
0.0
  0
LINE
  5
610
330
1E
100
AcDbEntity
  8
0
100
AcDbLine
 10
92.16230000000001
 20
49.244382
 30
0.0
 11
92.16230000000001
 21
48.547782
 31
0.0
  0
LINE
  5
611
330
1E
100
AcDbEntity
  8
0
100
AcDbLine
 10
92.5683
 20
47.858182
 30
0.0
 11
92.3346
 21
48.259482
 31
0.0
  0
LINE
  5
613
330
1E
100
AcDbEntity
  8
0
100
AcDbLine
 10
92.3346
 20
48.259482
 30
0.0
 11
92.16230000000001
 21
48.547782
 31
0.0
  0
LINE
  5
616
330
1E
100
AcDbEntity
  8
0
100
AcDbLine
 10
91.8898
 20
49.244382
 30
0.0
 11
91.53030000000001
 21
49.244382
 31
0.0
  0
LINE
  5
617
330
1E
100
AcDbEntity
  8
0
100
AcDbLine
 10
91.98340000000001
 20
49.244382
 30
0.0
 11
91.475
 21
49.244382
 31
0.0
  0
LINE
  5
618
330
1E
100
AcDbEntity
  8
0
100
AcDbLine
 10
92.10220000000001
 20
49.244382
 30
0.0
 11
91.8898
 21
49.244382
 31
0.0
  0
LINE
  5
619
330
1E
100
AcDbEntity
  8
0
100
AcDbLine
 10
92.16230000000001
 20
49.244382
 30
0.0
 11
92.10220000000001
 21
49.244382
 31
0.0
  0
LINE
  5
61A
330
1E
100
AcDbEntity
  8
0
100
AcDbLine
 10
92.35490000000002
 20
49.244382
 30
0.0
 11
92.16230000000001
 21
49.244382
 31
0.0
  0
LINE
  5
61B
330
1E
100
AcDbEntity
  8
0
100
AcDbLine
 10
92.35490000000002
 20
49.244382
 30
0.0
 11
91.98340000000001
 21
49.244382
 31
0.0
  0
LINE
  5
61C
330
1E
100
AcDbEntity
  8
0
100
AcDbLine
 10
92.66900000000001
 20
49.244382
 30
0.0
 11
92.58340000000002
 21
49.244382
 31
0.0
  0
LINE
  5
61D
330
1E
100
AcDbEntity
  8
0
100
AcDbLine
 10
92.58340000000002
 20
49.244382
 30
0.0
 11
92.35490000000002
 21
49.244382
 31
0.0
  0
LINE
  5
61E
330
1E
100
AcDbEntity
  8
0
100
AcDbLine
 10
91.475
 20
49.244382
 30
0.0
 11
90.8336
 21
49.244382
 31
0.0
  0
LINE
  5
61F
330
1E
100
AcDbEntity
  8
0
100
AcDbLine
 10
91.03000000000001
 20
49.244382
 30
0.0
 11
90.39170000000002
 21
49.244382
 31
0.0
  0
LINE
  5
620
330
1E
100
AcDbEntity
  8
0
100
AcDbLine
 10
90.8336
 20
49.244382
 30
0.0
 11
90.06550000000002
 21
49.244382
 31
0.0
  0
LINE
  5
621
330
1E
100
AcDbEntity
  8
0
100
AcDbLine
 10
91.53030000000001
 20
49.244382
 30
0.0
 11
91.03000000000001
 21
49.244382
 31
0.0
  0
LINE
  5
622
330
1E
100
AcDbEntity
  8
0
100
AcDbLine
 10
84.1406
 20
49.244382
 30
0.0
 11
82.7955
 21
49.244382
 31
0.0
  0
LINE
  5
623
330
1E
100
AcDbEntity
  8
0
100
AcDbLine
 10
84.61980000000002
 20
49.244382
 30
0.0
 11
83.28280000000001
 21
49.244382
 31
0.0
  0
LINE
  5
624
330
1E
100
AcDbEntity
  8
0
100
AcDbLine
 10
87.0794
 20
49.244382
 30
0.0
 11
85.8894
 21
49.244382
 31
0.0
  0
LINE
  5
625
330
1E
100
AcDbEntity
  8
0
100
AcDbLine
 10
87.72770000000001
 20
49.244382
 30
0.0
 11
86.61930000000001
 21
49.244382
 31
0.0
  0
LINE
  5
626
330
1E
100
AcDbEntity
  8
0
100
AcDbLine
 10
88.73250000000002
 20
49.244382
 30
0.0
 11
87.72770000000001
 21
49.244382
 31
0.0
  0
LINE
  5
627
330
1E
100
AcDbEntity
  8
0
100
AcDbLine
 10
89.17750000000001
 20
49.244382
 30
0.0
 11
88.1788
 21
49.244382
 31
0.0
  0
LINE
  5
628
330
1E
100
AcDbEntity
  8
0
100
AcDbLine
 10
89.6235
 20
49.244382
 30
0.0
 11
88.73250000000002
 21
49.244382
 31
0.0
  0
LINE
  5
629
330
1E
100
AcDbEntity
  8
0
100
AcDbLine
 10
88.1788
 20
49.244382
 30
0.0
 11
87.0794
 21
49.244382
 31
0.0
  0
LINE
  5
62A
330
1E
100
AcDbEntity
  8
0
100
AcDbLine
 10
85.4202
 20
49.244382
 30
0.0
 11
84.1406
 21
49.244382
 31
0.0
  0
LINE
  5
62B
330
1E
100
AcDbEntity
  8
0
100
AcDbLine
 10
85.8894
 20
49.244382
 30
0.0
 11
84.61980000000002
 21
49.244382
 31
0.0
  0
LINE
  5
62C
330
1E
100
AcDbEntity
  8
0
100
AcDbLine
 10
86.61930000000001
 20
49.244382
 30
0.0
 11
85.4202
 21
49.244382
 31
0.0
  0
LINE
  5
62D
330
1E
100
AcDbEntity
  8
0
100
AcDbLine
 10
81.89240000000001
 20
49.244382
 30
0.0
 11
80.46080000000001
 21
49.244382
 31
0.0
  0
LINE
  5
62E
330
1E
100
AcDbEntity
  8
0
100
AcDbLine
 10
81.3971
 20
49.244382
 30
0.0
 11
79.9604
 21
49.244382
 31
0.0
  0
LINE
  5
62F
330
1E
100
AcDbEntity
  8
0
100
AcDbLine
 10
82.7955
 20
49.244382
 30
0.0
 11
81.3971
 21
49.244382
 31
0.0
  0
LINE
  5
630
330
1E
100
AcDbEntity
  8
0
100
AcDbLine
 10
83.28280000000001
 20
49.244382
 30
0.0
 11
81.89240000000001
 21
49.244382
 31
0.0
  0
LINE
  5
631
330
1E
100
AcDbEntity
  8
0
100
AcDbLine
 10
80.46080000000001
 20
49.244382
 30
0.0
 11
79.00300000000001
 21
49.244382
 31
0.0
  0
LINE
  5
632
330
1E
100
AcDbEntity
  8
0
100
AcDbLine
 10
79.9604
 20
49.244382
 30
0.0
 11
78.5006
 21
49.244382
 31
0.0
  0
LINE
  5
633
330
1E
100
AcDbEntity
  8
0
100
AcDbLine
 10
90.56580000000002
 20
58.399782
 30
0.0
 11
89.9497
 21
58.399782
 31
0.0
  0
LINE
  5
634
330
1E
100
AcDbEntity
  8
0
100
AcDbLine
 10
90.39170000000002
 20
57.90218199999999
 30
0.0
 11
89.6235
 21
57.90218199999999
 31
0.0
  0
LINE
  5
635
330
1E
100
AcDbEntity
  8
0
100
AcDbLine
 10
90.39170000000002
 20
57.13988199999999
 30
0.0
 11
89.6235
 21
57.13988199999999
 31
0.0
  0
LINE
  5
636
330
1E
100
AcDbEntity
  8
0
100
AcDbLine
 10
90.06550000000002
 20
57.00658199999999
 30
0.0
 11
89.17750000000001
 21
57.00658199999999
 31
0.0
  0
LINE
  5
637
330
1E
100
AcDbEntity
  8
0
100
AcDbLine
 10
92.16230000000001
 20
57.90218199999999
 30
0.0
 11
91.65910000000002
 21
58.399782
 31
0.0
  0
LINE
  5
638
330
1E
100
AcDbEntity
  8
0
100
AcDbLine
 10
91.8898
 20
57.90218199999999
 30
0.0
 11
91.53030000000001
 21
57.90218199999999
 31
0.0
  0
LINE
  5
639
330
1E
100
AcDbEntity
  8
0
100
AcDbLine
 10
91.88870000000001
 20
57.13988199999999
 30
0.0
 11
91.53030000000001
 21
57.13988199999999
 31
0.0
  0
LINE
  5
63A
330
1E
100
AcDbEntity
  8
0
100
AcDbLine
 10
91.98340000000001
 20
57.00658199999999
 30
0.0
 11
91.475
 21
57.00658199999999
 31
0.0
  0
LINE
  5
63B
330
1E
100
AcDbEntity
  8
0
100
AcDbLine
 10
92.10220000000001
 20
57.90218199999999
 30
0.0
 11
91.8898
 21
57.90218199999999
 31
0.0
  0
LINE
  5
63C
330
1E
100
AcDbEntity
  8
0
100
AcDbLine
 10
92.10120000000001
 20
57.13988199999999
 30
0.0
 11
91.88870000000001
 21
57.13988199999999
 31
0.0
  0
LINE
  5
63D
330
1E
100
AcDbEntity
  8
0
100
AcDbLine
 10
92.16230000000001
 20
57.90218199999999
 30
0.0
 11
92.16130000000001
 21
57.13988199999999
 31
0.0
  0
LINE
  5
63E
330
1E
100
AcDbEntity
  8
0
100
AcDbLine
 10
92.16230000000001
 20
57.90218199999999
 30
0.0
 11
92.10220000000001
 21
57.90218199999999
 31
0.0
  0
LINE
  5
63F
330
1E
100
AcDbEntity
  8
0
100
AcDbLine
 10
92.16130000000001
 20
57.13988199999999
 30
0.0
 11
92.10120000000001
 21
57.13988199999999
 31
0.0
  0
LINE
  5
640
330
1E
100
AcDbEntity
  8
0
100
AcDbLine
 10
92.3539
 20
57.00658199999999
 30
0.0
 11
91.98340000000001
 21
57.00658199999999
 31
0.0
  0
LINE
  5
641
330
1E
100
AcDbEntity
  8
0
100
AcDbLine
 10
92.37520000000001
 20
57.08438199999999
 30
0.0
 11
92.16130000000001
 21
57.13988199999999
 31
0.0
  0
LINE
  5
642
330
1E
100
AcDbEntity
  8
0
100
AcDbLine
 10
92.37520000000001
 20
57.08438199999999
 30
0.0
 11
92.10120000000001
 21
57.13988199999999
 31
0.0
  0
LINE
  5
643
330
1E
100
AcDbEntity
  8
0
100
AcDbLine
 10
92.66360000000002
 20
57.00658199999999
 30
0.0
 11
92.37520000000001
 21
57.08438199999999
 31
0.0
  0
LINE
  5
644
330
1E
100
AcDbEntity
  8
0
100
AcDbLine
 10
92.58340000000002
 20
57.00658199999999
 30
0.0
 11
92.3539
 21
57.00658199999999
 31
0.0
  0
LINE
  5
645
330
1E
100
AcDbEntity
  8
0
100
AcDbLine
 10
92.66900000000001
 20
57.00658199999999
 30
0.0
 11
92.37520000000001
 21
57.08438199999999
 31
0.0
  0
LINE
  5
646
330
1E
100
AcDbEntity
  8
0
100
AcDbLine
 10
92.66900000000001
 20
57.00658199999999
 30
0.0
 11
92.58340000000002
 21
57.00658199999999
 31
0.0
  0
LINE
  5
647
330
1E
100
AcDbEntity
  8
0
100
AcDbLine
 10
91.03000000000001
 20
57.90218199999999
 30
0.0
 11
90.39170000000002
 21
57.90218199999999
 31
0.0
  0
LINE
  5
648
330
1E
100
AcDbEntity
  8
0
100
AcDbLine
 10
91.53030000000001
 20
57.90218199999999
 30
0.0
 11
91.03000000000001
 21
57.90218199999999
 31
0.0
  0
LINE
  5
649
330
1E
100
AcDbEntity
  8
0
100
AcDbLine
 10
91.03000000000001
 20
57.13988199999999
 30
0.0
 11
90.39170000000002
 21
57.13988199999999
 31
0.0
  0
LINE
  5
64A
330
1E
100
AcDbEntity
  8
0
100
AcDbLine
 10
90.8336
 20
57.00658199999999
 30
0.0
 11
90.06550000000002
 21
57.00658199999999
 31
0.0
  0
LINE
  5
64B
330
1E
100
AcDbEntity
  8
0
100
AcDbLine
 10
91.475
 20
57.00658199999999
 30
0.0
 11
90.8336
 21
57.00658199999999
 31
0.0
  0
LINE
  5
64C
330
1E
100
AcDbEntity
  8
0
100
AcDbLine
 10
91.53030000000001
 20
57.13988199999999
 30
0.0
 11
91.03000000000001
 21
57.13988199999999
 31
0.0
  0
LINE
  5
64D
330
1E
100
AcDbEntity
  8
0
100
AcDbLine
 10
91.6008
 20
58.399782
 30
0.0
 11
91.39540000000001
 21
58.399782
 31
0.0
  0
LINE
  5
64E
330
1E
100
AcDbEntity
  8
0
100
AcDbLine
 10
91.65910000000002
 20
58.399782
 30
0.0
 11
91.6008
 21
58.399782
 31
0.0
  0
LINE
  5
64F
330
1E
100
AcDbEntity
  8
0
100
AcDbLine
 10
91.04910000000002
 20
58.399782
 30
0.0
 11
90.56580000000002
 21
58.399782
 31
0.0
  0
LINE
  5
650
330
1E
100
AcDbEntity
  8
0
100
AcDbLine
 10
91.39540000000001
 20
58.399782
 30
0.0
 11
91.04910000000002
 21
58.399782
 31
0.0
  0
LINE
  5
651
330
1E
100
AcDbEntity
  8
0
100
AcDbLine
 10
84.1406
 20
57.90218199999999
 30
0.0
 11
82.7955
 21
57.90218199999999
 31
0.0
  0
LINE
  5
652
330
1E
100
AcDbEntity
  8
0
100
AcDbLine
 10
84.1406
 20
57.13988199999999
 30
0.0
 11
82.7955
 21
57.13988199999999
 31
0.0
  0
LINE
  5
653
330
1E
100
AcDbEntity
  8
0
100
AcDbLine
 10
84.61980000000002
 20
57.00658199999999
 30
0.0
 11
83.28280000000001
 21
57.00658199999999
 31
0.0
  0
LINE
  5
654
330
1E
100
AcDbEntity
  8
0
100
AcDbLine
 10
87.0794
 20
57.00658199999999
 30
0.0
 11
85.8894
 21
57.00658199999999
 31
0.0
  0
LINE
  5
655
330
1E
100
AcDbEntity
  8
0
100
AcDbLine
 10
87.72770000000001
 20
57.90218199999999
 30
0.0
 11
86.61930000000001
 21
57.90218199999999
 31
0.0
  0
LINE
  5
656
330
1E
100
AcDbEntity
  8
0
100
AcDbLine
 10
87.72770000000001
 20
57.13988199999999
 30
0.0
 11
86.61930000000001
 21
57.13988199999999
 31
0.0
  0
LINE
  5
657
330
1E
100
AcDbEntity
  8
0
100
AcDbLine
 10
88.73250000000002
 20
57.90218199999999
 30
0.0
 11
87.72770000000001
 21
57.90218199999999
 31
0.0
  0
LINE
  5
658
330
1E
100
AcDbEntity
  8
0
100
AcDbLine
 10
88.73250000000002
 20
57.13988199999999
 30
0.0
 11
87.72770000000001
 21
57.13988199999999
 31
0.0
  0
LINE
  5
659
330
1E
100
AcDbEntity
  8
0
100
AcDbLine
 10
89.17750000000001
 20
57.00658199999999
 30
0.0
 11
88.1788
 21
57.00658199999999
 31
0.0
  0
LINE
  5
65A
330
1E
100
AcDbEntity
  8
0
100
AcDbLine
 10
89.6235
 20
57.90218199999999
 30
0.0
 11
88.73250000000002
 21
57.90218199999999
 31
0.0
  0
LINE
  5
65B
330
1E
100
AcDbEntity
  8
0
100
AcDbLine
 10
89.6235
 20
57.13988199999999
 30
0.0
 11
88.73250000000002
 21
57.13988199999999
 31
0.0
  0
LINE
  5
65C
330
1E
100
AcDbEntity
  8
0
100
AcDbLine
 10
88.1788
 20
57.00658199999999
 30
0.0
 11
87.0794
 21
57.00658199999999
 31
0.0
  0
LINE
  5
65D
330
1E
100
AcDbEntity
  8
0
100
AcDbLine
 10
85.4202
 20
57.90218199999999
 30
0.0
 11
84.1406
 21
57.90218199999999
 31
0.0
  0
LINE
  5
65E
330
1E
100
AcDbEntity
  8
0
100
AcDbLine
 10
85.4202
 20
57.13988199999999
 30
0.0
 11
84.1406
 21
57.13988199999999
 31
0.0
  0
LINE
  5
65F
330
1E
100
AcDbEntity
  8
0
100
AcDbLine
 10
85.8894
 20
57.00658199999999
 30
0.0
 11
84.61980000000002
 21
57.00658199999999
 31
0.0
  0
LINE
  5
660
330
1E
100
AcDbEntity
  8
0
100
AcDbLine
 10
86.61930000000001
 20
57.90218199999999
 30
0.0
 11
85.4202
 21
57.90218199999999
 31
0.0
  0
LINE
  5
661
330
1E
100
AcDbEntity
  8
0
100
AcDbLine
 10
86.61930000000001
 20
57.13988199999999
 30
0.0
 11
85.4202
 21
57.13988199999999
 31
0.0
  0
LINE
  5
662
330
1E
100
AcDbEntity
  8
0
100
AcDbLine
 10
81.89240000000001
 20
57.00658199999999
 30
0.0
 11
80.46080000000001
 21
57.00658199999999
 31
0.0
  0
LINE
  5
663
330
1E
100
AcDbEntity
  8
0
100
AcDbLine
 10
81.3971
 20
57.90218199999999
 30
0.0
 11
79.9604
 21
57.90218199999999
 31
0.0
  0
LINE
  5
664
330
1E
100
AcDbEntity
  8
0
100
AcDbLine
 10
81.3971
 20
57.13988199999999
 30
0.0
 11
79.9604
 21
57.13988199999999
 31
0.0
  0
LINE
  5
665
330
1E
100
AcDbEntity
  8
0
100
AcDbLine
 10
82.7955
 20
57.90218199999999
 30
0.0
 11
81.3971
 21
57.90218199999999
 31
0.0
  0
LINE
  5
666
330
1E
100
AcDbEntity
  8
0
100
AcDbLine
 10
82.7955
 20
57.13988199999999
 30
0.0
 11
81.3971
 21
57.13988199999999
 31
0.0
  0
LINE
  5
667
330
1E
100
AcDbEntity
  8
0
100
AcDbLine
 10
83.28280000000001
 20
57.00658199999999
 30
0.0
 11
81.89240000000001
 21
57.00658199999999
 31
0.0
  0
LINE
  5
668
330
1E
100
AcDbEntity
  8
0
100
AcDbLine
 10
80.46080000000001
 20
57.00658199999999
 30
0.0
 11
79.00300000000001
 21
57.00658199999999
 31
0.0
  0
LINE
  5
669
330
1E
100
AcDbEntity
  8
0
100
AcDbLine
 10
79.9604
 20
57.90218199999999
 30
0.0
 11
78.5006
 21
57.90218199999999
 31
0.0
  0
LINE
  5
66A
330
1E
100
AcDbEntity
  8
0
100
AcDbLine
 10
79.9604
 20
57.13988199999999
 30
0.0
 11
78.5006
 21
57.13988199999999
 31
0.0
  0
LINE
  5
66B
330
1E
100
AcDbEntity
  8
0
100
AcDbLine
 10
83.91610000000001
 20
58.399782
 30
0.0
 11
82.61730000000001
 21
58.399782
 31
0.0
  0
LINE
  5
66C
330
1E
100
AcDbEntity
  8
0
100
AcDbLine
 10
86.56870000000001
 20
60.918782
 30
0.0
 11
86.1368
 21
61.32448199999999
 31
0.0
  0
LINE
  5
66D
330
1E
100
AcDbEntity
  8
0
100
AcDbLine
 10
87.65350000000001
 20
59.69748199999999
 30
0.0
 11
86.56870000000001
 21
60.918782
 31
0.0
  0
LINE
  5
66E
330
1E
100
AcDbEntity
  8
0
100
AcDbLine
 10
87.37840000000002
 20
58.399782
 30
0.0
 11
86.30920000000001
 21
58.399782
 31
0.0
  0
LINE
  5
66F
330
1E
100
AcDbEntity
  8
0
100
AcDbLine
 10
88.53221209002741
 20
58.399782
 30
0.0
 11
87.65350000000001
 21
59.69748199999999
 31
0.0
  0
LINE
  5
670
330
1E
100
AcDbEntity
  8
0
100
AcDbLine
 10
89.2087
 20
58.399782
 30
0.0
 11
88.34790000000001
 21
58.399782
 31
0.0
  0
LINE
  5
671
330
1E
100
AcDbEntity
  8
0
100
AcDbLine
 10
89.9497
 20
58.399782
 30
0.0
 11
89.2087
 21
58.399782
 31
0.0
  0
LINE
  5
672
330
1E
100
AcDbEntity
  8
0
100
AcDbLine
 10
88.34790000000001
 20
58.399782
 30
0.0
 11
87.37840000000002
 21
58.399782
 31
0.0
  0
LINE
  5
673
330
1E
100
AcDbEntity
  8
0
100
AcDbLine
 10
86.30920000000001
 20
58.399782
 30
0.0
 11
85.1514
 21
58.399782
 31
0.0
  0
LINE
  5
674
330
1E
100
AcDbEntity
  8
0
100
AcDbLine
 10
85.1514
 20
58.399782
 30
0.0
 11
83.91610000000001
 21
58.399782
 31
0.0
  0
LINE
  5
675
330
1E
100
AcDbEntity
  8
0
100
AcDbLine
 10
86.1048
 20
62.76448199999999
 30
0.0
 11
86.01200000000002
 21
62.62988199999999
 31
0.0
  0
LINE
  5
676
330
1E
100
AcDbEntity
  8
0
100
AcDbLine
 10
85.88680000000001
 20
61.647882
 30
0.0
 11
85.79660000000002
 21
62.03698199999999
 31
0.0
  0
LINE
  5
677
330
1E
100
AcDbEntity
  8
0
100
AcDbLine
 10
85.86870000000002
 20
62.43008199999999
 30
0.0
 11
85.79660000000002
 21
62.03698199999999
 31
0.0
  0
LINE
  5
678
330
1E
100
AcDbEntity
  8
0
100
AcDbLine
 10
86.01200000000002
 20
62.62988199999999
 30
0.0
 11
85.86870000000002
 21
62.43008199999999
 31
0.0
  0
LINE
  5
679
330
1E
100
AcDbEntity
  8
0
100
AcDbLine
 10
86.1368
 20
61.32448199999999
 30
0.0
 11
85.88680000000001
 21
61.647882
 31
0.0
  0
LINE
  5
67A
330
1E
100
AcDbEntity
  8
0
100
AcDbLine
 10
86.2268
 20
62.888482
 30
0.0
 11
86.18590000000002
 21
62.841382
 31
0.0
  0
LINE
  5
67B
330
1E
100
AcDbEntity
  8
0
100
AcDbLine
 10
86.2268
 20
62.888482
 30
0.0
 11
86.22670000000001
 21
62.98828199999999
 31
0.0
  0
LINE
  5
67C
330
1E
100
AcDbEntity
  8
0
100
AcDbLine
 10
86.18590000000002
 20
62.841382
 30
0.0
 11
86.12177268052752
 21
62.78897614593589
 31
0.0
  0
LINE
  5
67D
330
1E
100
AcDbEntity
  8
0
100
AcDbLine
 10
86.18590000000002
 20
62.841382
 30
0.0
 11
86.1048
 21
62.76448199999999
 31
0.0
  0
LINE
  5
67E
330
1E
100
AcDbEntity
  8
0
100
AcDbLine
 10
81.26720000000002
 20
58.399782
 30
0.0
 11
79.88090000000001
 21
58.399782
 31
0.0
  0
LINE
  5
67F
330
1E
100
AcDbEntity
  8
0
100
AcDbLine
 10
82.61730000000001
 20
58.399782
 30
0.0
 11
81.26720000000002
 21
58.399782
 31
0.0
  0
LINE
  5
680
330
1E
100
AcDbEntity
  8
0
100
AcDbLine
 10
79.88090000000001
 20
58.399782
 30
0.0
 11
78.47140000000002
 21
58.399782
 31
0.0
  0
LINE
  5
681
330
1E
100
AcDbEntity
  8
0
100
AcDbLine
 10
89.24600000000001
 20
78.99928199999999
 30
0.0
 11
89.24600000000001
 21
68.55028199999999
 31
0.0
  0
LINE
  5
682
330
1E
100
AcDbEntity
  8
0
100
AcDbLine
 10
86.22710000000001
 20
67.75018199999999
 30
0.0
 11
86.22700000000001
 21
66.84468199999999
 31
0.0
  0
LINE
  5
683
330
1E
100
AcDbEntity
  8
0
100
AcDbLine
 10
86.22740000000002
 20
64.358582
 30
0.0
 11
86.22700000000001
 21
65.79498199999999
 31
0.0
  0
LINE
  5
684
330
1E
100
AcDbEntity
  8
0
100
AcDbLine
 10
86.22710000000001
 20
66.69068199999999
 30
0.0
 11
86.22700000000001
 21
66.84468199999999
 31
0.0
  0
LINE
  5
685
330
1E
100
AcDbEntity
  8
0
100
AcDbLine
 10
86.22710000000001
 20
66.69068199999999
 30
0.0
 11
86.22700000000001
 21
65.79498199999999
 31
0.0
  0
LINE
  5
686
330
1E
100
AcDbEntity
  8
0
100
AcDbLine
 10
89.24600000000001
 20
68.55028199999999
 30
0.0
 11
86.22710000000001
 21
67.75018199999999
 31
0.0
  0
LINE
  5
687
330
1E
100
AcDbEntity
  8
0
100
AcDbLine
 10
84.24330000000001
 20
78.99928199999999
 30
0.0
 11
82.88410000000002
 21
78.99928199999999
 31
0.0
  0
LINE
  5
688
330
1E
100
AcDbEntity
  8
0
100
AcDbLine
 10
87.49620000000001
 20
78.99928199999999
 30
0.0
 11
86.57090000000001
 21
78.99928199999999
 31
0.0
  0
LINE
  5
689
330
1E
100
AcDbEntity
  8
0
100
AcDbLine
 10
88.78280000000001
 20
78.99928199999999
 30
0.0
 11
88.23820000000001
 21
78.99928199999999
 31
0.0
  0
LINE
  5
68A
330
1E
100
AcDbEntity
  8
0
100
AcDbLine
 10
89.12110000000001
 20
78.99928199999999
 30
0.0
 11
88.78280000000001
 21
78.99928199999999
 31
0.0
  0
LINE
  5
68B
330
1E
100
AcDbEntity
  8
0
100
AcDbLine
 10
89.24600000000001
 20
78.99928199999999
 30
0.0
 11
89.12110000000001
 21
78.99928199999999
 31
0.0
  0
LINE
  5
68C
330
1E
100
AcDbEntity
  8
0
100
AcDbLine
 10
88.23820000000001
 20
78.99928199999999
 30
0.0
 11
87.49620000000001
 21
78.99928199999999
 31
0.0
  0
LINE
  5
68D
330
1E
100
AcDbEntity
  8
0
100
AcDbLine
 10
85.47960000000001
 20
78.99928199999999
 30
0.0
 11
84.24330000000001
 21
78.99928199999999
 31
0.0
  0
LINE
  5
68E
330
1E
100
AcDbEntity
  8
0
100
AcDbLine
 10
86.57090000000001
 20
78.99928199999999
 30
0.0
 11
85.47960000000001
 21
78.99928199999999
 31
0.0
  0
LINE
  5
68F
330
1E
100
AcDbEntity
  8
0
100
AcDbLine
 10
81.42830000000001
 20
78.99928199999999
 30
0.0
 11
79.90200000000001
 21
78.99928199999999
 31
0.0
  0
LINE
  5
690
330
1E
100
AcDbEntity
  8
0
100
AcDbLine
 10
82.88410000000002
 20
78.99928199999999
 30
0.0
 11
81.42830000000001
 21
78.99928199999999
 31
0.0
  0
LINE
  5
691
330
1E
100
AcDbEntity
  8
0
100
AcDbLine
 10
79.90200000000001
 20
78.99928199999999
 30
0.0
 11
78.3345
 21
78.99928199999999
 31
0.0
  0
LINE
  5
692
330
1E
100
AcDbEntity
  8
0
100
AcDbLine
 10
90.74500000000002
 20
38.496882
 30
0.0
 11
89.98190000000001
 21
38.496882
 31
0.0
  0
LINE
  5
693
330
1E
100
AcDbEntity
  8
0
100
AcDbLine
 10
91.88770000000001
 20
38.496882
 30
0.0
 11
91.38230000000001
 21
38.496882
 31
0.0
  0
LINE
  5
695
330
1E
100
AcDbEntity
  8
0
100
AcDbLine
 10
92.5683
 20
38.496882
 30
0.0
 11
92.27470000000002
 21
38.206082
 31
0.0
  0
LINE
  5
696
330
1E
100
AcDbEntity
  8
0
100
AcDbLine
 10
92.5683
 20
38.496882
 30
0.0
 11
92.48380000000002
 21
38.496882
 31
0.0
  0
LINE
  5
698
330
1E
100
AcDbEntity
  8
0
100
AcDbLine
 10
92.48380000000002
 20
38.496882
 30
0.0
 11
92.25620000000001
 21
38.496882
 31
0.0
  0
LINE
  5
699
330
1E
100
AcDbEntity
  8
0
100
AcDbLine
 10
92.25620000000001
 20
38.496882
 30
0.0
 11
91.88770000000001
 21
38.496882
 31
0.0
  0
LINE
  5
69B
330
1E
100
AcDbEntity
  8
0
100
AcDbLine
 10
92.27470000000002
 20
38.206082
 30
0.0
 11
92.1009492061148
 21
38.0373887409602
 31
0.0
  0
LINE
  5
69C
330
1E
100
AcDbEntity
  8
0
100
AcDbLine
 10
91.38230000000001
 20
38.496882
 30
0.0
 11
90.74500000000002
 21
38.496882
 31
0.0
  0
LINE
  5
69D
330
1E
100
AcDbEntity
  8
0
100
AcDbLine
 10
84.5725
 20
38.496882
 30
0.0
 11
83.24560000000001
 21
38.496882
 31
0.0
  0
LINE
  5
69E
330
1E
100
AcDbEntity
  8
0
100
AcDbLine
 10
87.01590000000001
 20
38.496882
 30
0.0
 11
85.83400000000002
 21
38.496882
 31
0.0
  0
LINE
  5
69F
330
1E
100
AcDbEntity
  8
0
100
AcDbLine
 10
89.10100000000001
 20
38.496882
 30
0.0
 11
88.10830000000001
 21
38.496882
 31
0.0
  0
LINE
  5
6A0
330
1E
100
AcDbEntity
  8
0
100
AcDbLine
 10
89.98190000000001
 20
38.496882
 30
0.0
 11
89.10100000000001
 21
38.496882
 31
0.0
  0
LINE
  5
6A1
330
1E
100
AcDbEntity
  8
0
100
AcDbLine
 10
88.10830000000001
 20
38.496882
 30
0.0
 11
87.01590000000001
 21
38.496882
 31
0.0
  0
LINE
  5
6A2
330
1E
100
AcDbEntity
  8
0
100
AcDbLine
 10
85.83400000000002
 20
38.496882
 30
0.0
 11
84.5725
 21
38.496882
 31
0.0
  0
LINE
  5
6A3
330
1E
100
AcDbEntity
  8
0
100
AcDbLine
 10
81.86420000000001
 20
38.496882
 30
0.0
 11
80.44270000000002
 21
38.496882
 31
0.0
  0
LINE
  5
6A4
330
1E
100
AcDbEntity
  8
0
100
AcDbLine
 10
83.24560000000001
 20
38.496882
 30
0.0
 11
81.86420000000001
 21
38.496882
 31
0.0
  0
LINE
  5
6A5
330
1E
100
AcDbEntity
  8
0
100
AcDbLine
 10
80.44270000000002
 20
38.496882
 30
0.0
 11
78.99390000000001
 21
38.496882
 31
0.0
  0
LINE
  5
6A6
330
1E
100
AcDbEntity
  8
0
100
AcDbLine
 10
66.89909738601949
 20
38.03123374502829
 30
0.0
 11
92.1009492061148
 21
38.0373887409602
 31
0.0
  0
LINE
  5
6A7
330
1E
100
AcDbEntity
  8
0
100
AcDbLine
 10
92.1009492061148
 20
38.0373887409602
 30
0.0
 11
97.32799999999999
 21
38.004782
 31
0.0
  0
ENDSEC
  0
SECTION
  2
OBJECTS
  0
DICTIONARY
  5
C
330
0
100
AcDbDictionary
281
     1
  3
ACAD_GROUP
350
D
  3
ACAD_LAYOUT
350
19
  3
ACAD_MLINESTYLE
350
16
  3
ACAD_PLOTSETTINGS
350
18
  3
ACAD_PLOTSTYLENAME
350
E
  3
AcDbVariableDictionary
350
6A9
  0
DICTIONARY
  5
D
102
{ACAD_REACTORS
330
C
102
}
330
C
100
AcDbDictionary
281
     1
  0
DICTIONARY
  5
19
102
{ACAD_REACTORS
330
C
102
}
330
C
100
AcDbDictionary
281
     1
  3
Layout1
350
1D
  3
Model
350
21
  0
DICTIONARY
  5
16
102
{ACAD_REACTORS
330
C
102
}
330
C
100
AcDbDictionary
281
     1
  3
Standard
350
17
  0
DICTIONARY
  5
18
102
{ACAD_REACTORS
330
C
102
}
330
C
100
AcDbDictionary
281
     1
  0
ACDBDICTIONARYWDFLT
  5
E
102
{ACAD_REACTORS
330
C
102
}
330
C
100
AcDbDictionary
281
     1
  3
Normal
350
F
100
AcDbDictionaryWithDefault
340
F
  0
DICTIONARY
  5
6A9
102
{ACAD_REACTORS
330
C
102
}
330
C
100
AcDbDictionary
281
     1
  3
DIMASSOC
350
6AA
  0
LAYOUT
  5
1D
102
{ACAD_REACTORS
330
19
102
}
330
19
100
AcDbPlotSettings
  1

  2
C:\Programme\AutoCAD LT 2002 Deu\plotters\DWF ePlot (optimized for plotting).pc3
  4

  6

 40
0.0
 41
0.0
 42
0.0
 43
0.0
 44
0.0
 45
0.0
 46
0.0
 47
0.0
 48
0.0
 49
0.0
140
0.0
141
0.0
142
1.0
143
1.0
 70
   688
 72
     0
 73
     0
 74
     5
  7

 75
    16
147
1.0
148
0.0
149
0.0
100
AcDbLayout
  1
Layout1
 70
     1
 71
     1
 10
0.0
 20
0.0
 11
12.0
 21
9.0
 12
0.0
 22
0.0
 32
0.0
 14
1.000000000000000E+20
 24
1.000000000000000E+20
 34
1.000000000000000E+20
 15
-1.000000000000000E+20
 25
-1.000000000000000E+20
 35
-1.000000000000000E+20
146
0.0
 13
0.0
 23
0.0
 33
0.0
 16
1.0
 26
0.0
 36
0.0
 17
0.0
 27
1.0
 37
0.0
 76
     0
330
1A
  0
LAYOUT
  5
21
102
{ACAD_REACTORS
330
19
102
}
330
19
100
AcDbPlotSettings
  1

  2
C:\Programme\AutoCAD LT 2002 Deu\plotters\DWF ePlot (optimized for plotting).pc3
  4

  6

 40
0.0
 41
0.0
 42
0.0
 43
0.0
 44
0.0
 45
0.0
 46
0.0
 47
0.0
 48
0.0
 49
0.0
140
0.0
141
0.0
142
1.0
143
1.0
 70
  1712
 72
     0
 73
     0
 74
     0
  7

 75
     0
147
1.0
148
0.0
149
0.0
100
AcDbLayout
  1
Model
 70
     1
 71
     0
 10
0.0
 20
0.0
 11
12.0
 21
9.0
 12
0.0
 22
0.0
 32
0.0
 14
0.0
 24
0.0
 34
0.0
 15
0.0
 25
0.0
 35
0.0
146
0.0
 13
0.0
 23
0.0
 33
0.0
 16
1.0
 26
0.0
 36
0.0
 17
0.0
 27
1.0
 37
0.0
 76
     0
330
1E
  0
MLINESTYLE
  5
17
102
{ACAD_REACTORS
330
16
102
}
330
16
100
AcDbMlineStyle
  2
STANDARD
 70
     0
  3

 62
   256
 51
90.0
 52
90.0
 71
     2
 49
0.5
 62
   256
  6
BYLAYER
 49
-0.5
 62
   256
  6
BYLAYER
  0
ACDBPLACEHOLDER
  5
F
102
{ACAD_REACTORS
330
E
102
}
330
E
  0
DICTIONARYVAR
  5
6AA
102
{ACAD_REACTORS
330
6A9
102
}
330
6A9
100
DictionaryVariables
280
     0
  1
1
  0
ENDSEC
  0
EOF
