  0
SECTION
  2
HEADER
  9
$ACADVER
  1
AC1015
  9
$ACADMAINTVER
 70
    13
  9
$DWGCODEPAGE
  3
ANSI_1252
  9
$INSBASE
 10
0.0
 20
0.0
 30
0.0
  9
$EXTMIN
 10
-0.183500000000003
 20
-0.115250000000062
 30
0.0
  9
$EXTMAX
 10
547.1834999999999
 20
1311.11525
 30
0.0
  9
$LIMMIN
 10
0.0
 20
0.0
  9
$LIMMAX
 10
12.0
 20
9.0
  9
$ORTHOMODE
 70
     0
  9
$REGENMODE
 70
     1
  9
$FILLMODE
 70
     1
  9
$QTEXTMODE
 70
     0
  9
$MIRRTEXT
 70
     1
  9
$LTSCALE
 40
1.0
  9
$ATTMODE
 70
     1
  9
$TEXTSIZE
 40
0.2
  9
$TRACEWID
 40
0.05
  9
$TEXTSTYLE
  7
Standard
  9
$CLAYER
  8
0
  9
$CELTYPE
  6
Continuous
  9
$CECOLOR
 62
   256
  9
$CELTSCALE
 40
1.0
  9
$DISPSILH
 70
     0
  9
$DIMSCALE
 40
1.0
  9
$DIMASZ
 40
0.18
  9
$DIMEXO
 40
0.0625
  9
$DIMDLI
 40
0.38
  9
$DIMRND
 40
0.0
  9
$DIMDLE
 40
0.0
  9
$DIMEXE
 40
0.18
  9
$DIMTP
 40
0.0
  9
$DIMTM
 40
0.0
  9
$DIMTXT
 40
0.18
  9
$DIMCEN
 40
0.09
  9
$DIMTSZ
 40
0.0
  9
$DIMTOL
 70
     0
  9
$DIMLIM
 70
     0
  9
$DIMTIH
 70
     1
  9
$DIMTOH
 70
     1
  9
$DIMSE1
 70
     0
  9
$DIMSE2
 70
     0
  9
$DIMTAD
 70
     0
  9
$DIMZIN
 70
     0
  9
$DIMBLK
  1

  9
$DIMASO
 70
     1
  9
$DIMSHO
 70
     1
  9
$DIMPOST
  1

  9
$DIMAPOST
  1

  9
$DIMALT
 70
     0
  9
$DIMALTD
 70
     2
  9
$DIMALTF
 40
25.4
  9
$DIMLFAC
 40
1.0
  9
$DIMTOFL
 70
     0
  9
$DIMTVP
 40
0.0
  9
$DIMTIX
 70
     0
  9
$DIMSOXD
 70
     0
  9
$DIMSAH
 70
     0
  9
$DIMBLK1
  1

  9
$DIMBLK2
  1

  9
$DIMSTYLE
  2
Standard
  9
$DIMCLRD
 70
     0
  9
$DIMCLRE
 70
     0
  9
$DIMCLRT
 70
     0
  9
$DIMTFAC
 40
1.0
  9
$DIMGAP
 40
0.09
  9
$DIMJUST
 70
     0
  9
$DIMSD1
 70
     0
  9
$DIMSD2
 70
     0
  9
$DIMTOLJ
 70
     1
  9
$DIMTZIN
 70
     0
  9
$DIMALTZ
 70
     0
  9
$DIMALTTZ
 70
     0
  9
$DIMUPT
 70
     0
  9
$DIMDEC
 70
     4
  9
$DIMTDEC
 70
     4
  9
$DIMALTU
 70
     2
  9
$DIMALTTD
 70
     2
  9
$DIMTXSTY
  7
Standard
  9
$DIMAUNIT
 70
     0
  9
$DIMADEC
 70
     0
  9
$DIMALTRND
 40
0.0
  9
$DIMAZIN
 70
     0
  9
$DIMDSEP
 70
    46
  9
$DIMATFIT
 70
     3
  9
$DIMFRAC
 70
     0
  9
$DIMLDRBLK
  1

  9
$DIMLUNIT
 70
     2
  9
$DIMLWD
 70
    -2
  9
$DIMLWE
 70
    -2
  9
$DIMTMOVE
 70
     0
  9
$LUNITS
 70
     2
  9
$LUPREC
 70
     4
  9
$SKETCHINC
 40
0.1
  9
$FILLETRAD
 40
0.0
  9
$AUNITS
 70
     0
  9
$AUPREC
 70
     0
  9
$MENU
  1
.
  9
$ELEVATION
 40
0.0
  9
$PELEVATION
 40
0.0
  9
$THICKNESS
 40
0.0
  9
$LIMCHECK
 70
     0
  9
$CHAMFERA
 40
0.0
  9
$CHAMFERB
 40
0.0
  9
$CHAMFERC
 40
0.0
  9
$CHAMFERD
 40
0.0
  9
$SKPOLY
 70
     0
  9
$TDCREATE
 40
2455647.945937731
  9
$TDUCREATE
 40
2455647.904271065
  9
$TDUPDATE
 40
2455647.957405289
  9
$TDUUPDATE
 40
2455647.915738622
  9
$TDINDWG
 40
0.0114677431
  9
$TDUSRTIMER
 40
0.0114677431
  9
$USRTIMER
 70
     1
  9
$ANGBASE
 50
0.0
  9
$ANGDIR
 70
     0
  9
$PDMODE
 70
     0
  9
$PDSIZE
 40
0.0
  9
$PLINEWID
 40
0.0
  9
$SPLFRAME
 70
     0
  9
$SPLINETYPE
 70
     6
  9
$SPLINESEGS
 70
     8
  9
$HANDSEED
  5
1AF2
  9
$SURFTAB1
 70
     6
  9
$SURFTAB2
 70
     6
  9
$SURFTYPE
 70
     6
  9
$SURFU
 70
     6
  9
$SURFV
 70
     6
  9
$UCSBASE
  2

  9
$UCSNAME
  2

  9
$UCSORG
 10
0.0
 20
0.0
 30
0.0
  9
$UCSXDIR
 10
1.0
 20
0.0
 30
0.0
  9
$UCSYDIR
 10
0.0
 20
1.0
 30
0.0
  9
$UCSORTHOREF
  2

  9
$UCSORTHOVIEW
 70
     1
  9
$UCSORGTOP
 10
0.0
 20
0.0
 30
0.0
  9
$UCSORGBOTTOM
 10
0.0
 20
0.0
 30
0.0
  9
$UCSORGLEFT
 10
0.0
 20
0.0
 30
0.0
  9
$UCSORGRIGHT
 10
0.0
 20
0.0
 30
0.0
  9
$UCSORGFRONT
 10
0.0
 20
0.0
 30
0.0
  9
$UCSORGBACK
 10
0.0
 20
0.0
 30
0.0
  9
$PUCSBASE
  2

  9
$PUCSNAME
  2

  9
$PUCSORG
 10
0.0
 20
0.0
 30
0.0
  9
$PUCSXDIR
 10
1.0
 20
0.0
 30
0.0
  9
$PUCSYDIR
 10
0.0
 20
1.0
 30
0.0
  9
$PUCSORTHOREF
  2

  9
$PUCSORTHOVIEW
 70
     0
  9
$PUCSORGTOP
 10
0.0
 20
0.0
 30
0.0
  9
$PUCSORGBOTTOM
 10
0.0
 20
0.0
 30
0.0
  9
$PUCSORGLEFT
 10
0.0
 20
0.0
 30
0.0
  9
$PUCSORGRIGHT
 10
0.0
 20
0.0
 30
0.0
  9
$PUCSORGFRONT
 10
0.0
 20
0.0
 30
0.0
  9
$PUCSORGBACK
 10
0.0
 20
0.0
 30
0.0
  9
$USERI1
 70
     0
  9
$USERI2
 70
     0
  9
$USERI3
 70
     0
  9
$USERI4
 70
     0
  9
$USERI5
 70
     0
  9
$USERR1
 40
0.0
  9
$USERR2
 40
0.0
  9
$USERR3
 40
0.0
  9
$USERR4
 40
0.0
  9
$USERR5
 40
0.0
  9
$WORLDVIEW
 70
     1
  9
$SHADEDGE
 70
     3
  9
$SHADEDIF
 70
    70
  9
$TILEMODE
 70
     1
  9
$MAXACTVP
 70
    64
  9
$PINSBASE
 10
0.0
 20
0.0
 30
0.0
  9
$PLIMCHECK
 70
     0
  9
$PEXTMIN
 10
1.000000000000000E+20
 20
1.000000000000000E+20
 30
1.000000000000000E+20
  9
$PEXTMAX
 10
-1.000000000000000E+20
 20
-1.000000000000000E+20
 30
-1.000000000000000E+20
  9
$PLIMMIN
 10
0.0
 20
0.0
  9
$PLIMMAX
 10
12.0
 20
9.0
  9
$UNITMODE
 70
     0
  9
$VISRETAIN
 70
     1
  9
$PLINEGEN
 70
     0
  9
$PSLTSCALE
 70
     1
  9
$TREEDEPTH
 70
  3020
  9
$CMLSTYLE
  2
Standard
  9
$CMLJUST
 70
     0
  9
$CMLSCALE
 40
1.0
  9
$PROXYGRAPHICS
 70
     1
  9
$MEASUREMENT
 70
     0
  9
$CELWEIGHT
370
    -1
  9
$ENDCAPS
280
     0
  9
$JOINSTYLE
280
     0
  9
$LWDISPLAY
290
     0
  9
$INSUNITS
 70
     0
  9
$HYPERLINKBASE
  1

  9
$STYLESHEET
  1

  9
$XEDIT
290
     1
  9
$CEPSNTYPE
380
     0
  9
$PSTYLEMODE
290
     1
  9
$FINGERPRINTGUID
  2
{9D6A07EE-C3E4-48D4-9586-691BC8328E18}
  9
$VERSIONGUID
  2
{B33FB79D-5CC2-41B0-AE7D-69AE01C1D321}
  9
$EXTNAMES
290
     1
  9
$PSVPSCALE
 40
0.0
  9
$OLESTARTUP
290
     0
  0
ENDSEC
  0
SECTION
  2
CLASSES
  0
CLASS
  1
ACDBDICTIONARYWDFLT
  2
AcDbDictionaryWithDefault
  3
AutoCAD 2000
 90
        0
280
     0
281
     0
  0
CLASS
  1
ACDBPLACEHOLDER
  2
AcDbPlaceHolder
  3
AutoCAD 2000
 90
        0
280
     0
281
     0
  0
CLASS
  1
LAYOUT
  2
AcDbLayout
  3
AutoCAD 2000
 90
        0
280
     0
281
     0
  0
CLASS
  1
DICTIONARYVAR
  2
AcDbDictionaryVar
  3
AutoCAD 2000
 90
        0
280
     0
281
     0
  0
ENDSEC
  0
SECTION
  2
TABLES
  0
TABLE
  2
VPORT
  5
8
330
0
100
AcDbSymbolTable
 70
     4
  0
VPORT
  5
1AF1
330
8
100
AcDbSymbolTableRecord
100
AcDbViewportTableRecord
  2
*Active
 70
     0
 10
0.0
 20
0.0
 11
1.0
 21
1.0
 12
273.4999999999999
 22
655.4999999999999
 13
0.0
 23
0.0
 14
1.0
 24
1.0
 15
0.0
 25
0.0
 16
0.0
 26
0.0
 36
1.0
 17
0.0
 27
0.0
 37
0.0
 40
1320.100153889515
 41
2.073363431151241
 42
50.0
 43
0.0
 44
0.0
 50
0.0
 51
0.0
 71
     0
 72
   100
 73
     1
 74
     3
 75
     0
 76
     0
 77
     0
 78
     0
281
     0
 65
     1
110
0.0
120
0.0
130
0.0
111
1.0
121
0.0
131
0.0
112
0.0
122
1.0
132
0.0
 79
     1
146
0.0
  0
ENDTAB
  0
TABLE
  2
LTYPE
  5
5
330
0
100
AcDbSymbolTable
 70
     1
  0
LTYPE
  5
13
330
5
100
AcDbSymbolTableRecord
100
AcDbLinetypeTableRecord
  2
ByBlock
 70
     0
  3

 72
    65
 73
     0
 40
0.0
  0
LTYPE
  5
14
330
5
100
AcDbSymbolTableRecord
100
AcDbLinetypeTableRecord
  2
ByLayer
 70
     0
  3

 72
    65
 73
     0
 40
0.0
  0
LTYPE
  5
15
330
5
100
AcDbSymbolTableRecord
100
AcDbLinetypeTableRecord
  2
Continuous
 70
     0
  3
Solid line
 72
    65
 73
     0
 40
0.0
  0
ENDTAB
  0
TABLE
  2
LAYER
  5
2
330
0
100
AcDbSymbolTable
 70
     1
  0
LAYER
  5
10
330
2
100
AcDbSymbolTableRecord
100
AcDbLayerTableRecord
  2
0
 70
     0
 62
     7
  6
Continuous
370
    -3
390
F
  0
ENDTAB
  0
TABLE
  2
STYLE
  5
3
330
0
100
AcDbSymbolTable
 70
     1
  0
STYLE
  5
11
330
3
100
AcDbSymbolTableRecord
100
AcDbTextStyleTableRecord
  2
Standard
 70
     0
 40
0.0
 41
1.0
 50
0.0
 71
     0
 42
0.2
  3
txt
  4

  0
ENDTAB
  0
TABLE
  2
VIEW
  5
6
330
0
100
AcDbSymbolTable
 70
     0
  0
ENDTAB
  0
TABLE
  2
UCS
  5
7
330
0
100
AcDbSymbolTable
 70
     0
  0
ENDTAB
  0
TABLE
  2
APPID
  5
9
330
0
100
AcDbSymbolTable
 70
     1
  0
APPID
  5
12
330
9
100
AcDbSymbolTableRecord
100
AcDbRegAppTableRecord
  2
ACAD
 70
     0
  0
ENDTAB
  0
TABLE
  2
DIMSTYLE
  5
A
330
0
100
AcDbSymbolTable
 70
     1
100
AcDbDimStyleTable
 71
     0
  0
DIMSTYLE
105
192E
330
A
100
AcDbSymbolTableRecord
100
AcDbDimStyleTableRecord
  2
Standard
 70
     0
340
11
  0
ENDTAB
  0
TABLE
  2
BLOCK_RECORD
  5
1
330
0
100
AcDbSymbolTable
 70
     0
  0
BLOCK_RECORD
  5
1E
330
1
100
AcDbSymbolTableRecord
100
AcDbBlockTableRecord
  2
*Model_Space
340
21
  0
BLOCK_RECORD
  5
1A
330
1
100
AcDbSymbolTableRecord
100
AcDbBlockTableRecord
  2
*Paper_Space
340
1D
  0
ENDTAB
  0
ENDSEC
  0
SECTION
  2
BLOCKS
  0
BLOCK
  5
1F
330
1E
100
AcDbEntity
  8
0
100
AcDbBlockBegin
  2
*Model_Space
 70
     0
 10
0.0
 20
0.0
 30
0.0
  3
*Model_Space
  1

  0
ENDBLK
  5
20
330
1E
100
AcDbEntity
  8
0
100
AcDbBlockEnd
  0
BLOCK
  5
1B
330
1A
100
AcDbEntity
 67
     1
  8
0
100
AcDbBlockBegin
  2
*Paper_Space
 70
     0
 10
0.0
 20
0.0
 30
0.0
  3
*Paper_Space
  1

  0
ENDBLK
  5
1C
330
1A
100
AcDbEntity
 67
     1
  8
0
100
AcDbBlockEnd
  0
ENDSEC
  0
SECTION
  2
ENTITIES
  0
LINE
  5
22
330
1E
100
AcDbEntity
  8
0
100
AcDbLine
 10
-0.183500000000003
 20
53.81504999999989
 30
0.0
 11
-0.183500000000003
 21
53.99595
 31
0.0
  0
LINE
  5
23
330
1E
100
AcDbEntity
  8
0
100
AcDbLine
 10
-0.183500000000003
 20
53.81504999999989
 30
0.0
 11
-0.143500000000008
 21
53.67904999999989
 31
0.0
  0
LINE
  5
24
330
1E
100
AcDbEntity
  8
0
100
AcDbLine
 10
0.215499999999999
 20
39.44914999999989
 30
0.0
 11
0.344945854358237
 21
39.0059445223731
 31
0.0
  0
LINE
  5
25
330
1E
100
AcDbEntity
  8
0
100
AcDbLine
 10
0.215499999999999
 20
39.44914999999989
 30
0.0
 11
0.344945854358237
 21
39.0059445223731
 31
0.0
  0
LINE
  5
26
330
1E
100
AcDbEntity
  8
0
100
AcDbLine
 10
0.215499999999999
 20
39.44914999999989
 30
0.0
 11
0.215499999999999
 21
52.4644299999992
 31
0.0
  0
LINE
  5
27
330
1E
100
AcDbEntity
  8
0
100
AcDbLine
 10
2.4535
 20
33.8377999999999
 30
0.0
 11
3.91949999999999
 21
32.7861099999999
 31
0.0
  0
LINE
  5
28
330
1E
100
AcDbEntity
  8
0
100
AcDbLine
 10
0.589499999999994
 20
37.08386999999989
 30
0.0
 11
0.9104999999999828
 21
35.8122299999999
 31
0.0
  0
LINE
  5
29
330
1E
100
AcDbEntity
  8
0
100
AcDbLine
 10
0.9104999999999828
 20
35.8122299999999
 30
0.0
 11
1.5475
 21
34.9964699999999
 31
0.0
  0
LINE
  5
2A
330
1E
100
AcDbEntity
  8
0
100
AcDbLine
 10
1.5475
 20
34.9964699999999
 30
0.0
 11
2.4535
 21
33.8377999999999
 31
0.0
  0
LINE
  5
2B
330
1E
100
AcDbEntity
  8
0
100
AcDbLine
 10
0.353499999999991
 20
38.11656999999989
 30
0.0
 11
0.589499999999994
 21
37.08386999999989
 31
0.0
  0
LINE
  5
2C
330
1E
100
AcDbEntity
  8
0
100
AcDbLine
 10
0.209499999999993
 20
53.08824999999989
 30
0.0
 11
0.353499999999991
 21
38.11656999999989
 31
0.0
  0
LINE
  5
2D
330
1E
100
AcDbEntity
  8
0
100
AcDbLine
 10
0.215499999999999
 20
52.4644299999992
 30
0.0
 11
0.215499999999999
 21
39.44914999999989
 31
0.0
  0
LINE
  5
2E
330
1E
100
AcDbEntity
  8
0
100
AcDbLine
 10
-0.143500000000008
 20
53.67904999999989
 30
0.0
 11
1.668499999999989
 21
50.66195
 31
0.0
  0
LINE
  5
2F
330
1E
100
AcDbEntity
  8
0
100
AcDbLine
 10
1.668499999999989
 20
50.66195
 30
0.0
 11
1.7635
 21
50.58494999999989
 31
0.0
  0
LINE
  5
30
330
1E
100
AcDbEntity
  8
0
100
AcDbLine
 10
1.7635
 20
50.58494999999989
 30
0.0
 11
6.72049999999999
 21
48.3166499999999
 31
0.0
  0
LINE
  5
31
330
1E
100
AcDbEntity
  8
0
100
AcDbLine
 10
-0.183500000000003
 20
53.99595
 30
0.0
 11
-0.183500000000003
 21
53.81504999999989
 31
0.0
  0
LINE
  5
32
330
1E
100
AcDbEntity
  8
0
100
AcDbLine
 10
-0.183500000000003
 20
53.99595
 30
0.0
 11
-0.183500000000003
 21
70.23234999999989
 31
0.0
  0
LINE
  5
33
330
1E
100
AcDbEntity
  8
0
100
AcDbLine
 10
-0.183500000000003
 20
70.23234999999989
 30
0.0
 11
-0.183500000000003
 21
53.99595
 31
0.0
  0
LINE
  5
34
330
1E
100
AcDbEntity
  8
0
100
AcDbLine
 10
-0.183500000000003
 20
70.23234999999989
 30
0.0
 11
-0.183500000000003
 21
75.0869499999999
 31
0.0
  0
LINE
  5
35
330
1E
100
AcDbEntity
  8
0
100
AcDbLine
 10
11.1773
 20
30.52575999999989
 30
0.0
 11
13.81029999999999
 21
30.3178199999999
 31
0.0
  0
LINE
  5
36
330
1E
100
AcDbEntity
  8
0
100
AcDbLine
 10
3.91949999999999
 20
32.7861099999999
 30
0.0
 11
5.87849999999999
 21
31.89035999999989
 31
0.0
  0
LINE
  5
37
330
1E
100
AcDbEntity
  8
0
100
AcDbLine
 10
5.87849999999999
 20
31.89035999999989
 30
0.0
 11
6.514500000000009
 21
31.6154399999999
 31
0.0
  0
LINE
  5
38
330
1E
100
AcDbEntity
  8
0
100
AcDbLine
 10
6.514500000000009
 20
31.6154399999999
 30
0.0
 11
8.7079
 21
30.9656299999999
 31
0.0
  0
LINE
  5
39
330
1E
100
AcDbEntity
  8
0
100
AcDbLine
 10
8.7079
 20
30.9656299999999
 30
0.0
 11
11.1773
 21
30.52575999999989
 31
0.0
  0
LINE
  5
3A
330
1E
100
AcDbEntity
  8
0
100
AcDbLine
 10
13.81029999999999
 20
30.3178199999999
 30
0.0
 11
40.3507
 21
29.5670329999999
 31
0.0
  0
LINE
  5
3B
330
1E
100
AcDbEntity
  8
0
100
AcDbLine
 10
13.6347
 20
47.32494999999989
 30
0.0
 11
75.72960000000001
 21
45.95934999999999
 31
0.0
  0
LINE
  5
3C
330
1E
100
AcDbEntity
  8
0
100
AcDbLine
 10
6.72049999999999
 20
48.3166499999999
 30
0.0
 11
13.6347
 21
47.32494999999989
 31
0.0
  0
LINE
  5
3D
330
1E
100
AcDbEntity
  8
0
100
AcDbLine
 10
22.2426
 20
-0.10725000000006
 30
0.0
 11
22.9176
 21
-0.0492500000000626
 31
0.0
  0
LINE
  5
3E
330
1E
100
AcDbEntity
  8
0
100
AcDbLine
 10
22.9176
 20
-0.0492500000000626
 30
0.0
 11
24.1556
 21
0.310749999999936
 31
0.0
  0
LINE
  5
3F
330
1E
100
AcDbEntity
  8
0
100
AcDbLine
 10
24.1556
 20
0.310749999999936
 30
0.0
 11
25.6566
 21
0.973749999999937
 31
0.0
  0
LINE
  5
40
330
1E
100
AcDbEntity
  8
0
100
AcDbLine
 10
25.6566
 20
0.973749999999937
 30
0.0
 11
27.4566
 21
2.091749999999939
 31
0.0
  0
LINE
  5
41
330
1E
100
AcDbEntity
  8
0
100
AcDbLine
 10
27.4566
 20
2.091749999999939
 30
0.0
 11
29.4076
 21
4.074749999999939
 31
0.0
  0
LINE
  5
42
330
1E
100
AcDbEntity
  8
0
100
AcDbLine
 10
29.4076
 20
4.074749999999939
 30
0.0
 11
31.1706
 21
5.42774999999994
 31
0.0
  0
LINE
  5
43
330
1E
100
AcDbEntity
  8
0
100
AcDbLine
 10
31.1706
 20
5.42774999999994
 30
0.0
 11
33.0086
 21
6.63374999999994
 31
0.0
  0
LINE
  5
44
330
1E
100
AcDbEntity
  8
0
100
AcDbLine
 10
29.4076
 20
4.21774999999993
 30
0.0
 11
31.1706
 21
5.563749999999929
 31
0.0
  0
LINE
  5
45
330
1E
100
AcDbEntity
  8
0
100
AcDbLine
 10
33.0086
 20
6.63374999999994
 30
0.0
 11
34.8096
 21
7.84374999999994
 31
0.0
  0
LINE
  5
46
330
1E
100
AcDbEntity
  8
0
100
AcDbLine
 10
31.1706
 20
5.563749999999929
 30
0.0
 11
33.0086
 21
6.75674999999994
 31
0.0
  0
LINE
  5
47
330
1E
100
AcDbEntity
  8
0
100
AcDbLine
 10
34.8096
 20
7.84374999999994
 30
0.0
 11
35.8976
 21
8.908749999999939
 31
0.0
  0
LINE
  5
48
330
1E
100
AcDbEntity
  8
0
100
AcDbLine
 10
33.0086
 20
6.75674999999994
 30
0.0
 11
34.8096
 21
7.94474999999994
 31
0.0
  0
LINE
  5
49
330
1E
100
AcDbEntity
  8
0
100
AcDbLine
 10
35.8976
 20
8.908749999999939
 30
0.0
 11
36.61059999999999
 21
9.63774999999994
 31
0.0
  0
LINE
  5
4A
330
1E
100
AcDbEntity
  8
0
100
AcDbLine
 10
34.8096
 20
7.94474999999994
 30
0.0
 11
35.8976
 21
8.978749999999939
 31
0.0
  0
LINE
  5
4B
330
1E
100
AcDbEntity
  8
0
100
AcDbLine
 10
36.61059999999999
 20
9.63774999999994
 30
0.0
 11
36.8796
 21
9.883749999999938
 31
0.0
  0
LINE
  5
4C
330
1E
100
AcDbEntity
  8
0
100
AcDbLine
 10
35.8976
 20
8.978749999999939
 30
0.0
 11
36.61059999999999
 21
9.673749999999939
 31
0.0
  0
LINE
  5
4D
330
1E
100
AcDbEntity
  8
0
100
AcDbLine
 10
36.8796
 20
9.883749999999938
 30
0.0
 11
36.8796
 21
29.6652250677796
 31
0.0
  0
LINE
  5
4E
330
1E
100
AcDbEntity
  8
0
100
AcDbLine
 10
36.61059999999999
 20
9.673749999999939
 30
0.0
 11
36.8796
 21
9.883749999999938
 31
0.0
  0
LINE
  5
4F
330
1E
100
AcDbEntity
  8
0
100
AcDbLine
 10
27.4566
 20
2.227749999999939
 30
0.0
 11
29.4076
 21
4.21774999999993
 31
0.0
  0
LINE
  5
50
330
1E
100
AcDbEntity
  8
0
100
AcDbLine
 10
25.6566
 20
1.096749999999939
 30
0.0
 11
27.4566
 21
2.227749999999939
 31
0.0
  0
LINE
  5
51
330
1E
100
AcDbEntity
  8
0
100
AcDbLine
 10
24.1556
 20
0.4107499999999371
 30
0.0
 11
25.6566
 21
1.096749999999939
 31
0.0
  0
LINE
  5
52
330
1E
100
AcDbEntity
  8
0
100
AcDbLine
 10
22.9176
 20
0.0207499999999376
 30
0.0
 11
24.1556
 21
0.4107499999999371
 31
0.0
  0
LINE
  5
53
330
1E
100
AcDbEntity
  8
0
100
AcDbLine
 10
22.2426
 20
-0.0712500000000624
 30
0.0
 11
22.9176
 21
0.0207499999999376
 31
0.0
  0
LINE
  5
54
330
1E
100
AcDbEntity
  8
0
100
AcDbLine
 10
21.87959999999999
 20
-0.115250000000062
 30
0.0
 11
22.2426
 21
-0.0712500000000624
 31
0.0
  0
LINE
  5
55
330
1E
100
AcDbEntity
  8
0
100
AcDbLine
 10
21.87959999999999
 20
-0.115250000000062
 30
0.0
 11
21.87959999999999
 21
30.089551943034
 31
0.0
  0
LINE
  5
56
330
1E
100
AcDbEntity
  8
0
100
AcDbLine
 10
21.87959999999999
 20
-0.115250000000062
 30
0.0
 11
22.2426
 21
-0.10725000000006
 31
0.0
  0
LINE
  5
57
330
1E
100
AcDbEntity
  8
0
100
AcDbLine
 10
36.8796
 20
29.6652250677796
 30
0.0
 11
36.8796
 21
9.883749999999938
 31
0.0
  0
LINE
  5
58
330
1E
100
AcDbEntity
  8
0
100
AcDbLine
 10
21.87959999999999
 20
30.089551943034
 30
0.0
 11
21.87959999999999
 21
-0.115250000000057
 31
0.0
  0
LINE
  5
59
330
1E
100
AcDbEntity
  8
0
100
AcDbLine
 10
40.3507
 20
29.5670329999999
 30
0.0
 11
66.9221
 21
29.0661779999999
 31
0.0
  0
LINE
  5
5A
330
1E
100
AcDbEntity
  8
0
100
AcDbLine
 10
66.9221
 20
29.0661779999999
 30
0.0
 11
93.51640000000001
 21
28.8152499999999
 31
0.0
  0
LINE
  5
72
330
1E
100
AcDbEntity
  8
0
100
AcDbLine
 10
93.51640000000001
 20
28.8152499999999
 30
0.0
 11
106.8165
 21
28.8152499999999
 31
0.0
  0
LINE
  5
73
330
1E
100
AcDbEntity
  8
0
100
AcDbLine
 10
75.72960000000001
 20
45.95934999999999
 30
0.0
 11
106.8165
 21
45.95934999999999
 31
0.0
  0
LINE
  5
78
330
1E
100
AcDbEntity
  8
0
100
AcDbLine
 10
75.7895
 20
49.6332499999999
 30
0.0
 11
106.8165
 21
49.6332499999999
 31
0.0
  0
LINE
  5
79
330
1E
100
AcDbEntity
  8
0
100
AcDbLine
 10
13.8183
 20
50.9968499999999
 30
0.0
 11
75.7895
 21
49.6332499999999
 31
0.0
  0
LINE
  5
7B
330
1E
100
AcDbEntity
  8
0
100
AcDbLine
 10
35.4639
 20
59.38544999999989
 30
0.0
 11
36.4166313161612
 21
57.8248282184926
 31
0.0
  0
LINE
  5
7C
330
1E
100
AcDbEntity
  8
0
100
AcDbLine
 10
36.4166313161612
 20
57.8248282184926
 30
0.0
 11
39.42849999999999
 21
56.48024999999989
 31
0.0
  0
LINE
  5
7F
330
1E
100
AcDbEntity
  8
0
100
AcDbLine
 10
39.20889999999999
 20
58.33374999999989
 30
0.0
 11
40.5334
 21
58.6036499999999
 31
0.0
  0
LINE
  5
80
330
1E
100
AcDbEntity
  8
0
100
AcDbLine
 10
38.0341
 20
57.9108499999999
 30
0.0
 11
39.20889999999999
 21
58.33374999999989
 31
0.0
  0
LINE
  5
81
330
1E
100
AcDbEntity
  8
0
100
AcDbLine
 10
37.23557838074379
 20
57.4592284859927
 30
0.0
 11
38.0341
 21
57.9108499999999
 31
0.0
  0
LINE
  5
84
330
1E
100
AcDbEntity
  8
0
100
AcDbLine
 10
40.52839999999999
 20
56.5052499999999
 30
0.0
 11
41.9378
 21
56.58625
 31
0.0
  0
LINE
  5
85
330
1E
100
AcDbEntity
  8
0
100
AcDbLine
 10
39.9692247151407
 20
56.40802532111321
 30
0.0
 11
40.52839999999999
 21
56.5052499999999
 31
0.0
  0
LINE
  5
91
330
1E
100
AcDbEntity
  8
0
100
AcDbLine
 10
41.9378
 20
56.58625
 30
0.0
 11
106.8165
 21
56.58625
 31
0.0
  0
LINE
  5
94
330
1E
100
AcDbEntity
  8
0
100
AcDbLine
 10
41.9378
 20
58.69664999999989
 30
0.0
 11
106.8165
 21
58.69664999999989
 31
0.0
  0
LINE
  5
95
330
1E
100
AcDbEntity
  8
0
100
AcDbLine
 10
40.5334
 20
58.6036499999999
 30
0.0
 11
41.9378
 21
58.69664999999989
 31
0.0
  0
LINE
  5
99
330
1E
100
AcDbEntity
  8
0
100
AcDbLine
 10
39.42849999999999
 20
56.48024999999989
 30
0.0
 11
44.3832
 21
55.81844999999989
 31
0.0
  0
LINE
  5
9A
330
1E
100
AcDbEntity
  8
0
100
AcDbLine
 10
44.3832
 20
55.81844999999989
 30
0.0
 11
106.8165
 21
55.11965
 31
0.0
  0
LINE
  5
A5
330
1E
100
AcDbEntity
  8
0
100
AcDbLine
 10
7.998199999999999
 20
51.83064999999989
 30
0.0
 11
13.8183
 21
50.9968499999999
 31
0.0
  0
LINE
  5
A6
330
1E
100
AcDbEntity
  8
0
100
AcDbLine
 10
3.82549999999998
 20
53.74104999999989
 30
0.0
 11
7.998199999999999
 21
51.83064999999989
 31
0.0
  0
LINE
  5
A7
330
1E
100
AcDbEntity
  8
0
100
AcDbLine
 10
-0.183500000000003
 20
98.76715
 30
0.0
 11
-0.183500000000003
 21
89.9526499999999
 31
0.0
  0
LINE
  5
A8
330
1E
100
AcDbEntity
  8
0
100
AcDbLine
 10
-0.183500000000003
 20
98.76715
 30
0.0
 11
-0.183500000000003
 21
638.60825
 31
0.0
  0
LINE
  5
A9
330
1E
100
AcDbEntity
  8
0
100
AcDbLine
 10
-0.183500000000003
 20
89.9526499999999
 30
0.0
 11
-0.183500000000003
 21
81.84395
 31
0.0
  0
LINE
  5
AA
330
1E
100
AcDbEntity
  8
0
100
AcDbLine
 10
-0.183500000000003
 20
89.9526499999999
 30
0.0
 11
-0.183500000000003
 21
98.76715
 31
0.0
  0
LINE
  5
AB
330
1E
100
AcDbEntity
  8
0
100
AcDbLine
 10
-0.183500000000003
 20
81.84395
 30
0.0
 11
-0.183500000000003
 21
75.0869499999999
 31
0.0
  0
LINE
  5
AC
330
1E
100
AcDbEntity
  8
0
100
AcDbLine
 10
-0.183500000000003
 20
81.84395
 30
0.0
 11
-0.183500000000003
 21
89.9526499999999
 31
0.0
  0
LINE
  5
AD
330
1E
100
AcDbEntity
  8
0
100
AcDbLine
 10
35.5367
 20
73.47635
 30
0.0
 11
38.2736
 21
75.44984999999989
 31
0.0
  0
LINE
  5
AF
330
1E
100
AcDbEntity
  8
0
100
AcDbLine
 10
38.2736
 20
75.44984999999989
 30
0.0
 11
41.9378
 21
76.1686499999999
 31
0.0
  0
LINE
  5
B2
330
1E
100
AcDbEntity
  8
0
100
AcDbLine
 10
41.9378
 20
76.1686499999999
 30
0.0
 11
106.8165
 21
76.1686499999999
 31
0.0
  0
LINE
  5
104
330
1E
100
AcDbEntity
  8
0
100
AcDbLine
 10
84.34639999999999
 20
451.8962499999999
 30
0.0
 11
84.4438
 21
449.05125
 31
0.0
  0
LINE
  5
105
330
1E
100
AcDbEntity
  8
0
100
AcDbLine
 10
84.34639999999999
 20
455.7342499999999
 30
0.0
 11
84.4438
 21
458.57925
 31
0.0
  0
LINE
  5
106
330
1E
100
AcDbEntity
  8
0
100
AcDbLine
 10
84.31650000000001
 20
453.8152499999999
 30
0.0
 11
84.34639999999999
 21
455.7342499999999
 31
0.0
  0
LINE
  5
107
330
1E
100
AcDbEntity
  8
0
100
AcDbLine
 10
84.31650000000001
 20
453.8152499999999
 30
0.0
 11
84.34639999999999
 21
451.8962499999999
 31
0.0
  0
LINE
  5
110
330
1E
100
AcDbEntity
  8
0
100
AcDbLine
 10
84.4438
 20
449.05125
 30
0.0
 11
84.6469
 21
445.36625
 31
0.0
  0
LINE
  5
11F
330
1E
100
AcDbEntity
  8
0
100
AcDbLine
 10
84.8911
 20
442.1362499999999
 30
0.0
 11
85.15680000000001
 21
439.90825
 31
0.0
  0
LINE
  5
120
330
1E
100
AcDbEntity
  8
0
100
AcDbLine
 10
84.6469
 20
445.36625
 30
0.0
 11
84.8911
 21
442.1362499999999
 31
0.0
  0
LINE
  5
13A
330
1E
100
AcDbEntity
  8
0
100
AcDbLine
 10
86.03759999999999
 20
435.58725
 30
0.0
 11
86.3246
 21
435.0862499999999
 31
0.0
  0
LINE
  5
13B
330
1E
100
AcDbEntity
  8
0
100
AcDbLine
 10
85.75549999999999
 20
436.28625
 30
0.0
 11
86.03759999999999
 21
435.58725
 31
0.0
  0
LINE
  5
147
330
1E
100
AcDbEntity
  8
0
100
AcDbLine
 10
86.6797
 20
434.5512499999999
 30
0.0
 11
87.08910000000001
 21
434.08825
 31
0.0
  0
LINE
  5
148
330
1E
100
AcDbEntity
  8
0
100
AcDbLine
 10
86.3246
 20
435.0862499999999
 30
0.0
 11
86.6797
 21
434.5512499999999
 31
0.0
  0
LINE
  5
17C
330
1E
100
AcDbEntity
  8
0
100
AcDbLine
 10
101.8164999999999
 20
281.187632272583
 30
0.0
 11
101.8164999999999
 21
284.94025
 31
0.0
  0
LINE
  5
17D
330
1E
100
AcDbEntity
  8
0
100
AcDbLine
 10
101.9365
 20
285.3152499999999
 30
0.0
 11
102.1165
 21
285.3152499999999
 31
0.0
  0
LINE
  5
17E
330
1E
100
AcDbEntity
  8
0
100
AcDbLine
 10
102.1165
 20
285.3152499999999
 30
0.0
 11
102.5965
 21
285.3152499999999
 31
0.0
  0
LINE
  5
17F
330
1E
100
AcDbEntity
  8
0
100
AcDbLine
 10
102.5965
 20
285.3152499999999
 30
0.0
 11
103.3765
 21
285.3152499999999
 31
0.0
  0
LINE
  5
180
330
1E
100
AcDbEntity
  8
0
100
AcDbLine
 10
103.3765
 20
285.3152499999999
 30
0.0
 11
104.3965
 21
285.3152499999999
 31
0.0
  0
LINE
  5
181
330
1E
100
AcDbEntity
  8
0
100
AcDbLine
 10
104.3965
 20
285.3152499999999
 30
0.0
 11
105.5565
 21
285.3152499999999
 31
0.0
  0
LINE
  5
182
330
1E
100
AcDbEntity
  8
0
100
AcDbLine
 10
101.8164999999999
 20
284.94025
 30
0.0
 11
101.9365
 21
285.3152499999999
 31
0.0
  0
LINE
  5
193
330
1E
100
AcDbEntity
  8
0
100
AcDbLine
 10
102.0526999999999
 20
431.44225
 30
0.0
 11
104.8977
 21
431.34525
 31
0.0
  0
LINE
  5
196
330
1E
100
AcDbEntity
  8
0
100
AcDbLine
 10
104.8977
 20
431.34525
 30
0.0
 11
106.8165
 21
431.31525
 31
0.0
  0
LINE
  5
197
330
1E
100
AcDbEntity
  8
0
100
AcDbLine
 10
95.13769999999999
 20
431.89025
 30
0.0
 11
98.36770000000001
 21
431.6452499999999
 31
0.0
  0
LINE
  5
198
330
1E
100
AcDbEntity
  8
0
100
AcDbLine
 10
98.36770000000001
 20
431.6452499999999
 30
0.0
 11
102.0526999999999
 21
431.44225
 31
0.0
  0
LINE
  5
19C
330
1E
100
AcDbEntity
  8
0
100
AcDbLine
 10
105.5565
 20
285.3152499999999
 30
0.0
 11
106.8165
 21
285.3152499999999
 31
0.0
  0
LINE
  5
19D
330
1E
100
AcDbEntity
  8
0
100
AcDbLine
 10
106.8165
 20
285.3152499999999
 30
0.0
 11
108.0764999999999
 21
285.3152499999999
 31
0.0
  0
LINE
  5
1A3
330
1E
100
AcDbEntity
  8
0
100
AcDbLine
 10
108.0764999999999
 20
285.3152499999999
 30
0.0
 11
109.2365
 21
285.3152499999999
 31
0.0
  0
LINE
  5
24D
330
1E
100
AcDbEntity
  8
0
100
AcDbLine
 10
90.0999
 20
432.5552499999999
 30
0.0
 11
91.08589999999999
 21
432.37225
 31
0.0
  0
LINE
  5
24E
330
1E
100
AcDbEntity
  8
0
100
AcDbLine
 10
91.08589999999999
 20
432.37225
 30
0.0
 11
92.9091
 21
432.15525
 31
0.0
  0
LINE
  5
24F
330
1E
100
AcDbEntity
  8
0
100
AcDbLine
 10
92.9091
 20
432.15525
 30
0.0
 11
95.13769999999999
 21
431.89025
 31
0.0
  0
LINE
  5
251
330
1E
100
AcDbEntity
  8
0
100
AcDbLine
 10
89.288
 20
432.7542499999999
 30
0.0
 11
90.0999
 21
432.5552499999999
 31
0.0
  0
LINE
  5
252
330
1E
100
AcDbEntity
  8
0
100
AcDbLine
 10
88.08719999999999
 20
433.32325
 30
0.0
 11
88.588
 21
433.0362499999999
 31
0.0
  0
LINE
  5
253
330
1E
100
AcDbEntity
  8
0
100
AcDbLine
 10
88.588
 20
433.0362499999999
 30
0.0
 11
89.288
 21
432.7542499999999
 31
0.0
  0
LINE
  5
254
330
1E
100
AcDbEntity
  8
0
100
AcDbLine
 10
87.5524
 20
433.6782499999999
 30
0.0
 11
88.08719999999999
 21
433.32325
 31
0.0
  0
LINE
  5
27B
330
1E
100
AcDbEntity
  8
0
100
AcDbLine
 10
85.37399999999999
 20
438.0842499999999
 30
0.0
 11
85.556
 21
437.09825
 31
0.0
  0
LINE
  5
283
330
1E
100
AcDbEntity
  8
0
100
AcDbLine
 10
85.15680000000001
 20
439.90825
 30
0.0
 11
85.37399999999999
 21
438.0842499999999
 31
0.0
  0
LINE
  5
289
330
1E
100
AcDbEntity
  8
0
100
AcDbLine
 10
84.4438
 20
458.57925
 30
0.0
 11
84.6469
 21
462.26425
 31
0.0
  0
LINE
  5
28A
330
1E
100
AcDbEntity
  8
0
100
AcDbLine
 10
84.8911
 20
465.49425
 30
0.0
 11
85.15680000000001
 21
467.72225
 31
0.0
  0
LINE
  5
28B
330
1E
100
AcDbEntity
  8
0
100
AcDbLine
 10
84.6469
 20
462.26425
 30
0.0
 11
84.8911
 21
465.49425
 31
0.0
  0
LINE
  5
28F
330
1E
100
AcDbEntity
  8
0
100
AcDbLine
 10
85.37399999999999
 20
469.54525
 30
0.0
 11
85.556
 21
470.53225
 31
0.0
  0
LINE
  5
290
330
1E
100
AcDbEntity
  8
0
100
AcDbLine
 10
85.15680000000001
 20
467.72225
 30
0.0
 11
85.37399999999999
 21
469.54525
 31
0.0
  0
LINE
  5
292
330
1E
100
AcDbEntity
  8
0
100
AcDbLine
 10
85.556
 20
470.53225
 30
0.0
 11
85.75549999999999
 21
471.34425
 31
0.0
  0
LINE
  5
293
330
1E
100
AcDbEntity
  8
0
100
AcDbLine
 10
86.03759999999999
 20
472.04325
 30
0.0
 11
86.3246
 21
472.5442499999999
 31
0.0
  0
LINE
  5
294
330
1E
100
AcDbEntity
  8
0
100
AcDbLine
 10
85.75549999999999
 20
471.34425
 30
0.0
 11
86.03759999999999
 21
472.04325
 31
0.0
  0
LINE
  5
295
330
1E
100
AcDbEntity
  8
0
100
AcDbLine
 10
86.6797
 20
473.0792499999999
 30
0.0
 11
87.08910000000001
 21
473.54225
 31
0.0
  0
LINE
  5
296
330
1E
100
AcDbEntity
  8
0
100
AcDbLine
 10
86.3246
 20
472.5442499999999
 30
0.0
 11
86.6797
 21
473.0792499999999
 31
0.0
  0
LINE
  5
2A0
330
1E
100
AcDbEntity
  8
0
100
AcDbLine
 10
87.08910000000001
 20
473.54225
 30
0.0
 11
87.5524
 21
473.9522499999999
 31
0.0
  0
LINE
  5
2A2
330
1E
100
AcDbEntity
  8
0
100
AcDbLine
 10
87.5524
 20
473.9522499999999
 30
0.0
 11
88.08719999999999
 21
474.30725
 31
0.0
  0
LINE
  5
2A4
330
1E
100
AcDbEntity
  8
0
100
AcDbLine
 10
88.08719999999999
 20
474.30725
 30
0.0
 11
88.588
 21
474.5942499999999
 31
0.0
  0
LINE
  5
2A6
330
1E
100
AcDbEntity
  8
0
100
AcDbLine
 10
88.588
 20
474.5942499999999
 30
0.0
 11
89.288
 21
474.87625
 31
0.0
  0
LINE
  5
2A8
330
1E
100
AcDbEntity
  8
0
100
AcDbLine
 10
89.288
 20
474.87625
 30
0.0
 11
90.0999
 21
475.0752499999999
 31
0.0
  0
LINE
  5
2AA
330
1E
100
AcDbEntity
  8
0
100
AcDbLine
 10
90.0999
 20
475.0752499999999
 30
0.0
 11
91.08589999999999
 21
475.2582499999999
 31
0.0
  0
LINE
  5
2AD
330
1E
100
AcDbEntity
  8
0
100
AcDbLine
 10
91.08589999999999
 20
475.2582499999999
 30
0.0
 11
92.9091
 21
475.47525
 31
0.0
  0
LINE
  5
2B0
330
1E
100
AcDbEntity
  8
0
100
AcDbLine
 10
92.9091
 20
475.47525
 30
0.0
 11
95.13769999999999
 21
475.74025
 31
0.0
  0
LINE
  5
2B1
330
1E
100
AcDbEntity
  8
0
100
AcDbLine
 10
95.13769999999999
 20
475.74025
 30
0.0
 11
98.36770000000001
 21
475.98525
 31
0.0
  0
LINE
  5
2B4
330
1E
100
AcDbEntity
  8
0
100
AcDbLine
 10
98.36770000000001
 20
475.98525
 30
0.0
 11
102.0526999999999
 21
476.1882499999999
 31
0.0
  0
LINE
  5
2B6
330
1E
100
AcDbEntity
  8
0
100
AcDbLine
 10
102.0526999999999
 20
476.1882499999999
 30
0.0
 11
104.8977
 21
476.28525
 31
0.0
  0
LINE
  5
2B8
330
1E
100
AcDbEntity
  8
0
100
AcDbLine
 10
104.8977
 20
476.28525
 30
0.0
 11
106.8165
 21
476.31525
 31
0.0
  0
LINE
  5
2CD
330
1E
100
AcDbEntity
  8
0
100
AcDbLine
 10
106.8165
 20
476.31525
 30
0.0
 11
108.7353
 21
476.28525
 31
0.0
  0
LINE
  5
2F8
330
1E
100
AcDbEntity
  8
0
100
AcDbLine
 10
2.3115
 20
98.76415000000001
 30
0.0
 11
2.3115
 21
638.60825
 31
0.0
  0
LINE
  5
2F9
330
1E
100
AcDbEntity
  8
0
100
AcDbLine
 10
2.3115
 20
98.76415000000001
 30
0.0
 11
2.3115
 21
88.06015
 31
0.0
  0
LINE
  5
2FA
330
1E
100
AcDbEntity
  8
0
100
AcDbLine
 10
2.3115
 20
88.06015
 30
0.0
 11
2.3115
 21
98.76415000000001
 31
0.0
  0
LINE
  5
2FB
330
1E
100
AcDbEntity
  8
0
100
AcDbLine
 10
2.3115
 20
88.06015
 30
0.0
 11
2.3115
 21
78.86884999999991
 31
0.0
  0
LINE
  5
2FD
330
1E
100
AcDbEntity
  8
0
100
AcDbLine
 10
2.3115
 20
78.86884999999991
 30
0.0
 11
2.3115
 21
88.06015
 31
0.0
  0
LINE
  5
2FE
330
1E
100
AcDbEntity
  8
0
100
AcDbLine
 10
2.3115
 20
78.86884999999991
 30
0.0
 11
2.3115
 21
72.48864999999991
 31
0.0
  0
LINE
  5
2FF
330
1E
100
AcDbEntity
  8
0
100
AcDbLine
 10
-0.183500000000003
 20
75.0869499999999
 30
0.0
 11
-0.183500000000003
 21
70.23234999999989
 31
0.0
  0
LINE
  5
300
330
1E
100
AcDbEntity
  8
0
100
AcDbLine
 10
-0.183500000000003
 20
75.0869499999999
 30
0.0
 11
-0.183500000000003
 21
81.84395
 31
0.0
  0
LINE
  5
301
330
1E
100
AcDbEntity
  8
0
100
AcDbLine
 10
2.3115
 20
72.48864999999991
 30
0.0
 11
3.82549999999998
 21
53.74104999999989
 31
0.0
  0
LINE
  5
302
330
1E
100
AcDbEntity
  8
0
100
AcDbLine
 10
2.3115
 20
72.48864999999991
 30
0.0
 11
2.3115
 21
78.86884999999991
 31
0.0
  0
LINE
  5
304
330
1E
100
AcDbEntity
  8
0
100
AcDbLine
 10
514.4955
 20
590.37725
 30
0.0
 11
517.3704999999999
 21
590.60325
 31
0.0
  0
LINE
  5
305
330
1E
100
AcDbEntity
  8
0
100
AcDbLine
 10
512.7585
 20
590.73525
 30
0.0
 11
514.4955
 21
590.37725
 31
0.0
  0
LINE
  5
307
330
1E
100
AcDbEntity
  8
0
100
AcDbLine
 10
511.5005
 20
591.1952499999999
 30
0.0
 11
512.7585
 21
590.73525
 31
0.0
  0
LINE
  5
309
330
1E
100
AcDbEntity
  8
0
100
AcDbLine
 10
510.7264999999999
 20
591.5942499999999
 30
0.0
 11
511.5005
 21
591.1952499999999
 31
0.0
  0
LINE
  5
30A
330
1E
100
AcDbEntity
  8
0
100
AcDbLine
 10
510.3654999999999
 20
591.86225
 30
0.0
 11
510.7264999999999
 21
591.5942499999999
 31
0.0
  0
LINE
  5
30C
330
1E
100
AcDbEntity
  8
0
100
AcDbLine
 10
510.1835
 20
592.1082499999999
 30
0.0
 11
510.3654999999999
 21
591.86225
 31
0.0
  0
LINE
  5
30D
330
1E
100
AcDbEntity
  8
0
100
AcDbLine
 10
510.1835
 20
592.1082499999999
 30
0.0
 11
510.1835
 21
598.37125
 31
0.0
  0
LINE
  5
30E
330
1E
100
AcDbEntity
  8
0
100
AcDbLine
 10
510.1835
 20
598.37125
 30
0.0
 11
510.1835
 21
638.33825
 31
0.0
  0
LINE
  5
30F
330
1E
100
AcDbEntity
  8
0
100
AcDbLine
 10
510.1835
 20
598.37125
 30
0.0
 11
510.1835
 21
648.37125
 31
0.0
  0
LINE
  5
310
330
1E
100
AcDbEntity
  8
0
100
AcDbLine
 10
510.1835
 20
638.33825
 30
0.0
 11
510.3265
 21
638.0992499999999
 31
0.0
  0
LINE
  5
311
330
1E
100
AcDbEntity
  8
0
100
AcDbLine
 10
510.1835
 20
638.33825
 30
0.0
 11
510.1835
 21
598.37125
 31
0.0
  0
LINE
  5
312
330
1E
100
AcDbEntity
  8
0
100
AcDbLine
 10
510.1835
 20
638.33825
 30
0.0
 11
510.1835
 21
648.37125
 31
0.0
  0
LINE
  5
315
330
1E
100
AcDbEntity
  8
0
100
AcDbLine
 10
512.1214999999999
 20
637.2592499999999
 30
0.0
 11
514.5254999999999
 21
636.78925
 31
0.0
  0
LINE
  5
316
330
1E
100
AcDbEntity
  8
0
100
AcDbLine
 10
511.0325
 20
637.62125
 30
0.0
 11
512.1214999999999
 21
637.2592499999999
 31
0.0
  0
LINE
  5
319
330
1E
100
AcDbEntity
  8
0
100
AcDbLine
 10
510.3265
 20
638.0992499999999
 30
0.0
 11
511.0325
 21
637.62125
 31
0.0
  0
LINE
  5
31A
330
1E
100
AcDbEntity
  8
0
100
AcDbLine
 10
213.8164999999999
 20
638.60825
 30
0.0
 11
213.8164999999999
 21
648.88625
 31
0.0
  0
LINE
  5
31D
330
1E
100
AcDbEntity
  8
0
100
AcDbLine
 10
211.3214999999999
 20
638.60825
 30
0.0
 11
211.3214999999999
 21
649.42725
 31
0.0
  0
LINE
  5
31E
330
1E
100
AcDbEntity
  8
0
100
AcDbLine
 10
2.3115
 20
638.60825
 30
0.0
 11
2.3115
 21
649.42725
 31
0.0
  0
LINE
  5
31F
330
1E
100
AcDbEntity
  8
0
100
AcDbLine
 10
2.3115
 20
638.60825
 30
0.0
 11
2.3115
 21
98.76415000000001
 31
0.0
  0
LINE
  5
320
330
1E
100
AcDbEntity
  8
0
100
AcDbLine
 10
-0.183500000000003
 20
638.60825
 30
0.0
 11
-0.183500000000003
 21
98.7671499999999
 31
0.0
  0
LINE
  5
321
330
1E
100
AcDbEntity
  8
0
100
AcDbLine
 10
-0.183500000000003
 20
638.60825
 30
0.0
 11
-0.183500000000003
 21
648.88625
 31
0.0
  0
LINE
  5
322
330
1E
100
AcDbEntity
  8
0
100
AcDbLine
 10
514.0375
 20
638.3542499999999
 30
0.0
 11
514.3815
 21
637.8742499999999
 31
0.0
  0
LINE
  5
323
330
1E
100
AcDbEntity
  8
0
100
AcDbLine
 10
514.5254999999999
 20
636.78925
 30
0.0
 11
517.2335
 21
636.9982499999999
 31
0.0
  0
LINE
  5
324
330
1E
100
AcDbEntity
  8
0
100
AcDbLine
 10
514.3815
 20
637.8742499999999
 30
0.0
 11
515.6214999999999
 21
637.3642499999999
 31
0.0
  0
LINE
  5
325
330
1E
100
AcDbEntity
  8
0
100
AcDbLine
 10
514.0375
 20
638.80525
 30
0.0
 11
514.0375
 21
638.3542499999999
 31
0.0
  0
LINE
  5
326
330
1E
100
AcDbEntity
  8
0
100
AcDbLine
 10
514.0375
 20
638.80525
 30
0.0
 11
514.045062648115
 21
638.343697467746
 31
0.0
  0
LINE
  5
327
330
1E
100
AcDbEntity
  8
0
100
AcDbLine
 10
514.0375
 20
638.80525
 30
0.0
 11
514.3135
 21
639.43525
 31
0.0
  0
LINE
  5
328
330
1E
100
AcDbEntity
  8
0
100
AcDbLine
 10
-0.183500000000003
 20
1265.63525
 30
0.0
 11
-0.183500000000003
 21
1260.495249999999
 31
0.0
  0
LINE
  5
329
330
1E
100
AcDbEntity
  8
0
100
AcDbLine
 10
-0.183500000000003
 20
1265.63525
 30
0.0
 11
-0.183500000000003
 21
1267.61525
 31
0.0
  0
LINE
  5
32A
330
1E
100
AcDbEntity
  8
0
100
AcDbLine
 10
-0.183500000000003
 20
1260.495249999999
 30
0.0
 11
-0.183500000000003
 21
1252.67525
 31
0.0
  0
LINE
  5
32B
330
1E
100
AcDbEntity
  8
0
100
AcDbLine
 10
-0.183500000000003
 20
1260.495249999999
 30
0.0
 11
-0.183500000000003
 21
1265.63525
 31
0.0
  0
LINE
  5
32C
330
1E
100
AcDbEntity
  8
0
100
AcDbLine
 10
-0.183500000000003
 20
1252.67525
 30
0.0
 11
-0.183500000000003
 21
1242.91525
 31
0.0
  0
LINE
  5
32D
330
1E
100
AcDbEntity
  8
0
100
AcDbLine
 10
-0.183500000000003
 20
1252.67525
 30
0.0
 11
-0.183500000000003
 21
1260.495249999999
 31
0.0
  0
LINE
  5
32E
330
1E
100
AcDbEntity
  8
0
100
AcDbLine
 10
-0.183500000000003
 20
1242.91525
 30
0.0
 11
-0.183500000000003
 21
1232.13525
 31
0.0
  0
LINE
  5
32F
330
1E
100
AcDbEntity
  8
0
100
AcDbLine
 10
-0.183500000000003
 20
1242.91525
 30
0.0
 11
-0.183500000000003
 21
1252.67525
 31
0.0
  0
LINE
  5
330
330
1E
100
AcDbEntity
  8
0
100
AcDbLine
 10
-0.183500000000003
 20
1232.13525
 30
0.0
 11
-0.183500000000003
 21
725.73125
 31
0.0
  0
LINE
  5
331
330
1E
100
AcDbEntity
  8
0
100
AcDbLine
 10
-0.183500000000003
 20
1232.13525
 30
0.0
 11
-0.183500000000003
 21
1242.91525
 31
0.0
  0
LINE
  5
332
330
1E
100
AcDbEntity
  8
0
100
AcDbLine
 10
-0.183500000000003
 20
725.73125
 30
0.0
 11
-0.183500000000003
 21
714.37525
 31
0.0
  0
LINE
  5
333
330
1E
100
AcDbEntity
  8
0
100
AcDbLine
 10
-0.183500000000003
 20
725.73125
 30
0.0
 11
-0.183500000000003
 21
1232.13525
 31
0.0
  0
LINE
  5
334
330
1E
100
AcDbEntity
  8
0
100
AcDbLine
 10
-0.183500000000003
 20
714.37525
 30
0.0
 11
-0.183500000000003
 21
703.55125
 31
0.0
  0
LINE
  5
335
330
1E
100
AcDbEntity
  8
0
100
AcDbLine
 10
-0.183500000000003
 20
714.37525
 30
0.0
 11
-0.183500000000003
 21
725.73125
 31
0.0
  0
LINE
  5
336
330
1E
100
AcDbEntity
  8
0
100
AcDbLine
 10
-0.183500000000003
 20
703.55125
 30
0.0
 11
-0.183500000000003
 21
658.6772499999999
 31
0.0
  0
LINE
  5
337
330
1E
100
AcDbEntity
  8
0
100
AcDbLine
 10
-0.183500000000003
 20
703.55125
 30
0.0
 11
-0.183500000000003
 21
714.37525
 31
0.0
  0
LINE
  5
338
330
1E
100
AcDbEntity
  8
0
100
AcDbLine
 10
-0.183500000000003
 20
658.6772499999999
 30
0.0
 11
-0.183500000000003
 21
648.88625
 31
0.0
  0
LINE
  5
339
330
1E
100
AcDbEntity
  8
0
100
AcDbLine
 10
-0.183500000000003
 20
658.6772499999999
 30
0.0
 11
-0.183500000000003
 21
703.55125
 31
0.0
  0
LINE
  5
33A
330
1E
100
AcDbEntity
  8
0
100
AcDbLine
 10
213.8164999999999
 20
648.88625
 30
0.0
 11
213.8164999999999
 21
658.6772499999999
 31
0.0
  0
LINE
  5
33B
330
1E
100
AcDbEntity
  8
0
100
AcDbLine
 10
213.8164999999999
 20
648.88625
 30
0.0
 11
213.8164999999999
 21
638.60825
 31
0.0
  0
LINE
  5
33C
330
1E
100
AcDbEntity
  8
0
100
AcDbLine
 10
211.3214999999999
 20
649.42725
 30
0.0
 11
211.3214999999999
 21
638.60825
 31
0.0
  0
LINE
  5
33D
330
1E
100
AcDbEntity
  8
0
100
AcDbLine
 10
211.3214999999999
 20
649.42725
 30
0.0
 11
211.3214999999999
 21
659.73325
 31
0.0
  0
LINE
  5
33E
330
1E
100
AcDbEntity
  8
0
100
AcDbLine
 10
2.3115
 20
1242.15525
 30
0.0
 11
2.3115
 21
1251.22525
 31
0.0
  0
LINE
  5
33F
330
1E
100
AcDbEntity
  8
0
100
AcDbLine
 10
2.3115
 20
1242.15525
 30
0.0
 11
2.3115
 21
1232.13525
 31
0.0
  0
LINE
  5
340
330
1E
100
AcDbEntity
  8
0
100
AcDbLine
 10
2.3115
 20
1265.41525
 30
0.0
 11
106.8165
 21
1265.41525
 31
0.0
  0
LINE
  5
341
330
1E
100
AcDbEntity
  8
0
100
AcDbLine
 10
2.3115
 20
1265.41525
 30
0.0
 11
2.3115
 21
1265.11525
 31
0.0
  0
LINE
  5
342
330
1E
100
AcDbEntity
  8
0
100
AcDbLine
 10
2.3115
 20
1265.11525
 30
0.0
 11
2.3115
 21
1265.41525
 31
0.0
  0
LINE
  5
343
330
1E
100
AcDbEntity
  8
0
100
AcDbLine
 10
2.3115
 20
1265.11525
 30
0.0
 11
2.3115
 21
1263.275249999999
 31
0.0
  0
LINE
  5
344
330
1E
100
AcDbEntity
  8
0
100
AcDbLine
 10
1.500499999999999
 20
1266.64525
 30
0.0
 11
2.21249999999999
 21
1266.24525
 31
0.0
  0
LINE
  5
345
330
1E
100
AcDbEntity
  8
0
100
AcDbLine
 10
2.229499999999999
 20
1266.24525
 30
0.0
 11
2.677500000000009
 21
1266.24525
 31
0.0
  0
LINE
  5
346
330
1E
100
AcDbEntity
  8
0
100
AcDbLine
 10
1.1745
 20
1265.685249999999
 30
0.0
 11
2.3115
 21
1265.41525
 31
0.0
  0
LINE
  5
348
330
1E
100
AcDbEntity
  8
0
100
AcDbLine
 10
0.286499999999995
 20
1266.455249999999
 30
0.0
 11
1.1745
 21
1265.685249999999
 31
0.0
  0
LINE
  5
349
330
1E
100
AcDbEntity
  8
0
100
AcDbLine
 10
2.3115
 20
1263.275249999999
 30
0.0
 11
2.3115
 21
1265.11525
 31
0.0
  0
LINE
  5
34A
330
1E
100
AcDbEntity
  8
0
100
AcDbLine
 10
2.3115
 20
1263.275249999999
 30
0.0
 11
2.3115
 21
1258.49525
 31
0.0
  0
LINE
  5
34B
330
1E
100
AcDbEntity
  8
0
100
AcDbLine
 10
2.3115
 20
1258.49525
 30
0.0
 11
2.3115
 21
1263.275249999999
 31
0.0
  0
LINE
  5
34C
330
1E
100
AcDbEntity
  8
0
100
AcDbLine
 10
2.3115
 20
1258.49525
 30
0.0
 11
2.3115
 21
1251.22525
 31
0.0
  0
LINE
  5
34D
330
1E
100
AcDbEntity
  8
0
100
AcDbLine
 10
2.3115
 20
1232.13525
 30
0.0
 11
2.3115
 21
1242.15525
 31
0.0
  0
LINE
  5
34E
330
1E
100
AcDbEntity
  8
0
100
AcDbLine
 10
2.3115
 20
1232.13525
 30
0.0
 11
2.3115
 21
725.73125
 31
0.0
  0
LINE
  5
34F
330
1E
100
AcDbEntity
  8
0
100
AcDbLine
 10
2.3115
 20
1251.22525
 30
0.0
 11
2.3115
 21
1258.49525
 31
0.0
  0
LINE
  5
350
330
1E
100
AcDbEntity
  8
0
100
AcDbLine
 10
2.3115
 20
1251.22525
 30
0.0
 11
2.3115
 21
1242.15525
 31
0.0
  0
LINE
  5
351
330
1E
100
AcDbEntity
  8
0
100
AcDbLine
 10
2.3115
 20
725.73125
 30
0.0
 11
2.3115
 21
1232.13525
 31
0.0
  0
LINE
  5
352
330
1E
100
AcDbEntity
  8
0
100
AcDbLine
 10
2.3115
 20
725.73125
 30
0.0
 11
2.3115
 21
714.9122499999999
 31
0.0
  0
LINE
  5
353
330
1E
100
AcDbEntity
  8
0
100
AcDbLine
 10
2.3115
 20
714.9122499999999
 30
0.0
 11
2.3115
 21
725.73125
 31
0.0
  0
LINE
  5
354
330
1E
100
AcDbEntity
  8
0
100
AcDbLine
 10
2.3115
 20
714.9122499999999
 30
0.0
 11
2.3115
 21
704.60625
 31
0.0
  0
LINE
  5
355
330
1E
100
AcDbEntity
  8
0
100
AcDbLine
 10
2.3115
 20
704.60625
 30
0.0
 11
2.3115
 21
714.9122499999999
 31
0.0
  0
LINE
  5
356
330
1E
100
AcDbEntity
  8
0
100
AcDbLine
 10
2.3115
 20
704.60625
 30
0.0
 11
2.3115
 21
659.73325
 31
0.0
  0
LINE
  5
35A
330
1E
100
AcDbEntity
  8
0
100
AcDbLine
 10
5.780499999999999
 20
1266.24525
 30
0.0
 11
106.8165
 21
1266.11525
 31
0.0
  0
LINE
  5
35C
330
1E
100
AcDbEntity
  8
0
100
AcDbLine
 10
3.31049999999999
 20
1266.24525
 30
0.0
 11
5.780499999999999
 21
1266.24525
 31
0.0
  0
LINE
  5
35E
330
1E
100
AcDbEntity
  8
0
100
AcDbLine
 10
3.2315
 20
1266.24525
 30
0.0
 11
3.31049999999999
 21
1266.24525
 31
0.0
  0
LINE
  5
35F
330
1E
100
AcDbEntity
  8
0
100
AcDbLine
 10
3.166500000000009
 20
1266.24525
 30
0.0
 11
3.2315
 21
1266.24525
 31
0.0
  0
LINE
  5
360
330
1E
100
AcDbEntity
  8
0
100
AcDbLine
 10
2.677500000000009
 20
1266.24525
 30
0.0
 11
3.13549999999999
 21
1266.24525
 31
0.0
  0
LINE
  5
36C
330
1E
100
AcDbEntity
  8
0
100
AcDbLine
 10
211.3215
 20
1251.22525
 30
0.0
 11
211.3214999999999
 21
1232.13525
 31
0.0
  0
LINE
  5
370
330
1E
100
AcDbEntity
  8
0
100
AcDbLine
 10
211.3214999999999
 20
1232.13525
 30
0.0
 11
211.3214999999999
 21
725.73125
 31
0.0
  0
LINE
  5
371
330
1E
100
AcDbEntity
  8
0
100
AcDbLine
 10
211.3214999999999
 20
1232.13525
 30
0.0
 11
211.3215
 21
1251.22525
 31
0.0
  0
LINE
  5
372
330
1E
100
AcDbEntity
  8
0
100
AcDbLine
 10
211.3214999999999
 20
725.73125
 30
0.0
 11
211.3214999999999
 21
714.9122499999999
 31
0.0
  0
LINE
  5
373
330
1E
100
AcDbEntity
  8
0
100
AcDbLine
 10
211.3214999999999
 20
725.73125
 30
0.0
 11
211.3214999999999
 21
1232.13525
 31
0.0
  0
LINE
  5
374
330
1E
100
AcDbEntity
  8
0
100
AcDbLine
 10
211.3214999999999
 20
714.9122499999999
 30
0.0
 11
211.3214999999999
 21
704.60625
 31
0.0
  0
LINE
  5
375
330
1E
100
AcDbEntity
  8
0
100
AcDbLine
 10
211.3214999999999
 20
714.9122499999999
 30
0.0
 11
211.3214999999999
 21
725.73125
 31
0.0
  0
LINE
  5
376
330
1E
100
AcDbEntity
  8
0
100
AcDbLine
 10
211.3214999999999
 20
704.60625
 30
0.0
 11
211.3214999999999
 21
659.73325
 31
0.0
  0
LINE
  5
377
330
1E
100
AcDbEntity
  8
0
100
AcDbLine
 10
211.3214999999999
 20
704.60625
 30
0.0
 11
211.3214999999999
 21
714.9122499999999
 31
0.0
  0
LINE
  5
378
330
1E
100
AcDbEntity
  8
0
100
AcDbLine
 10
211.3214999999999
 20
659.73325
 30
0.0
 11
211.3214999999999
 21
649.42725
 31
0.0
  0
LINE
  5
379
330
1E
100
AcDbEntity
  8
0
100
AcDbLine
 10
211.3214999999999
 20
659.73325
 30
0.0
 11
211.3214999999999
 21
704.60625
 31
0.0
  0
LINE
  5
385
330
1E
100
AcDbEntity
  8
0
100
AcDbLine
 10
213.8165
 20
1252.67525
 30
0.0
 11
213.8164999999999
 21
1232.13525
 31
0.0
  0
LINE
  5
386
330
1E
100
AcDbEntity
  8
0
100
AcDbLine
 10
213.8164999999999
 20
1232.13525
 30
0.0
 11
213.8165
 21
1252.67525
 31
0.0
  0
LINE
  5
387
330
1E
100
AcDbEntity
  8
0
100
AcDbLine
 10
213.8164999999999
 20
1232.13525
 30
0.0
 11
213.8164999999999
 21
725.73125
 31
0.0
  0
LINE
  5
388
330
1E
100
AcDbEntity
  8
0
100
AcDbLine
 10
213.8164999999999
 20
725.73125
 30
0.0
 11
213.8164999999999
 21
1232.13525
 31
0.0
  0
LINE
  5
389
330
1E
100
AcDbEntity
  8
0
100
AcDbLine
 10
213.8164999999999
 20
725.73125
 30
0.0
 11
213.8164999999999
 21
714.37525
 31
0.0
  0
LINE
  5
38A
330
1E
100
AcDbEntity
  8
0
100
AcDbLine
 10
213.8164999999999
 20
714.37525
 30
0.0
 11
213.8164999999999
 21
725.73125
 31
0.0
  0
LINE
  5
38B
330
1E
100
AcDbEntity
  8
0
100
AcDbLine
 10
213.8164999999999
 20
714.37525
 30
0.0
 11
213.8164999999999
 21
703.55125
 31
0.0
  0
LINE
  5
38C
330
1E
100
AcDbEntity
  8
0
100
AcDbLine
 10
213.8164999999999
 20
703.55125
 30
0.0
 11
213.8164999999999
 21
714.37525
 31
0.0
  0
LINE
  5
38D
330
1E
100
AcDbEntity
  8
0
100
AcDbLine
 10
213.8164999999999
 20
703.55125
 30
0.0
 11
213.8164999999999
 21
658.6772499999999
 31
0.0
  0
LINE
  5
38E
330
1E
100
AcDbEntity
  8
0
100
AcDbLine
 10
213.8164999999999
 20
658.6772499999999
 30
0.0
 11
213.8164999999999
 21
703.55125
 31
0.0
  0
LINE
  5
38F
330
1E
100
AcDbEntity
  8
0
100
AcDbLine
 10
213.8164999999999
 20
658.6772499999999
 30
0.0
 11
213.8164999999999
 21
648.88625
 31
0.0
  0
LINE
  5
393
330
1E
100
AcDbEntity
  8
0
100
AcDbLine
 10
2.3115
 20
659.73325
 30
0.0
 11
2.3115
 21
704.60625
 31
0.0
  0
LINE
  5
394
330
1E
100
AcDbEntity
  8
0
100
AcDbLine
 10
2.3115
 20
659.73325
 30
0.0
 11
2.3115
 21
649.42725
 31
0.0
  0
LINE
  5
395
330
1E
100
AcDbEntity
  8
0
100
AcDbLine
 10
2.3115
 20
649.42725
 30
0.0
 11
2.3115
 21
659.73325
 31
0.0
  0
LINE
  5
396
330
1E
100
AcDbEntity
  8
0
100
AcDbLine
 10
2.3115
 20
649.42725
 30
0.0
 11
2.3115
 21
638.60825
 31
0.0
  0
LINE
  5
397
330
1E
100
AcDbEntity
  8
0
100
AcDbLine
 10
-0.183500000000003
 20
648.88625
 30
0.0
 11
-0.183500000000003
 21
638.60825
 31
0.0
  0
LINE
  5
398
330
1E
100
AcDbEntity
  8
0
100
AcDbLine
 10
-0.183500000000003
 20
648.88625
 30
0.0
 11
-0.183500000000003
 21
658.6772499999999
 31
0.0
  0
LINE
  5
39A
330
1E
100
AcDbEntity
  8
0
100
AcDbLine
 10
-0.183500000000003
 20
1281.84525
 30
0.0
 11
-0.183500000000003
 21
1296.57525
 31
0.0
  0
LINE
  5
39C
330
1E
100
AcDbEntity
  8
0
100
AcDbLine
 10
-0.183500000000003
 20
1296.57525
 30
0.0
 11
-0.143500000000008
 21
1296.72525
 31
0.0
  0
LINE
  5
39D
330
1E
100
AcDbEntity
  8
0
100
AcDbLine
 10
-0.183500000000003
 20
1296.57525
 30
0.0
 11
-0.183500000000003
 21
1281.84525
 31
0.0
  0
LINE
  5
39E
330
1E
100
AcDbEntity
  8
0
100
AcDbLine
 10
-0.183500000000003
 20
1268.11525
 30
0.0
 11
-0.125500000000018
 21
1268.295249999999
 31
0.0
  0
LINE
  5
39F
330
1E
100
AcDbEntity
  8
0
100
AcDbLine
 10
-0.183500000000003
 20
1268.11525
 30
0.0
 11
-0.183500000000003
 21
1267.91525
 31
0.0
  0
LINE
  5
3A0
330
1E
100
AcDbEntity
  8
0
100
AcDbLine
 10
-0.183500000000003
 20
1267.91525
 30
0.0
 11
-0.183500000000003
 21
1268.11525
 31
0.0
  0
LINE
  5
3A1
330
1E
100
AcDbEntity
  8
0
100
AcDbLine
 10
-0.183500000000003
 20
1267.91525
 30
0.0
 11
0.286499999999995
 21
1266.455249999999
 31
0.0
  0
LINE
  5
3A2
330
1E
100
AcDbEntity
  8
0
100
AcDbLine
 10
-0.183500000000003
 20
1267.91525
 30
0.0
 11
-0.183500000000003
 21
1267.61525
 31
0.0
  0
LINE
  5
3AE
330
1E
100
AcDbEntity
  8
0
100
AcDbLine
 10
0.897499999999988
 20
1267.40525
 30
0.0
 11
0.897499999999988
 21
1267.40525
 31
0.0
  0
LINE
  5
3AF
330
1E
100
AcDbEntity
  8
0
100
AcDbLine
 10
0.897499999999988
 20
1267.40525
 30
0.0
 11
1.500499999999999
 21
1266.64525
 31
0.0
  0
LINE
  5
3B0
330
1E
100
AcDbEntity
  8
0
100
AcDbLine
 10
-0.125500000000018
 20
1268.295249999999
 30
0.0
 11
0.0254999999999837
 21
1268.39525
 31
0.0
  0
LINE
  5
3B1
330
1E
100
AcDbEntity
  8
0
100
AcDbLine
 10
-0.143500000000008
 20
1296.72525
 30
0.0
 11
-0.0345000000000092
 21
1296.83525
 31
0.0
  0
LINE
  5
3B2
330
1E
100
AcDbEntity
  8
0
100
AcDbLine
 10
0.1145
 20
1296.87525
 30
0.0
 11
0.253499999999987
 21
1296.87525
 31
0.0
  0
LINE
  5
3B3
330
1E
100
AcDbEntity
  8
0
100
AcDbLine
 10
-0.0345000000000092
 20
1296.83525
 30
0.0
 11
0.1145
 21
1296.87525
 31
0.0
  0
LINE
  5
3BA
330
1E
100
AcDbEntity
  8
0
100
AcDbLine
 10
0.6031097560975621
 20
1268.425249999999
 30
0.0
 11
0.897499999999988
 21
1267.40525
 31
0.0
  0
LINE
  5
C0B
330
1E
100
AcDbEntity
  8
0
100
AcDbLine
 10
1.0075
 20
1296.88525
 30
0.0
 11
1.127499999999999
 21
1296.88525
 31
0.0
  0
LINE
  5
C0C
330
1E
100
AcDbEntity
  8
0
100
AcDbLine
 10
1.0075
 20
1296.88525
 30
0.0
 11
4.89502319897854
 21
1296.88733947085
 31
0.0
  0
LINE
  5
C0D
330
1E
100
AcDbEntity
  8
0
100
AcDbLine
 10
1.0075
 20
1296.88525
 30
0.0
 11
4.89502319897854
 21
1296.88733947085
 31
0.0
  0
LINE
  5
C0E
330
1E
100
AcDbEntity
  8
0
100
AcDbLine
 10
0.253499999999987
 20
1296.87525
 30
0.0
 11
1.0075
 21
1296.88525
 31
0.0
  0
LINE
  5
10AE
330
1E
100
AcDbEntity
  8
0
100
AcDbLine
 10
2.67549999999998
 20
1279.35525
 30
0.0
 11
3.07349999999999
 21
1279.36525
 31
0.0
  0
LINE
  5
10AF
330
1E
100
AcDbEntity
  8
0
100
AcDbLine
 10
2.40049999999998
 20
1279.34525
 30
0.0
 11
2.67549999999998
 21
1279.35525
 31
0.0
  0
LINE
  5
10B0
330
1E
100
AcDbEntity
  8
0
100
AcDbLine
 10
2.3035
 20
1279.32525
 30
0.0
 11
2.40049999999998
 21
1279.34525
 31
0.0
  0
LINE
  5
10B1
330
1E
100
AcDbEntity
  8
0
100
AcDbLine
 10
2.3035
 20
1279.32525
 30
0.0
 11
2.677500000000009
 21
1266.24525
 31
0.0
  0
LINE
  5
10BF
330
1E
100
AcDbEntity
  8
0
100
AcDbLine
 10
80.3767
 20
1279.715249999999
 30
0.0
 11
106.4284999999999
 21
1279.73525
 31
0.0
  0
LINE
  5
10C0
330
1E
100
AcDbEntity
  8
0
100
AcDbLine
 10
54.4139
 20
1279.64525
 30
0.0
 11
80.3767
 21
1279.715249999999
 31
0.0
  0
LINE
  5
10C1
330
1E
100
AcDbEntity
  8
0
100
AcDbLine
 10
28.6182
 20
1279.52525
 30
0.0
 11
54.4139
 21
1279.64525
 31
0.0
  0
LINE
  5
10C2
330
1E
100
AcDbEntity
  8
0
100
AcDbLine
 10
3.07349999999999
 20
1279.36525
 30
0.0
 11
28.6182
 21
1279.52525
 31
0.0
  0
LINE
  5
10C3
330
1E
100
AcDbEntity
  8
0
100
AcDbLine
 10
1.127499999999999
 20
1296.88525
 30
0.0
 11
2.5785
 21
1296.88525
 31
0.0
  0
LINE
  5
10C4
330
1E
100
AcDbEntity
  8
0
100
AcDbLine
 10
24.75179999999999
 20
1296.90525
 30
0.0
 11
47.12169999999999
 21
1296.91525
 31
0.0
  0
LINE
  5
10C5
330
1E
100
AcDbEntity
  8
0
100
AcDbLine
 10
64.25209999999999
 20
1296.92394294279
 30
0.0
 11
64.25209999999999
 21
1309.31525
 31
0.0
  0
LINE
  5
10C6
330
1E
100
AcDbEntity
  8
0
100
AcDbLine
 10
86.60760000000001
 20
1296.92525
 30
0.0
 11
106.4235
 21
1296.92525
 31
0.0
  0
LINE
  5
10CC
330
1E
100
AcDbEntity
  8
0
100
AcDbLine
 10
65.0145
 20
1310.80525
 30
0.0
 11
65.17959999999999
 21
1310.81525
 31
0.0
  0
LINE
  5
10CD
330
1E
100
AcDbEntity
  8
0
100
AcDbLine
 10
65.17959999999999
 20
1310.81525
 30
0.0
 11
65.62229999999999
 21
1310.82525
 31
0.0
  0
LINE
  5
10CE
330
1E
100
AcDbEntity
  8
0
100
AcDbLine
 10
65.8262
 20
1310.82525
 30
0.0
 11
77.16979999999999
 21
1310.965249999999
 31
0.0
  0
LINE
  5
10D0
330
1E
100
AcDbEntity
  8
0
100
AcDbLine
 10
77.16979999999999
 20
1310.965249999999
 30
0.0
 11
88.59299999999999
 21
1311.055249999999
 31
0.0
  0
LINE
  5
10D1
330
1E
100
AcDbEntity
  8
0
100
AcDbLine
 10
88.59299999999999
 20
1311.055249999999
 30
0.0
 11
100.0625
 21
1311.11525
 31
0.0
  0
LINE
  5
10D2
330
1E
100
AcDbEntity
  8
0
100
AcDbLine
 10
100.0625
 20
1311.11525
 30
0.0
 11
106.8165
 21
1311.10525
 31
0.0
  0
LINE
  5
10D4
330
1E
100
AcDbEntity
  8
0
100
AcDbLine
 10
65.62229999999999
 20
1310.82525
 30
0.0
 11
65.8262
 21
1310.82525
 31
0.0
  0
LINE
  5
10D5
330
1E
100
AcDbEntity
  8
0
100
AcDbLine
 10
64.77079999999999
 20
1310.74525
 30
0.0
 11
65.0145
 21
1310.80525
 31
0.0
  0
LINE
  5
10D6
330
1E
100
AcDbEntity
  8
0
100
AcDbLine
 10
64.77079999999999
 20
1310.74525
 30
0.0
 11
64.5917
 21
1310.55525
 31
0.0
  0
LINE
  5
10D8
330
1E
100
AcDbEntity
  8
0
100
AcDbLine
 10
64.5241
 20
1310.31525
 30
0.0
 11
64.5917
 21
1310.55525
 31
0.0
  0
LINE
  5
10DA
330
1E
100
AcDbEntity
  8
0
100
AcDbLine
 10
64.25209999999999
 20
1309.31525
 30
0.0
 11
64.25209999999999
 21
1296.92394294279
 31
0.0
  0
LINE
  5
10DB
330
1E
100
AcDbEntity
  8
0
100
AcDbLine
 10
64.25209999999999
 20
1309.31525
 30
0.0
 11
64.5241
 21
1310.31525
 31
0.0
  0
LINE
  5
10DC
330
1E
100
AcDbEntity
  8
0
100
AcDbLine
 10
66.8278
 20
1296.92525
 30
0.0
 11
86.60760000000001
 21
1296.92525
 31
0.0
  0
LINE
  5
10DD
330
1E
100
AcDbEntity
  8
0
100
AcDbLine
 10
47.12169999999999
 20
1296.91525
 30
0.0
 11
66.8278
 21
1296.92525
 31
0.0
  0
LINE
  5
10DE
330
1E
100
AcDbEntity
  8
0
100
AcDbLine
 10
2.5785
 20
1296.88525
 30
0.0
 11
24.75179999999999
 21
1296.90525
 31
0.0
  0
LINE
  5
1552
330
1E
100
AcDbEntity
  8
0
100
AcDbLine
 10
106.8165
 20
1279.73525
 30
0.0
 11
107.2044999999999
 21
1279.73525
 31
0.0
  0
LINE
  5
15BD
330
1E
100
AcDbEntity
  8
0
100
AcDbLine
 10
106.8165
 20
1296.92525
 30
0.0
 11
107.2095
 21
1296.92525
 31
0.0
  0
LINE
  5
15C3
330
1E
100
AcDbEntity
  8
0
100
AcDbLine
 10
106.4284999999999
 20
1279.73525
 30
0.0
 11
106.8165
 21
1279.73525
 31
0.0
  0
LINE
  5
15C4
330
1E
100
AcDbEntity
  8
0
100
AcDbLine
 10
106.4235
 20
1296.92525
 30
0.0
 11
106.8165
 21
1296.92525
 31
0.0
  0
LINE
  5
15C6
330
1E
100
AcDbEntity
  8
0
100
AcDbLine
 10
0.115499999999981
 20
1268.41525
 30
0.0
 11
0.6059959349593371
 21
1268.41525
 31
0.0
  0
LINE
  5
15C7
330
1E
100
AcDbEntity
  8
0
100
AcDbLine
 10
0.115499999999981
 20
1268.41525
 30
0.0
 11
0.6059959349593371
 21
1268.41525
 31
0.0
  0
LINE
  5
15C8
330
1E
100
AcDbEntity
  8
0
100
AcDbLine
 10
0.0254999999999837
 20
1268.39525
 30
0.0
 11
0.115499999999981
 21
1268.41525
 31
0.0
  0
LINE
  5
15C9
330
1E
100
AcDbEntity
  8
0
100
AcDbLine
 10
-0.183500000000003
 20
1267.61525
 30
0.0
 11
-0.183500000000003
 21
1265.63525
 31
0.0
  0
LINE
  5
15CA
330
1E
100
AcDbEntity
  8
0
100
AcDbLine
 10
-0.183500000000003
 20
1267.61525
 30
0.0
 11
-0.183500000000003
 21
1267.91525
 31
0.0
  0
LINE
  5
15CB
330
1E
100
AcDbEntity
  8
0
100
AcDbLine
 10
514.9874999999999
 20
784.14025
 30
0.0
 11
515.0415
 21
774.73425
 31
0.0
  0
LINE
  5
15CC
330
1E
100
AcDbEntity
  8
0
100
AcDbLine
 10
515.1905
 20
766.3152499999999
 30
0.0
 11
515.3144999999999
 21
760.0812499999999
 31
0.0
  0
LINE
  5
15D1
330
1E
100
AcDbEntity
  8
0
100
AcDbLine
 10
515.3144999999999
 20
760.0812499999999
 30
0.0
 11
515.4384999999999
 21
755.9992499999999
 31
0.0
  0
LINE
  5
15D2
330
1E
100
AcDbEntity
  8
0
100
AcDbLine
 10
515.3144999999999
 20
760.0372499999999
 30
0.0
 11
515.4384999999999
 21
755.9562499999999
 31
0.0
  0
LINE
  5
15D3
330
1E
100
AcDbEntity
  8
0
100
AcDbLine
 10
515.1905
 20
766.27125
 30
0.0
 11
515.3144999999999
 21
760.0372499999999
 31
0.0
  0
LINE
  5
15D4
330
1E
100
AcDbEntity
  8
0
100
AcDbLine
 10
515.0415
 20
774.73425
 30
0.0
 11
515.1905
 21
766.3152499999999
 31
0.0
  0
LINE
  5
15D6
330
1E
100
AcDbEntity
  8
0
100
AcDbLine
 10
515.0415
 20
774.69025
 30
0.0
 11
515.1905
 21
766.27125
 31
0.0
  0
LINE
  5
15D7
330
1E
100
AcDbEntity
  8
0
100
AcDbLine
 10
514.9874999999999
 20
784.09725
 30
0.0
 11
515.0415
 21
774.69025
 31
0.0
  0
LINE
  5
15D8
330
1E
100
AcDbEntity
  8
0
100
AcDbLine
 10
514.9874999999999
 20
805.69825
 30
0.0
 11
515.0415
 21
815.10525
 31
0.0
  0
LINE
  5
15DA
330
1E
100
AcDbEntity
  8
0
100
AcDbLine
 10
514.9334999999999
 20
794.91925
 30
0.0
 11
514.9874999999999
 21
805.69825
 31
0.0
  0
LINE
  5
15DB
330
1E
100
AcDbEntity
  8
0
100
AcDbLine
 10
514.9334999999999
 20
794.91925
 30
0.0
 11
514.9874999999999
 21
784.14025
 31
0.0
  0
LINE
  5
15DC
330
1E
100
AcDbEntity
  8
0
100
AcDbLine
 10
515.1905
 20
823.52425
 30
0.0
 11
515.3144999999999
 21
829.75825
 31
0.0
  0
LINE
  5
15DD
330
1E
100
AcDbEntity
  8
0
100
AcDbLine
 10
515.0415
 20
815.10525
 30
0.0
 11
515.1905
 21
823.52425
 31
0.0
  0
LINE
  5
15DE
330
1E
100
AcDbEntity
  8
0
100
AcDbLine
 10
515.4384999999999
 20
833.8392499999999
 30
0.0
 11
515.5475
 21
836.27725
 31
0.0
  0
LINE
  5
15DF
330
1E
100
AcDbEntity
  8
0
100
AcDbLine
 10
515.3144999999999
 20
829.75825
 30
0.0
 11
515.4384999999999
 21
833.8392499999999
 31
0.0
  0
LINE
  5
15E2
330
1E
100
AcDbEntity
  8
0
100
AcDbLine
 10
515.4384999999999
 20
833.7962499999999
 30
0.0
 11
515.5475
 21
836.23425
 31
0.0
  0
LINE
  5
15E3
330
1E
100
AcDbEntity
  8
0
100
AcDbLine
 10
515.3144999999999
 20
829.7152499999999
 30
0.0
 11
515.4384999999999
 21
833.7962499999999
 31
0.0
  0
LINE
  5
15E4
330
1E
100
AcDbEntity
  8
0
100
AcDbLine
 10
515.1905
 20
823.48125
 30
0.0
 11
515.3144999999999
 21
829.7152499999999
 31
0.0
  0
LINE
  5
15E5
330
1E
100
AcDbEntity
  8
0
100
AcDbLine
 10
515.0415
 20
815.0622499999998
 30
0.0
 11
515.1905
 21
823.48125
 31
0.0
  0
LINE
  5
15E6
330
1E
100
AcDbEntity
  8
0
100
AcDbLine
 10
514.9874999999999
 20
805.65525
 30
0.0
 11
515.0415
 21
815.0622499999998
 31
0.0
  0
LINE
  5
15E7
330
1E
100
AcDbEntity
  8
0
100
AcDbLine
 10
514.9334999999999
 20
794.87625
 30
0.0
 11
514.9874999999999
 21
805.65525
 31
0.0
  0
LINE
  5
15E8
330
1E
100
AcDbEntity
  8
0
100
AcDbLine
 10
514.9334999999999
 20
794.87625
 30
0.0
 11
514.9874999999999
 21
784.09725
 31
0.0
  0
LINE
  5
15E9
330
1E
100
AcDbEntity
  8
0
100
AcDbLine
 10
510.1835
 20
648.37125
 30
0.0
 11
510.1835
 21
638.33825
 31
0.0
  0
LINE
  5
15EA
330
1E
100
AcDbEntity
  8
0
100
AcDbLine
 10
510.1835
 20
648.37125
 30
0.0
 11
510.1835
 21
598.37125
 31
0.0
  0
LINE
  5
15EB
330
1E
100
AcDbEntity
  8
0
100
AcDbLine
 10
510.1835
 20
648.37125
 30
0.0
 11
516.9335
 21
648.37125
 31
0.0
  0
LINE
  5
15EF
330
1E
100
AcDbEntity
  8
0
100
AcDbLine
 10
514.3135
 20
639.43525
 30
0.0
 11
515.5534999999999
 21
639.9462499999999
 31
0.0
  0
LINE
  5
15F0
330
1E
100
AcDbEntity
  8
0
100
AcDbLine
 10
517.5834999999999
 20
638.91625
 30
0.0
 11
518.6835
 21
637.77425
 31
0.0
  0
LINE
  5
15F5
330
1E
100
AcDbEntity
  8
0
100
AcDbLine
 10
515.9194999999999
 20
749.93425
 30
0.0
 11
515.9416899641581
 21
749.826900537635
 31
0.0
  0
LINE
  5
15F8
330
1E
100
AcDbEntity
  8
0
100
AcDbLine
 10
515.9194999999999
 20
749.89125
 30
0.0
 11
515.948695260103
 21
749.750010678773
 31
0.0
  0
LINE
  5
15FD
330
1E
100
AcDbEntity
  8
0
100
AcDbLine
 10
516.0344999999999
 20
840.54125
 30
0.0
 11
516.3124999999999
 21
841.8662499999999
 31
0.0
  0
LINE
  5
15FE
330
1E
100
AcDbEntity
  8
0
100
AcDbLine
 10
515.96897444506
 20
840.1435949146788
 30
0.0
 11
516.0344999999999
 21
840.54125
 31
0.0
  0
LINE
  5
15FF
330
1E
100
AcDbEntity
  8
0
100
AcDbLine
 10
515.7725
 20
838.95125
 30
0.0
 11
515.837473965229
 21
839.345557651578
 31
0.0
  0
LINE
  5
1601
330
1E
100
AcDbEntity
  8
0
100
AcDbLine
 10
516.4144999999999
 20
743.0712499999999
 30
0.0
 11
516.7374999999999
 21
737.21725
 31
0.0
  0
LINE
  5
1602
330
1E
100
AcDbEntity
  8
0
100
AcDbLine
 10
516.7374999999999
 20
737.21725
 30
0.0
 11
516.9335
 21
728.1372499999999
 31
0.0
  0
LINE
  5
1603
330
1E
100
AcDbEntity
  8
0
100
AcDbLine
 10
517.3655
 20
641.37225
 30
0.0
 11
517.4811868957999
 21
641.126917459687
 31
0.0
  0
LINE
  5
1604
330
1E
100
AcDbEntity
  8
0
100
AcDbLine
 10
516.9335
 20
644.45525
 30
0.0
 11
517.3655
 21
641.37225
 31
0.0
  0
LINE
  5
1605
330
1E
100
AcDbEntity
  8
0
100
AcDbLine
 10
516.9335
 20
644.45525
 30
0.0
 11
516.9335
 21
672.56225
 31
0.0
  0
LINE
  5
1606
330
1E
100
AcDbEntity
  8
0
100
AcDbLine
 10
516.9335
 20
728.1372499999999
 30
0.0
 11
516.9335
 21
718.2012499999999
 31
0.0
  0
LINE
  5
1607
330
1E
100
AcDbEntity
  8
0
100
AcDbLine
 10
516.9335
 20
718.2012499999999
 30
0.0
 11
516.9335
 21
708.26525
 31
0.0
  0
LINE
  5
1608
330
1E
100
AcDbEntity
  8
0
100
AcDbLine
 10
516.9335
 20
718.2012499999999
 30
0.0
 11
516.9335
 21
728.1372499999999
 31
0.0
  0
LINE
  5
1609
330
1E
100
AcDbEntity
  8
0
100
AcDbLine
 10
516.9335
 20
708.26525
 30
0.0
 11
516.9335
 21
692.5612499999999
 31
0.0
  0
LINE
  5
160A
330
1E
100
AcDbEntity
  8
0
100
AcDbLine
 10
516.9335
 20
708.26525
 30
0.0
 11
516.9335
 21
718.2012499999999
 31
0.0
  0
LINE
  5
160B
330
1E
100
AcDbEntity
  8
0
100
AcDbLine
 10
516.9335
 20
692.5612499999999
 30
0.0
 11
516.9335
 21
672.56225
 31
0.0
  0
LINE
  5
160C
330
1E
100
AcDbEntity
  8
0
100
AcDbLine
 10
516.9335
 20
692.5612499999999
 30
0.0
 11
516.9335
 21
708.26525
 31
0.0
  0
LINE
  5
160D
330
1E
100
AcDbEntity
  8
0
100
AcDbLine
 10
516.9335
 20
672.56225
 30
0.0
 11
516.9335
 21
644.45525
 31
0.0
  0
LINE
  5
160E
330
1E
100
AcDbEntity
  8
0
100
AcDbLine
 10
516.9335
 20
672.56225
 30
0.0
 11
516.9335
 21
692.5612499999999
 31
0.0
  0
LINE
  5
1616
330
1E
100
AcDbEntity
  8
0
100
AcDbLine
 10
516.3124999999999
 20
841.8662499999999
 30
0.0
 11
516.7135
 21
843.00125
 31
0.0
  0
LINE
  5
1619
330
1E
100
AcDbEntity
  8
0
100
AcDbLine
 10
516.7135
 20
843.00125
 30
0.0
 11
517.1294999999999
 21
843.83425
 31
0.0
  0
LINE
  5
1620
330
1E
100
AcDbEntity
  8
0
100
AcDbLine
 10
517.1294999999999
 20
843.83425
 30
0.0
 11
517.6844999999999
 21
844.3642499999999
 31
0.0
  0
LINE
  5
1621
330
1E
100
AcDbEntity
  8
0
100
AcDbLine
 10
517.6844999999999
 20
844.3642499999999
 30
0.0
 11
518.3165
 21
844.7802499999999
 31
0.0
  0
LINE
  5
1623
330
1E
100
AcDbEntity
  8
0
100
AcDbLine
 10
518.3165
 20
844.7802499999999
 30
0.0
 11
519.4574999999999
 21
845.15925
 31
0.0
  0
LINE
  5
1624
330
1E
100
AcDbEntity
  8
0
100
AcDbLine
 10
516.2984999999999
 20
744.9172499999999
 30
0.0
 11
516.4144999999999
 21
743.0712499999999
 31
0.0
  0
LINE
  5
1625
330
1E
100
AcDbEntity
  8
0
100
AcDbLine
 10
516.1604999999999
 20
747.42525
 30
0.0
 11
516.2984999999999
 21
744.9172499999999
 31
0.0
  0
LINE
  5
1626
330
1E
100
AcDbEntity
  8
0
100
AcDbLine
 10
517.1834999999999
 20
640.18325
 30
0.0
 11
517.5834999999999
 21
638.91625
 31
0.0
  0
LINE
  5
1627
330
1E
100
AcDbEntity
  8
0
100
AcDbLine
 10
517.1834999999999
 20
640.18325
 30
0.0
 11
518.6835
 21
612.99525
 31
0.0
  0
LINE
  5
1628
330
1E
100
AcDbEntity
  8
0
100
AcDbLine
 10
517.1834999999999
 20
640.18325
 30
0.0
 11
517.5834999999999
 21
641.4512499999999
 31
0.0
  0
LINE
  5
1629
330
1E
100
AcDbEntity
  8
0
100
AcDbLine
 10
515.6214999999999
 20
637.3642499999999
 30
0.0
 11
517.2335
 21
636.9982499999999
 31
0.0
  0
LINE
  5
162A
330
1E
100
AcDbEntity
  8
0
100
AcDbLine
 10
517.2335
 20
636.9982499999999
 30
0.0
 11
517.3704999999999
 21
590.60325
 31
0.0
  0
LINE
  5
162B
330
1E
100
AcDbEntity
  8
0
100
AcDbLine
 10
515.5534999999999
 20
639.9462499999999
 30
0.0
 11
517.212335999591
 21
640.2746601187049
 31
0.0
  0
LINE
  5
162C
330
1E
100
AcDbEntity
  8
0
100
AcDbLine
 10
517.361328045687
 20
593.7093289805471
 30
0.0
 11
518.5975
 21
593.99225
 31
0.0
  0
LINE
  5
162D
330
1E
100
AcDbEntity
  8
0
100
AcDbLine
 10
520.1855000000001
 20
234.27125
 30
0.0
 11
520.5684999999999
 21
460.61425
 31
0.0
  0
LINE
  5
162E
330
1E
100
AcDbEntity
  8
0
100
AcDbLine
 10
520.1855000000001
 20
234.27125
 30
0.0
 11
520.6254999999999
 21
234.74125
 31
0.0
  0
LINE
  5
162F
330
1E
100
AcDbEntity
  8
0
100
AcDbLine
 10
520.1855000000001
 20
234.27125
 30
0.0
 11
520.9895
 21
234.37125
 31
0.0
  0
LINE
  5
1630
330
1E
100
AcDbEntity
  8
0
100
AcDbLine
 10
522.8614999999999
 20
235.00325
 30
0.0
 11
525.4985
 21
236.05225
 31
0.0
  0
LINE
  5
1631
330
1E
100
AcDbEntity
  8
0
100
AcDbLine
 10
520.9895
 20
234.37125
 30
0.0
 11
522.8614999999999
 21
235.00325
 31
0.0
  0
LINE
  5
1632
330
1E
100
AcDbEntity
  8
0
100
AcDbLine
 10
520.6254999999999
 20
234.74125
 30
0.0
 11
522.2554999999999
 21
235.70825
 31
0.0
  0
LINE
  5
1633
330
1E
100
AcDbEntity
  8
0
100
AcDbLine
 10
522.2554999999999
 20
235.70825
 30
0.0
 11
524.7045
 21
236.9772499999999
 31
0.0
  0
LINE
  5
1634
330
1E
100
AcDbEntity
  8
0
100
AcDbLine
 10
528.6204999999999
 20
237.42425
 30
0.0
 11
531.6364999999999
 21
238.85425
 31
0.0
  0
LINE
  5
1635
330
1E
100
AcDbEntity
  8
0
100
AcDbLine
 10
531.6364999999999
 20
238.85425
 30
0.0
 11
534.0834999999999
 21
240.12225
 31
0.0
  0
LINE
  5
1636
330
1E
100
AcDbEntity
  8
0
100
AcDbLine
 10
534.0834999999999
 20
240.12225
 30
0.0
 11
535.7155
 21
241.08925
 31
0.0
  0
LINE
  5
1637
330
1E
100
AcDbEntity
  8
0
100
AcDbLine
 10
535.7155
 20
241.08925
 30
0.0
 11
536.1595
 21
241.56225
 31
0.0
  0
LINE
  5
1638
330
1E
100
AcDbEntity
  8
0
100
AcDbLine
 10
536.1595
 20
241.56225
 30
0.0
 11
536.5694999999999
 21
460.62525
 31
0.0
  0
LINE
  5
1639
330
1E
100
AcDbEntity
  8
0
100
AcDbLine
 10
535.3604999999999
 20
241.4642499999999
 30
0.0
 11
536.1595
 21
241.56225
 31
0.0
  0
LINE
  5
163A
330
1E
100
AcDbEntity
  8
0
100
AcDbLine
 10
533.4885
 20
240.83225
 30
0.0
 11
535.3604999999999
 21
241.4642499999999
 31
0.0
  0
LINE
  5
163B
330
1E
100
AcDbEntity
  8
0
100
AcDbLine
 10
530.8505
 20
239.78225
 30
0.0
 11
533.4885
 21
240.83225
 31
0.0
  0
LINE
  5
163C
330
1E
100
AcDbEntity
  8
0
100
AcDbLine
 10
527.7234999999999
 20
238.4092499999999
 30
0.0
 11
530.8505
 21
239.78225
 31
0.0
  0
LINE
  5
163D
330
1E
100
AcDbEntity
  8
0
100
AcDbLine
 10
525.4985
 20
236.05225
 30
0.0
 11
528.6204999999999
 21
237.42425
 31
0.0
  0
LINE
  5
163E
330
1E
100
AcDbEntity
  8
0
100
AcDbLine
 10
524.7045
 20
236.9772499999999
 30
0.0
 11
527.7234999999999
 21
238.4092499999999
 31
0.0
  0
LINE
  5
163F
330
1E
100
AcDbEntity
  8
0
100
AcDbLine
 10
520.5535
 20
493.65525
 30
0.0
 11
520.5684999999999
 21
460.61425
 31
0.0
  0
LINE
  5
1640
330
1E
100
AcDbEntity
  8
0
100
AcDbLine
 10
520.5244999999999
 20
516.85725
 30
0.0
 11
520.5535
 21
493.65525
 31
0.0
  0
LINE
  5
1641
330
1E
100
AcDbEntity
  8
0
100
AcDbLine
 10
520.4835
 20
541.9792499999999
 30
0.0
 11
520.5244999999999
 21
516.85725
 31
0.0
  0
LINE
  5
1642
330
1E
100
AcDbEntity
  8
0
100
AcDbLine
 10
520.4295
 20
567.5422499999999
 30
0.0
 11
520.4835
 21
541.9792499999999
 31
0.0
  0
LINE
  5
1643
330
1E
100
AcDbEntity
  8
0
100
AcDbLine
 10
520.3594999999999
 20
591.2792500000001
 30
0.0
 11
520.683869106866
 21
610.493545145689
 31
0.0
  0
LINE
  5
1644
330
1E
100
AcDbEntity
  8
0
100
AcDbLine
 10
520.3594999999999
 20
591.2792500000001
 30
0.0
 11
520.4295
 21
567.5422499999999
 31
0.0
  0
LINE
  5
1646
330
1E
100
AcDbEntity
  8
0
100
AcDbLine
 10
536.3585
 20
591.28025
 30
0.0
 11
536.684558250319
 21
610.494337328927
 31
0.0
  0
LINE
  5
1647
330
1E
100
AcDbEntity
  8
0
100
AcDbLine
 10
536.3585
 20
591.28025
 30
0.0
 11
536.684558250319
 21
610.494337328927
 31
0.0
  0
LINE
  5
1648
330
1E
100
AcDbEntity
  8
0
100
AcDbLine
 10
536.3585
 20
591.28025
 30
0.0
 11
536.4284999999999
 21
567.56425
 31
0.0
  0
LINE
  5
164F
330
1E
100
AcDbEntity
  8
0
100
AcDbLine
 10
536.5535
 20
493.6662499999999
 30
0.0
 11
536.5694999999999
 21
460.62525
 31
0.0
  0
LINE
  5
1650
330
1E
100
AcDbEntity
  8
0
100
AcDbLine
 10
536.5244999999999
 20
516.8692499999999
 30
0.0
 11
536.5535
 21
493.6662499999999
 31
0.0
  0
LINE
  5
1651
330
1E
100
AcDbEntity
  8
0
100
AcDbLine
 10
536.4824999999999
 20
542.00125
 30
0.0
 11
536.5244999999999
 21
516.8692499999999
 31
0.0
  0
LINE
  5
1652
330
1E
100
AcDbEntity
  8
0
100
AcDbLine
 10
536.4284999999999
 20
567.56425
 30
0.0
 11
536.4824999999999
 21
542.00125
 31
0.0
  0
LINE
  5
1653
330
1E
100
AcDbEntity
  8
0
100
AcDbLine
 10
538.7685
 20
593.99225
 30
0.0
 11
540.005604739545
 21
593.709238170503
 31
0.0
  0
LINE
  5
1654
330
1E
100
AcDbEntity
  8
0
100
AcDbLine
 10
539.9964999999999
 20
590.60325
 30
0.0
 11
542.8714999999999
 21
590.37725
 31
0.0
  0
LINE
  5
1655
330
1E
100
AcDbEntity
  8
0
100
AcDbLine
 10
539.9964999999999
 20
590.60325
 30
0.0
 11
540.1325
 21
636.9982499999999
 31
0.0
  0
LINE
  5
1656
330
1E
100
AcDbEntity
  8
0
100
AcDbLine
 10
547.1834999999999
 20
592.1082499999999
 30
0.0
 11
547.1834999999999
 21
598.37125
 31
0.0
  0
LINE
  5
1657
330
1E
100
AcDbEntity
  8
0
100
AcDbLine
 10
547.0015
 20
591.86225
 30
0.0
 11
547.1834999999999
 21
592.1082499999999
 31
0.0
  0
LINE
  5
1658
330
1E
100
AcDbEntity
  8
0
100
AcDbLine
 10
546.6404999999999
 20
591.5942499999999
 30
0.0
 11
547.0015
 21
591.86225
 31
0.0
  0
LINE
  5
165A
330
1E
100
AcDbEntity
  8
0
100
AcDbLine
 10
545.8655
 20
591.1952499999999
 30
0.0
 11
546.6404999999999
 21
591.5942499999999
 31
0.0
  0
LINE
  5
165B
330
1E
100
AcDbEntity
  8
0
100
AcDbLine
 10
544.6085
 20
590.73525
 30
0.0
 11
545.8655
 21
591.1952499999999
 31
0.0
  0
LINE
  5
165D
330
1E
100
AcDbEntity
  8
0
100
AcDbLine
 10
542.8714999999999
 20
590.37725
 30
0.0
 11
544.6085
 21
590.73525
 31
0.0
  0
LINE
  5
165F
330
1E
100
AcDbEntity
  8
0
100
AcDbLine
 10
547.1834999999999
 20
598.37125
 30
0.0
 11
547.1834999999999
 21
592.1082499999999
 31
0.0
  0
LINE
  5
1660
330
1E
100
AcDbEntity
  8
0
100
AcDbLine
 10
547.1834999999999
 20
598.37125
 30
0.0
 11
547.1834999999999
 21
638.33825
 31
0.0
  0
LINE
  5
1661
330
1E
100
AcDbEntity
  8
0
100
AcDbLine
 10
536.409703437154
 20
594.2975860497879
 30
0.0
 11
538.7685
 21
593.99225
 31
0.0
  0
LINE
  5
1664
330
1E
100
AcDbEntity
  8
0
100
AcDbLine
 10
528.6834999999999
 20
608.7692500000001
 30
0.0
 11
531.2834999999999
 21
608.93825
 31
0.0
  0
LINE
  5
1665
330
1E
100
AcDbEntity
  8
0
100
AcDbLine
 10
531.2834999999999
 20
608.93825
 30
0.0
 11
533.6834999999999
 21
609.31825
 31
0.0
  0
LINE
  5
1666
330
1E
100
AcDbEntity
  8
0
100
AcDbLine
 10
533.6834999999999
 20
609.31825
 30
0.0
 11
535.7835
 21
609.99425
 31
0.0
  0
LINE
  5
1667
330
1E
100
AcDbEntity
  8
0
100
AcDbLine
 10
535.7835
 20
609.99425
 30
0.0
 11
537.3835
 21
610.88225
 31
0.0
  0
LINE
  5
1668
330
1E
100
AcDbEntity
  8
0
100
AcDbLine
 10
526.0834999999999
 20
608.93825
 30
0.0
 11
528.6834999999999
 21
608.7692500000001
 31
0.0
  0
LINE
  5
1669
330
1E
100
AcDbEntity
  8
0
100
AcDbLine
 10
523.6835
 20
609.31825
 30
0.0
 11
526.0834999999999
 21
608.93825
 31
0.0
  0
LINE
  5
166A
330
1E
100
AcDbEntity
  8
0
100
AcDbLine
 10
537.3835
 20
610.88225
 30
0.0
 11
538.2835
 21
611.89625
 31
0.0
  0
LINE
  5
166B
330
1E
100
AcDbEntity
  8
0
100
AcDbLine
 10
538.2835
 20
611.89625
 30
0.0
 11
538.6834999999999
 21
612.99525
 31
0.0
  0
LINE
  5
166C
330
1E
100
AcDbEntity
  8
0
100
AcDbLine
 10
521.5834999999999
 20
609.99425
 30
0.0
 11
523.6835
 21
609.31825
 31
0.0
  0
LINE
  5
166D
330
1E
100
AcDbEntity
  8
0
100
AcDbLine
 10
519.9835
 20
610.88225
 30
0.0
 11
521.5834999999999
 21
609.99425
 31
0.0
  0
LINE
  5
1673
330
1E
100
AcDbEntity
  8
0
100
AcDbLine
 10
534.3835
 20
635.95725
 30
0.0
 11
536.7835
 21
636.76025
 31
0.0
  0
LINE
  5
1674
330
1E
100
AcDbEntity
  8
0
100
AcDbLine
 10
538.6834999999999
 20
612.99525
 30
0.0
 11
540.1835
 21
640.18325
 31
0.0
  0
LINE
  5
1676
330
1E
100
AcDbEntity
  8
0
100
AcDbLine
 10
536.7835
 20
636.76025
 30
0.0
 11
538.6834999999999
 21
637.77425
 31
0.0
  0
LINE
  5
1677
330
1E
100
AcDbEntity
  8
0
100
AcDbLine
 10
522.9835
 20
635.95725
 30
0.0
 11
525.6834999999999
 21
635.49225
 31
0.0
  0
LINE
  5
1678
330
1E
100
AcDbEntity
  8
0
100
AcDbLine
 10
520.5834999999999
 20
636.76025
 30
0.0
 11
522.9835
 21
635.95725
 31
0.0
  0
LINE
  5
1679
330
1E
100
AcDbEntity
  8
0
100
AcDbLine
 10
519.0834999999999
 20
611.89625
 30
0.0
 11
519.9835
 21
610.88225
 31
0.0
  0
LINE
  5
167A
330
1E
100
AcDbEntity
  8
0
100
AcDbLine
 10
518.6835
 20
612.99525
 30
0.0
 11
519.0834999999999
 21
611.89625
 31
0.0
  0
LINE
  5
167B
330
1E
100
AcDbEntity
  8
0
100
AcDbLine
 10
538.6834999999999
 20
637.77425
 30
0.0
 11
539.7834999999999
 21
638.91625
 31
0.0
  0
LINE
  5
1680
330
1E
100
AcDbEntity
  8
0
100
AcDbLine
 10
526.4944999999999
 20
755.59425
 30
0.0
 11
526.9225
 21
756.15025
 31
0.0
  0
LINE
  5
1681
330
1E
100
AcDbEntity
  8
0
100
AcDbLine
 10
525.4945
 20
755.55825
 30
0.0
 11
526.4944999999999
 21
755.59425
 31
0.0
  0
LINE
  5
1684
330
1E
100
AcDbEntity
  8
0
100
AcDbLine
 10
532.3735
 20
755.55825
 30
0.0
 11
533.3735
 21
756.0912499999999
 31
0.0
  0
LINE
  5
1685
330
1E
100
AcDbEntity
  8
0
100
AcDbLine
 10
519.1394999999999
 20
758.12125
 30
0.0
 11
519.9935
 21
757.36725
 31
0.0
  0
LINE
  5
1686
330
1E
100
AcDbEntity
  8
0
100
AcDbLine
 10
518.7734999999999
 20
759.02925
 30
0.0
 11
519.1394999999999
 21
759.55325
 31
0.0
  0
LINE
  5
1687
330
1E
100
AcDbEntity
  8
0
100
AcDbLine
 10
518.7734999999999
 20
759.02925
 30
0.0
 11
519.1394999999999
 21
758.12125
 31
0.0
  0
LINE
  5
1688
330
1E
100
AcDbEntity
  8
0
100
AcDbLine
 10
519.1394999999999
 20
759.55325
 30
0.0
 11
519.9935
 21
759.4132499999999
 31
0.0
  0
LINE
  5
168A
330
1E
100
AcDbEntity
  8
0
100
AcDbLine
 10
519.9935
 20
759.4132499999999
 30
0.0
 11
520.8465
 21
758.65925
 31
0.0
  0
LINE
  5
168B
330
1E
100
AcDbEntity
  8
0
100
AcDbLine
 10
520.8465
 20
758.65925
 30
0.0
 11
521.2124999999999
 21
757.75125
 31
0.0
  0
LINE
  5
168D
330
1E
100
AcDbEntity
  8
0
100
AcDbLine
 10
519.9935
 20
757.36725
 30
0.0
 11
520.8465
 21
757.22725
 31
0.0
  0
LINE
  5
168E
330
1E
100
AcDbEntity
  8
0
100
AcDbLine
 10
520.8465
 20
757.22725
 30
0.0
 11
521.0132952762149
 21
757.397624573988
 31
0.0
  0
LINE
  5
168F
330
1E
100
AcDbEntity
  8
0
100
AcDbLine
 10
520.8465
 20
757.22725
 30
0.0
 11
521.2124999999999
 21
757.75125
 31
0.0
  0
LINE
  5
1690
330
1E
100
AcDbEntity
  8
0
100
AcDbLine
 10
519.1394999999999
 20
764.62725
 30
0.0
 11
519.9935
 21
763.87225
 31
0.0
  0
LINE
  5
1691
330
1E
100
AcDbEntity
  8
0
100
AcDbLine
 10
518.7734999999999
 20
765.53425
 30
0.0
 11
519.1394999999999
 21
766.0592499999999
 31
0.0
  0
LINE
  5
1692
330
1E
100
AcDbEntity
  8
0
100
AcDbLine
 10
518.7734999999999
 20
765.53425
 30
0.0
 11
519.1394999999999
 21
764.62725
 31
0.0
  0
LINE
  5
1693
330
1E
100
AcDbEntity
  8
0
100
AcDbLine
 10
519.1394999999999
 20
766.0592499999999
 30
0.0
 11
519.9935
 21
765.91825
 31
0.0
  0
LINE
  5
1694
330
1E
100
AcDbEntity
  8
0
100
AcDbLine
 10
519.1394999999999
 20
766.0592499999999
 30
0.0
 11
519.308974320324
 21
766.232364232702
 31
0.0
  0
LINE
  5
1695
330
1E
100
AcDbEntity
  8
0
100
AcDbLine
 10
519.9935
 20
765.91825
 30
0.0
 11
520.8465
 21
765.16425
 31
0.0
  0
LINE
  5
1696
330
1E
100
AcDbEntity
  8
0
100
AcDbLine
 10
520.8465
 20
765.16425
 30
0.0
 11
521.2124999999999
 21
764.2572499999999
 31
0.0
  0
LINE
  5
1698
330
1E
100
AcDbEntity
  8
0
100
AcDbLine
 10
519.9935
 20
763.87225
 30
0.0
 11
520.8465
 21
763.73225
 31
0.0
  0
LINE
  5
169A
330
1E
100
AcDbEntity
  8
0
100
AcDbLine
 10
520.8465
 20
763.73225
 30
0.0
 11
521.2124999999999
 21
764.2572499999999
 31
0.0
  0
LINE
  5
169C
330
1E
100
AcDbEntity
  8
0
100
AcDbLine
 10
519.1394999999999
 20
771.44725
 30
0.0
 11
519.9935
 21
770.6922499999999
 31
0.0
  0
LINE
  5
169D
330
1E
100
AcDbEntity
  8
0
100
AcDbLine
 10
518.7734999999999
 20
772.3542499999999
 30
0.0
 11
519.1394999999999
 21
772.8792499999999
 31
0.0
  0
LINE
  5
169E
330
1E
100
AcDbEntity
  8
0
100
AcDbLine
 10
518.7734999999999
 20
772.3542499999999
 30
0.0
 11
519.1394999999999
 21
771.44725
 31
0.0
  0
LINE
  5
169F
330
1E
100
AcDbEntity
  8
0
100
AcDbLine
 10
519.1394999999999
 20
772.8792499999999
 30
0.0
 11
519.9935
 21
772.7392499999999
 31
0.0
  0
LINE
  5
16A1
330
1E
100
AcDbEntity
  8
0
100
AcDbLine
 10
519.9935
 20
772.7392499999999
 30
0.0
 11
520.8465
 21
771.9842499999999
 31
0.0
  0
LINE
  5
16A2
330
1E
100
AcDbEntity
  8
0
100
AcDbLine
 10
520.8465
 20
771.9842499999999
 30
0.0
 11
521.2124999999999
 21
771.07725
 31
0.0
  0
LINE
  5
16A4
330
1E
100
AcDbEntity
  8
0
100
AcDbLine
 10
519.9935
 20
770.6922499999999
 30
0.0
 11
520.8465
 21
770.5522499999999
 31
0.0
  0
LINE
  5
16A5
330
1E
100
AcDbEntity
  8
0
100
AcDbLine
 10
520.8465
 20
770.5522499999999
 30
0.0
 11
521.2598220613649
 21
770.974441633497
 31
0.0
  0
LINE
  5
16A6
330
1E
100
AcDbEntity
  8
0
100
AcDbLine
 10
520.8465
 20
770.5522499999999
 30
0.0
 11
521.2124999999999
 21
771.07725
 31
0.0
  0
LINE
  5
16A7
330
1E
100
AcDbEntity
  8
0
100
AcDbLine
 10
519.1394999999999
 20
778.26625
 30
0.0
 11
519.9935
 21
777.5132499999999
 31
0.0
  0
LINE
  5
16A8
330
1E
100
AcDbEntity
  8
0
100
AcDbLine
 10
518.7734999999999
 20
779.17425
 30
0.0
 11
519.1394999999999
 21
779.6992499999999
 31
0.0
  0
LINE
  5
16A9
330
1E
100
AcDbEntity
  8
0
100
AcDbLine
 10
518.7734999999999
 20
779.17425
 30
0.0
 11
519.1394999999999
 21
778.26625
 31
0.0
  0
LINE
  5
16AA
330
1E
100
AcDbEntity
  8
0
100
AcDbLine
 10
519.1394999999999
 20
779.6992499999999
 30
0.0
 11
519.9935
 21
779.55925
 31
0.0
  0
LINE
  5
16AB
330
1E
100
AcDbEntity
  8
0
100
AcDbLine
 10
519.1394999999999
 20
779.6992499999999
 30
0.0
 11
519.3127702503119
 21
779.876241690396
 31
0.0
  0
LINE
  5
16AC
330
1E
100
AcDbEntity
  8
0
100
AcDbLine
 10
519.9935
 20
779.55925
 30
0.0
 11
520.8465
 21
778.80425
 31
0.0
  0
LINE
  5
16AD
330
1E
100
AcDbEntity
  8
0
100
AcDbLine
 10
520.8465
 20
778.80425
 30
0.0
 11
521.2124999999999
 21
777.89725
 31
0.0
  0
LINE
  5
16AF
330
1E
100
AcDbEntity
  8
0
100
AcDbLine
 10
519.9935
 20
777.5132499999999
 30
0.0
 11
520.8465
 21
777.3722499999999
 31
0.0
  0
LINE
  5
16B0
330
1E
100
AcDbEntity
  8
0
100
AcDbLine
 10
520.8465
 20
777.3722499999999
 30
0.0
 11
521.1991148732409
 21
777.732431716015
 31
0.0
  0
LINE
  5
16B1
330
1E
100
AcDbEntity
  8
0
100
AcDbLine
 10
520.8465
 20
777.3722499999999
 30
0.0
 11
521.2124999999999
 21
777.89725
 31
0.0
  0
LINE
  5
16B2
330
1E
100
AcDbEntity
  8
0
100
AcDbLine
 10
519.1394999999999
 20
785.0862499999999
 30
0.0
 11
519.9935
 21
784.33325
 31
0.0
  0
LINE
  5
16B3
330
1E
100
AcDbEntity
  8
0
100
AcDbLine
 10
518.7734999999999
 20
785.9942499999999
 30
0.0
 11
519.1394999999999
 21
786.5182499999999
 31
0.0
  0
LINE
  5
16B4
330
1E
100
AcDbEntity
  8
0
100
AcDbLine
 10
518.7734999999999
 20
785.9942499999999
 30
0.0
 11
519.1394999999999
 21
785.0862499999999
 31
0.0
  0
LINE
  5
16B6
330
1E
100
AcDbEntity
  8
0
100
AcDbLine
 10
519.1394999999999
 20
786.5182499999999
 30
0.0
 11
519.9935
 21
786.3792499999999
 31
0.0
  0
LINE
  5
16B7
330
1E
100
AcDbEntity
  8
0
100
AcDbLine
 10
519.1394999999999
 20
786.5182499999999
 30
0.0
 11
519.6021150438959
 21
786.991198369618
 31
0.0
  0
LINE
  5
16B8
330
1E
100
AcDbEntity
  8
0
100
AcDbLine
 10
519.9935
 20
786.3792499999999
 30
0.0
 11
520.8465
 21
785.62525
 31
0.0
  0
LINE
  5
16B9
330
1E
100
AcDbEntity
  8
0
100
AcDbLine
 10
520.8465
 20
785.62525
 30
0.0
 11
521.2124999999999
 21
784.71725
 31
0.0
  0
LINE
  5
16BA
330
1E
100
AcDbEntity
  8
0
100
AcDbLine
 10
520.8465
 20
785.62525
 30
0.0
 11
521.1654652756529
 21
785.9507862341209
 31
0.0
  0
LINE
  5
16BB
330
1E
100
AcDbEntity
  8
0
100
AcDbLine
 10
519.9935
 20
784.33325
 30
0.0
 11
520.8465
 21
784.19325
 31
0.0
  0
LINE
  5
16BC
330
1E
100
AcDbEntity
  8
0
100
AcDbLine
 10
520.8465
 20
784.19325
 30
0.0
 11
521.1709373187339
 21
784.5240925190179
 31
0.0
  0
LINE
  5
16BD
330
1E
100
AcDbEntity
  8
0
100
AcDbLine
 10
520.8465
 20
784.19325
 30
0.0
 11
521.2124999999999
 21
784.71725
 31
0.0
  0
LINE
  5
16BE
330
1E
100
AcDbEntity
  8
0
100
AcDbLine
 10
518.7734999999999
 20
792.00625
 30
0.0
 11
519.1394999999999
 21
791.09825
 31
0.0
  0
LINE
  5
16BF
330
1E
100
AcDbEntity
  8
0
100
AcDbLine
 10
518.7734999999999
 20
792.00625
 30
0.0
 11
519.1394999999999
 21
792.53025
 31
0.0
  0
LINE
  5
16C0
330
1E
100
AcDbEntity
  8
0
100
AcDbLine
 10
519.1394999999999
 20
791.09825
 30
0.0
 11
519.9935
 21
790.3442499999999
 31
0.0
  0
LINE
  5
16C1
330
1E
100
AcDbEntity
  8
0
100
AcDbLine
 10
519.9935
 20
790.3442499999999
 30
0.0
 11
520.8465
 21
790.2052499999999
 31
0.0
  0
LINE
  5
16C2
330
1E
100
AcDbEntity
  8
0
100
AcDbLine
 10
520.8465
 20
790.2052499999999
 30
0.0
 11
521.2124999999999
 21
790.7292499999999
 31
0.0
  0
LINE
  5
16C3
330
1E
100
AcDbEntity
  8
0
100
AcDbLine
 10
520.8465
 20
790.2052499999999
 30
0.0
 11
521.165098699948
 21
790.530138631364
 31
0.0
  0
LINE
  5
16C4
330
1E
100
AcDbEntity
  8
0
100
AcDbLine
 10
519.1394999999999
 20
799.3502499999999
 30
0.0
 11
519.9935
 21
799.2102499999999
 31
0.0
  0
LINE
  5
16C5
330
1E
100
AcDbEntity
  8
0
100
AcDbLine
 10
518.7734999999999
 20
798.8262499999999
 30
0.0
 11
519.1394999999999
 21
797.9182499999999
 31
0.0
  0
LINE
  5
16C6
330
1E
100
AcDbEntity
  8
0
100
AcDbLine
 10
518.7734999999999
 20
798.8262499999999
 30
0.0
 11
519.1394999999999
 21
799.3502499999999
 31
0.0
  0
LINE
  5
16C7
330
1E
100
AcDbEntity
  8
0
100
AcDbLine
 10
519.1394999999999
 20
797.9182499999999
 30
0.0
 11
519.9935
 21
797.16425
 31
0.0
  0
LINE
  5
16C8
330
1E
100
AcDbEntity
  8
0
100
AcDbLine
 10
519.9935
 20
797.16425
 30
0.0
 11
520.8465
 21
797.02425
 31
0.0
  0
LINE
  5
16C9
330
1E
100
AcDbEntity
  8
0
100
AcDbLine
 10
520.8465
 20
797.02425
 30
0.0
 11
521.2124999999999
 21
797.54925
 31
0.0
  0
LINE
  5
16CA
330
1E
100
AcDbEntity
  8
0
100
AcDbLine
 10
520.8465
 20
797.02425
 30
0.0
 11
521.1924468418419
 21
797.377323643733
 31
0.0
  0
LINE
  5
16CB
330
1E
100
AcDbEntity
  8
0
100
AcDbLine
 10
519.9935
 20
799.2102499999999
 30
0.0
 11
520.8465
 21
798.45725
 31
0.0
  0
LINE
  5
16CD
330
1E
100
AcDbEntity
  8
0
100
AcDbLine
 10
520.8465
 20
798.45725
 30
0.0
 11
521.2124999999999
 21
797.54925
 31
0.0
  0
LINE
  5
16CE
330
1E
100
AcDbEntity
  8
0
100
AcDbLine
 10
519.1394999999999
 20
792.53025
 30
0.0
 11
519.9935
 21
792.39025
 31
0.0
  0
LINE
  5
16CF
330
1E
100
AcDbEntity
  8
0
100
AcDbLine
 10
519.9935
 20
792.39025
 30
0.0
 11
520.8465
 21
791.63725
 31
0.0
  0
LINE
  5
16D1
330
1E
100
AcDbEntity
  8
0
100
AcDbLine
 10
520.8465
 20
791.63725
 30
0.0
 11
521.2124999999999
 21
790.7292499999999
 31
0.0
  0
LINE
  5
16D2
330
1E
100
AcDbEntity
  8
0
100
AcDbLine
 10
518.7734999999999
 20
805.64625
 30
0.0
 11
519.1394999999999
 21
804.7382499999999
 31
0.0
  0
LINE
  5
16D3
330
1E
100
AcDbEntity
  8
0
100
AcDbLine
 10
518.7734999999999
 20
805.64625
 30
0.0
 11
519.1394999999999
 21
806.17025
 31
0.0
  0
LINE
  5
16D4
330
1E
100
AcDbEntity
  8
0
100
AcDbLine
 10
519.1394999999999
 20
804.7382499999999
 30
0.0
 11
519.9935
 21
803.98425
 31
0.0
  0
LINE
  5
16D5
330
1E
100
AcDbEntity
  8
0
100
AcDbLine
 10
519.9935
 20
803.98425
 30
0.0
 11
520.8465
 21
803.84425
 31
0.0
  0
LINE
  5
16D6
330
1E
100
AcDbEntity
  8
0
100
AcDbLine
 10
520.8465
 20
803.84425
 30
0.0
 11
521.2124999999999
 21
804.3682499999999
 31
0.0
  0
LINE
  5
16D7
330
1E
100
AcDbEntity
  8
0
100
AcDbLine
 10
520.8465
 20
803.84425
 30
0.0
 11
521.2407785945159
 21
804.2469895085609
 31
0.0
  0
LINE
  5
16D8
330
1E
100
AcDbEntity
  8
0
100
AcDbLine
 10
519.1394999999999
 20
812.9912499999999
 30
0.0
 11
519.9935
 21
812.8502499999999
 31
0.0
  0
LINE
  5
16D9
330
1E
100
AcDbEntity
  8
0
100
AcDbLine
 10
518.7734999999999
 20
812.4662499999999
 30
0.0
 11
519.1394999999999
 21
811.55825
 31
0.0
  0
LINE
  5
16DA
330
1E
100
AcDbEntity
  8
0
100
AcDbLine
 10
518.7734999999999
 20
812.4662499999999
 30
0.0
 11
519.1394999999999
 21
812.9912499999999
 31
0.0
  0
LINE
  5
16DB
330
1E
100
AcDbEntity
  8
0
100
AcDbLine
 10
519.1394999999999
 20
811.55825
 30
0.0
 11
519.9935
 21
810.8042499999999
 31
0.0
  0
LINE
  5
16DC
330
1E
100
AcDbEntity
  8
0
100
AcDbLine
 10
519.9935
 20
810.8042499999999
 30
0.0
 11
520.8465
 21
810.6642500000001
 31
0.0
  0
LINE
  5
16DD
330
1E
100
AcDbEntity
  8
0
100
AcDbLine
 10
520.8465
 20
810.6642500000001
 30
0.0
 11
521.2124999999999
 21
811.18825
 31
0.0
  0
LINE
  5
16DE
330
1E
100
AcDbEntity
  8
0
100
AcDbLine
 10
520.8465
 20
810.6642500000001
 30
0.0
 11
521.3429397379129
 21
811.1713429511729
 31
0.0
  0
LINE
  5
16DF
330
1E
100
AcDbEntity
  8
0
100
AcDbLine
 10
519.9935
 20
817.93825
 30
0.0
 11
520.8465
 21
817.79825
 31
0.0
  0
LINE
  5
16E0
330
1E
100
AcDbEntity
  8
0
100
AcDbLine
 10
520.8465
 20
817.79825
 30
0.0
 11
521.2124999999999
 21
818.32425
 31
0.0
  0
LINE
  5
16E1
330
1E
100
AcDbEntity
  8
0
100
AcDbLine
 10
520.8465
 20
817.79825
 30
0.0
 11
521.179157618305
 21
818.138046193806
 31
0.0
  0
LINE
  5
16E2
330
1E
100
AcDbEntity
  8
0
100
AcDbLine
 10
519.9935
 20
812.8502499999999
 30
0.0
 11
520.8465
 21
812.09625
 31
0.0
  0
LINE
  5
16E5
330
1E
100
AcDbEntity
  8
0
100
AcDbLine
 10
520.8465
 20
812.09625
 30
0.0
 11
521.2124999999999
 21
811.18825
 31
0.0
  0
LINE
  5
16E6
330
1E
100
AcDbEntity
  8
0
100
AcDbLine
 10
519.1394999999999
 20
806.17025
 30
0.0
 11
519.9935
 21
806.03025
 31
0.0
  0
LINE
  5
16E7
330
1E
100
AcDbEntity
  8
0
100
AcDbLine
 10
519.9935
 20
806.03025
 30
0.0
 11
520.8465
 21
805.27625
 31
0.0
  0
LINE
  5
16EB
330
1E
100
AcDbEntity
  8
0
100
AcDbLine
 10
524.0655
 20
756.8602499999999
 30
0.0
 11
524.4945
 21
757.41525
 31
0.0
  0
LINE
  5
16ED
330
1E
100
AcDbEntity
  8
0
100
AcDbLine
 10
524.0655
 20
756.8602499999999
 30
0.0
 11
524.4945
 21
756.0912499999999
 31
0.0
  0
LINE
  5
16EF
330
1E
100
AcDbEntity
  8
0
100
AcDbLine
 10
524.0655
 20
762.97825
 30
0.0
 11
524.4945
 21
763.5942499999999
 31
0.0
  0
LINE
  5
16F0
330
1E
100
AcDbEntity
  8
0
100
AcDbLine
 10
524.0655
 20
762.97825
 30
0.0
 11
524.199943362317
 21
763.285486142738
 31
0.0
  0
LINE
  5
16F1
330
1E
100
AcDbEntity
  8
0
100
AcDbLine
 10
524.0655
 20
762.97825
 30
0.0
 11
524.4945
 21
762.1622499999999
 31
0.0
  0
LINE
  5
16F2
330
1E
100
AcDbEntity
  8
0
100
AcDbLine
 10
524.4945
 20
756.0912499999999
 30
0.0
 11
525.4945
 21
755.55825
 31
0.0
  0
LINE
  5
16F3
330
1E
100
AcDbEntity
  8
0
100
AcDbLine
 10
524.4945
 20
757.41525
 30
0.0
 11
525.4945
 21
757.4512499999999
 31
0.0
  0
LINE
  5
16F5
330
1E
100
AcDbEntity
  8
0
100
AcDbLine
 10
524.4945
 20
762.1622499999999
 30
0.0
 11
525.4945
 21
761.62125
 31
0.0
  0
LINE
  5
16F6
330
1E
100
AcDbEntity
  8
0
100
AcDbLine
 10
524.4945
 20
763.5942499999999
 30
0.0
 11
525.4945
 21
763.6672499999999
 31
0.0
  0
LINE
  5
16F7
330
1E
100
AcDbEntity
  8
0
100
AcDbLine
 10
524.4945
 20
763.5942499999999
 30
0.0
 11
524.529975500705
 21
763.675453362861
 31
0.0
  0
LINE
  5
16F8
330
1E
100
AcDbEntity
  8
0
100
AcDbLine
 10
524.4945
 20
768.98325
 30
0.0
 11
525.4945
 21
768.4412499999999
 31
0.0
  0
LINE
  5
16F9
330
1E
100
AcDbEntity
  8
0
100
AcDbLine
 10
524.0655
 20
769.7982500000001
 30
0.0
 11
524.4945
 21
770.41425
 31
0.0
  0
LINE
  5
16FA
330
1E
100
AcDbEntity
  8
0
100
AcDbLine
 10
524.0655
 20
769.7982500000001
 30
0.0
 11
524.4945
 21
768.98325
 31
0.0
  0
LINE
  5
16FB
330
1E
100
AcDbEntity
  8
0
100
AcDbLine
 10
521.2124999999999
 20
771.07725
 30
0.0
 11
521.2577279803839
 21
771.1234493717149
 31
0.0
  0
LINE
  5
16FC
330
1E
100
AcDbEntity
  8
0
100
AcDbLine
 10
524.4945
 20
775.80225
 30
0.0
 11
525.4945
 21
775.26125
 31
0.0
  0
LINE
  5
16FE
330
1E
100
AcDbEntity
  8
0
100
AcDbLine
 10
524.0655
 20
776.6192499999999
 30
0.0
 11
524.4945
 21
777.2352499999999
 31
0.0
  0
LINE
  5
1700
330
1E
100
AcDbEntity
  8
0
100
AcDbLine
 10
524.0655
 20
776.6192499999999
 30
0.0
 11
524.4945
 21
775.80225
 31
0.0
  0
LINE
  5
1701
330
1E
100
AcDbEntity
  8
0
100
AcDbLine
 10
524.4945
 20
777.2352499999999
 30
0.0
 11
525.4945
 21
777.3072499999999
 31
0.0
  0
LINE
  5
1703
330
1E
100
AcDbEntity
  8
0
100
AcDbLine
 10
524.4945
 20
770.41425
 30
0.0
 11
525.4945
 21
770.48725
 31
0.0
  0
LINE
  5
1704
330
1E
100
AcDbEntity
  8
0
100
AcDbLine
 10
524.4945
 20
782.62225
 30
0.0
 11
525.4945
 21
782.0812499999999
 31
0.0
  0
LINE
  5
1705
330
1E
100
AcDbEntity
  8
0
100
AcDbLine
 10
524.0655
 20
783.43925
 30
0.0
 11
524.4945
 21
784.05525
 31
0.0
  0
LINE
  5
1706
330
1E
100
AcDbEntity
  8
0
100
AcDbLine
 10
524.0655
 20
783.43925
 30
0.0
 11
524.278838305338
 21
783.926081018083
 31
0.0
  0
LINE
  5
1707
330
1E
100
AcDbEntity
  8
0
100
AcDbLine
 10
524.0655
 20
783.43925
 30
0.0
 11
524.4945
 21
782.62225
 31
0.0
  0
LINE
  5
1708
330
1E
100
AcDbEntity
  8
0
100
AcDbLine
 10
525.4945
 20
757.4512499999999
 30
0.0
 11
526.4944999999999
 21
756.9182499999999
 31
0.0
  0
LINE
  5
170A
330
1E
100
AcDbEntity
  8
0
100
AcDbLine
 10
525.4945
 20
763.6672499999999
 30
0.0
 11
526.4944999999999
 21
763.12725
 31
0.0
  0
LINE
  5
170C
330
1E
100
AcDbEntity
  8
0
100
AcDbLine
 10
525.4945
 20
761.62125
 30
0.0
 11
526.4944999999999
 21
761.69525
 31
0.0
  0
LINE
  5
170D
330
1E
100
AcDbEntity
  8
0
100
AcDbLine
 10
525.4945
 20
777.3072499999999
 30
0.0
 11
526.4944999999999
 21
776.76625
 31
0.0
  0
LINE
  5
170E
330
1E
100
AcDbEntity
  8
0
100
AcDbLine
 10
525.4945
 20
775.26125
 30
0.0
 11
526.4944999999999
 21
775.33425
 31
0.0
  0
LINE
  5
170F
330
1E
100
AcDbEntity
  8
0
100
AcDbLine
 10
525.4945
 20
770.48725
 30
0.0
 11
526.4944999999999
 21
769.94725
 31
0.0
  0
LINE
  5
1710
330
1E
100
AcDbEntity
  8
0
100
AcDbLine
 10
525.4945
 20
768.4412499999999
 30
0.0
 11
526.4944999999999
 21
768.51525
 31
0.0
  0
LINE
  5
1711
330
1E
100
AcDbEntity
  8
0
100
AcDbLine
 10
524.4945
 20
784.05525
 30
0.0
 11
525.4945
 21
784.12725
 31
0.0
  0
LINE
  5
1715
330
1E
100
AcDbEntity
  8
0
100
AcDbLine
 10
525.4945
 20
784.12725
 30
0.0
 11
526.4944999999999
 21
783.5862499999999
 31
0.0
  0
LINE
  5
1717
330
1E
100
AcDbEntity
  8
0
100
AcDbLine
 10
525.4945
 20
782.0812499999999
 30
0.0
 11
526.4944999999999
 21
782.15425
 31
0.0
  0
LINE
  5
1718
330
1E
100
AcDbEntity
  8
0
100
AcDbLine
 10
524.4945
 20
790.1202500000001
 30
0.0
 11
525.4945
 21
790.19325
 31
0.0
  0
LINE
  5
1719
330
1E
100
AcDbEntity
  8
0
100
AcDbLine
 10
524.0655
 20
789.5042499999999
 30
0.0
 11
524.4945
 21
788.68825
 31
0.0
  0
LINE
  5
171A
330
1E
100
AcDbEntity
  8
0
100
AcDbLine
 10
524.0655
 20
789.5042499999999
 30
0.0
 11
524.4945
 21
790.1202500000001
 31
0.0
  0
LINE
  5
171B
330
1E
100
AcDbEntity
  8
0
100
AcDbLine
 10
524.4945
 20
788.68825
 30
0.0
 11
525.4945
 21
788.14725
 31
0.0
  0
LINE
  5
171C
330
1E
100
AcDbEntity
  8
0
100
AcDbLine
 10
525.4945
 20
788.14725
 30
0.0
 11
526.4944999999999
 21
788.22125
 31
0.0
  0
LINE
  5
1721
330
1E
100
AcDbEntity
  8
0
100
AcDbLine
 10
524.4945
 20
796.9412499999999
 30
0.0
 11
525.4945
 21
797.01325
 31
0.0
  0
LINE
  5
1723
330
1E
100
AcDbEntity
  8
0
100
AcDbLine
 10
524.0655
 20
796.32425
 30
0.0
 11
524.4945
 21
795.50925
 31
0.0
  0
LINE
  5
1724
330
1E
100
AcDbEntity
  8
0
100
AcDbLine
 10
524.0655
 20
796.32425
 30
0.0
 11
524.4945
 21
796.9412499999999
 31
0.0
  0
LINE
  5
1725
330
1E
100
AcDbEntity
  8
0
100
AcDbLine
 10
524.4945
 20
795.50925
 30
0.0
 11
525.4945
 21
794.96725
 31
0.0
  0
LINE
  5
1726
330
1E
100
AcDbEntity
  8
0
100
AcDbLine
 10
525.4945
 20
794.96725
 30
0.0
 11
526.4944999999999
 21
795.04025
 31
0.0
  0
LINE
  5
1727
330
1E
100
AcDbEntity
  8
0
100
AcDbLine
 10
525.4945
 20
797.01325
 30
0.0
 11
526.4944999999999
 21
796.47325
 31
0.0
  0
LINE
  5
1728
330
1E
100
AcDbEntity
  8
0
100
AcDbLine
 10
525.4945
 20
797.01325
 30
0.0
 11
525.586590234858
 21
797.2240443963741
 31
0.0
  0
LINE
  5
1729
330
1E
100
AcDbEntity
  8
0
100
AcDbLine
 10
525.4945
 20
790.19325
 30
0.0
 11
526.4944999999999
 21
789.65325
 31
0.0
  0
LINE
  5
172A
330
1E
100
AcDbEntity
  8
0
100
AcDbLine
 10
526.4944999999999
 20
756.9182499999999
 30
0.0
 11
526.9225
 21
756.15025
 31
0.0
  0
LINE
  5
172C
330
1E
100
AcDbEntity
  8
0
100
AcDbLine
 10
526.4944999999999
 20
763.12725
 30
0.0
 11
526.9225
 21
762.3102499999999
 31
0.0
  0
LINE
  5
172E
330
1E
100
AcDbEntity
  8
0
100
AcDbLine
 10
526.4944999999999
 20
761.69525
 30
0.0
 11
526.9225
 21
762.3102499999999
 31
0.0
  0
LINE
  5
172F
330
1E
100
AcDbEntity
  8
0
100
AcDbLine
 10
526.4944999999999
 20
776.76625
 30
0.0
 11
526.9225
 21
775.9502499999999
 31
0.0
  0
LINE
  5
1731
330
1E
100
AcDbEntity
  8
0
100
AcDbLine
 10
526.4944999999999
 20
775.33425
 30
0.0
 11
526.9225
 21
775.9502499999999
 31
0.0
  0
LINE
  5
1732
330
1E
100
AcDbEntity
  8
0
100
AcDbLine
 10
526.4944999999999
 20
769.94725
 30
0.0
 11
526.9225
 21
769.13025
 31
0.0
  0
LINE
  5
1733
330
1E
100
AcDbEntity
  8
0
100
AcDbLine
 10
526.4944999999999
 20
768.51525
 30
0.0
 11
526.9225
 21
769.13025
 31
0.0
  0
LINE
  5
1734
330
1E
100
AcDbEntity
  8
0
100
AcDbLine
 10
526.4944999999999
 20
783.5862499999999
 30
0.0
 11
526.9225
 21
782.77025
 31
0.0
  0
LINE
  5
1735
330
1E
100
AcDbEntity
  8
0
100
AcDbLine
 10
526.4944999999999
 20
782.15425
 30
0.0
 11
526.9225
 21
782.77025
 31
0.0
  0
LINE
  5
1736
330
1E
100
AcDbEntity
  8
0
100
AcDbLine
 10
526.4944999999999
 20
788.22125
 30
0.0
 11
526.9225
 21
788.8362499999999
 31
0.0
  0
LINE
  5
1737
330
1E
100
AcDbEntity
  8
0
100
AcDbLine
 10
526.4944999999999
 20
795.04025
 30
0.0
 11
526.9225
 21
795.65625
 31
0.0
  0
LINE
  5
1738
330
1E
100
AcDbEntity
  8
0
100
AcDbLine
 10
526.4944999999999
 20
796.47325
 30
0.0
 11
526.9225
 21
795.65625
 31
0.0
  0
LINE
  5
1739
330
1E
100
AcDbEntity
  8
0
100
AcDbLine
 10
526.4944999999999
 20
789.65325
 30
0.0
 11
526.9225
 21
788.8362499999999
 31
0.0
  0
LINE
  5
173A
330
1E
100
AcDbEntity
  8
0
100
AcDbLine
 10
525.4945
 20
801.7872499999999
 30
0.0
 11
526.4944999999999
 21
801.86025
 31
0.0
  0
LINE
  5
173D
330
1E
100
AcDbEntity
  8
0
100
AcDbLine
 10
524.4945
 20
803.7612499999999
 30
0.0
 11
525.4945
 21
803.83325
 31
0.0
  0
LINE
  5
173E
330
1E
100
AcDbEntity
  8
0
100
AcDbLine
 10
524.0655
 20
803.14525
 30
0.0
 11
524.4945
 21
802.32925
 31
0.0
  0
LINE
  5
173F
330
1E
100
AcDbEntity
  8
0
100
AcDbLine
 10
524.0655
 20
803.14525
 30
0.0
 11
524.11980007519
 21
803.269250007769
 31
0.0
  0
LINE
  5
1740
330
1E
100
AcDbEntity
  8
0
100
AcDbLine
 10
524.0655
 20
803.14525
 30
0.0
 11
524.4945
 21
803.7612499999999
 31
0.0
  0
LINE
  5
1741
330
1E
100
AcDbEntity
  8
0
100
AcDbLine
 10
524.4945
 20
802.32925
 30
0.0
 11
525.4945
 21
801.7872499999999
 31
0.0
  0
LINE
  5
1742
330
1E
100
AcDbEntity
  8
0
100
AcDbLine
 10
526.4944999999999
 20
801.86025
 30
0.0
 11
526.9225
 21
802.4762500000001
 31
0.0
  0
LINE
  5
1745
330
1E
100
AcDbEntity
  8
0
100
AcDbLine
 10
526.9225
 20
775.9502499999999
 30
0.0
 11
527.090417243219
 21
776.333706917713
 31
0.0
  0
LINE
  5
1747
330
1E
100
AcDbEntity
  8
0
100
AcDbLine
 10
526.9225
 20
782.77025
 30
0.0
 11
527.0725133185819
 21
783.112821398009
 31
0.0
  0
LINE
  5
1748
330
1E
100
AcDbEntity
  8
0
100
AcDbLine
 10
526.9225
 20
795.65625
 30
0.0
 11
527.0886730890889
 21
796.0359963708039
 31
0.0
  0
LINE
  5
174A
330
1E
100
AcDbEntity
  8
0
100
AcDbLine
 10
526.9225
 20
788.8362499999999
 30
0.0
 11
527.071911050707
 21
789.1774460551401
 31
0.0
  0
LINE
  5
174C
330
1E
100
AcDbEntity
  8
0
100
AcDbLine
 10
526.9225
 20
802.4762500000001
 30
0.0
 11
527.200662740865
 21
803.111464259058
 31
0.0
  0
LINE
  5
174E
330
1E
100
AcDbEntity
  8
0
100
AcDbLine
 10
526.4944999999999
 20
803.2922499999999
 30
0.0
 11
526.9225
 21
802.4762500000001
 31
0.0
  0
LINE
  5
174F
330
1E
100
AcDbEntity
  8
0
100
AcDbLine
 10
525.4945
 20
803.83325
 30
0.0
 11
526.4944999999999
 21
803.2922499999999
 31
0.0
  0
LINE
  5
175D
330
1E
100
AcDbEntity
  8
0
100
AcDbLine
 10
524.4945
 20
810.5812499999998
 30
0.0
 11
525.4945
 21
810.6542499999999
 31
0.0
  0
LINE
  5
175E
330
1E
100
AcDbEntity
  8
0
100
AcDbLine
 10
524.0655
 20
809.9652499999999
 30
0.0
 11
524.4945
 21
809.1482499999999
 31
0.0
  0
LINE
  5
175F
330
1E
100
AcDbEntity
  8
0
100
AcDbLine
 10
524.0655
 20
809.9652499999999
 30
0.0
 11
524.386543315597
 21
810.697860320181
 31
0.0
  0
LINE
  5
1760
330
1E
100
AcDbEntity
  8
0
100
AcDbLine
 10
524.0655
 20
809.9652499999999
 30
0.0
 11
524.4945
 21
810.5812499999998
 31
0.0
  0
LINE
  5
1761
330
1E
100
AcDbEntity
  8
0
100
AcDbLine
 10
524.4945
 20
809.1482499999999
 30
0.0
 11
525.4945
 21
808.6082499999999
 31
0.0
  0
LINE
  5
1762
330
1E
100
AcDbEntity
  8
0
100
AcDbLine
 10
525.4945
 20
808.6082499999999
 30
0.0
 11
526.4944999999999
 21
808.6802500000001
 31
0.0
  0
LINE
  5
1765
330
1E
100
AcDbEntity
  8
0
100
AcDbLine
 10
524.4945
 20
818.2332499999999
 30
0.0
 11
525.4945
 21
818.34325
 31
0.0
  0
LINE
  5
1766
330
1E
100
AcDbEntity
  8
0
100
AcDbLine
 10
524.0655
 20
817.56025
 30
0.0
 11
524.4945
 21
816.70025
 31
0.0
  0
LINE
  5
1767
330
1E
100
AcDbEntity
  8
0
100
AcDbLine
 10
524.0655
 20
817.56025
 30
0.0
 11
524.298942704287
 21
818.0588989240758
 31
0.0
  0
LINE
  5
1768
330
1E
100
AcDbEntity
  8
0
100
AcDbLine
 10
524.0655
 20
817.56025
 30
0.0
 11
524.4945
 21
818.2332499999999
 31
0.0
  0
LINE
  5
1769
330
1E
100
AcDbEntity
  8
0
100
AcDbLine
 10
524.4945
 20
816.70025
 30
0.0
 11
525.4945
 21
816.1532499999999
 31
0.0
  0
LINE
  5
176A
330
1E
100
AcDbEntity
  8
0
100
AcDbLine
 10
525.4945
 20
816.1532499999999
 30
0.0
 11
526.4944999999999
 21
816.2622499999999
 31
0.0
  0
LINE
  5
176B
330
1E
100
AcDbEntity
  8
0
100
AcDbLine
 10
525.4945
 20
810.6542499999999
 30
0.0
 11
526.4944999999999
 21
810.11225
 31
0.0
  0
LINE
  5
176D
330
1E
100
AcDbEntity
  8
0
100
AcDbLine
 10
526.4944999999999
 20
808.6802500000001
 30
0.0
 11
526.9225
 21
809.29625
 31
0.0
  0
LINE
  5
1771
330
1E
100
AcDbEntity
  8
0
100
AcDbLine
 10
526.4944999999999
 20
816.2622499999999
 30
0.0
 11
526.9225
 21
816.93625
 31
0.0
  0
LINE
  5
1774
330
1E
100
AcDbEntity
  8
0
100
AcDbLine
 10
526.4944999999999
 20
817.7962499999999
 30
0.0
 11
526.9225
 21
816.93625
 31
0.0
  0
LINE
  5
1776
330
1E
100
AcDbEntity
  8
0
100
AcDbLine
 10
526.4944999999999
 20
810.11225
 30
0.0
 11
526.9225
 21
809.29625
 31
0.0
  0
LINE
  5
1777
330
1E
100
AcDbEntity
  8
0
100
AcDbLine
 10
520.8465
 20
805.27625
 30
0.0
 11
521.261196311555
 21
805.699845374035
 31
0.0
  0
LINE
  5
1778
330
1E
100
AcDbEntity
  8
0
100
AcDbLine
 10
520.8465
 20
805.27625
 30
0.0
 11
521.2124999999999
 21
804.3682499999999
 31
0.0
  0
LINE
  5
1779
330
1E
100
AcDbEntity
  8
0
100
AcDbLine
 10
519.1394999999999
 20
818.6932500000001
 30
0.0
 11
519.9935
 21
817.93825
 31
0.0
  0
LINE
  5
177A
330
1E
100
AcDbEntity
  8
0
100
AcDbLine
 10
521.2124999999999
 20
818.32425
 30
0.0
 11
521.5722757638169
 21
818.6914438208031
 31
0.0
  0
LINE
  5
177B
330
1E
100
AcDbEntity
  8
0
100
AcDbLine
 10
525.4945
 20
818.34325
 30
0.0
 11
526.4944999999999
 21
817.7962499999999
 31
0.0
  0
LINE
  5
177E
330
1E
100
AcDbEntity
  8
0
100
AcDbLine
 10
518.7734999999999
 20
819.60025
 30
0.0
 11
519.1394999999999
 21
818.6932500000001
 31
0.0
  0
LINE
  5
177F
330
1E
100
AcDbEntity
  8
0
100
AcDbLine
 10
518.7734999999999
 20
819.60025
 30
0.0
 11
519.1394999999999
 21
820.12525
 31
0.0
  0
LINE
  5
1781
330
1E
100
AcDbEntity
  8
0
100
AcDbLine
 10
519.1394999999999
 20
820.12525
 30
0.0
 11
519.9935
 21
819.9842499999999
 31
0.0
  0
LINE
  5
1782
330
1E
100
AcDbEntity
  8
0
100
AcDbLine
 10
519.9935
 20
819.9842499999999
 30
0.0
 11
520.8465
 21
819.2312499999999
 31
0.0
  0
LINE
  5
1785
330
1E
100
AcDbEntity
  8
0
100
AcDbLine
 10
520.8465
 20
819.2312499999999
 30
0.0
 11
521.2124999999999
 21
818.32425
 31
0.0
  0
LINE
  5
1786
330
1E
100
AcDbEntity
  8
0
100
AcDbLine
 10
525.4945
 20
824.0702499999999
 30
0.0
 11
526.4944999999999
 21
824.18025
 31
0.0
  0
LINE
  5
1787
330
1E
100
AcDbEntity
  8
0
100
AcDbLine
 10
519.9935
 20
825.12425
 30
0.0
 11
520.8465
 21
824.9842499999999
 31
0.0
  0
LINE
  5
1788
330
1E
100
AcDbEntity
  8
0
100
AcDbLine
 10
520.8465
 20
824.9842499999999
 30
0.0
 11
521.2124999999999
 21
825.5092499999999
 31
0.0
  0
LINE
  5
1789
330
1E
100
AcDbEntity
  8
0
100
AcDbLine
 10
520.8465
 20
824.9842499999999
 30
0.0
 11
521.1472702397929
 21
825.291474536784
 31
0.0
  0
LINE
  5
178A
330
1E
100
AcDbEntity
  8
0
100
AcDbLine
 10
519.1394999999999
 20
825.87825
 30
0.0
 11
519.9935
 21
825.12425
 31
0.0
  0
LINE
  5
178D
330
1E
100
AcDbEntity
  8
0
100
AcDbLine
 10
524.4945
 20
826.15025
 30
0.0
 11
525.4945
 21
826.2602499999999
 31
0.0
  0
LINE
  5
178E
330
1E
100
AcDbEntity
  8
0
100
AcDbLine
 10
524.0655
 20
825.4782500000001
 30
0.0
 11
524.4945
 21
824.61725
 31
0.0
  0
LINE
  5
178F
330
1E
100
AcDbEntity
  8
0
100
AcDbLine
 10
524.0655
 20
825.4782500000001
 30
0.0
 11
524.1694468225789
 21
825.6999464199589
 31
0.0
  0
LINE
  5
1790
330
1E
100
AcDbEntity
  8
0
100
AcDbLine
 10
524.0655
 20
825.4782500000001
 30
0.0
 11
524.4945
 21
826.15025
 31
0.0
  0
LINE
  5
1791
330
1E
100
AcDbEntity
  8
0
100
AcDbLine
 10
524.4945
 20
824.61725
 30
0.0
 11
525.4945
 21
824.0702499999999
 31
0.0
  0
LINE
  5
1792
330
1E
100
AcDbEntity
  8
0
100
AcDbLine
 10
526.4944999999999
 20
824.18025
 30
0.0
 11
526.9225
 21
824.8522499999999
 31
0.0
  0
LINE
  5
1795
330
1E
100
AcDbEntity
  8
0
100
AcDbLine
 10
526.4944999999999
 20
825.71325
 30
0.0
 11
526.9225
 21
824.8522499999999
 31
0.0
  0
LINE
  5
1796
330
1E
100
AcDbEntity
  8
0
100
AcDbLine
 10
518.7734999999999
 20
826.7862499999999
 30
0.0
 11
519.1394999999999
 21
825.87825
 31
0.0
  0
LINE
  5
1797
330
1E
100
AcDbEntity
  8
0
100
AcDbLine
 10
518.7734999999999
 20
826.7862499999999
 30
0.0
 11
519.1394999999999
 21
827.31025
 31
0.0
  0
LINE
  5
179A
330
1E
100
AcDbEntity
  8
0
100
AcDbLine
 10
519.4574999999999
 20
845.15925
 30
0.0
 11
521.1844999999999
 21
845.65225
 31
0.0
  0
LINE
  5
179C
330
1E
100
AcDbEntity
  8
0
100
AcDbLine
 10
519.1394999999999
 20
827.31025
 30
0.0
 11
519.9935
 21
827.1702499999999
 31
0.0
  0
LINE
  5
179D
330
1E
100
AcDbEntity
  8
0
100
AcDbLine
 10
519.9935
 20
827.1702499999999
 30
0.0
 11
520.8465
 21
826.4172499999999
 31
0.0
  0
LINE
  5
17A3
330
1E
100
AcDbEntity
  8
0
100
AcDbLine
 10
521.1844999999999
 20
845.65225
 30
0.0
 11
523.4515
 21
846.25125
 31
0.0
  0
LINE
  5
17A8
330
1E
100
AcDbEntity
  8
0
100
AcDbLine
 10
523.4515
 20
846.25125
 30
0.0
 11
526.0064999999999
 21
846.38225
 31
0.0
  0
LINE
  5
17A9
330
1E
100
AcDbEntity
  8
0
100
AcDbLine
 10
528.9335
 20
846.51125
 30
0.0
 11
531.8615
 21
846.38225
 31
0.0
  0
LINE
  5
17AA
330
1E
100
AcDbEntity
  8
0
100
AcDbLine
 10
526.0064999999999
 20
846.38225
 30
0.0
 11
528.9335
 21
846.51125
 31
0.0
  0
LINE
  5
17AC
330
1E
100
AcDbEntity
  8
0
100
AcDbLine
 10
520.8465
 20
826.4172499999999
 30
0.0
 11
521.2124999999999
 21
825.5092499999999
 31
0.0
  0
LINE
  5
17AD
330
1E
100
AcDbEntity
  8
0
100
AcDbLine
 10
525.4945
 20
826.2602499999999
 30
0.0
 11
526.4944999999999
 21
825.71325
 31
0.0
  0
LINE
  5
17B1
330
1E
100
AcDbEntity
  8
0
100
AcDbLine
 10
533.3735
 20
756.0912499999999
 30
0.0
 11
533.8025
 21
756.8602499999999
 31
0.0
  0
LINE
  5
17B2
330
1E
100
AcDbEntity
  8
0
100
AcDbLine
 10
530.9444999999999
 20
762.3102499999999
 30
0.0
 11
531.3735
 21
761.69525
 31
0.0
  0
LINE
  5
17B3
330
1E
100
AcDbEntity
  8
0
100
AcDbLine
 10
530.9444999999999
 20
762.3102499999999
 30
0.0
 11
531.3735
 21
763.12725
 31
0.0
  0
LINE
  5
17B7
330
1E
100
AcDbEntity
  8
0
100
AcDbLine
 10
530.7793365038569
 20
796.0343089714661
 30
0.0
 11
530.9444999999999
 21
795.65625
 31
0.0
  0
LINE
  5
17BB
330
1E
100
AcDbEntity
  8
0
100
AcDbLine
 10
530.7960916430829
 20
789.175712793408
 30
0.0
 11
530.9444999999999
 21
788.8362499999999
 31
0.0
  0
LINE
  5
17BC
330
1E
100
AcDbEntity
  8
0
100
AcDbLine
 10
530.7954840108
 20
783.111102664951
 30
0.0
 11
530.9444999999999
 21
782.77025
 31
0.0
  0
LINE
  5
17BD
330
1E
100
AcDbEntity
  8
0
100
AcDbLine
 10
530.777573453616
 20
776.332070491153
 30
0.0
 11
530.9444999999999
 21
775.9502499999999
 31
0.0
  0
LINE
  5
17BE
330
1E
100
AcDbEntity
  8
0
100
AcDbLine
 10
530.9444999999999
 20
769.13025
 30
0.0
 11
531.3735
 21
768.51525
 31
0.0
  0
LINE
  5
17BF
330
1E
100
AcDbEntity
  8
0
100
AcDbLine
 10
530.9444999999999
 20
769.13025
 30
0.0
 11
531.3735
 21
769.94725
 31
0.0
  0
LINE
  5
17C0
330
1E
100
AcDbEntity
  8
0
100
AcDbLine
 10
530.9444999999999
 20
788.8362499999999
 30
0.0
 11
531.3735
 21
789.65325
 31
0.0
  0
LINE
  5
17C1
330
1E
100
AcDbEntity
  8
0
100
AcDbLine
 10
530.9444999999999
 20
788.8362499999999
 30
0.0
 11
531.3735
 21
788.22125
 31
0.0
  0
LINE
  5
17C2
330
1E
100
AcDbEntity
  8
0
100
AcDbLine
 10
530.9444999999999
 20
795.65625
 30
0.0
 11
531.3735
 21
796.47325
 31
0.0
  0
LINE
  5
17C3
330
1E
100
AcDbEntity
  8
0
100
AcDbLine
 10
530.9444999999999
 20
795.65625
 30
0.0
 11
531.3735
 21
795.04025
 31
0.0
  0
LINE
  5
17C4
330
1E
100
AcDbEntity
  8
0
100
AcDbLine
 10
530.9444999999999
 20
802.4762500000001
 30
0.0
 11
531.3735
 21
803.2922499999999
 31
0.0
  0
LINE
  5
17C5
330
1E
100
AcDbEntity
  8
0
100
AcDbLine
 10
530.9444999999999
 20
802.4762500000001
 30
0.0
 11
531.3735
 21
801.86025
 31
0.0
  0
LINE
  5
17C6
330
1E
100
AcDbEntity
  8
0
100
AcDbLine
 10
530.9444999999999
 20
809.29625
 30
0.0
 11
531.3735
 21
810.11225
 31
0.0
  0
LINE
  5
17C7
330
1E
100
AcDbEntity
  8
0
100
AcDbLine
 10
530.9444999999999
 20
809.29625
 30
0.0
 11
531.3735
 21
808.6802500000001
 31
0.0
  0
LINE
  5
17C8
330
1E
100
AcDbEntity
  8
0
100
AcDbLine
 10
530.9444999999999
 20
824.8522499999999
 30
0.0
 11
531.3735
 21
825.71325
 31
0.0
  0
LINE
  5
17C9
330
1E
100
AcDbEntity
  8
0
100
AcDbLine
 10
530.9444999999999
 20
824.8522499999999
 30
0.0
 11
531.3735
 21
824.18025
 31
0.0
  0
LINE
  5
17CA
330
1E
100
AcDbEntity
  8
0
100
AcDbLine
 10
530.9444999999999
 20
816.93625
 30
0.0
 11
531.3735
 21
817.7962499999999
 31
0.0
  0
LINE
  5
17CB
330
1E
100
AcDbEntity
  8
0
100
AcDbLine
 10
530.9444999999999
 20
816.93625
 30
0.0
 11
531.3735
 21
816.2622499999999
 31
0.0
  0
LINE
  5
17CD
330
1E
100
AcDbEntity
  8
0
100
AcDbLine
 10
530.9444999999999
 20
782.77025
 30
0.0
 11
531.3735
 21
782.15425
 31
0.0
  0
LINE
  5
17CE
330
1E
100
AcDbEntity
  8
0
100
AcDbLine
 10
530.9444999999999
 20
782.77025
 30
0.0
 11
531.3735
 21
783.5862499999999
 31
0.0
  0
LINE
  5
17D0
330
1E
100
AcDbEntity
  8
0
100
AcDbLine
 10
530.9444999999999
 20
775.9502499999999
 30
0.0
 11
531.3735
 21
775.33425
 31
0.0
  0
LINE
  5
17D1
330
1E
100
AcDbEntity
  8
0
100
AcDbLine
 10
530.9444999999999
 20
775.9502499999999
 30
0.0
 11
531.3735
 21
776.76625
 31
0.0
  0
LINE
  5
17D5
330
1E
100
AcDbEntity
  8
0
100
AcDbLine
 10
532.3735
 20
761.62125
 30
0.0
 11
533.3735
 21
762.1622499999999
 31
0.0
  0
LINE
  5
17D6
330
1E
100
AcDbEntity
  8
0
100
AcDbLine
 10
531.3735
 20
769.94725
 30
0.0
 11
532.3735
 21
770.48725
 31
0.0
  0
LINE
  5
17D7
330
1E
100
AcDbEntity
  8
0
100
AcDbLine
 10
531.3735
 20
768.51525
 30
0.0
 11
532.3735
 21
768.4412499999999
 31
0.0
  0
LINE
  5
17D8
330
1E
100
AcDbEntity
  8
0
100
AcDbLine
 10
531.3735
 20
788.22125
 30
0.0
 11
532.3735
 21
788.14725
 31
0.0
  0
LINE
  5
17D9
330
1E
100
AcDbEntity
  8
0
100
AcDbLine
 10
531.3735
 20
789.65325
 30
0.0
 11
532.3735
 21
790.19325
 31
0.0
  0
LINE
  5
17DA
330
1E
100
AcDbEntity
  8
0
100
AcDbLine
 10
531.3735
 20
795.04025
 30
0.0
 11
532.3735
 21
794.96725
 31
0.0
  0
LINE
  5
17DB
330
1E
100
AcDbEntity
  8
0
100
AcDbLine
 10
531.3735
 20
796.47325
 30
0.0
 11
532.3735
 21
797.01325
 31
0.0
  0
LINE
  5
17DC
330
1E
100
AcDbEntity
  8
0
100
AcDbLine
 10
531.3735
 20
801.86025
 30
0.0
 11
532.3735
 21
801.7872499999999
 31
0.0
  0
LINE
  5
17DE
330
1E
100
AcDbEntity
  8
0
100
AcDbLine
 10
531.3735
 20
803.2922499999999
 30
0.0
 11
532.3735
 21
803.83325
 31
0.0
  0
LINE
  5
17DF
330
1E
100
AcDbEntity
  8
0
100
AcDbLine
 10
531.3735
 20
808.6802500000001
 30
0.0
 11
532.3735
 21
808.6082499999999
 31
0.0
  0
LINE
  5
17E1
330
1E
100
AcDbEntity
  8
0
100
AcDbLine
 10
531.3735
 20
810.11225
 30
0.0
 11
532.3735
 21
810.6542499999999
 31
0.0
  0
LINE
  5
17E2
330
1E
100
AcDbEntity
  8
0
100
AcDbLine
 10
531.3735
 20
816.2622499999999
 30
0.0
 11
532.3735
 21
816.1532499999999
 31
0.0
  0
LINE
  5
17E3
330
1E
100
AcDbEntity
  8
0
100
AcDbLine
 10
531.3735
 20
824.18025
 30
0.0
 11
532.3735
 21
824.0702499999999
 31
0.0
  0
LINE
  5
17E4
330
1E
100
AcDbEntity
  8
0
100
AcDbLine
 10
531.3735
 20
825.71325
 30
0.0
 11
532.3735
 21
826.2602499999999
 31
0.0
  0
LINE
  5
17E5
330
1E
100
AcDbEntity
  8
0
100
AcDbLine
 10
531.3735
 20
817.7962499999999
 30
0.0
 11
532.3735
 21
818.34325
 31
0.0
  0
LINE
  5
17E6
330
1E
100
AcDbEntity
  8
0
100
AcDbLine
 10
531.3735
 20
783.5862499999999
 30
0.0
 11
532.3735
 21
784.12725
 31
0.0
  0
LINE
  5
17E7
330
1E
100
AcDbEntity
  8
0
100
AcDbLine
 10
531.3735
 20
782.15425
 30
0.0
 11
532.3735
 21
782.0812499999999
 31
0.0
  0
LINE
  5
17E8
330
1E
100
AcDbEntity
  8
0
100
AcDbLine
 10
531.3735
 20
776.76625
 30
0.0
 11
532.3735
 21
777.3072499999999
 31
0.0
  0
LINE
  5
17E9
330
1E
100
AcDbEntity
  8
0
100
AcDbLine
 10
531.3735
 20
775.33425
 30
0.0
 11
532.3735
 21
775.26125
 31
0.0
  0
LINE
  5
17EA
330
1E
100
AcDbEntity
  8
0
100
AcDbLine
 10
532.3735
 20
763.6672499999999
 30
0.0
 11
533.3735
 21
763.5942499999999
 31
0.0
  0
LINE
  5
17EB
330
1E
100
AcDbEntity
  8
0
100
AcDbLine
 10
532.3735
 20
768.4412499999999
 30
0.0
 11
533.3735
 21
768.98325
 31
0.0
  0
LINE
  5
17EC
330
1E
100
AcDbEntity
  8
0
100
AcDbLine
 10
532.3735
 20
770.48725
 30
0.0
 11
533.3735
 21
770.41425
 31
0.0
  0
LINE
  5
17EF
330
1E
100
AcDbEntity
  8
0
100
AcDbLine
 10
531.8615
 20
846.38225
 30
0.0
 11
534.4165
 21
846.25125
 31
0.0
  0
LINE
  5
17F1
330
1E
100
AcDbEntity
  8
0
100
AcDbLine
 10
532.3735
 20
782.0812499999999
 30
0.0
 11
533.3735
 21
782.62225
 31
0.0
  0
LINE
  5
17F5
330
1E
100
AcDbEntity
  8
0
100
AcDbLine
 10
532.3735
 20
790.19325
 30
0.0
 11
533.3735
 21
790.1202500000001
 31
0.0
  0
LINE
  5
17F6
330
1E
100
AcDbEntity
  8
0
100
AcDbLine
 10
532.3735
 20
788.14725
 30
0.0
 11
533.3735
 21
788.68825
 31
0.0
  0
LINE
  5
17F8
330
1E
100
AcDbEntity
  8
0
100
AcDbLine
 10
532.3735
 20
797.01325
 30
0.0
 11
533.3735
 21
796.9412499999999
 31
0.0
  0
LINE
  5
17F9
330
1E
100
AcDbEntity
  8
0
100
AcDbLine
 10
532.3735
 20
794.96725
 30
0.0
 11
533.3735
 21
795.50925
 31
0.0
  0
LINE
  5
17FA
330
1E
100
AcDbEntity
  8
0
100
AcDbLine
 10
532.3735
 20
803.83325
 30
0.0
 11
533.3735
 21
803.7612499999999
 31
0.0
  0
LINE
  5
17FB
330
1E
100
AcDbEntity
  8
0
100
AcDbLine
 10
532.3735
 20
801.7872499999999
 30
0.0
 11
533.3735
 21
802.32925
 31
0.0
  0
LINE
  5
17FC
330
1E
100
AcDbEntity
  8
0
100
AcDbLine
 10
532.3735
 20
810.6542499999999
 30
0.0
 11
533.3735
 21
810.5812499999998
 31
0.0
  0
LINE
  5
17FD
330
1E
100
AcDbEntity
  8
0
100
AcDbLine
 10
532.3735
 20
808.6082499999999
 30
0.0
 11
533.3735
 21
809.1482499999999
 31
0.0
  0
LINE
  5
17FE
330
1E
100
AcDbEntity
  8
0
100
AcDbLine
 10
532.3735
 20
826.2602499999999
 30
0.0
 11
533.3735
 21
826.15025
 31
0.0
  0
LINE
  5
17FF
330
1E
100
AcDbEntity
  8
0
100
AcDbLine
 10
532.3735
 20
824.0702499999999
 30
0.0
 11
533.3735
 21
824.61725
 31
0.0
  0
LINE
  5
1800
330
1E
100
AcDbEntity
  8
0
100
AcDbLine
 10
532.3735
 20
818.34325
 30
0.0
 11
533.3735
 21
818.2332499999999
 31
0.0
  0
LINE
  5
1801
330
1E
100
AcDbEntity
  8
0
100
AcDbLine
 10
532.3735
 20
816.1532499999999
 30
0.0
 11
533.3735
 21
816.70025
 31
0.0
  0
LINE
  5
1803
330
1E
100
AcDbEntity
  8
0
100
AcDbLine
 10
532.3735
 20
784.12725
 30
0.0
 11
533.3735
 21
784.05525
 31
0.0
  0
LINE
  5
1805
330
1E
100
AcDbEntity
  8
0
100
AcDbLine
 10
532.3735
 20
775.26125
 30
0.0
 11
533.3735
 21
775.80225
 31
0.0
  0
LINE
  5
1806
330
1E
100
AcDbEntity
  8
0
100
AcDbLine
 10
532.3735
 20
777.3072499999999
 30
0.0
 11
533.3735
 21
777.2352499999999
 31
0.0
  0
LINE
  5
1808
330
1E
100
AcDbEntity
  8
0
100
AcDbLine
 10
531.3735
 20
763.12725
 30
0.0
 11
532.3735
 21
763.6672499999999
 31
0.0
  0
LINE
  5
1809
330
1E
100
AcDbEntity
  8
0
100
AcDbLine
 10
531.3735
 20
761.69525
 30
0.0
 11
532.3735
 21
761.62125
 31
0.0
  0
LINE
  5
180A
330
1E
100
AcDbEntity
  8
0
100
AcDbLine
 10
537.8745
 20
757.36725
 30
0.0
 11
538.7285
 21
758.12125
 31
0.0
  0
LINE
  5
180B
330
1E
100
AcDbEntity
  8
0
100
AcDbLine
 10
537.0204999999999
 20
757.22725
 30
0.0
 11
537.8745
 21
757.36725
 31
0.0
  0
LINE
  5
180C
330
1E
100
AcDbEntity
  8
0
100
AcDbLine
 10
536.8508373791009
 20
757.400702335799
 30
0.0
 11
537.0204999999999
 21
757.22725
 31
0.0
  0
LINE
  5
180D
330
1E
100
AcDbEntity
  8
0
100
AcDbLine
 10
536.6545
 20
757.75125
 30
0.0
 11
537.0204999999999
 21
757.22725
 31
0.0
  0
LINE
  5
180E
330
1E
100
AcDbEntity
  8
0
100
AcDbLine
 10
536.6545
 20
757.75125
 30
0.0
 11
537.0204999999999
 21
758.65925
 31
0.0
  0
LINE
  5
180F
330
1E
100
AcDbEntity
  8
0
100
AcDbLine
 10
533.560254775886
 20
757.447198264328
 30
0.0
 11
533.8025
 21
756.8602499999999
 31
0.0
  0
LINE
  5
1810
330
1E
100
AcDbEntity
  8
0
100
AcDbLine
 10
533.3735
 20
757.41525
 30
0.0
 11
533.8025
 21
756.8602499999999
 31
0.0
  0
LINE
  5
1812
330
1E
100
AcDbEntity
  8
0
100
AcDbLine
 10
533.3735
 20
762.1622499999999
 30
0.0
 11
533.8025
 21
762.97825
 31
0.0
  0
LINE
  5
1814
330
1E
100
AcDbEntity
  8
0
100
AcDbLine
 10
533.668056637683
 20
763.285486142738
 30
0.0
 11
533.8025
 21
762.97825
 31
0.0
  0
LINE
  5
1815
330
1E
100
AcDbEntity
  8
0
100
AcDbLine
 10
533.3735
 20
763.5942499999999
 30
0.0
 11
533.8025
 21
762.97825
 31
0.0
  0
LINE
  5
1816
330
1E
100
AcDbEntity
  8
0
100
AcDbLine
 10
533.3735
 20
768.98325
 30
0.0
 11
533.8025
 21
769.7982500000001
 31
0.0
  0
LINE
  5
1817
330
1E
100
AcDbEntity
  8
0
100
AcDbLine
 10
533.3735
 20
770.41425
 30
0.0
 11
533.8025
 21
769.7982500000001
 31
0.0
  0
LINE
  5
1818
330
1E
100
AcDbEntity
  8
0
100
AcDbLine
 10
533.3735
 20
775.80225
 30
0.0
 11
533.8025
 21
776.6192499999999
 31
0.0
  0
LINE
  5
1819
330
1E
100
AcDbEntity
  8
0
100
AcDbLine
 10
533.3735
 20
777.2352499999999
 30
0.0
 11
533.8025
 21
776.6192499999999
 31
0.0
  0
LINE
  5
1820
330
1E
100
AcDbEntity
  8
0
100
AcDbLine
 10
533.3735
 20
782.62225
 30
0.0
 11
533.8025
 21
783.43925
 31
0.0
  0
LINE
  5
1821
330
1E
100
AcDbEntity
  8
0
100
AcDbLine
 10
533.588606241415
 20
783.927348544181
 30
0.0
 11
533.8025
 21
783.43925
 31
0.0
  0
LINE
  5
1822
330
1E
100
AcDbEntity
  8
0
100
AcDbLine
 10
533.3735
 20
790.1202500000001
 30
0.0
 11
533.8025
 21
789.5042499999999
 31
0.0
  0
LINE
  5
1823
330
1E
100
AcDbEntity
  8
0
100
AcDbLine
 10
533.3735
 20
788.68825
 30
0.0
 11
533.8025
 21
789.5042499999999
 31
0.0
  0
LINE
  5
1824
330
1E
100
AcDbEntity
  8
0
100
AcDbLine
 10
533.3735
 20
796.9412499999999
 30
0.0
 11
533.8025
 21
796.32425
 31
0.0
  0
LINE
  5
1825
330
1E
100
AcDbEntity
  8
0
100
AcDbLine
 10
533.3735
 20
795.50925
 30
0.0
 11
533.8025
 21
796.32425
 31
0.0
  0
LINE
  5
1826
330
1E
100
AcDbEntity
  8
0
100
AcDbLine
 10
533.3735
 20
803.7612499999999
 30
0.0
 11
533.8025
 21
803.14525
 31
0.0
  0
LINE
  5
1827
330
1E
100
AcDbEntity
  8
0
100
AcDbLine
 10
533.3735
 20
802.32925
 30
0.0
 11
533.8025
 21
803.14525
 31
0.0
  0
LINE
  5
1828
330
1E
100
AcDbEntity
  8
0
100
AcDbLine
 10
533.3735
 20
810.5812499999998
 30
0.0
 11
533.8025
 21
809.9652499999999
 31
0.0
  0
LINE
  5
1829
330
1E
100
AcDbEntity
  8
0
100
AcDbLine
 10
533.3735
 20
809.1482499999999
 30
0.0
 11
533.8025
 21
809.9652499999999
 31
0.0
  0
LINE
  5
182A
330
1E
100
AcDbEntity
  8
0
100
AcDbLine
 10
533.3735
 20
826.15025
 30
0.0
 11
533.8025
 21
825.4782500000001
 31
0.0
  0
LINE
  5
182B
330
1E
100
AcDbEntity
  8
0
100
AcDbLine
 10
533.3735
 20
824.61725
 30
0.0
 11
533.8025
 21
825.4782500000001
 31
0.0
  0
LINE
  5
182C
330
1E
100
AcDbEntity
  8
0
100
AcDbLine
 10
533.3735
 20
818.2332499999999
 30
0.0
 11
533.8025
 21
817.56025
 31
0.0
  0
LINE
  5
182E
330
1E
100
AcDbEntity
  8
0
100
AcDbLine
 10
533.7477642703009
 20
803.270244871264
 30
0.0
 11
533.8025
 21
803.14525
 31
0.0
  0
LINE
  5
182F
330
1E
100
AcDbEntity
  8
0
100
AcDbLine
 10
533.481456684403
 20
810.697860320181
 30
0.0
 11
533.8025
 21
809.9652499999999
 31
0.0
  0
LINE
  5
1832
330
1E
100
AcDbEntity
  8
0
100
AcDbLine
 10
534.4165
 20
846.25125
 30
0.0
 11
536.6835
 21
845.65225
 31
0.0
  0
LINE
  5
1834
330
1E
100
AcDbEntity
  8
0
100
AcDbLine
 10
533.6985531774209
 20
825.6999464199589
 30
0.0
 11
533.8025
 21
825.4782500000001
 31
0.0
  0
LINE
  5
1835
330
1E
100
AcDbEntity
  8
0
100
AcDbLine
 10
533.5690572957129
 20
818.0588989240758
 30
0.0
 11
533.8025
 21
817.56025
 31
0.0
  0
LINE
  5
1836
330
1E
100
AcDbEntity
  8
0
100
AcDbLine
 10
533.3735
 20
816.70025
 30
0.0
 11
533.8025
 21
817.56025
 31
0.0
  0
LINE
  5
1837
330
1E
100
AcDbEntity
  8
0
100
AcDbLine
 10
533.3735
 20
784.05525
 30
0.0
 11
533.8025
 21
783.43925
 31
0.0
  0
LINE
  5
183B
330
1E
100
AcDbEntity
  8
0
100
AcDbLine
 10
536.064349303947
 20
811.791582756274
 30
0.0
 11
536.6545
 21
811.18825
 31
0.0
  0
LINE
  5
183F
330
1E
100
AcDbEntity
  8
0
100
AcDbLine
 10
533.337903880244
 20
763.6755958867881
 30
0.0
 11
533.3735
 21
763.5942499999999
 31
0.0
  0
LINE
  5
1840
330
1E
100
AcDbEntity
  8
0
100
AcDbLine
 10
538.7285
 20
758.12125
 30
0.0
 11
539.0945
 21
759.02925
 31
0.0
  0
LINE
  5
1841
330
1E
100
AcDbEntity
  8
0
100
AcDbLine
 10
537.0204999999999
 20
758.65925
 30
0.0
 11
537.8745
 21
759.4132499999999
 31
0.0
  0
LINE
  5
1842
330
1E
100
AcDbEntity
  8
0
100
AcDbLine
 10
536.6545
 20
764.2572499999999
 30
0.0
 11
537.0204999999999
 21
763.73225
 31
0.0
  0
LINE
  5
1843
330
1E
100
AcDbEntity
  8
0
100
AcDbLine
 10
536.6545
 20
764.2572499999999
 30
0.0
 11
537.0204999999999
 21
765.16425
 31
0.0
  0
LINE
  5
1844
330
1E
100
AcDbEntity
  8
0
100
AcDbLine
 10
537.8745
 20
763.87225
 30
0.0
 11
538.7285
 21
764.62725
 31
0.0
  0
LINE
  5
1845
330
1E
100
AcDbEntity
  8
0
100
AcDbLine
 10
537.0204999999999
 20
763.73225
 30
0.0
 11
537.8745
 21
763.87225
 31
0.0
  0
LINE
  5
1848
330
1E
100
AcDbEntity
  8
0
100
AcDbLine
 10
537.0204999999999
 20
765.16425
 30
0.0
 11
537.8745
 21
765.91825
 31
0.0
  0
LINE
  5
1849
330
1E
100
AcDbEntity
  8
0
100
AcDbLine
 10
537.0204999999999
 20
770.5522499999999
 30
0.0
 11
537.8745
 21
770.6922499999999
 31
0.0
  0
LINE
  5
184A
330
1E
100
AcDbEntity
  8
0
100
AcDbLine
 10
537.0204999999999
 20
771.9842499999999
 30
0.0
 11
537.8745
 21
772.7392499999999
 31
0.0
  0
LINE
  5
184B
330
1E
100
AcDbEntity
  8
0
100
AcDbLine
 10
536.6280083754531
 20
772.3855086195969
 30
0.0
 11
537.0204999999999
 21
771.9842499999999
 31
0.0
  0
LINE
  5
184C
330
1E
100
AcDbEntity
  8
0
100
AcDbLine
 10
536.6545
 20
771.07725
 30
0.0
 11
537.0204999999999
 21
770.5522499999999
 31
0.0
  0
LINE
  5
184D
330
1E
100
AcDbEntity
  8
0
100
AcDbLine
 10
536.6545
 20
771.07725
 30
0.0
 11
537.0204999999999
 21
771.9842499999999
 31
0.0
  0
LINE
  5
184E
330
1E
100
AcDbEntity
  8
0
100
AcDbLine
 10
536.610257867434
 20
771.1224423501899
 30
0.0
 11
536.6545
 21
771.07725
 31
0.0
  0
LINE
  5
184F
330
1E
100
AcDbEntity
  8
0
100
AcDbLine
 10
536.6081687998339
 20
770.9737913472479
 30
0.0
 11
537.0204999999999
 21
770.5522499999999
 31
0.0
  0
LINE
  5
1850
330
1E
100
AcDbEntity
  8
0
100
AcDbLine
 10
537.8745
 20
770.6922499999999
 30
0.0
 11
538.7285
 21
771.44725
 31
0.0
  0
LINE
  5
1851
330
1E
100
AcDbEntity
  8
0
100
AcDbLine
 10
537.8745
 20
772.7392499999999
 30
0.0
 11
538.7285
 21
772.8792499999999
 31
0.0
  0
LINE
  5
1852
330
1E
100
AcDbEntity
  8
0
100
AcDbLine
 10
537.8745
 20
777.5132499999999
 30
0.0
 11
538.7285
 21
778.26625
 31
0.0
  0
LINE
  5
1853
330
1E
100
AcDbEntity
  8
0
100
AcDbLine
 10
537.0204999999999
 20
777.3722499999999
 30
0.0
 11
537.8745
 21
777.5132499999999
 31
0.0
  0
LINE
  5
1854
330
1E
100
AcDbEntity
  8
0
100
AcDbLine
 10
536.6545
 20
790.7292499999999
 30
0.0
 11
537.0204999999999
 21
791.63725
 31
0.0
  0
LINE
  5
1855
330
1E
100
AcDbEntity
  8
0
100
AcDbLine
 10
536.6545
 20
790.7292499999999
 30
0.0
 11
537.0204999999999
 21
790.2052499999999
 31
0.0
  0
LINE
  5
1856
330
1E
100
AcDbEntity
  8
0
100
AcDbLine
 10
536.6545
 20
797.54925
 30
0.0
 11
537.0204999999999
 21
798.45725
 31
0.0
  0
LINE
  5
1857
330
1E
100
AcDbEntity
  8
0
100
AcDbLine
 10
536.6545
 20
797.54925
 30
0.0
 11
537.0204999999999
 21
797.02425
 31
0.0
  0
LINE
  5
1858
330
1E
100
AcDbEntity
  8
0
100
AcDbLine
 10
536.6272310489929
 20
804.2463033090189
 30
0.0
 11
537.0204999999999
 21
803.84425
 31
0.0
  0
LINE
  5
1859
330
1E
100
AcDbEntity
  8
0
100
AcDbLine
 10
536.6545
 20
804.3682499999999
 30
0.0
 11
537.0204999999999
 21
805.27625
 31
0.0
  0
LINE
  5
185A
330
1E
100
AcDbEntity
  8
0
100
AcDbLine
 10
536.6545
 20
804.3682499999999
 30
0.0
 11
537.0204999999999
 21
803.84425
 31
0.0
  0
LINE
  5
185B
330
1E
100
AcDbEntity
  8
0
100
AcDbLine
 10
536.6068130764809
 20
805.699177353083
 30
0.0
 11
537.0204999999999
 21
805.27625
 31
0.0
  0
LINE
  5
185C
330
1E
100
AcDbEntity
  8
0
100
AcDbLine
 10
536.525069668847
 20
811.1707466443919
 30
0.0
 11
537.0204999999999
 21
810.6642500000001
 31
0.0
  0
LINE
  5
185D
330
1E
100
AcDbEntity
  8
0
100
AcDbLine
 10
536.6545
 20
825.5092499999999
 30
0.0
 11
537.0204999999999
 21
826.4172499999999
 31
0.0
  0
LINE
  5
185E
330
1E
100
AcDbEntity
  8
0
100
AcDbLine
 10
536.6545
 20
825.5092499999999
 30
0.0
 11
537.0204999999999
 21
824.9842499999999
 31
0.0
  0
LINE
  5
185F
330
1E
100
AcDbEntity
  8
0
100
AcDbLine
 10
536.6545
 20
811.18825
 30
0.0
 11
537.0204999999999
 21
812.09625
 31
0.0
  0
LINE
  5
1860
330
1E
100
AcDbEntity
  8
0
100
AcDbLine
 10
536.6545
 20
811.18825
 30
0.0
 11
537.0204999999999
 21
810.6642500000001
 31
0.0
  0
LINE
  5
1861
330
1E
100
AcDbEntity
  8
0
100
AcDbLine
 10
536.6545
 20
818.32425
 30
0.0
 11
537.0204999999999
 21
819.2312499999999
 31
0.0
  0
LINE
  5
1862
330
1E
100
AcDbEntity
  8
0
100
AcDbLine
 10
536.6545
 20
818.32425
 30
0.0
 11
537.0204999999999
 21
817.79825
 31
0.0
  0
LINE
  5
1863
330
1E
100
AcDbEntity
  8
0
100
AcDbLine
 10
536.6545
 20
784.71725
 30
0.0
 11
537.0204999999999
 21
784.19325
 31
0.0
  0
LINE
  5
1864
330
1E
100
AcDbEntity
  8
0
100
AcDbLine
 10
536.6545
 20
784.71725
 30
0.0
 11
537.0204999999999
 21
785.62525
 31
0.0
  0
LINE
  5
1865
330
1E
100
AcDbEntity
  8
0
100
AcDbLine
 10
537.0204999999999
 20
778.80425
 30
0.0
 11
537.8745
 21
779.55925
 31
0.0
  0
LINE
  5
1866
330
1E
100
AcDbEntity
  8
0
100
AcDbLine
 10
537.8745
 20
784.33325
 30
0.0
 11
538.7285
 21
785.0862499999999
 31
0.0
  0
LINE
  5
1867
330
1E
100
AcDbEntity
  8
0
100
AcDbLine
 10
537.0204999999999
 20
784.19325
 30
0.0
 11
537.8745
 21
784.33325
 31
0.0
  0
LINE
  5
1868
330
1E
100
AcDbEntity
  8
0
100
AcDbLine
 10
536.6969005437789
 20
791.967799616364
 30
0.0
 11
537.0204999999999
 21
791.63725
 31
0.0
  0
LINE
  5
1869
330
1E
100
AcDbEntity
  8
0
100
AcDbLine
 10
536.6747844246999
 20
797.377390737999
 30
0.0
 11
537.0204999999999
 21
797.02425
 31
0.0
  0
LINE
  5
186A
330
1E
100
AcDbEntity
  8
0
100
AcDbLine
 10
536.668459893728
 20
798.8165486651641
 30
0.0
 11
537.0204999999999
 21
798.45725
 31
0.0
  0
LINE
  5
186B
330
1E
100
AcDbEntity
  8
0
100
AcDbLine
 10
536.6835
 20
845.65225
 30
0.0
 11
538.4095
 21
845.15925
 31
0.0
  0
LINE
  5
186C
330
1E
100
AcDbEntity
  8
0
100
AcDbLine
 10
536.6880320086639
 20
818.1381442523109
 30
0.0
 11
537.0204999999999
 21
817.79825
 31
0.0
  0
LINE
  5
186E
330
1E
100
AcDbEntity
  8
0
100
AcDbLine
 10
537.0204999999999
 20
790.2052499999999
 30
0.0
 11
537.8745
 21
790.3442499999999
 31
0.0
  0
LINE
  5
186F
330
1E
100
AcDbEntity
  8
0
100
AcDbLine
 10
536.7026065416109
 20
790.529697962686
 30
0.0
 11
537.0204999999999
 21
790.2052499999999
 31
0.0
  0
LINE
  5
1870
330
1E
100
AcDbEntity
  8
0
100
AcDbLine
 10
537.0204999999999
 20
791.63725
 30
0.0
 11
537.8745
 21
792.39025
 31
0.0
  0
LINE
  5
1871
330
1E
100
AcDbEntity
  8
0
100
AcDbLine
 10
537.0204999999999
 20
797.02425
 30
0.0
 11
537.8745
 21
797.16425
 31
0.0
  0
LINE
  5
1872
330
1E
100
AcDbEntity
  8
0
100
AcDbLine
 10
537.0204999999999
 20
798.45725
 30
0.0
 11
537.8745
 21
799.2102499999999
 31
0.0
  0
LINE
  5
1873
330
1E
100
AcDbEntity
  8
0
100
AcDbLine
 10
537.0204999999999
 20
803.84425
 30
0.0
 11
537.8745
 21
803.98425
 31
0.0
  0
LINE
  5
1874
330
1E
100
AcDbEntity
  8
0
100
AcDbLine
 10
537.0204999999999
 20
805.27625
 30
0.0
 11
537.8745
 21
806.03025
 31
0.0
  0
LINE
  5
1875
330
1E
100
AcDbEntity
  8
0
100
AcDbLine
 10
537.0204999999999
 20
810.6642500000001
 30
0.0
 11
537.8745
 21
810.8042499999999
 31
0.0
  0
LINE
  5
1877
330
1E
100
AcDbEntity
  8
0
100
AcDbLine
 10
537.0204999999999
 20
812.09625
 30
0.0
 11
537.8745
 21
812.8502499999999
 31
0.0
  0
LINE
  5
1878
330
1E
100
AcDbEntity
  8
0
100
AcDbLine
 10
537.0204999999999
 20
817.79825
 30
0.0
 11
537.8745
 21
817.93825
 31
0.0
  0
LINE
  5
1879
330
1E
100
AcDbEntity
  8
0
100
AcDbLine
 10
537.8745
 20
792.39025
 30
0.0
 11
538.7285
 21
792.53025
 31
0.0
  0
LINE
  5
187A
330
1E
100
AcDbEntity
  8
0
100
AcDbLine
 10
537.8745
 20
790.3442499999999
 30
0.0
 11
538.7285
 21
791.09825
 31
0.0
  0
LINE
  5
187B
330
1E
100
AcDbEntity
  8
0
100
AcDbLine
 10
537.8745
 20
799.2102499999999
 30
0.0
 11
538.7285
 21
799.3502499999999
 31
0.0
  0
LINE
  5
187C
330
1E
100
AcDbEntity
  8
0
100
AcDbLine
 10
537.8745
 20
797.16425
 30
0.0
 11
538.7285
 21
797.9182499999999
 31
0.0
  0
LINE
  5
187D
330
1E
100
AcDbEntity
  8
0
100
AcDbLine
 10
537.8745
 20
806.03025
 30
0.0
 11
538.7285
 21
806.17025
 31
0.0
  0
LINE
  5
187E
330
1E
100
AcDbEntity
  8
0
100
AcDbLine
 10
537.8745
 20
803.98425
 30
0.0
 11
538.7285
 21
804.7382499999999
 31
0.0
  0
LINE
  5
187F
330
1E
100
AcDbEntity
  8
0
100
AcDbLine
 10
537.8745
 20
812.8502499999999
 30
0.0
 11
538.7285
 21
812.9912499999999
 31
0.0
  0
LINE
  5
1880
330
1E
100
AcDbEntity
  8
0
100
AcDbLine
 10
537.8745
 20
810.8042499999999
 30
0.0
 11
538.7285
 21
811.55825
 31
0.0
  0
LINE
  5
1881
330
1E
100
AcDbEntity
  8
0
100
AcDbLine
 10
537.8745
 20
817.93825
 30
0.0
 11
538.7285
 21
818.6932500000001
 31
0.0
  0
LINE
  5
1882
330
1E
100
AcDbEntity
  8
0
100
AcDbLine
 10
537.0204999999999
 20
819.2312499999999
 30
0.0
 11
537.8745
 21
819.9842499999999
 31
0.0
  0
LINE
  5
1883
330
1E
100
AcDbEntity
  8
0
100
AcDbLine
 10
537.0204999999999
 20
824.9842499999999
 30
0.0
 11
537.8745
 21
825.12425
 31
0.0
  0
LINE
  5
1884
330
1E
100
AcDbEntity
  8
0
100
AcDbLine
 10
536.720197157029
 20
825.2912606384331
 30
0.0
 11
537.0204999999999
 21
824.9842499999999
 31
0.0
  0
LINE
  5
1885
330
1E
100
AcDbEntity
  8
0
100
AcDbLine
 10
537.0204999999999
 20
826.4172499999999
 30
0.0
 11
537.8745
 21
827.1702499999999
 31
0.0
  0
LINE
  5
1888
330
1E
100
AcDbEntity
  8
0
100
AcDbLine
 10
537.8745
 20
827.1702499999999
 30
0.0
 11
538.7285
 21
827.31025
 31
0.0
  0
LINE
  5
1889
330
1E
100
AcDbEntity
  8
0
100
AcDbLine
 10
537.8745
 20
825.12425
 30
0.0
 11
538.7285
 21
825.87825
 31
0.0
  0
LINE
  5
188B
330
1E
100
AcDbEntity
  8
0
100
AcDbLine
 10
537.8745
 20
819.9842499999999
 30
0.0
 11
538.7285
 21
820.12525
 31
0.0
  0
LINE
  5
188E
330
1E
100
AcDbEntity
  8
0
100
AcDbLine
 10
537.8745
 20
786.3792499999999
 30
0.0
 11
538.7285
 21
786.5182499999999
 31
0.0
  0
LINE
  5
188F
330
1E
100
AcDbEntity
  8
0
100
AcDbLine
 10
537.0204999999999
 20
785.62525
 30
0.0
 11
537.8745
 21
786.3792499999999
 31
0.0
  0
LINE
  5
1890
330
1E
100
AcDbEntity
  8
0
100
AcDbLine
 10
536.7022238934019
 20
785.9503619336298
 30
0.0
 11
537.0204999999999
 21
785.62525
 31
0.0
  0
LINE
  5
1891
330
1E
100
AcDbEntity
  8
0
100
AcDbLine
 10
536.6965639405639
 20
784.5238651534449
 30
0.0
 11
537.0204999999999
 21
784.19325
 31
0.0
  0
LINE
  5
1892
330
1E
100
AcDbEntity
  8
0
100
AcDbLine
 10
537.8745
 20
779.55925
 30
0.0
 11
538.7285
 21
779.6992499999999
 31
0.0
  0
LINE
  5
1894
330
1E
100
AcDbEntity
  8
0
100
AcDbLine
 10
536.6545
 20
777.89725
 30
0.0
 11
537.0204999999999
 21
777.3722499999999
 31
0.0
  0
LINE
  5
1895
330
1E
100
AcDbEntity
  8
0
100
AcDbLine
 10
536.6545
 20
777.89725
 30
0.0
 11
537.0204999999999
 21
778.80425
 31
0.0
  0
LINE
  5
1896
330
1E
100
AcDbEntity
  8
0
100
AcDbLine
 10
536.6683382797979
 20
777.732277875464
 30
0.0
 11
537.0204999999999
 21
777.3722499999999
 31
0.0
  0
LINE
  5
1897
330
1E
100
AcDbEntity
  8
0
100
AcDbLine
 10
537.8745
 20
765.91825
 30
0.0
 11
538.7285
 21
766.0592499999999
 31
0.0
  0
LINE
  5
1899
330
1E
100
AcDbEntity
  8
0
100
AcDbLine
 10
536.509278300894
 20
764.405590721853
 30
0.0
 11
536.6545
 21
764.2572499999999
 31
0.0
  0
LINE
  5
189A
330
1E
100
AcDbEntity
  8
0
100
AcDbLine
 10
536.506938208125
 20
764.2572831033771
 30
0.0
 11
537.0204999999999
 21
763.73225
 31
0.0
  0
LINE
  5
189B
330
1E
100
AcDbEntity
  8
0
100
AcDbLine
 10
538.7285
 20
759.55325
 30
0.0
 11
539.0945
 21
759.02925
 31
0.0
  0
LINE
  5
189D
330
1E
100
AcDbEntity
  8
0
100
AcDbLine
 10
538.4095
 20
845.15925
 30
0.0
 11
539.5505
 21
844.7802499999999
 31
0.0
  0
LINE
  5
18A2
330
1E
100
AcDbEntity
  8
0
100
AcDbLine
 10
538.26566044028
 20
786.991427900401
 30
0.0
 11
538.7285
 21
786.5182499999999
 31
0.0
  0
LINE
  5
18A3
330
1E
100
AcDbEntity
  8
0
100
AcDbLine
 10
538.555229749688
 20
779.876241690396
 30
0.0
 11
538.7285
 21
779.6992499999999
 31
0.0
  0
LINE
  5
18A4
330
1E
100
AcDbEntity
  8
0
100
AcDbLine
 10
538.7285
 20
764.62725
 30
0.0
 11
539.0945
 21
765.53425
 31
0.0
  0
LINE
  5
18A5
330
1E
100
AcDbEntity
  8
0
100
AcDbLine
 10
538.7285
 20
771.44725
 30
0.0
 11
539.0945
 21
772.3542499999999
 31
0.0
  0
LINE
  5
18A6
330
1E
100
AcDbEntity
  8
0
100
AcDbLine
 10
538.7285
 20
772.8792499999999
 30
0.0
 11
539.0945
 21
772.3542499999999
 31
0.0
  0
LINE
  5
18A7
330
1E
100
AcDbEntity
  8
0
100
AcDbLine
 10
538.7285
 20
792.53025
 30
0.0
 11
539.0945
 21
792.00625
 31
0.0
  0
LINE
  5
18A8
330
1E
100
AcDbEntity
  8
0
100
AcDbLine
 10
538.7285
 20
791.09825
 30
0.0
 11
539.0945
 21
792.00625
 31
0.0
  0
LINE
  5
18A9
330
1E
100
AcDbEntity
  8
0
100
AcDbLine
 10
538.7285
 20
799.3502499999999
 30
0.0
 11
539.0945
 21
798.8262499999999
 31
0.0
  0
LINE
  5
18AA
330
1E
100
AcDbEntity
  8
0
100
AcDbLine
 10
538.7285
 20
797.9182499999999
 30
0.0
 11
539.0945
 21
798.8262499999999
 31
0.0
  0
LINE
  5
18AB
330
1E
100
AcDbEntity
  8
0
100
AcDbLine
 10
538.7285
 20
806.17025
 30
0.0
 11
539.0945
 21
805.64625
 31
0.0
  0
LINE
  5
18AC
330
1E
100
AcDbEntity
  8
0
100
AcDbLine
 10
538.7285
 20
804.7382499999999
 30
0.0
 11
539.0945
 21
805.64625
 31
0.0
  0
LINE
  5
18AD
330
1E
100
AcDbEntity
  8
0
100
AcDbLine
 10
538.7285
 20
812.9912499999999
 30
0.0
 11
539.0945
 21
812.4662499999999
 31
0.0
  0
LINE
  5
18AE
330
1E
100
AcDbEntity
  8
0
100
AcDbLine
 10
538.7285
 20
811.55825
 30
0.0
 11
539.0945
 21
812.4662499999999
 31
0.0
  0
LINE
  5
18AF
330
1E
100
AcDbEntity
  8
0
100
AcDbLine
 10
538.7285
 20
827.31025
 30
0.0
 11
539.0945
 21
826.7862499999999
 31
0.0
  0
LINE
  5
18B0
330
1E
100
AcDbEntity
  8
0
100
AcDbLine
 10
538.7285
 20
825.87825
 30
0.0
 11
539.0945
 21
826.7862499999999
 31
0.0
  0
LINE
  5
18B1
330
1E
100
AcDbEntity
  8
0
100
AcDbLine
 10
538.7285
 20
820.12525
 30
0.0
 11
539.0945
 21
819.60025
 31
0.0
  0
LINE
  5
18B2
330
1E
100
AcDbEntity
  8
0
100
AcDbLine
 10
538.7285
 20
818.6932500000001
 30
0.0
 11
539.0945
 21
819.60025
 31
0.0
  0
LINE
  5
18B3
330
1E
100
AcDbEntity
  8
0
100
AcDbLine
 10
538.7285
 20
785.0862499999999
 30
0.0
 11
539.0945
 21
785.9942499999999
 31
0.0
  0
LINE
  5
18B4
330
1E
100
AcDbEntity
  8
0
100
AcDbLine
 10
538.7285
 20
786.5182499999999
 30
0.0
 11
539.0945
 21
785.9942499999999
 31
0.0
  0
LINE
  5
18B5
330
1E
100
AcDbEntity
  8
0
100
AcDbLine
 10
538.7285
 20
778.26625
 30
0.0
 11
539.0945
 21
779.17425
 31
0.0
  0
LINE
  5
18B9
330
1E
100
AcDbEntity
  8
0
100
AcDbLine
 10
539.5505
 20
844.7802499999999
 30
0.0
 11
540.1825
 21
844.3642499999999
 31
0.0
  0
LINE
  5
18BA
330
1E
100
AcDbEntity
  8
0
100
AcDbLine
 10
538.7285
 20
779.6992499999999
 30
0.0
 11
539.0945
 21
779.17425
 31
0.0
  0
LINE
  5
18BB
330
1E
100
AcDbEntity
  8
0
100
AcDbLine
 10
538.7285
 20
766.0592499999999
 30
0.0
 11
539.0945
 21
765.53425
 31
0.0
  0
LINE
  5
18BC
330
1E
100
AcDbEntity
  8
0
100
AcDbLine
 10
538.5590256796759
 20
766.232364232702
 30
0.0
 11
538.7285
 21
766.0592499999999
 31
0.0
  0
LINE
  5
18BD
330
1E
100
AcDbEntity
  8
0
100
AcDbLine
 10
538.573873390462
 20
759.7113304685138
 30
0.0
 11
538.7285
 21
759.55325
 31
0.0
  0
LINE
  5
18BE
330
1E
100
AcDbEntity
  8
0
100
AcDbLine
 10
537.8745
 20
759.4132499999999
 30
0.0
 11
538.7285
 21
759.55325
 31
0.0
  0
LINE
  5
18C0
330
1E
100
AcDbEntity
  8
0
100
AcDbLine
 10
536.307570705462
 20
758.105928574313
 30
0.0
 11
536.6545
 21
757.75125
 31
0.0
  0
LINE
  5
18C2
330
1E
100
AcDbEntity
  8
0
100
AcDbLine
 10
532.3735
 20
757.4512499999999
 30
0.0
 11
533.3735
 21
757.41525
 31
0.0
  0
LINE
  5
18C3
330
1E
100
AcDbEntity
  8
0
100
AcDbLine
 10
531.3735
 20
756.9182499999999
 30
0.0
 11
532.3735
 21
757.4512499999999
 31
0.0
  0
LINE
  5
18C5
330
1E
100
AcDbEntity
  8
0
100
AcDbLine
 10
530.9444999999999
 20
756.15025
 30
0.0
 11
531.3735
 21
755.59425
 31
0.0
  0
LINE
  5
18C6
330
1E
100
AcDbEntity
  8
0
100
AcDbLine
 10
530.9444999999999
 20
756.15025
 30
0.0
 11
531.3735
 21
756.9182499999999
 31
0.0
  0
LINE
  5
18C8
330
1E
100
AcDbEntity
  8
0
100
AcDbLine
 10
531.3735
 20
755.59425
 30
0.0
 11
532.3735
 21
755.55825
 31
0.0
  0
LINE
  5
18CA
330
1E
100
AcDbEntity
  8
0
100
AcDbLine
 10
540.0862285375829
 20
640.491600535863
 30
0.0
 11
540.1835
 21
640.18325
 31
0.0
  0
LINE
  5
18CB
330
1E
100
AcDbEntity
  8
0
100
AcDbLine
 10
540.0862285375829
 20
640.491600535863
 30
0.0
 11
540.5014999999999
 21
641.37225
 31
0.0
  0
LINE
  5
18CC
330
1E
100
AcDbEntity
  8
0
100
AcDbLine
 10
539.7834999999999
 20
638.91625
 30
0.0
 11
540.1835
 21
640.18325
 31
0.0
  0
LINE
  5
18CD
330
1E
100
AcDbEntity
  8
0
100
AcDbLine
 10
518.6835
 20
637.77425
 30
0.0
 11
520.5834999999999
 21
636.76025
 31
0.0
  0
LINE
  5
18CE
330
1E
100
AcDbEntity
  8
0
100
AcDbLine
 10
540.5014999999999
 20
641.37225
 30
0.0
 11
540.9334999999999
 21
644.45525
 31
0.0
  0
LINE
  5
18CF
330
1E
100
AcDbEntity
  8
0
100
AcDbLine
 10
540.9334999999999
 20
692.5612499999999
 30
0.0
 11
540.9334999999999
 21
708.26525
 31
0.0
  0
LINE
  5
18D0
330
1E
100
AcDbEntity
  8
0
100
AcDbLine
 10
540.9334999999999
 20
692.5612499999999
 30
0.0
 11
540.9334999999999
 21
672.56225
 31
0.0
  0
LINE
  5
18D6
330
1E
100
AcDbEntity
  8
0
100
AcDbLine
 10
540.7385
 20
843.83425
 30
0.0
 11
541.1545
 21
843.00125
 31
0.0
  0
LINE
  5
18D7
330
1E
100
AcDbEntity
  8
0
100
AcDbLine
 10
540.1825
 20
844.3642499999999
 30
0.0
 11
540.7385
 21
843.83425
 31
0.0
  0
LINE
  5
18D8
330
1E
100
AcDbEntity
  8
0
100
AcDbLine
 10
540.9334999999999
 20
728.1372499999999
 30
0.0
 11
541.1304999999999
 21
737.21725
 31
0.0
  0
LINE
  5
18D9
330
1E
100
AcDbEntity
  8
0
100
AcDbLine
 10
540.9334999999999
 20
728.1372499999999
 30
0.0
 11
540.9334999999999
 21
718.2012499999999
 31
0.0
  0
LINE
  5
18DA
330
1E
100
AcDbEntity
  8
0
100
AcDbLine
 10
540.9334999999999
 20
718.2012499999999
 30
0.0
 11
540.9334999999999
 21
728.1372499999999
 31
0.0
  0
LINE
  5
18DB
330
1E
100
AcDbEntity
  8
0
100
AcDbLine
 10
540.9334999999999
 20
718.2012499999999
 30
0.0
 11
540.9334999999999
 21
708.26525
 31
0.0
  0
LINE
  5
18DC
330
1E
100
AcDbEntity
  8
0
100
AcDbLine
 10
540.9334999999999
 20
708.26525
 30
0.0
 11
540.9334999999999
 21
718.2012499999999
 31
0.0
  0
LINE
  5
18DD
330
1E
100
AcDbEntity
  8
0
100
AcDbLine
 10
540.9334999999999
 20
708.26525
 30
0.0
 11
540.9334999999999
 21
692.5612499999999
 31
0.0
  0
LINE
  5
18DE
330
1E
100
AcDbEntity
  8
0
100
AcDbLine
 10
540.9334999999999
 20
672.56225
 30
0.0
 11
540.9334999999999
 21
692.5612499999999
 31
0.0
  0
LINE
  5
18DF
330
1E
100
AcDbEntity
  8
0
100
AcDbLine
 10
540.9334999999999
 20
672.56225
 30
0.0
 11
540.9334999999999
 21
644.45525
 31
0.0
  0
LINE
  5
18E0
330
1E
100
AcDbEntity
  8
0
100
AcDbLine
 10
540.9334999999999
 20
644.45525
 30
0.0
 11
540.9334999999999
 21
672.56225
 31
0.0
  0
LINE
  5
18E1
330
1E
100
AcDbEntity
  8
0
100
AcDbLine
 10
540.1546640004089
 20
640.2746601187049
 30
0.0
 11
541.8134999999999
 21
639.9462499999999
 31
0.0
  0
LINE
  5
18E2
330
1E
100
AcDbEntity
  8
0
100
AcDbLine
 10
540.1325
 20
636.9982499999999
 30
0.0
 11
542.8415
 21
636.78925
 31
0.0
  0
LINE
  5
18E3
330
1E
100
AcDbEntity
  8
0
100
AcDbLine
 10
540.1325
 20
636.9982499999999
 30
0.0
 11
541.7444999999999
 21
637.3642499999999
 31
0.0
  0
LINE
  5
18E6
330
1E
100
AcDbEntity
  8
0
100
AcDbLine
 10
541.5694999999999
 20
744.9172499999999
 30
0.0
 11
541.7074999999999
 21
747.42525
 31
0.0
  0
LINE
  5
18E7
330
1E
100
AcDbEntity
  8
0
100
AcDbLine
 10
541.4534999999999
 20
743.0712499999999
 30
0.0
 11
541.5694999999999
 21
744.9172499999999
 31
0.0
  0
LINE
  5
18E9
330
1E
100
AcDbEntity
  8
0
100
AcDbLine
 10
541.1304999999999
 20
737.21725
 30
0.0
 11
541.4534999999999
 21
743.0712499999999
 31
0.0
  0
LINE
  5
18ED
330
1E
100
AcDbEntity
  8
0
100
AcDbLine
 10
542.1805
 20
751.52125
 30
0.0
 11
542.3205
 21
753.56125
 31
0.0
  0
LINE
  5
18EF
330
1E
100
AcDbEntity
  8
0
100
AcDbLine
 10
542.1805
 20
751.4782499999999
 30
0.0
 11
542.3205
 21
753.51925
 31
0.0
  0
LINE
  5
18F0
330
1E
100
AcDbEntity
  8
0
100
AcDbLine
 10
542.3205
 20
753.56125
 30
0.0
 11
542.4294999999999
 21
755.9992499999999
 31
0.0
  0
LINE
  5
18F1
330
1E
100
AcDbEntity
  8
0
100
AcDbLine
 10
542.4294999999999
 20
755.9992499999999
 30
0.0
 11
542.5534999999999
 21
760.0812499999999
 31
0.0
  0
LINE
  5
18F2
330
1E
100
AcDbEntity
  8
0
100
AcDbLine
 10
542.3205
 20
753.51925
 30
0.0
 11
542.4294999999999
 21
755.9562499999999
 31
0.0
  0
LINE
  5
18F3
330
1E
100
AcDbEntity
  8
0
100
AcDbLine
 10
542.4294999999999
 20
755.9562499999999
 30
0.0
 11
542.5534999999999
 21
760.0372499999999
 31
0.0
  0
LINE
  5
18F4
330
1E
100
AcDbEntity
  8
0
100
AcDbLine
 10
542.5534999999999
 20
760.0812499999999
 30
0.0
 11
542.6775
 21
766.3152499999999
 31
0.0
  0
LINE
  5
18F5
330
1E
100
AcDbEntity
  8
0
100
AcDbLine
 10
542.6775
 20
766.3152499999999
 30
0.0
 11
542.8265
 21
774.73425
 31
0.0
  0
LINE
  5
18F6
330
1E
100
AcDbEntity
  8
0
100
AcDbLine
 10
542.5534999999999
 20
760.0372499999999
 30
0.0
 11
542.6775
 21
766.27125
 31
0.0
  0
LINE
  5
18F7
330
1E
100
AcDbEntity
  8
0
100
AcDbLine
 10
542.6775
 20
766.27125
 30
0.0
 11
542.8265
 21
774.69025
 31
0.0
  0
LINE
  5
18FC
330
1E
100
AcDbEntity
  8
0
100
AcDbLine
 10
541.5555
 20
841.8662499999999
 30
0.0
 11
541.8325
 21
840.54125
 31
0.0
  0
LINE
  5
18FF
330
1E
100
AcDbEntity
  8
0
100
AcDbLine
 10
541.8325
 20
840.54125
 30
0.0
 11
541.8940954742389
 21
840.1674454044259
 31
0.0
  0
LINE
  5
1900
330
1E
100
AcDbEntity
  8
0
100
AcDbLine
 10
541.8940954742389
 20
840.1674454044259
 30
0.0
 11
542.0945
 21
838.95125
 31
0.0
  0
LINE
  5
1901
330
1E
100
AcDbEntity
  8
0
100
AcDbLine
 10
542.8265
 20
774.73425
 30
0.0
 11
542.8804999999999
 21
784.14025
 31
0.0
  0
LINE
  5
1902
330
1E
100
AcDbEntity
  8
0
100
AcDbLine
 10
542.8804999999999
 20
784.14025
 30
0.0
 11
542.9335
 21
794.91925
 31
0.0
  0
LINE
  5
1904
330
1E
100
AcDbEntity
  8
0
100
AcDbLine
 10
542.8265
 20
815.10525
 30
0.0
 11
542.8804999999999
 21
805.69825
 31
0.0
  0
LINE
  5
1905
330
1E
100
AcDbEntity
  8
0
100
AcDbLine
 10
542.5534999999999
 20
829.75825
 30
0.0
 11
542.6775
 21
823.52425
 31
0.0
  0
LINE
  5
1906
330
1E
100
AcDbEntity
  8
0
100
AcDbLine
 10
542.3205
 20
836.27725
 30
0.0
 11
542.4294999999999
 21
833.8392499999999
 31
0.0
  0
LINE
  5
1907
330
1E
100
AcDbEntity
  8
0
100
AcDbLine
 10
542.1805
 20
838.3172499999998
 30
0.0
 11
542.3205
 21
836.27725
 31
0.0
  0
LINE
  5
1909
330
1E
100
AcDbEntity
  8
0
100
AcDbLine
 10
542.4294999999999
 20
833.8392499999999
 30
0.0
 11
542.5534999999999
 21
829.75825
 31
0.0
  0
LINE
  5
190B
330
1E
100
AcDbEntity
  8
0
100
AcDbLine
 10
542.4294999999999
 20
833.7962499999999
 30
0.0
 11
542.5534999999999
 21
829.7152499999999
 31
0.0
  0
LINE
  5
190C
330
1E
100
AcDbEntity
  8
0
100
AcDbLine
 10
542.6775
 20
823.52425
 30
0.0
 11
542.8265
 21
815.10525
 31
0.0
  0
LINE
  5
190D
330
1E
100
AcDbEntity
  8
0
100
AcDbLine
 10
542.5534999999999
 20
829.7152499999999
 30
0.0
 11
542.6775
 21
823.48125
 31
0.0
  0
LINE
  5
190E
330
1E
100
AcDbEntity
  8
0
100
AcDbLine
 10
542.6775
 20
823.48125
 30
0.0
 11
542.8265
 21
815.0622499999998
 31
0.0
  0
LINE
  5
190F
330
1E
100
AcDbEntity
  8
0
100
AcDbLine
 10
542.8804999999999
 20
805.69825
 30
0.0
 11
542.9335
 21
794.91925
 31
0.0
  0
LINE
  5
1910
330
1E
100
AcDbEntity
  8
0
100
AcDbLine
 10
542.8265
 20
815.0622499999998
 30
0.0
 11
542.8804999999999
 21
805.65525
 31
0.0
  0
LINE
  5
1911
330
1E
100
AcDbEntity
  8
0
100
AcDbLine
 10
542.8804999999999
 20
805.65525
 30
0.0
 11
542.9335
 21
794.87625
 31
0.0
  0
LINE
  5
1913
330
1E
100
AcDbEntity
  8
0
100
AcDbLine
 10
542.0945
 20
838.95125
 30
0.0
 11
542.1805
 21
838.3172499999998
 31
0.0
  0
LINE
  5
1916
330
1E
100
AcDbEntity
  8
0
100
AcDbLine
 10
541.1545
 20
843.00125
 30
0.0
 11
541.5555
 21
841.8662499999999
 31
0.0
  0
LINE
  5
1917
330
1E
100
AcDbEntity
  8
0
100
AcDbLine
 10
542.8265
 20
774.69025
 30
0.0
 11
542.8804999999999
 21
784.09725
 31
0.0
  0
LINE
  5
1918
330
1E
100
AcDbEntity
  8
0
100
AcDbLine
 10
542.8804999999999
 20
784.09725
 30
0.0
 11
542.9335
 21
794.87625
 31
0.0
  0
LINE
  5
1919
330
1E
100
AcDbEntity
  8
0
100
AcDbLine
 10
541.8134999999999
 20
639.9462499999999
 30
0.0
 11
543.0534999999999
 21
639.43525
 31
0.0
  0
LINE
  5
191A
330
1E
100
AcDbEntity
  8
0
100
AcDbLine
 10
543.321927587476
 20
638.343714469531
 30
0.0
 11
543.3295
 21
638.80525
 31
0.0
  0
LINE
  5
191B
330
1E
100
AcDbEntity
  8
0
100
AcDbLine
 10
543.321927587476
 20
638.343714469531
 30
0.0
 11
543.3295
 21
638.80525
 31
0.0
  0
LINE
  5
191D
330
1E
100
AcDbEntity
  8
0
100
AcDbLine
 10
543.3295
 20
638.80525
 30
0.0
 11
543.3295
 21
638.3542499999999
 31
0.0
  0
LINE
  5
191E
330
1E
100
AcDbEntity
  8
0
100
AcDbLine
 10
543.0534999999999
 20
639.43525
 30
0.0
 11
543.3295
 21
638.80525
 31
0.0
  0
LINE
  5
191F
330
1E
100
AcDbEntity
  8
0
100
AcDbLine
 10
543.3295
 20
638.3542499999999
 30
0.0
 11
543.3295
 21
638.80525
 31
0.0
  0
LINE
  5
1920
330
1E
100
AcDbEntity
  8
0
100
AcDbLine
 10
542.9845
 20
637.8742499999999
 30
0.0
 11
543.3295
 21
638.3542499999999
 31
0.0
  0
LINE
  5
1921
330
1E
100
AcDbEntity
  8
0
100
AcDbLine
 10
541.7444999999999
 20
637.3642499999999
 30
0.0
 11
542.9845
 21
637.8742499999999
 31
0.0
  0
LINE
  5
1922
330
1E
100
AcDbEntity
  8
0
100
AcDbLine
 10
547.1834999999999
 20
638.33825
 30
0.0
 11
547.1834999999999
 21
598.37125
 31
0.0
  0
LINE
  5
1923
330
1E
100
AcDbEntity
  8
0
100
AcDbLine
 10
547.1834999999999
 20
638.33825
 30
0.0
 11
547.1834999999999
 21
648.37125
 31
0.0
  0
LINE
  5
1924
330
1E
100
AcDbEntity
  8
0
100
AcDbLine
 10
547.1834999999999
 20
648.37125
 30
0.0
 11
547.1834999999999
 21
638.33825
 31
0.0
  0
LINE
  5
1925
330
1E
100
AcDbEntity
  8
0
100
AcDbLine
 10
547.0404999999999
 20
638.0992499999999
 30
0.0
 11
547.1834999999999
 21
638.33825
 31
0.0
  0
LINE
  5
1926
330
1E
100
AcDbEntity
  8
0
100
AcDbLine
 10
546.3334999999999
 20
637.62125
 30
0.0
 11
547.0404999999999
 21
638.0992499999999
 31
0.0
  0
LINE
  5
1928
330
1E
100
AcDbEntity
  8
0
100
AcDbLine
 10
545.2454999999999
 20
637.2592499999999
 30
0.0
 11
546.3334999999999
 21
637.62125
 31
0.0
  0
LINE
  5
192A
330
1E
100
AcDbEntity
  8
0
100
AcDbLine
 10
542.8415
 20
636.78925
 30
0.0
 11
545.2454999999999
 21
637.2592499999999
 31
0.0
  0
LINE
  5
192C
330
1E
100
AcDbEntity
  8
0
100
AcDbLine
 10
540.9334999999999
 20
648.37125
 30
0.0
 11
547.1834999999999
 21
648.37125
 31
0.0
  0
LINE
  5
192D
330
1E
100
AcDbEntity
  8
0
100
AcDbLine
 10
518.5975
 20
593.99225
 30
0.0
 11
520.4092590909249
 21
594.226774406515
 31
0.0
  0
LINE
  5
1932
330
1E
100
AcDbEntity
  8
0
100
AcDbLine
 10
525.6834999999999
 20
635.49225
 30
0.0
 11
529.9463257186971
 21
635.3809595135462
 31
0.0
  0
LINE
  5
1933
330
1E
100
AcDbEntity
  8
0
100
AcDbLine
 10
529.9463257186971
 20
635.3809595135462
 30
0.0
 11
534.3835
 21
635.95725
 31
0.0
  0
LINE
  5
1934
330
1E
100
AcDbEntity
  8
0
100
AcDbLine
 10
515.4384999999999
 20
755.9562499999999
 30
0.0
 11
515.9194999999999
 21
749.93425
 31
0.0
  0
LINE
  5
1935
330
1E
100
AcDbEntity
  8
0
100
AcDbLine
 10
515.9194999999999
 20
749.93425
 30
0.0
 11
516.1604999999999
 21
747.42525
 31
0.0
  0
LINE
  5
1936
330
1E
100
AcDbEntity
  8
0
100
AcDbLine
 10
542.1805
 20
751.4782499999999
 30
0.0
 11
541.7074999999999
 21
747.42525
 31
0.0
  0
LINE
  5
1937
330
1E
100
AcDbEntity
  8
0
100
AcDbLine
 10
515.96897444506
 20
840.1435949146788
 30
0.0
 11
515.837473965229
 21
839.345557651578
 31
0.0
  0
LINE
  5
1938
330
1E
100
AcDbEntity
  8
0
100
AcDbLine
 10
515.837473965229
 20
839.345557651578
 30
0.0
 11
515.7725
 21
838.95125
 31
0.0
  0
LINE
  5
1939
330
1E
100
AcDbEntity
  8
0
100
AcDbLine
 10
515.7725
 20
838.95125
 30
0.0
 11
515.5475
 21
836.27725
 31
0.0
  0
LINE
  5
193A
330
1E
100
AcDbEntity
  8
0
100
AcDbLine
 10
85.75549999999999
 20
436.28625
 30
0.0
 11
85.556
 21
437.09825
 31
0.0
  0
LINE
  5
193B
330
1E
100
AcDbEntity
  8
0
100
AcDbLine
 10
87.5524
 20
433.6782499999999
 30
0.0
 11
87.08910000000001
 21
434.08825
 31
0.0
  0
LINE
  5
193C
330
1E
100
AcDbEntity
  8
0
100
AcDbLine
 10
102.0526999999999
 20
376.18825
 30
0.0
 11
104.8977
 21
376.28525
 31
0.0
  0
LINE
  5
193D
330
1E
100
AcDbEntity
  8
0
100
AcDbLine
 10
102.0526999999999
 20
331.44225
 30
0.0
 11
104.8977
 21
331.34525
 31
0.0
  0
LINE
  5
193E
330
1E
100
AcDbEntity
  8
0
100
AcDbLine
 10
84.34639999999999
 20
351.89625
 30
0.0
 11
84.4438
 21
349.0512499999999
 31
0.0
  0
LINE
  5
193F
330
1E
100
AcDbEntity
  8
0
100
AcDbLine
 10
91.08589999999999
 20
332.37225
 30
0.0
 11
92.9091
 21
332.15525
 31
0.0
  0
LINE
  5
1940
330
1E
100
AcDbEntity
  8
0
100
AcDbLine
 10
86.3246
 20
335.08625
 30
0.0
 11
86.6797
 21
334.5512499999999
 31
0.0
  0
LINE
  5
1941
330
1E
100
AcDbEntity
  8
0
100
AcDbLine
 10
85.75549999999999
 20
336.2862499999999
 30
0.0
 11
85.556
 21
337.09825
 31
0.0
  0
LINE
  5
1942
330
1E
100
AcDbEntity
  8
0
100
AcDbLine
 10
85.15680000000001
 20
339.90825
 30
0.0
 11
85.37399999999999
 21
338.0842499999999
 31
0.0
  0
LINE
  5
1943
330
1E
100
AcDbEntity
  8
0
100
AcDbLine
 10
85.37399999999999
 20
338.0842499999999
 30
0.0
 11
85.556
 21
337.09825
 31
0.0
  0
LINE
  5
1944
330
1E
100
AcDbEntity
  8
0
100
AcDbLine
 10
85.75549999999999
 20
336.2862499999999
 30
0.0
 11
86.03759999999999
 21
335.5872499999999
 31
0.0
  0
LINE
  5
1945
330
1E
100
AcDbEntity
  8
0
100
AcDbLine
 10
86.03759999999999
 20
335.5872499999999
 30
0.0
 11
86.3246
 21
335.08625
 31
0.0
  0
LINE
  5
1946
330
1E
100
AcDbEntity
  8
0
100
AcDbLine
 10
84.6469
 20
345.36625
 30
0.0
 11
84.8911
 21
342.13625
 31
0.0
  0
LINE
  5
1947
330
1E
100
AcDbEntity
  8
0
100
AcDbLine
 10
84.8911
 20
342.13625
 30
0.0
 11
85.15680000000001
 21
339.90825
 31
0.0
  0
LINE
  5
1948
330
1E
100
AcDbEntity
  8
0
100
AcDbLine
 10
84.4438
 20
349.0512499999999
 30
0.0
 11
84.6469
 21
345.36625
 31
0.0
  0
LINE
  5
1949
330
1E
100
AcDbEntity
  8
0
100
AcDbLine
 10
87.5524
 20
333.6782499999999
 30
0.0
 11
87.08910000000001
 21
334.08825
 31
0.0
  0
LINE
  5
194A
330
1E
100
AcDbEntity
  8
0
100
AcDbLine
 10
87.5524
 20
333.6782499999999
 30
0.0
 11
88.08719999999999
 21
333.3232499999999
 31
0.0
  0
LINE
  5
194B
330
1E
100
AcDbEntity
  8
0
100
AcDbLine
 10
88.588
 20
333.03625
 30
0.0
 11
89.288
 21
332.75425
 31
0.0
  0
LINE
  5
194C
330
1E
100
AcDbEntity
  8
0
100
AcDbLine
 10
88.08719999999999
 20
333.3232499999999
 30
0.0
 11
88.588
 21
333.03625
 31
0.0
  0
LINE
  5
194D
330
1E
100
AcDbEntity
  8
0
100
AcDbLine
 10
89.288
 20
332.75425
 30
0.0
 11
90.0999
 21
332.55525
 31
0.0
  0
LINE
  5
194E
330
1E
100
AcDbEntity
  8
0
100
AcDbLine
 10
90.0999
 20
332.55525
 30
0.0
 11
91.08589999999999
 21
332.37225
 31
0.0
  0
LINE
  5
194F
330
1E
100
AcDbEntity
  8
0
100
AcDbLine
 10
86.6797
 20
334.5512499999999
 30
0.0
 11
87.08910000000001
 21
334.08825
 31
0.0
  0
LINE
  5
1950
330
1E
100
AcDbEntity
  8
0
100
AcDbLine
 10
95.13769999999999
 20
331.89025
 30
0.0
 11
98.36770000000001
 21
331.64525
 31
0.0
  0
LINE
  5
1951
330
1E
100
AcDbEntity
  8
0
100
AcDbLine
 10
92.9091
 20
332.15525
 30
0.0
 11
95.13769999999999
 21
331.89025
 31
0.0
  0
LINE
  5
1952
330
1E
100
AcDbEntity
  8
0
100
AcDbLine
 10
98.36770000000001
 20
331.64525
 30
0.0
 11
102.0526999999999
 21
331.44225
 31
0.0
  0
LINE
  5
1953
330
1E
100
AcDbEntity
  8
0
100
AcDbLine
 10
91.08589999999999
 20
375.2582499999999
 30
0.0
 11
92.9091
 21
375.47525
 31
0.0
  0
LINE
  5
1954
330
1E
100
AcDbEntity
  8
0
100
AcDbLine
 10
86.3246
 20
372.5442499999999
 30
0.0
 11
86.6797
 21
373.07925
 31
0.0
  0
LINE
  5
1955
330
1E
100
AcDbEntity
  8
0
100
AcDbLine
 10
85.75549999999999
 20
371.3442499999999
 30
0.0
 11
86.03759999999999
 21
372.04325
 31
0.0
  0
LINE
  5
1956
330
1E
100
AcDbEntity
  8
0
100
AcDbLine
 10
86.03759999999999
 20
372.04325
 30
0.0
 11
86.3246
 21
372.5442499999999
 31
0.0
  0
LINE
  5
1957
330
1E
100
AcDbEntity
  8
0
100
AcDbLine
 10
85.556
 20
370.5322499999999
 30
0.0
 11
85.75549999999999
 21
371.3442499999999
 31
0.0
  0
LINE
  5
1958
330
1E
100
AcDbEntity
  8
0
100
AcDbLine
 10
85.15680000000001
 20
367.7222499999999
 30
0.0
 11
85.37399999999999
 21
369.54525
 31
0.0
  0
LINE
  5
1959
330
1E
100
AcDbEntity
  8
0
100
AcDbLine
 10
85.37399999999999
 20
369.54525
 30
0.0
 11
85.556
 21
370.5322499999999
 31
0.0
  0
LINE
  5
195A
330
1E
100
AcDbEntity
  8
0
100
AcDbLine
 10
84.6469
 20
362.2642499999999
 30
0.0
 11
84.8911
 21
365.49425
 31
0.0
  0
LINE
  5
195B
330
1E
100
AcDbEntity
  8
0
100
AcDbLine
 10
84.8911
 20
365.49425
 30
0.0
 11
85.15680000000001
 21
367.7222499999999
 31
0.0
  0
LINE
  5
195C
330
1E
100
AcDbEntity
  8
0
100
AcDbLine
 10
84.4438
 20
358.57925
 30
0.0
 11
84.6469
 21
362.2642499999999
 31
0.0
  0
LINE
  5
195D
330
1E
100
AcDbEntity
  8
0
100
AcDbLine
 10
84.31650000000001
 20
353.8152499999999
 30
0.0
 11
84.34639999999999
 21
351.89625
 31
0.0
  0
LINE
  5
195E
330
1E
100
AcDbEntity
  8
0
100
AcDbLine
 10
84.31650000000001
 20
353.8152499999999
 30
0.0
 11
84.34639999999999
 21
355.7342499999999
 31
0.0
  0
LINE
  5
195F
330
1E
100
AcDbEntity
  8
0
100
AcDbLine
 10
84.34639999999999
 20
355.7342499999999
 30
0.0
 11
84.4438
 21
358.57925
 31
0.0
  0
LINE
  5
1960
330
1E
100
AcDbEntity
  8
0
100
AcDbLine
 10
90.0999
 20
375.0752499999999
 30
0.0
 11
91.08589999999999
 21
375.2582499999999
 31
0.0
  0
LINE
  5
1961
330
1E
100
AcDbEntity
  8
0
100
AcDbLine
 10
89.288
 20
374.87625
 30
0.0
 11
90.0999
 21
375.0752499999999
 31
0.0
  0
LINE
  5
1962
330
1E
100
AcDbEntity
  8
0
100
AcDbLine
 10
88.588
 20
374.5942499999999
 30
0.0
 11
89.288
 21
374.87625
 31
0.0
  0
LINE
  5
1963
330
1E
100
AcDbEntity
  8
0
100
AcDbLine
 10
88.08719999999999
 20
374.30725
 30
0.0
 11
88.588
 21
374.5942499999999
 31
0.0
  0
LINE
  5
1964
330
1E
100
AcDbEntity
  8
0
100
AcDbLine
 10
87.5524
 20
373.95225
 30
0.0
 11
88.08719999999999
 21
374.30725
 31
0.0
  0
LINE
  5
1965
330
1E
100
AcDbEntity
  8
0
100
AcDbLine
 10
87.08910000000001
 20
373.54225
 30
0.0
 11
87.5524
 21
373.95225
 31
0.0
  0
LINE
  5
1966
330
1E
100
AcDbEntity
  8
0
100
AcDbLine
 10
86.6797
 20
373.07925
 30
0.0
 11
87.08910000000001
 21
373.54225
 31
0.0
  0
LINE
  5
1967
330
1E
100
AcDbEntity
  8
0
100
AcDbLine
 10
95.13769999999999
 20
375.7402499999999
 30
0.0
 11
98.36770000000001
 21
375.98525
 31
0.0
  0
LINE
  5
1968
330
1E
100
AcDbEntity
  8
0
100
AcDbLine
 10
92.9091
 20
375.47525
 30
0.0
 11
95.13769999999999
 21
375.7402499999999
 31
0.0
  0
LINE
  5
1969
330
1E
100
AcDbEntity
  8
0
100
AcDbLine
 10
98.36770000000001
 20
375.98525
 30
0.0
 11
102.0526999999999
 21
376.18825
 31
0.0
  0
LINE
  5
196A
330
1E
100
AcDbEntity
  8
0
100
AcDbLine
 10
104.8977
 20
331.34525
 30
0.0
 11
106.8165
 21
331.31525
 31
0.0
  0
LINE
  5
196B
330
1E
100
AcDbEntity
  8
0
100
AcDbLine
 10
106.8165
 20
376.3152499999999
 30
0.0
 11
108.7353
 21
376.28525
 31
0.0
  0
LINE
  5
196C
330
1E
100
AcDbEntity
  8
0
100
AcDbLine
 10
104.8977
 20
376.28525
 30
0.0
 11
106.8165
 21
376.3152499999999
 31
0.0
  0
LINE
  5
196D
330
1E
100
AcDbEntity
  8
0
100
AcDbLine
 10
102.0526999999999
 20
236.4422499999999
 30
0.0
 11
104.8977
 21
236.34525
 31
0.0
  0
LINE
  5
196E
330
1E
100
AcDbEntity
  8
0
100
AcDbLine
 10
102.0526999999999
 20
281.1882499999999
 30
0.0
 11
104.8977
 21
281.28525
 31
0.0
  0
LINE
  5
196F
330
1E
100
AcDbEntity
  8
0
100
AcDbLine
 10
84.4438
 20
254.0512499999999
 30
0.0
 11
84.6469
 21
250.3662499999999
 31
0.0
  0
LINE
  5
1970
330
1E
100
AcDbEntity
  8
0
100
AcDbLine
 10
91.08589999999999
 20
237.3722499999999
 30
0.0
 11
92.9091
 21
237.15525
 31
0.0
  0
LINE
  5
1971
330
1E
100
AcDbEntity
  8
0
100
AcDbLine
 10
86.3246
 20
240.08625
 30
0.0
 11
86.6797
 21
239.5512499999999
 31
0.0
  0
LINE
  5
1972
330
1E
100
AcDbEntity
  8
0
100
AcDbLine
 10
84.8911
 20
247.13625
 30
0.0
 11
85.15680000000001
 21
244.90825
 31
0.0
  0
LINE
  5
1973
330
1E
100
AcDbEntity
  8
0
100
AcDbLine
 10
84.6469
 20
250.3662499999999
 30
0.0
 11
84.8911
 21
247.13625
 31
0.0
  0
LINE
  5
1974
330
1E
100
AcDbEntity
  8
0
100
AcDbLine
 10
86.03759999999999
 20
240.58725
 30
0.0
 11
86.3246
 21
240.08625
 31
0.0
  0
LINE
  5
1975
330
1E
100
AcDbEntity
  8
0
100
AcDbLine
 10
85.75549999999999
 20
241.28625
 30
0.0
 11
86.03759999999999
 21
240.58725
 31
0.0
  0
LINE
  5
1976
330
1E
100
AcDbEntity
  8
0
100
AcDbLine
 10
85.37399999999999
 20
243.08425
 30
0.0
 11
85.556
 21
242.09825
 31
0.0
  0
LINE
  5
1977
330
1E
100
AcDbEntity
  8
0
100
AcDbLine
 10
85.15680000000001
 20
244.90825
 30
0.0
 11
85.37399999999999
 21
243.08425
 31
0.0
  0
LINE
  5
1978
330
1E
100
AcDbEntity
  8
0
100
AcDbLine
 10
85.75549999999999
 20
241.28625
 30
0.0
 11
85.556
 21
242.09825
 31
0.0
  0
LINE
  5
1979
330
1E
100
AcDbEntity
  8
0
100
AcDbLine
 10
86.6797
 20
239.5512499999999
 30
0.0
 11
87.08910000000001
 21
239.08825
 31
0.0
  0
LINE
  5
197A
330
1E
100
AcDbEntity
  8
0
100
AcDbLine
 10
90.0999
 20
237.5552499999999
 30
0.0
 11
91.08589999999999
 21
237.3722499999999
 31
0.0
  0
LINE
  5
197B
330
1E
100
AcDbEntity
  8
0
100
AcDbLine
 10
89.288
 20
237.75425
 30
0.0
 11
90.0999
 21
237.5552499999999
 31
0.0
  0
LINE
  5
197C
330
1E
100
AcDbEntity
  8
0
100
AcDbLine
 10
88.08719999999999
 20
238.3232499999999
 30
0.0
 11
88.588
 21
238.0362499999999
 31
0.0
  0
LINE
  5
197D
330
1E
100
AcDbEntity
  8
0
100
AcDbLine
 10
88.588
 20
238.0362499999999
 30
0.0
 11
89.288
 21
237.75425
 31
0.0
  0
LINE
  5
197E
330
1E
100
AcDbEntity
  8
0
100
AcDbLine
 10
87.5524
 20
238.6782499999999
 30
0.0
 11
88.08719999999999
 21
238.3232499999999
 31
0.0
  0
LINE
  5
197F
330
1E
100
AcDbEntity
  8
0
100
AcDbLine
 10
87.5524
 20
238.6782499999999
 30
0.0
 11
87.08910000000001
 21
239.08825
 31
0.0
  0
LINE
  5
1980
330
1E
100
AcDbEntity
  8
0
100
AcDbLine
 10
95.13769999999999
 20
236.8902499999999
 30
0.0
 11
98.36770000000001
 21
236.6452499999999
 31
0.0
  0
LINE
  5
1981
330
1E
100
AcDbEntity
  8
0
100
AcDbLine
 10
92.9091
 20
237.15525
 30
0.0
 11
95.13769999999999
 21
236.8902499999999
 31
0.0
  0
LINE
  5
1982
330
1E
100
AcDbEntity
  8
0
100
AcDbLine
 10
98.36770000000001
 20
236.6452499999999
 30
0.0
 11
102.0526999999999
 21
236.4422499999999
 31
0.0
  0
LINE
  5
1983
330
1E
100
AcDbEntity
  8
0
100
AcDbLine
 10
91.08589999999999
 20
280.2582499999999
 30
0.0
 11
92.9091
 21
280.47525
 31
0.0
  0
LINE
  5
1984
330
1E
100
AcDbEntity
  8
0
100
AcDbLine
 10
87.08910000000001
 20
278.54225
 30
0.0
 11
87.5524
 21
278.9522499999999
 31
0.0
  0
LINE
  5
1985
330
1E
100
AcDbEntity
  8
0
100
AcDbLine
 10
86.3246
 20
277.54425
 30
0.0
 11
86.6797
 21
278.07925
 31
0.0
  0
LINE
  5
1986
330
1E
100
AcDbEntity
  8
0
100
AcDbLine
 10
84.34639999999999
 20
260.7342499999999
 30
0.0
 11
84.4438
 21
263.5792499999999
 31
0.0
  0
LINE
  5
1987
330
1E
100
AcDbEntity
  8
0
100
AcDbLine
 10
84.31650000000001
 20
258.81525
 30
0.0
 11
84.34639999999999
 21
260.7342499999999
 31
0.0
  0
LINE
  5
1988
330
1E
100
AcDbEntity
  8
0
100
AcDbLine
 10
84.31650000000001
 20
258.81525
 30
0.0
 11
84.34639999999999
 21
256.89625
 31
0.0
  0
LINE
  5
1989
330
1E
100
AcDbEntity
  8
0
100
AcDbLine
 10
84.4438
 20
263.5792499999999
 30
0.0
 11
84.6469
 21
267.26425
 31
0.0
  0
LINE
  5
198A
330
1E
100
AcDbEntity
  8
0
100
AcDbLine
 10
84.8911
 20
270.49425
 30
0.0
 11
85.15680000000001
 21
272.7222499999999
 31
0.0
  0
LINE
  5
198B
330
1E
100
AcDbEntity
  8
0
100
AcDbLine
 10
84.6469
 20
267.26425
 30
0.0
 11
84.8911
 21
270.49425
 31
0.0
  0
LINE
  5
198C
330
1E
100
AcDbEntity
  8
0
100
AcDbLine
 10
85.37399999999999
 20
274.54525
 30
0.0
 11
85.556
 21
275.5322499999999
 31
0.0
  0
LINE
  5
198D
330
1E
100
AcDbEntity
  8
0
100
AcDbLine
 10
85.15680000000001
 20
272.7222499999999
 30
0.0
 11
85.37399999999999
 21
274.54525
 31
0.0
  0
LINE
  5
198E
330
1E
100
AcDbEntity
  8
0
100
AcDbLine
 10
85.556
 20
275.5322499999999
 30
0.0
 11
85.75549999999999
 21
276.34425
 31
0.0
  0
LINE
  5
198F
330
1E
100
AcDbEntity
  8
0
100
AcDbLine
 10
86.03759999999999
 20
277.04325
 30
0.0
 11
86.3246
 21
277.54425
 31
0.0
  0
LINE
  5
1990
330
1E
100
AcDbEntity
  8
0
100
AcDbLine
 10
85.75549999999999
 20
276.34425
 30
0.0
 11
86.03759999999999
 21
277.04325
 31
0.0
  0
LINE
  5
1991
330
1E
100
AcDbEntity
  8
0
100
AcDbLine
 10
84.34639999999999
 20
256.89625
 30
0.0
 11
84.4438
 21
254.0512499999999
 31
0.0
  0
LINE
  5
1992
330
1E
100
AcDbEntity
  8
0
100
AcDbLine
 10
86.6797
 20
278.07925
 30
0.0
 11
87.08910000000001
 21
278.54225
 31
0.0
  0
LINE
  5
1993
330
1E
100
AcDbEntity
  8
0
100
AcDbLine
 10
87.5524
 20
278.9522499999999
 30
0.0
 11
88.08719999999999
 21
279.30725
 31
0.0
  0
LINE
  5
1994
330
1E
100
AcDbEntity
  8
0
100
AcDbLine
 10
88.08719999999999
 20
279.30725
 30
0.0
 11
88.588
 21
279.5942499999999
 31
0.0
  0
LINE
  5
1995
330
1E
100
AcDbEntity
  8
0
100
AcDbLine
 10
88.588
 20
279.5942499999999
 30
0.0
 11
89.288
 21
279.87625
 31
0.0
  0
LINE
  5
1996
330
1E
100
AcDbEntity
  8
0
100
AcDbLine
 10
89.288
 20
279.87625
 30
0.0
 11
90.0999
 21
280.0752499999999
 31
0.0
  0
LINE
  5
1997
330
1E
100
AcDbEntity
  8
0
100
AcDbLine
 10
90.0999
 20
280.0752499999999
 30
0.0
 11
91.08589999999999
 21
280.2582499999999
 31
0.0
  0
LINE
  5
1998
330
1E
100
AcDbEntity
  8
0
100
AcDbLine
 10
95.13769999999999
 20
280.74025
 30
0.0
 11
98.36770000000001
 21
280.98525
 31
0.0
  0
LINE
  5
1999
330
1E
100
AcDbEntity
  8
0
100
AcDbLine
 10
92.9091
 20
280.47525
 30
0.0
 11
95.13769999999999
 21
280.74025
 31
0.0
  0
LINE
  5
199A
330
1E
100
AcDbEntity
  8
0
100
AcDbLine
 10
98.36770000000001
 20
280.98525
 30
0.0
 11
102.0526999999999
 21
281.1882499999999
 31
0.0
  0
LINE
  5
199B
330
1E
100
AcDbEntity
  8
0
100
AcDbLine
 10
104.8977
 20
236.34525
 30
0.0
 11
106.8165
 21
236.3152499999999
 31
0.0
  0
LINE
  5
199C
330
1E
100
AcDbEntity
  8
0
100
AcDbLine
 10
106.8165
 20
281.31525
 30
0.0
 11
108.7353
 21
281.28525
 31
0.0
  0
LINE
  5
199D
330
1E
100
AcDbEntity
  8
0
100
AcDbLine
 10
104.8977
 20
281.28525
 30
0.0
 11
106.8165
 21
281.31525
 31
0.0
  0
LINE
  5
199E
330
1E
100
AcDbEntity
  8
0
100
AcDbLine
 10
35.4639
 20
59.38544999999989
 30
0.0
 11
35.5367
 21
73.47635
 31
0.0
  0
LINE
  5
199F
330
1E
100
AcDbEntity
  8
0
100
AcDbLine
 10
111.5803
 20
236.4422499999999
 30
0.0
 11
108.7353
 21
236.34525
 31
0.0
  0
LINE
  5
19A0
330
1E
100
AcDbEntity
  8
0
100
AcDbLine
 10
111.5803
 20
281.1882499999999
 30
0.0
 11
108.7353
 21
281.28525
 31
0.0
  0
LINE
  5
19A1
330
1E
100
AcDbEntity
  8
0
100
AcDbLine
 10
111.5803
 20
331.44225
 30
0.0
 11
108.7353
 21
331.34525
 31
0.0
  0
LINE
  5
19A2
330
1E
100
AcDbEntity
  8
0
100
AcDbLine
 10
111.5803
 20
376.18825
 30
0.0
 11
108.7353
 21
376.28525
 31
0.0
  0
LINE
  5
19A3
330
1E
100
AcDbEntity
  8
0
100
AcDbLine
 10
111.5803
 20
476.1882499999999
 30
0.0
 11
108.7353
 21
476.28525
 31
0.0
  0
LINE
  5
19A4
330
1E
100
AcDbEntity
  8
0
100
AcDbLine
 10
111.5803
 20
431.44225
 30
0.0
 11
108.7353
 21
431.34525
 31
0.0
  0
LINE
  5
19A5
330
1E
100
AcDbEntity
  8
0
100
AcDbLine
 10
111.5165
 20
285.3152499999999
 30
0.0
 11
111.0365
 21
285.3152499999999
 31
0.0
  0
LINE
  5
19A6
330
1E
100
AcDbEntity
  8
0
100
AcDbLine
 10
171.6952
 20
76.1686499999999
 30
0.0
 11
106.8165
 21
76.1686499999999
 31
0.0
  0
LINE
  5
19A7
330
1E
100
AcDbEntity
  8
0
100
AcDbLine
 10
169.2498
 20
55.81844999999989
 30
0.0
 11
106.8165
 21
55.11965
 31
0.0
  0
LINE
  5
19A8
330
1E
100
AcDbEntity
  8
0
100
AcDbLine
 10
171.6952
 20
58.69664999999989
 30
0.0
 11
106.8165
 21
58.69664999999989
 31
0.0
  0
LINE
  5
19A9
330
1E
100
AcDbEntity
  8
0
100
AcDbLine
 10
171.6952
 20
56.58625
 30
0.0
 11
106.8165
 21
56.58625
 31
0.0
  0
LINE
  5
19AA
330
1E
100
AcDbEntity
  8
0
100
AcDbLine
 10
137.8435
 20
49.6332499999999
 30
0.0
 11
106.8165
 21
49.6332499999999
 31
0.0
  0
LINE
  5
19AB
330
1E
100
AcDbEntity
  8
0
100
AcDbLine
 10
137.9034
 20
45.95934999999999
 30
0.0
 11
106.8165
 21
45.95934999999999
 31
0.0
  0
LINE
  5
19AC
330
1E
100
AcDbEntity
  8
0
100
AcDbLine
 10
120.1166
 20
28.8152499999999
 30
0.0
 11
106.8165
 21
28.8152499999999
 31
0.0
  0
LINE
  5
19AD
330
1E
100
AcDbEntity
  8
0
100
AcDbLine
 10
128.7419
 20
247.13625
 30
0.0
 11
128.4762
 21
244.90825
 31
0.0
  0
LINE
  5
19AE
330
1E
100
AcDbEntity
  8
0
100
AcDbLine
 10
213.8165
 20
638.60825
 30
0.0
 11
213.8165
 21
98.7671499999999
 31
0.0
  0
LINE
  5
19AF
330
1E
100
AcDbEntity
  8
0
100
AcDbLine
 10
211.3215
 20
638.60825
 30
0.0
 11
211.3215
 21
98.76415000000001
 31
0.0
  0
LINE
  5
19B0
330
1E
100
AcDbEntity
  8
0
100
AcDbLine
 10
211.3215
 20
98.76415000000001
 30
0.0
 11
211.3215
 21
638.60825
 31
0.0
  0
LINE
  5
19B1
330
1E
100
AcDbEntity
  8
0
100
AcDbLine
 10
213.8165
 20
98.76715
 30
0.0
 11
213.8165
 21
638.60825
 31
0.0
  0
LINE
  5
19B2
330
1E
100
AcDbEntity
  8
0
100
AcDbLine
 10
199.8147
 20
50.9968499999999
 30
0.0
 11
137.8435
 21
49.6332499999999
 31
0.0
  0
LINE
  5
19B3
330
1E
100
AcDbEntity
  8
0
100
AcDbLine
 10
199.9983
 20
47.32494999999989
 30
0.0
 11
137.9034
 21
45.95934999999999
 31
0.0
  0
LINE
  5
19B4
330
1E
100
AcDbEntity
  8
0
100
AcDbLine
 10
199.8226999999999
 20
30.3178199999999
 30
0.0
 11
173.2823
 21
29.5670329999999
 31
0.0
  0
LINE
  5
19B5
330
1E
100
AcDbEntity
  8
0
100
AcDbLine
 10
213.4175
 20
52.4644299999992
 30
0.0
 11
213.4175
 21
39.44914999999989
 31
0.0
  0
LINE
  5
19B6
330
1E
100
AcDbEntity
  8
0
100
AcDbLine
 10
213.4235
 20
53.08824999999989
 30
0.0
 11
213.2795
 21
38.11656999999989
 31
0.0
  0
LINE
  5
19B7
330
1E
100
AcDbEntity
  8
0
100
AcDbLine
 10
213.4175
 20
39.44914999999989
 30
0.0
 11
213.4175
 21
52.4644299999992
 31
0.0
  0
LINE
  5
19B8
330
1E
100
AcDbEntity
  8
0
100
AcDbLine
 10
207.7545
 20
31.89035999999989
 30
0.0
 11
207.1185
 21
31.6154399999999
 31
0.0
  0
LINE
  5
19B9
330
1E
100
AcDbEntity
  8
0
100
AcDbLine
 10
213.0435
 20
37.08386999999989
 30
0.0
 11
212.7225
 21
35.8122299999999
 31
0.0
  0
LINE
  5
19BA
330
1E
100
AcDbEntity
  8
0
100
AcDbLine
 10
213.2795
 20
38.11656999999989
 30
0.0
 11
213.0435
 21
37.08386999999989
 31
0.0
  0
LINE
  5
19BB
330
1E
100
AcDbEntity
  8
0
100
AcDbLine
 10
213.4175
 20
39.44914999999989
 30
0.0
 11
213.2880541456418
 21
39.0059445223731
 31
0.0
  0
LINE
  5
19BC
330
1E
100
AcDbEntity
  8
0
100
AcDbLine
 10
213.4175
 20
39.44914999999989
 30
0.0
 11
213.2880541456418
 21
39.0059445223731
 31
0.0
  0
LINE
  5
19BD
330
1E
100
AcDbEntity
  8
0
100
AcDbLine
 10
209.7135
 20
32.7861099999999
 30
0.0
 11
207.7545
 21
31.89035999999989
 31
0.0
  0
LINE
  5
19BE
330
1E
100
AcDbEntity
  8
0
100
AcDbLine
 10
212.0855
 20
34.9964699999999
 30
0.0
 11
211.1795
 21
33.8377999999999
 31
0.0
  0
LINE
  5
19BF
330
1E
100
AcDbEntity
  8
0
100
AcDbLine
 10
212.7225
 20
35.8122299999999
 30
0.0
 11
212.0855
 21
34.9964699999999
 31
0.0
  0
LINE
  5
19C0
330
1E
100
AcDbEntity
  8
0
100
AcDbLine
 10
211.1795
 20
33.8377999999999
 30
0.0
 11
209.7135
 21
32.7861099999999
 31
0.0
  0
LINE
  5
19C1
330
1E
100
AcDbEntity
  8
0
100
AcDbLine
 10
202.4557
 20
30.52575999999989
 30
0.0
 11
199.8226999999999
 21
30.3178199999999
 31
0.0
  0
LINE
  5
19C2
330
1E
100
AcDbEntity
  8
0
100
AcDbLine
 10
204.9251
 20
30.9656299999999
 30
0.0
 11
202.4557
 21
30.52575999999989
 31
0.0
  0
LINE
  5
19C3
330
1E
100
AcDbEntity
  8
0
100
AcDbLine
 10
207.1185
 20
31.6154399999999
 30
0.0
 11
204.9251
 21
30.9656299999999
 31
0.0
  0
LINE
  5
19C4
330
1E
100
AcDbEntity
  8
0
100
AcDbLine
 10
211.3215
 20
88.06015
 30
0.0
 11
211.3215
 21
98.76415000000001
 31
0.0
  0
LINE
  5
19C5
330
1E
100
AcDbEntity
  8
0
100
AcDbLine
 10
211.3215
 20
98.76415000000001
 30
0.0
 11
211.3215
 21
88.06015
 31
0.0
  0
LINE
  5
19C6
330
1E
100
AcDbEntity
  8
0
100
AcDbLine
 10
213.8165
 20
89.9526499999999
 30
0.0
 11
213.8165
 21
98.76715
 31
0.0
  0
LINE
  5
19C7
330
1E
100
AcDbEntity
  8
0
100
AcDbLine
 10
213.8165
 20
98.76715
 30
0.0
 11
213.8165
 21
89.9526499999999
 31
0.0
  0
LINE
  5
19C8
330
1E
100
AcDbEntity
  8
0
100
AcDbLine
 10
209.8075
 20
53.74104999999989
 30
0.0
 11
205.6348
 21
51.83064999999989
 31
0.0
  0
LINE
  5
19C9
330
1E
100
AcDbEntity
  8
0
100
AcDbLine
 10
211.8695
 20
50.58494999999989
 30
0.0
 11
206.9125
 21
48.3166499999999
 31
0.0
  0
LINE
  5
19CA
330
1E
100
AcDbEntity
  8
0
100
AcDbLine
 10
211.3215
 20
72.48864999999991
 30
0.0
 11
209.8075
 21
53.74104999999989
 31
0.0
  0
LINE
  5
19CB
330
1E
100
AcDbEntity
  8
0
100
AcDbLine
 10
213.8165
 20
70.23234999999989
 30
0.0
 11
213.8165
 21
53.99595
 31
0.0
  0
LINE
  5
19CC
330
1E
100
AcDbEntity
  8
0
100
AcDbLine
 10
213.8165
 20
53.99595
 30
0.0
 11
213.8165
 21
70.23234999999989
 31
0.0
  0
LINE
  5
19CD
330
1E
100
AcDbEntity
  8
0
100
AcDbLine
 10
213.7765
 20
53.67904999999989
 30
0.0
 11
211.9645
 21
50.66195
 31
0.0
  0
LINE
  5
19CE
330
1E
100
AcDbEntity
  8
0
100
AcDbLine
 10
213.8165
 20
53.99595
 30
0.0
 11
213.8165
 21
53.81504999999989
 31
0.0
  0
LINE
  5
19CF
330
1E
100
AcDbEntity
  8
0
100
AcDbLine
 10
213.8165
 20
53.81504999999989
 30
0.0
 11
213.7765
 21
53.67904999999989
 31
0.0
  0
LINE
  5
19D0
330
1E
100
AcDbEntity
  8
0
100
AcDbLine
 10
213.8165
 20
53.81504999999989
 30
0.0
 11
213.8165
 21
53.99595
 31
0.0
  0
LINE
  5
19D1
330
1E
100
AcDbEntity
  8
0
100
AcDbLine
 10
211.9645
 20
50.66195
 30
0.0
 11
211.8695
 21
50.58494999999989
 31
0.0
  0
LINE
  5
19D2
330
1E
100
AcDbEntity
  8
0
100
AcDbLine
 10
213.8165
 20
75.0869499999999
 30
0.0
 11
213.8165
 21
81.84395
 31
0.0
  0
LINE
  5
19D3
330
1E
100
AcDbEntity
  8
0
100
AcDbLine
 10
213.8165
 20
75.0869499999999
 30
0.0
 11
213.8165
 21
70.23234999999989
 31
0.0
  0
LINE
  5
19D4
330
1E
100
AcDbEntity
  8
0
100
AcDbLine
 10
213.8165
 20
81.84395
 30
0.0
 11
213.8165
 21
89.9526499999999
 31
0.0
  0
LINE
  5
19D5
330
1E
100
AcDbEntity
  8
0
100
AcDbLine
 10
213.8165
 20
81.84395
 30
0.0
 11
213.8165
 21
75.0869499999999
 31
0.0
  0
LINE
  5
19D6
330
1E
100
AcDbEntity
  8
0
100
AcDbLine
 10
213.8165
 20
89.9526499999999
 30
0.0
 11
213.8165
 21
81.84395
 31
0.0
  0
LINE
  5
19D7
330
1E
100
AcDbEntity
  8
0
100
AcDbLine
 10
213.8165
 20
70.23234999999989
 30
0.0
 11
213.8165
 21
75.0869499999999
 31
0.0
  0
LINE
  5
19D8
330
1E
100
AcDbEntity
  8
0
100
AcDbLine
 10
211.3215
 20
72.48864999999991
 30
0.0
 11
211.3215
 21
78.86884999999991
 31
0.0
  0
LINE
  5
19D9
330
1E
100
AcDbEntity
  8
0
100
AcDbLine
 10
211.3215
 20
78.86884999999991
 30
0.0
 11
211.3215
 21
72.48864999999991
 31
0.0
  0
LINE
  5
19DA
330
1E
100
AcDbEntity
  8
0
100
AcDbLine
 10
211.3215
 20
78.86884999999991
 30
0.0
 11
211.3215
 21
88.06015
 31
0.0
  0
LINE
  5
19DB
330
1E
100
AcDbEntity
  8
0
100
AcDbLine
 10
211.3215
 20
88.06015
 30
0.0
 11
211.3215
 21
78.86884999999991
 31
0.0
  0
LINE
  5
19DC
330
1E
100
AcDbEntity
  8
0
100
AcDbLine
 10
205.6348
 20
51.83064999999989
 30
0.0
 11
199.8147
 21
50.9968499999999
 31
0.0
  0
LINE
  5
19DD
330
1E
100
AcDbEntity
  8
0
100
AcDbLine
 10
206.9125
 20
48.3166499999999
 30
0.0
 11
199.9983
 21
47.32494999999989
 31
0.0
  0
LINE
  5
19DE
330
1E
100
AcDbEntity
  8
0
100
AcDbLine
 10
173.2823
 20
29.5670329999999
 30
0.0
 11
146.7109
 21
29.0661779999999
 31
0.0
  0
LINE
  5
19FB
330
1E
100
AcDbEntity
  8
0
100
AcDbLine
 10
146.7109
 20
29.0661779999999
 30
0.0
 11
120.1166
 21
28.8152499999999
 31
0.0
  0
LINE
  5
19FC
330
1E
100
AcDbEntity
  8
0
100
AcDbLine
 10
177.2163686838388
 20
57.8248282184926
 30
0.0
 11
174.2045
 21
56.48024999999989
 31
0.0
  0
LINE
  5
19FD
330
1E
100
AcDbEntity
  8
0
100
AcDbLine
 10
175.3593999999999
 20
75.44984999999989
 30
0.0
 11
171.6952
 21
76.1686499999999
 31
0.0
  0
LINE
  5
19FE
330
1E
100
AcDbEntity
  8
0
100
AcDbLine
 10
175.5989
 20
57.9108499999999
 30
0.0
 11
174.4241
 21
58.33374999999989
 31
0.0
  0
LINE
  5
19FF
330
1E
100
AcDbEntity
  8
0
100
AcDbLine
 10
178.1691
 20
59.38544999999989
 30
0.0
 11
178.0963
 21
73.47635
 31
0.0
  0
LINE
  5
1A00
330
1E
100
AcDbEntity
  8
0
100
AcDbLine
 10
176.3974216192562
 20
57.4592284859927
 30
0.0
 11
175.5989
 21
57.9108499999999
 31
0.0
  0
LINE
  5
1A01
330
1E
100
AcDbEntity
  8
0
100
AcDbLine
 10
178.1691
 20
59.38544999999989
 30
0.0
 11
177.2163686838388
 21
57.8248282184926
 31
0.0
  0
LINE
  5
1A02
330
1E
100
AcDbEntity
  8
0
100
AcDbLine
 10
178.0963
 20
73.47635
 30
0.0
 11
175.3593999999999
 21
75.44984999999989
 31
0.0
  0
LINE
  5
1A03
330
1E
100
AcDbEntity
  8
0
100
AcDbLine
 10
174.2045
 20
56.48024999999989
 30
0.0
 11
169.2498
 21
55.81844999999989
 31
0.0
  0
LINE
  5
1A04
330
1E
100
AcDbEntity
  8
0
100
AcDbLine
 10
173.0996
 20
58.6036499999999
 30
0.0
 11
171.6952
 21
58.69664999999989
 31
0.0
  0
LINE
  5
1A05
330
1E
100
AcDbEntity
  8
0
100
AcDbLine
 10
173.6637752848593
 20
56.40802532111321
 30
0.0
 11
173.1046
 21
56.5052499999999
 31
0.0
  0
LINE
  5
1A06
330
1E
100
AcDbEntity
  8
0
100
AcDbLine
 10
173.1046
 20
56.5052499999999
 30
0.0
 11
171.6952
 21
56.58625
 31
0.0
  0
LINE
  5
1A07
330
1E
100
AcDbEntity
  8
0
100
AcDbLine
 10
174.4241
 20
58.33374999999989
 30
0.0
 11
173.0996
 21
58.6036499999999
 31
0.0
  0
LINE
  5
1A08
330
1E
100
AcDbEntity
  8
0
100
AcDbLine
 10
122.5471
 20
237.3722499999999
 30
0.0
 11
120.7239
 21
237.15525
 31
0.0
  0
LINE
  5
1A09
330
1E
100
AcDbEntity
  8
0
100
AcDbLine
 10
127.3084
 20
240.08625
 30
0.0
 11
126.9533
 21
239.5512499999999
 31
0.0
  0
LINE
  5
1A0A
330
1E
100
AcDbEntity
  8
0
100
AcDbLine
 10
127.5954
 20
240.58725
 30
0.0
 11
127.3084
 21
240.08625
 31
0.0
  0
LINE
  5
1A0B
330
1E
100
AcDbEntity
  8
0
100
AcDbLine
 10
127.8775
 20
241.28625
 30
0.0
 11
127.5954
 21
240.58725
 31
0.0
  0
LINE
  5
1A0C
330
1E
100
AcDbEntity
  8
0
100
AcDbLine
 10
128.259
 20
243.08425
 30
0.0
 11
128.0769999999999
 21
242.09825
 31
0.0
  0
LINE
  5
1A0D
330
1E
100
AcDbEntity
  8
0
100
AcDbLine
 10
128.4762
 20
244.90825
 30
0.0
 11
128.259
 21
243.08425
 31
0.0
  0
LINE
  5
1A0E
330
1E
100
AcDbEntity
  8
0
100
AcDbLine
 10
127.8775
 20
241.28625
 30
0.0
 11
128.0769999999999
 21
242.09825
 31
0.0
  0
LINE
  5
1A0F
330
1E
100
AcDbEntity
  8
0
100
AcDbLine
 10
126.9533
 20
239.5512499999999
 30
0.0
 11
126.5439
 21
239.08825
 31
0.0
  0
LINE
  5
1A10
330
1E
100
AcDbEntity
  8
0
100
AcDbLine
 10
123.5331
 20
237.5552499999999
 30
0.0
 11
122.5471
 21
237.3722499999999
 31
0.0
  0
LINE
  5
1A11
330
1E
100
AcDbEntity
  8
0
100
AcDbLine
 10
124.345
 20
237.75425
 30
0.0
 11
123.5331
 21
237.5552499999999
 31
0.0
  0
LINE
  5
1A12
330
1E
100
AcDbEntity
  8
0
100
AcDbLine
 10
125.5458
 20
238.3232499999999
 30
0.0
 11
125.045
 21
238.0362499999999
 31
0.0
  0
LINE
  5
1A13
330
1E
100
AcDbEntity
  8
0
100
AcDbLine
 10
125.045
 20
238.0362499999999
 30
0.0
 11
124.345
 21
237.75425
 31
0.0
  0
LINE
  5
1A14
330
1E
100
AcDbEntity
  8
0
100
AcDbLine
 10
126.0806
 20
238.6782499999999
 30
0.0
 11
125.5458
 21
238.3232499999999
 31
0.0
  0
LINE
  5
1A15
330
1E
100
AcDbEntity
  8
0
100
AcDbLine
 10
126.0806
 20
238.6782499999999
 30
0.0
 11
126.5439
 21
239.08825
 31
0.0
  0
LINE
  5
1A16
330
1E
100
AcDbEntity
  8
0
100
AcDbLine
 10
118.4953
 20
236.8902499999999
 30
0.0
 11
115.2653
 21
236.6452499999999
 31
0.0
  0
LINE
  5
1A17
330
1E
100
AcDbEntity
  8
0
100
AcDbLine
 10
120.7239
 20
237.15525
 30
0.0
 11
118.4953
 21
236.8902499999999
 31
0.0
  0
LINE
  5
1A18
330
1E
100
AcDbEntity
  8
0
100
AcDbLine
 10
115.2653
 20
236.6452499999999
 30
0.0
 11
111.5803
 21
236.4422499999999
 31
0.0
  0
LINE
  5
1A19
330
1E
100
AcDbEntity
  8
0
100
AcDbLine
 10
129.2866
 20
451.8962499999999
 30
0.0
 11
129.1892
 21
449.05125
 31
0.0
  0
LINE
  5
1A1A
330
1E
100
AcDbEntity
  8
0
100
AcDbLine
 10
129.1892
 20
349.0512499999999
 30
0.0
 11
128.9861
 21
345.36625
 31
0.0
  0
LINE
  5
1A1B
330
1E
100
AcDbEntity
  8
0
100
AcDbLine
 10
122.5471
 20
280.2582499999999
 30
0.0
 11
120.7239
 21
280.47525
 31
0.0
  0
LINE
  5
1A1C
330
1E
100
AcDbEntity
  8
0
100
AcDbLine
 10
128.7419
 20
270.49425
 30
0.0
 11
128.4762
 21
272.7222499999999
 31
0.0
  0
LINE
  5
1A1D
330
1E
100
AcDbEntity
  8
0
100
AcDbLine
 10
129.2866
 20
260.7342499999999
 30
0.0
 11
129.1892
 21
263.5792499999999
 31
0.0
  0
LINE
  5
1A1E
330
1E
100
AcDbEntity
  8
0
100
AcDbLine
 10
129.3165
 20
258.81525
 30
0.0
 11
129.2866
 21
260.7342499999999
 31
0.0
  0
LINE
  5
1A1F
330
1E
100
AcDbEntity
  8
0
100
AcDbLine
 10
129.3165
 20
258.81525
 30
0.0
 11
129.2866
 21
256.89625
 31
0.0
  0
LINE
  5
1A20
330
1E
100
AcDbEntity
  8
0
100
AcDbLine
 10
129.1892
 20
263.5792499999999
 30
0.0
 11
128.9861
 21
267.26425
 31
0.0
  0
LINE
  5
1A21
330
1E
100
AcDbEntity
  8
0
100
AcDbLine
 10
128.9861
 20
267.26425
 30
0.0
 11
128.7419
 21
270.49425
 31
0.0
  0
LINE
  5
1A22
330
1E
100
AcDbEntity
  8
0
100
AcDbLine
 10
129.2866
 20
256.89625
 30
0.0
 11
129.1892
 21
254.0512499999999
 31
0.0
  0
LINE
  5
1A23
330
1E
100
AcDbEntity
  8
0
100
AcDbLine
 10
128.9861
 20
250.3662499999999
 30
0.0
 11
128.7419
 21
247.13625
 31
0.0
  0
LINE
  5
1A24
330
1E
100
AcDbEntity
  8
0
100
AcDbLine
 10
129.1892
 20
254.0512499999999
 30
0.0
 11
128.9861
 21
250.3662499999999
 31
0.0
  0
LINE
  5
1A25
330
1E
100
AcDbEntity
  8
0
100
AcDbLine
 10
127.3084
 20
277.54425
 30
0.0
 11
126.9533
 21
278.07925
 31
0.0
  0
LINE
  5
1A26
330
1E
100
AcDbEntity
  8
0
100
AcDbLine
 10
127.5954
 20
277.04325
 30
0.0
 11
127.3084
 21
277.54425
 31
0.0
  0
LINE
  5
1A27
330
1E
100
AcDbEntity
  8
0
100
AcDbLine
 10
128.259
 20
274.54525
 30
0.0
 11
128.0769999999999
 21
275.5322499999999
 31
0.0
  0
LINE
  5
1A28
330
1E
100
AcDbEntity
  8
0
100
AcDbLine
 10
128.4762
 20
272.7222499999999
 30
0.0
 11
128.259
 21
274.54525
 31
0.0
  0
LINE
  5
1A29
330
1E
100
AcDbEntity
  8
0
100
AcDbLine
 10
128.0769999999999
 20
275.5322499999999
 30
0.0
 11
127.8775
 21
276.34425
 31
0.0
  0
LINE
  5
1A2A
330
1E
100
AcDbEntity
  8
0
100
AcDbLine
 10
127.8775
 20
276.34425
 30
0.0
 11
127.5954
 21
277.04325
 31
0.0
  0
LINE
  5
1A2B
330
1E
100
AcDbEntity
  8
0
100
AcDbLine
 10
126.5439
 20
278.54225
 30
0.0
 11
126.0806
 21
278.9522499999999
 31
0.0
  0
LINE
  5
1A2C
330
1E
100
AcDbEntity
  8
0
100
AcDbLine
 10
126.9533
 20
278.07925
 30
0.0
 11
126.5439
 21
278.54225
 31
0.0
  0
LINE
  5
1A2D
330
1E
100
AcDbEntity
  8
0
100
AcDbLine
 10
126.0806
 20
278.9522499999999
 30
0.0
 11
125.5458
 21
279.30725
 31
0.0
  0
LINE
  5
1A2E
330
1E
100
AcDbEntity
  8
0
100
AcDbLine
 10
125.5458
 20
279.30725
 30
0.0
 11
125.045
 21
279.5942499999999
 31
0.0
  0
LINE
  5
1A2F
330
1E
100
AcDbEntity
  8
0
100
AcDbLine
 10
125.045
 20
279.5942499999999
 30
0.0
 11
124.345
 21
279.87625
 31
0.0
  0
LINE
  5
1A30
330
1E
100
AcDbEntity
  8
0
100
AcDbLine
 10
124.345
 20
279.87625
 30
0.0
 11
123.5331
 21
280.0752499999999
 31
0.0
  0
LINE
  5
1A31
330
1E
100
AcDbEntity
  8
0
100
AcDbLine
 10
123.5331
 20
280.0752499999999
 30
0.0
 11
122.5471
 21
280.2582499999999
 31
0.0
  0
LINE
  5
1A32
330
1E
100
AcDbEntity
  8
0
100
AcDbLine
 10
118.4953
 20
280.74025
 30
0.0
 11
115.2653
 21
280.98525
 31
0.0
  0
LINE
  5
1A33
330
1E
100
AcDbEntity
  8
0
100
AcDbLine
 10
120.7239
 20
280.47525
 30
0.0
 11
118.4953
 21
280.74025
 31
0.0
  0
LINE
  5
1A34
330
1E
100
AcDbEntity
  8
0
100
AcDbLine
 10
115.2653
 20
280.98525
 30
0.0
 11
111.5803
 21
281.1882499999999
 31
0.0
  0
LINE
  5
1A35
330
1E
100
AcDbEntity
  8
0
100
AcDbLine
 10
111.8165
 20
284.94025
 30
0.0
 11
111.6965
 21
285.3152499999999
 31
0.0
  0
LINE
  5
1A36
330
1E
100
AcDbEntity
  8
0
100
AcDbLine
 10
111.6965
 20
285.3152499999999
 30
0.0
 11
111.5165
 21
285.3152499999999
 31
0.0
  0
LINE
  5
1A37
330
1E
100
AcDbEntity
  8
0
100
AcDbLine
 10
111.8165
 20
281.187632272583
 30
0.0
 11
111.8165
 21
284.94025
 31
0.0
  0
LINE
  5
1A38
330
1E
100
AcDbEntity
  8
0
100
AcDbLine
 10
122.5471
 20
332.37225
 30
0.0
 11
120.7239
 21
332.15525
 31
0.0
  0
LINE
  5
1A39
330
1E
100
AcDbEntity
  8
0
100
AcDbLine
 10
127.3084
 20
335.08625
 30
0.0
 11
126.9533
 21
334.5512499999999
 31
0.0
  0
LINE
  5
1A3A
330
1E
100
AcDbEntity
  8
0
100
AcDbLine
 10
128.7419
 20
342.13625
 30
0.0
 11
128.4762
 21
339.90825
 31
0.0
  0
LINE
  5
1A3B
330
1E
100
AcDbEntity
  8
0
100
AcDbLine
 10
128.9861
 20
345.36625
 30
0.0
 11
128.7419
 21
342.13625
 31
0.0
  0
LINE
  5
1A3C
330
1E
100
AcDbEntity
  8
0
100
AcDbLine
 10
127.5954
 20
335.5872499999999
 30
0.0
 11
127.3084
 21
335.08625
 31
0.0
  0
LINE
  5
1A3D
330
1E
100
AcDbEntity
  8
0
100
AcDbLine
 10
127.8775
 20
336.2862499999999
 30
0.0
 11
127.5954
 21
335.5872499999999
 31
0.0
  0
LINE
  5
1A3E
330
1E
100
AcDbEntity
  8
0
100
AcDbLine
 10
128.259
 20
338.0842499999999
 30
0.0
 11
128.0769999999999
 21
337.09825
 31
0.0
  0
LINE
  5
1A3F
330
1E
100
AcDbEntity
  8
0
100
AcDbLine
 10
128.4762
 20
339.90825
 30
0.0
 11
128.259
 21
338.0842499999999
 31
0.0
  0
LINE
  5
1A40
330
1E
100
AcDbEntity
  8
0
100
AcDbLine
 10
127.8775
 20
336.2862499999999
 30
0.0
 11
128.0769999999999
 21
337.09825
 31
0.0
  0
LINE
  5
1A41
330
1E
100
AcDbEntity
  8
0
100
AcDbLine
 10
126.9533
 20
334.5512499999999
 30
0.0
 11
126.5439
 21
334.08825
 31
0.0
  0
LINE
  5
1A42
330
1E
100
AcDbEntity
  8
0
100
AcDbLine
 10
123.5331
 20
332.55525
 30
0.0
 11
122.5471
 21
332.37225
 31
0.0
  0
LINE
  5
1A43
330
1E
100
AcDbEntity
  8
0
100
AcDbLine
 10
124.345
 20
332.75425
 30
0.0
 11
123.5331
 21
332.55525
 31
0.0
  0
LINE
  5
1A44
330
1E
100
AcDbEntity
  8
0
100
AcDbLine
 10
125.5458
 20
333.3232499999999
 30
0.0
 11
125.045
 21
333.03625
 31
0.0
  0
LINE
  5
1A45
330
1E
100
AcDbEntity
  8
0
100
AcDbLine
 10
125.045
 20
333.03625
 30
0.0
 11
124.345
 21
332.75425
 31
0.0
  0
LINE
  5
1A46
330
1E
100
AcDbEntity
  8
0
100
AcDbLine
 10
126.0806
 20
333.6782499999999
 30
0.0
 11
125.5458
 21
333.3232499999999
 31
0.0
  0
LINE
  5
1A47
330
1E
100
AcDbEntity
  8
0
100
AcDbLine
 10
126.0806
 20
333.6782499999999
 30
0.0
 11
126.5439
 21
334.08825
 31
0.0
  0
LINE
  5
1A48
330
1E
100
AcDbEntity
  8
0
100
AcDbLine
 10
118.4953
 20
331.89025
 30
0.0
 11
115.2653
 21
331.64525
 31
0.0
  0
LINE
  5
1A49
330
1E
100
AcDbEntity
  8
0
100
AcDbLine
 10
120.7239
 20
332.15525
 30
0.0
 11
118.4953
 21
331.89025
 31
0.0
  0
LINE
  5
1A4A
330
1E
100
AcDbEntity
  8
0
100
AcDbLine
 10
115.2653
 20
331.64525
 30
0.0
 11
111.5803
 21
331.44225
 31
0.0
  0
LINE
  5
1A4B
330
1E
100
AcDbEntity
  8
0
100
AcDbLine
 10
122.5471
 20
375.2582499999999
 30
0.0
 11
120.7239
 21
375.47525
 31
0.0
  0
LINE
  5
1A4C
330
1E
100
AcDbEntity
  8
0
100
AcDbLine
 10
126.5439
 20
373.54225
 30
0.0
 11
126.0806
 21
373.95225
 31
0.0
  0
LINE
  5
1A4D
330
1E
100
AcDbEntity
  8
0
100
AcDbLine
 10
127.3084
 20
372.5442499999999
 30
0.0
 11
126.9533
 21
373.07925
 31
0.0
  0
LINE
  5
1A4E
330
1E
100
AcDbEntity
  8
0
100
AcDbLine
 10
129.2866
 20
355.7342499999999
 30
0.0
 11
129.1892
 21
358.57925
 31
0.0
  0
LINE
  5
1A4F
330
1E
100
AcDbEntity
  8
0
100
AcDbLine
 10
129.3165
 20
353.8152499999999
 30
0.0
 11
129.2866
 21
355.7342499999999
 31
0.0
  0
LINE
  5
1A50
330
1E
100
AcDbEntity
  8
0
100
AcDbLine
 10
129.3165
 20
353.8152499999999
 30
0.0
 11
129.2866
 21
351.89625
 31
0.0
  0
LINE
  5
1A51
330
1E
100
AcDbEntity
  8
0
100
AcDbLine
 10
129.1892
 20
358.57925
 30
0.0
 11
128.9861
 21
362.2642499999999
 31
0.0
  0
LINE
  5
1A52
330
1E
100
AcDbEntity
  8
0
100
AcDbLine
 10
128.7419
 20
365.49425
 30
0.0
 11
128.4762
 21
367.7222499999999
 31
0.0
  0
LINE
  5
1A53
330
1E
100
AcDbEntity
  8
0
100
AcDbLine
 10
128.9861
 20
362.2642499999999
 30
0.0
 11
128.7419
 21
365.49425
 31
0.0
  0
LINE
  5
1A54
330
1E
100
AcDbEntity
  8
0
100
AcDbLine
 10
128.259
 20
369.54525
 30
0.0
 11
128.0769999999999
 21
370.5322499999999
 31
0.0
  0
LINE
  5
1A55
330
1E
100
AcDbEntity
  8
0
100
AcDbLine
 10
128.4762
 20
367.7222499999999
 30
0.0
 11
128.259
 21
369.54525
 31
0.0
  0
LINE
  5
1A56
330
1E
100
AcDbEntity
  8
0
100
AcDbLine
 10
128.0769999999999
 20
370.5322499999999
 30
0.0
 11
127.8775
 21
371.3442499999999
 31
0.0
  0
LINE
  5
1A57
330
1E
100
AcDbEntity
  8
0
100
AcDbLine
 10
127.5954
 20
372.04325
 30
0.0
 11
127.3084
 21
372.5442499999999
 31
0.0
  0
LINE
  5
1A58
330
1E
100
AcDbEntity
  8
0
100
AcDbLine
 10
127.8775
 20
371.3442499999999
 30
0.0
 11
127.5954
 21
372.04325
 31
0.0
  0
LINE
  5
1A59
330
1E
100
AcDbEntity
  8
0
100
AcDbLine
 10
129.2866
 20
351.89625
 30
0.0
 11
129.1892
 21
349.0512499999999
 31
0.0
  0
LINE
  5
1A5A
330
1E
100
AcDbEntity
  8
0
100
AcDbLine
 10
126.9533
 20
373.07925
 30
0.0
 11
126.5439
 21
373.54225
 31
0.0
  0
LINE
  5
1A5B
330
1E
100
AcDbEntity
  8
0
100
AcDbLine
 10
126.0806
 20
373.95225
 30
0.0
 11
125.5458
 21
374.30725
 31
0.0
  0
LINE
  5
1A5C
330
1E
100
AcDbEntity
  8
0
100
AcDbLine
 10
125.5458
 20
374.30725
 30
0.0
 11
125.045
 21
374.5942499999999
 31
0.0
  0
LINE
  5
1A5D
330
1E
100
AcDbEntity
  8
0
100
AcDbLine
 10
125.045
 20
374.5942499999999
 30
0.0
 11
124.345
 21
374.87625
 31
0.0
  0
LINE
  5
1A5E
330
1E
100
AcDbEntity
  8
0
100
AcDbLine
 10
124.345
 20
374.87625
 30
0.0
 11
123.5331
 21
375.0752499999999
 31
0.0
  0
LINE
  5
1A5F
330
1E
100
AcDbEntity
  8
0
100
AcDbLine
 10
123.5331
 20
375.0752499999999
 30
0.0
 11
122.5471
 21
375.2582499999999
 31
0.0
  0
LINE
  5
1A60
330
1E
100
AcDbEntity
  8
0
100
AcDbLine
 10
118.4953
 20
375.7402499999999
 30
0.0
 11
115.2653
 21
375.98525
 31
0.0
  0
LINE
  5
1A61
330
1E
100
AcDbEntity
  8
0
100
AcDbLine
 10
120.7239
 20
375.47525
 30
0.0
 11
118.4953
 21
375.7402499999999
 31
0.0
  0
LINE
  5
1A62
330
1E
100
AcDbEntity
  8
0
100
AcDbLine
 10
115.2653
 20
375.98525
 30
0.0
 11
111.5803
 21
376.18825
 31
0.0
  0
LINE
  5
1A63
330
1E
100
AcDbEntity
  8
0
100
AcDbLine
 10
122.5471
 20
432.37225
 30
0.0
 11
120.7239
 21
432.15525
 31
0.0
  0
LINE
  5
1A64
330
1E
100
AcDbEntity
  8
0
100
AcDbLine
 10
127.3084
 20
435.0862499999999
 30
0.0
 11
126.9533
 21
434.5512499999999
 31
0.0
  0
LINE
  5
1A65
330
1E
100
AcDbEntity
  8
0
100
AcDbLine
 10
127.8775
 20
436.28625
 30
0.0
 11
128.0769999999999
 21
437.09825
 31
0.0
  0
LINE
  5
1A66
330
1E
100
AcDbEntity
  8
0
100
AcDbLine
 10
128.4762
 20
439.90825
 30
0.0
 11
128.259
 21
438.0842499999999
 31
0.0
  0
LINE
  5
1A67
330
1E
100
AcDbEntity
  8
0
100
AcDbLine
 10
128.259
 20
438.0842499999999
 30
0.0
 11
128.0769999999999
 21
437.09825
 31
0.0
  0
LINE
  5
1A68
330
1E
100
AcDbEntity
  8
0
100
AcDbLine
 10
127.8775
 20
436.28625
 30
0.0
 11
127.5954
 21
435.58725
 31
0.0
  0
LINE
  5
1A69
330
1E
100
AcDbEntity
  8
0
100
AcDbLine
 10
127.5954
 20
435.58725
 30
0.0
 11
127.3084
 21
435.0862499999999
 31
0.0
  0
LINE
  5
1A6A
330
1E
100
AcDbEntity
  8
0
100
AcDbLine
 10
128.9861
 20
445.36625
 30
0.0
 11
128.7419
 21
442.1362499999999
 31
0.0
  0
LINE
  5
1A6B
330
1E
100
AcDbEntity
  8
0
100
AcDbLine
 10
128.7419
 20
442.1362499999999
 30
0.0
 11
128.4762
 21
439.90825
 31
0.0
  0
LINE
  5
1A6C
330
1E
100
AcDbEntity
  8
0
100
AcDbLine
 10
129.1892
 20
449.05125
 30
0.0
 11
128.9861
 21
445.36625
 31
0.0
  0
LINE
  5
1A6D
330
1E
100
AcDbEntity
  8
0
100
AcDbLine
 10
126.0806
 20
433.6782499999999
 30
0.0
 11
126.5439
 21
434.08825
 31
0.0
  0
LINE
  5
1A6E
330
1E
100
AcDbEntity
  8
0
100
AcDbLine
 10
126.0806
 20
433.6782499999999
 30
0.0
 11
125.5458
 21
433.32325
 31
0.0
  0
LINE
  5
1A6F
330
1E
100
AcDbEntity
  8
0
100
AcDbLine
 10
125.045
 20
433.0362499999999
 30
0.0
 11
124.345
 21
432.7542499999999
 31
0.0
  0
LINE
  5
1A70
330
1E
100
AcDbEntity
  8
0
100
AcDbLine
 10
125.5458
 20
433.32325
 30
0.0
 11
125.045
 21
433.0362499999999
 31
0.0
  0
LINE
  5
1A71
330
1E
100
AcDbEntity
  8
0
100
AcDbLine
 10
124.345
 20
432.7542499999999
 30
0.0
 11
123.5331
 21
432.5552499999999
 31
0.0
  0
LINE
  5
1A72
330
1E
100
AcDbEntity
  8
0
100
AcDbLine
 10
123.5331
 20
432.5552499999999
 30
0.0
 11
122.5471
 21
432.37225
 31
0.0
  0
LINE
  5
1A73
330
1E
100
AcDbEntity
  8
0
100
AcDbLine
 10
126.9533
 20
434.5512499999999
 30
0.0
 11
126.5439
 21
434.08825
 31
0.0
  0
LINE
  5
1A74
330
1E
100
AcDbEntity
  8
0
100
AcDbLine
 10
118.4953
 20
431.89025
 30
0.0
 11
115.2653
 21
431.6452499999999
 31
0.0
  0
LINE
  5
1A75
330
1E
100
AcDbEntity
  8
0
100
AcDbLine
 10
120.7239
 20
432.15525
 30
0.0
 11
118.4953
 21
431.89025
 31
0.0
  0
LINE
  5
1A76
330
1E
100
AcDbEntity
  8
0
100
AcDbLine
 10
115.2653
 20
431.6452499999999
 30
0.0
 11
111.5803
 21
431.44225
 31
0.0
  0
LINE
  5
1A77
330
1E
100
AcDbEntity
  8
0
100
AcDbLine
 10
122.5471
 20
475.2582499999999
 30
0.0
 11
120.7239
 21
475.47525
 31
0.0
  0
LINE
  5
1A78
330
1E
100
AcDbEntity
  8
0
100
AcDbLine
 10
127.3084
 20
472.5442499999999
 30
0.0
 11
126.9533
 21
473.0792499999999
 31
0.0
  0
LINE
  5
1A79
330
1E
100
AcDbEntity
  8
0
100
AcDbLine
 10
127.8775
 20
471.34425
 30
0.0
 11
127.5954
 21
472.04325
 31
0.0
  0
LINE
  5
1A7A
330
1E
100
AcDbEntity
  8
0
100
AcDbLine
 10
127.5954
 20
472.04325
 30
0.0
 11
127.3084
 21
472.5442499999999
 31
0.0
  0
LINE
  5
1A7B
330
1E
100
AcDbEntity
  8
0
100
AcDbLine
 10
128.0769999999999
 20
470.53225
 30
0.0
 11
127.8775
 21
471.34425
 31
0.0
  0
LINE
  5
1A7C
330
1E
100
AcDbEntity
  8
0
100
AcDbLine
 10
128.4762
 20
467.72225
 30
0.0
 11
128.259
 21
469.54525
 31
0.0
  0
LINE
  5
1A7D
330
1E
100
AcDbEntity
  8
0
100
AcDbLine
 10
128.259
 20
469.54525
 30
0.0
 11
128.0769999999999
 21
470.53225
 31
0.0
  0
LINE
  5
1A7E
330
1E
100
AcDbEntity
  8
0
100
AcDbLine
 10
128.9861
 20
462.26425
 30
0.0
 11
128.7419
 21
465.49425
 31
0.0
  0
LINE
  5
1A7F
330
1E
100
AcDbEntity
  8
0
100
AcDbLine
 10
128.7419
 20
465.49425
 30
0.0
 11
128.4762
 21
467.72225
 31
0.0
  0
LINE
  5
1A80
330
1E
100
AcDbEntity
  8
0
100
AcDbLine
 10
129.1892
 20
458.57925
 30
0.0
 11
128.9861
 21
462.26425
 31
0.0
  0
LINE
  5
1A81
330
1E
100
AcDbEntity
  8
0
100
AcDbLine
 10
129.3165
 20
453.8152499999999
 30
0.0
 11
129.2866
 21
451.8962499999999
 31
0.0
  0
LINE
  5
1A82
330
1E
100
AcDbEntity
  8
0
100
AcDbLine
 10
129.3165
 20
453.8152499999999
 30
0.0
 11
129.2866
 21
455.7342499999999
 31
0.0
  0
LINE
  5
1A83
330
1E
100
AcDbEntity
  8
0
100
AcDbLine
 10
129.2866
 20
455.7342499999999
 30
0.0
 11
129.1892
 21
458.57925
 31
0.0
  0
LINE
  5
1A84
330
1E
100
AcDbEntity
  8
0
100
AcDbLine
 10
123.5331
 20
475.0752499999999
 30
0.0
 11
122.5471
 21
475.2582499999999
 31
0.0
  0
LINE
  5
1A85
330
1E
100
AcDbEntity
  8
0
100
AcDbLine
 10
124.345
 20
474.87625
 30
0.0
 11
123.5331
 21
475.0752499999999
 31
0.0
  0
LINE
  5
1A86
330
1E
100
AcDbEntity
  8
0
100
AcDbLine
 10
125.045
 20
474.5942499999999
 30
0.0
 11
124.345
 21
474.87625
 31
0.0
  0
LINE
  5
1A87
330
1E
100
AcDbEntity
  8
0
100
AcDbLine
 10
125.5458
 20
474.30725
 30
0.0
 11
125.045
 21
474.5942499999999
 31
0.0
  0
LINE
  5
1A88
330
1E
100
AcDbEntity
  8
0
100
AcDbLine
 10
126.0806
 20
473.9522499999999
 30
0.0
 11
125.5458
 21
474.30725
 31
0.0
  0
LINE
  5
1A89
330
1E
100
AcDbEntity
  8
0
100
AcDbLine
 10
126.5439
 20
473.54225
 30
0.0
 11
126.0806
 21
473.9522499999999
 31
0.0
  0
LINE
  5
1A8A
330
1E
100
AcDbEntity
  8
0
100
AcDbLine
 10
126.9533
 20
473.0792499999999
 30
0.0
 11
126.5439
 21
473.54225
 31
0.0
  0
LINE
  5
1A8B
330
1E
100
AcDbEntity
  8
0
100
AcDbLine
 10
118.4953
 20
475.74025
 30
0.0
 11
115.2653
 21
475.98525
 31
0.0
  0
LINE
  5
1A8C
330
1E
100
AcDbEntity
  8
0
100
AcDbLine
 10
120.7239
 20
475.47525
 30
0.0
 11
118.4953
 21
475.74025
 31
0.0
  0
LINE
  5
1A8D
330
1E
100
AcDbEntity
  8
0
100
AcDbLine
 10
115.2653
 20
475.98525
 30
0.0
 11
111.5803
 21
476.1882499999999
 31
0.0
  0
LINE
  5
1A8E
330
1E
100
AcDbEntity
  8
0
100
AcDbLine
 10
108.7353
 20
236.34525
 30
0.0
 11
106.8165
 21
236.3152499999999
 31
0.0
  0
LINE
  5
1A8F
330
1E
100
AcDbEntity
  8
0
100
AcDbLine
 10
106.8165
 20
281.31525
 30
0.0
 11
104.8977
 21
281.28525
 31
0.0
  0
LINE
  5
1A90
330
1E
100
AcDbEntity
  8
0
100
AcDbLine
 10
106.8165
 20
285.3152499999999
 30
0.0
 11
105.5565
 21
285.3152499999999
 31
0.0
  0
LINE
  5
1A91
330
1E
100
AcDbEntity
  8
0
100
AcDbLine
 10
108.7353
 20
281.28525
 30
0.0
 11
106.8165
 21
281.31525
 31
0.0
  0
LINE
  5
1A92
330
1E
100
AcDbEntity
  8
0
100
AcDbLine
 10
108.0765
 20
285.3152499999999
 30
0.0
 11
106.8165
 21
285.3152499999999
 31
0.0
  0
LINE
  5
1A93
330
1E
100
AcDbEntity
  8
0
100
AcDbLine
 10
109.2365
 20
285.3152499999999
 30
0.0
 11
108.0765
 21
285.3152499999999
 31
0.0
  0
LINE
  5
1A94
330
1E
100
AcDbEntity
  8
0
100
AcDbLine
 10
110.2565
 20
285.3152499999999
 30
0.0
 11
109.2365
 21
285.3152499999999
 31
0.0
  0
LINE
  5
1A95
330
1E
100
AcDbEntity
  8
0
100
AcDbLine
 10
111.0365
 20
285.3152499999999
 30
0.0
 11
110.2565
 21
285.3152499999999
 31
0.0
  0
LINE
  5
1A96
330
1E
100
AcDbEntity
  8
0
100
AcDbLine
 10
105.5565
 20
285.3152499999999
 30
0.0
 11
104.3965
 21
285.3152499999999
 31
0.0
  0
LINE
  5
1A97
330
1E
100
AcDbEntity
  8
0
100
AcDbLine
 10
108.7353
 20
331.34525
 30
0.0
 11
106.8165
 21
331.31525
 31
0.0
  0
LINE
  5
1A98
330
1E
100
AcDbEntity
  8
0
100
AcDbLine
 10
106.8165
 20
376.3152499999999
 30
0.0
 11
104.8977
 21
376.28525
 31
0.0
  0
LINE
  5
1A99
330
1E
100
AcDbEntity
  8
0
100
AcDbLine
 10
108.7353
 20
376.28525
 30
0.0
 11
106.8165
 21
376.3152499999999
 31
0.0
  0
LINE
  5
1A9A
330
1E
100
AcDbEntity
  8
0
100
AcDbLine
 10
108.7353
 20
431.34525
 30
0.0
 11
106.8165
 21
431.31525
 31
0.0
  0
LINE
  5
1A9B
330
1E
100
AcDbEntity
  8
0
100
AcDbLine
 10
106.8165
 20
476.31525
 30
0.0
 11
104.8977
 21
476.28525
 31
0.0
  0
LINE
  5
1A9C
330
1E
100
AcDbEntity
  8
0
100
AcDbLine
 10
108.7353
 20
476.28525
 30
0.0
 11
106.8165
 21
476.31525
 31
0.0
  0
LINE
  5
1A9D
330
1E
100
AcDbEntity
  8
0
100
AcDbLine
 10
-0.183500000000003
 20
1267.91525
 30
0.0
 11
-0.183500000000003
 21
1281.84525
 31
0.0
  0
LINE
  5
1A9E
330
1E
100
AcDbEntity
  8
0
100
AcDbLine
 10
113.5705
 20
1311.11525
 30
0.0
 11
106.8165
 21
1311.10525
 31
0.0
  0
LINE
  5
1A9F
330
1E
100
AcDbEntity
  8
0
100
AcDbLine
 10
127.0253999999999
 20
1296.92525
 30
0.0
 11
107.2095
 21
1296.92525
 31
0.0
  0
LINE
  5
1AA0
330
1E
100
AcDbEntity
  8
0
100
AcDbLine
 10
133.2563
 20
1279.715249999999
 30
0.0
 11
107.2045
 21
1279.73525
 31
0.0
  0
LINE
  5
1AA1
330
1E
100
AcDbEntity
  8
0
100
AcDbLine
 10
207.8525
 20
1266.24525
 30
0.0
 11
106.8165
 21
1266.11525
 31
0.0
  0
LINE
  5
1AA2
330
1E
100
AcDbEntity
  8
0
100
AcDbLine
 10
211.3215
 20
1265.41525
 30
0.0
 11
106.8165
 21
1265.41525
 31
0.0
  0
LINE
  5
1AA3
330
1E
100
AcDbEntity
  8
0
100
AcDbLine
 10
211.0545
 20
1296.88525
 30
0.0
 11
188.8812
 21
1296.90525
 31
0.0
  0
LINE
  5
1AA4
330
1E
100
AcDbEntity
  8
0
100
AcDbLine
 10
210.5595
 20
1279.36525
 30
0.0
 11
185.0148
 21
1279.52525
 31
0.0
  0
LINE
  5
1AA5
330
1E
100
AcDbEntity
  8
0
100
AcDbLine
 10
213.8165
 20
1267.91525
 30
0.0
 11
213.8165
 21
1281.84525
 31
0.0
  0
LINE
  5
1AA6
330
1E
100
AcDbEntity
  8
0
100
AcDbLine
 10
211.3294999999999
 20
1279.32525
 30
0.0
 11
210.9554999999999
 21
1266.24525
 31
0.0
  0
LINE
  5
1AA7
330
1E
100
AcDbEntity
  8
0
100
AcDbLine
 10
213.0298902439024
 20
1268.425249999999
 30
0.0
 11
212.7355
 21
1267.40525
 31
0.0
  0
LINE
  5
1AA8
330
1E
100
AcDbEntity
  8
0
100
AcDbLine
 10
213.3465
 20
1266.455249999999
 30
0.0
 11
212.4585
 21
1265.685249999999
 31
0.0
  0
LINE
  5
1AA9
330
1E
100
AcDbEntity
  8
0
100
AcDbLine
 10
213.8165
 20
1267.61525
 30
0.0
 11
213.8165
 21
1267.91525
 31
0.0
  0
LINE
  5
1AAA
330
1E
100
AcDbEntity
  8
0
100
AcDbLine
 10
213.8165
 20
1267.61525
 30
0.0
 11
213.8165
 21
1265.63525
 31
0.0
  0
LINE
  5
1AAB
330
1E
100
AcDbEntity
  8
0
100
AcDbLine
 10
213.6075
 20
1268.39525
 30
0.0
 11
213.5175
 21
1268.41525
 31
0.0
  0
LINE
  5
1AAC
330
1E
100
AcDbEntity
  8
0
100
AcDbLine
 10
213.5175
 20
1268.41525
 30
0.0
 11
213.0270040650406
 21
1268.41525
 31
0.0
  0
LINE
  5
1AAD
330
1E
100
AcDbEntity
  8
0
100
AcDbLine
 10
213.5175
 20
1268.41525
 30
0.0
 11
213.0270040650406
 21
1268.41525
 31
0.0
  0
LINE
  5
1AAE
330
1E
100
AcDbEntity
  8
0
100
AcDbLine
 10
213.7585
 20
1268.295249999999
 30
0.0
 11
213.6075
 21
1268.39525
 31
0.0
  0
LINE
  5
1AAF
330
1E
100
AcDbEntity
  8
0
100
AcDbLine
 10
213.8165
 20
1267.91525
 30
0.0
 11
213.8165
 21
1267.61525
 31
0.0
  0
LINE
  5
1AB0
330
1E
100
AcDbEntity
  8
0
100
AcDbLine
 10
213.8165
 20
1267.91525
 30
0.0
 11
213.3465
 21
1266.455249999999
 31
0.0
  0
LINE
  5
1AB1
330
1E
100
AcDbEntity
  8
0
100
AcDbLine
 10
213.8165
 20
1267.91525
 30
0.0
 11
213.8165
 21
1268.11525
 31
0.0
  0
LINE
  5
1AB2
330
1E
100
AcDbEntity
  8
0
100
AcDbLine
 10
213.8165
 20
1268.11525
 30
0.0
 11
213.8165
 21
1267.91525
 31
0.0
  0
LINE
  5
1AB3
330
1E
100
AcDbEntity
  8
0
100
AcDbLine
 10
213.8165
 20
1268.11525
 30
0.0
 11
213.7585
 21
1268.295249999999
 31
0.0
  0
LINE
  5
1AB4
330
1E
100
AcDbEntity
  8
0
100
AcDbLine
 10
213.8165
 20
1252.67525
 30
0.0
 11
213.8165
 21
1260.495249999999
 31
0.0
  0
LINE
  5
1AB5
330
1E
100
AcDbEntity
  8
0
100
AcDbLine
 10
213.8165
 20
1260.495249999999
 30
0.0
 11
213.8165
 21
1265.63525
 31
0.0
  0
LINE
  5
1AB6
330
1E
100
AcDbEntity
  8
0
100
AcDbLine
 10
213.8165
 20
1260.495249999999
 30
0.0
 11
213.8165
 21
1252.67525
 31
0.0
  0
LINE
  5
1AB7
330
1E
100
AcDbEntity
  8
0
100
AcDbLine
 10
213.8165
 20
1265.63525
 30
0.0
 11
213.8165
 21
1267.61525
 31
0.0
  0
LINE
  5
1AB8
330
1E
100
AcDbEntity
  8
0
100
AcDbLine
 10
213.8165
 20
1265.63525
 30
0.0
 11
213.8165
 21
1260.495249999999
 31
0.0
  0
LINE
  5
1AB9
330
1E
100
AcDbEntity
  8
0
100
AcDbLine
 10
212.7355
 20
1267.40525
 30
0.0
 11
212.7355
 21
1267.40525
 31
0.0
  0
LINE
  5
1ABA
330
1E
100
AcDbEntity
  8
0
100
AcDbLine
 10
212.7355
 20
1267.40525
 30
0.0
 11
212.1325
 21
1266.64525
 31
0.0
  0
LINE
  5
1ABB
330
1E
100
AcDbEntity
  8
0
100
AcDbLine
 10
210.9554999999999
 20
1266.24525
 30
0.0
 11
210.4975
 21
1266.24525
 31
0.0
  0
LINE
  5
1ABC
330
1E
100
AcDbEntity
  8
0
100
AcDbLine
 10
210.4664999999999
 20
1266.24525
 30
0.0
 11
210.4014999999999
 21
1266.24525
 31
0.0
  0
LINE
  5
1ABD
330
1E
100
AcDbEntity
  8
0
100
AcDbLine
 10
210.4014999999999
 20
1266.24525
 30
0.0
 11
210.3225
 21
1266.24525
 31
0.0
  0
LINE
  5
1ABE
330
1E
100
AcDbEntity
  8
0
100
AcDbLine
 10
210.3225
 20
1266.24525
 30
0.0
 11
207.8525
 21
1266.24525
 31
0.0
  0
LINE
  5
1ABF
330
1E
100
AcDbEntity
  8
0
100
AcDbLine
 10
211.3215
 20
1251.22525
 30
0.0
 11
211.3215
 21
1258.49525
 31
0.0
  0
LINE
  5
1AC0
330
1E
100
AcDbEntity
  8
0
100
AcDbLine
 10
211.3215
 20
1258.49525
 30
0.0
 11
211.3215
 21
1251.22525
 31
0.0
  0
LINE
  5
1AC1
330
1E
100
AcDbEntity
  8
0
100
AcDbLine
 10
211.3215
 20
1258.49525
 30
0.0
 11
211.3215
 21
1263.275249999999
 31
0.0
  0
LINE
  5
1AC2
330
1E
100
AcDbEntity
  8
0
100
AcDbLine
 10
211.3215
 20
1263.275249999999
 30
0.0
 11
211.3215
 21
1258.49525
 31
0.0
  0
LINE
  5
1AC3
330
1E
100
AcDbEntity
  8
0
100
AcDbLine
 10
211.3215
 20
1263.275249999999
 30
0.0
 11
211.3215
 21
1265.11525
 31
0.0
  0
LINE
  5
1AC4
330
1E
100
AcDbEntity
  8
0
100
AcDbLine
 10
212.4585
 20
1265.685249999999
 30
0.0
 11
211.3215
 21
1265.41525
 31
0.0
  0
LINE
  5
1AC5
330
1E
100
AcDbEntity
  8
0
100
AcDbLine
 10
211.4035
 20
1266.24525
 30
0.0
 11
210.9554999999999
 21
1266.24525
 31
0.0
  0
LINE
  5
1AC6
330
1E
100
AcDbEntity
  8
0
100
AcDbLine
 10
212.1325
 20
1266.64525
 30
0.0
 11
211.4205
 21
1266.24525
 31
0.0
  0
LINE
  5
1AC7
330
1E
100
AcDbEntity
  8
0
100
AcDbLine
 10
211.3215
 20
1265.11525
 30
0.0
 11
211.3215
 21
1263.275249999999
 31
0.0
  0
LINE
  5
1AC8
330
1E
100
AcDbEntity
  8
0
100
AcDbLine
 10
211.3215
 20
1265.11525
 30
0.0
 11
211.3215
 21
1265.41525
 31
0.0
  0
LINE
  5
1AC9
330
1E
100
AcDbEntity
  8
0
100
AcDbLine
 10
211.3215
 20
1265.41525
 30
0.0
 11
211.3215
 21
1265.11525
 31
0.0
  0
LINE
  5
1ACA
330
1E
100
AcDbEntity
  8
0
100
AcDbLine
 10
213.8165
 20
1296.57525
 30
0.0
 11
213.8165
 21
1281.84525
 31
0.0
  0
LINE
  5
1ACB
330
1E
100
AcDbEntity
  8
0
100
AcDbLine
 10
213.8165
 20
1281.84525
 30
0.0
 11
213.8165
 21
1296.57525
 31
0.0
  0
LINE
  5
1ACC
330
1E
100
AcDbEntity
  8
0
100
AcDbLine
 10
211.3294999999999
 20
1279.32525
 30
0.0
 11
211.2325
 21
1279.34525
 31
0.0
  0
LINE
  5
1ACD
330
1E
100
AcDbEntity
  8
0
100
AcDbLine
 10
211.2325
 20
1279.34525
 30
0.0
 11
210.9575
 21
1279.35525
 31
0.0
  0
LINE
  5
1ACE
330
1E
100
AcDbEntity
  8
0
100
AcDbLine
 10
210.9575
 20
1279.35525
 30
0.0
 11
210.5595
 21
1279.36525
 31
0.0
  0
LINE
  5
1ACF
330
1E
100
AcDbEntity
  8
0
100
AcDbLine
 10
213.3795
 20
1296.87525
 30
0.0
 11
212.6255
 21
1296.88525
 31
0.0
  0
LINE
  5
1AD0
330
1E
100
AcDbEntity
  8
0
100
AcDbLine
 10
213.6675
 20
1296.83525
 30
0.0
 11
213.5185
 21
1296.87525
 31
0.0
  0
LINE
  5
1AD1
330
1E
100
AcDbEntity
  8
0
100
AcDbLine
 10
213.5185
 20
1296.87525
 30
0.0
 11
213.3795
 21
1296.87525
 31
0.0
  0
LINE
  5
1AD2
330
1E
100
AcDbEntity
  8
0
100
AcDbLine
 10
213.7765
 20
1296.72525
 30
0.0
 11
213.6675
 21
1296.83525
 31
0.0
  0
LINE
  5
1AD3
330
1E
100
AcDbEntity
  8
0
100
AcDbLine
 10
213.8165
 20
1296.57525
 30
0.0
 11
213.7765
 21
1296.72525
 31
0.0
  0
LINE
  5
1AD4
330
1E
100
AcDbEntity
  8
0
100
AcDbLine
 10
212.5055
 20
1296.88525
 30
0.0
 11
211.0545
 21
1296.88525
 31
0.0
  0
LINE
  5
1AD5
330
1E
100
AcDbEntity
  8
0
100
AcDbLine
 10
212.6255
 20
1296.88525
 30
0.0
 11
208.7379768010214
 21
1296.88733947085
 31
0.0
  0
LINE
  5
1AD6
330
1E
100
AcDbEntity
  8
0
100
AcDbLine
 10
212.6255
 20
1296.88525
 30
0.0
 11
208.7379768010214
 21
1296.88733947085
 31
0.0
  0
LINE
  5
1AD7
330
1E
100
AcDbEntity
  8
0
100
AcDbLine
 10
212.6255
 20
1296.88525
 30
0.0
 11
212.5055
 21
1296.88525
 31
0.0
  0
LINE
  5
1AD8
330
1E
100
AcDbEntity
  8
0
100
AcDbLine
 10
166.5113
 20
1296.91525
 30
0.0
 11
146.8052
 21
1296.92525
 31
0.0
  0
LINE
  5
1AD9
330
1E
100
AcDbEntity
  8
0
100
AcDbLine
 10
159.2191
 20
1279.64525
 30
0.0
 11
133.2563
 21
1279.715249999999
 31
0.0
  0
LINE
  5
1ADA
330
1E
100
AcDbEntity
  8
0
100
AcDbLine
 10
188.8812
 20
1296.90525
 30
0.0
 11
166.5113
 21
1296.91525
 31
0.0
  0
LINE
  5
1ADB
330
1E
100
AcDbEntity
  8
0
100
AcDbLine
 10
185.0148
 20
1279.52525
 30
0.0
 11
159.2191
 21
1279.64525
 31
0.0
  0
LINE
  5
1ADC
330
1E
100
AcDbEntity
  8
0
100
AcDbLine
 10
146.8052
 20
1296.92525
 30
0.0
 11
127.0253999999999
 21
1296.92525
 31
0.0
  0
LINE
  5
1ADD
330
1E
100
AcDbEntity
  8
0
100
AcDbLine
 10
136.4632
 20
1310.965249999999
 30
0.0
 11
125.04
 21
1311.055249999999
 31
0.0
  0
LINE
  5
1ADE
330
1E
100
AcDbEntity
  8
0
100
AcDbLine
 10
147.8068
 20
1310.82525
 30
0.0
 11
136.4632
 21
1310.965249999999
 31
0.0
  0
LINE
  5
1ADF
330
1E
100
AcDbEntity
  8
0
100
AcDbLine
 10
148.6185
 20
1310.80525
 30
0.0
 11
148.4534
 21
1310.81525
 31
0.0
  0
LINE
  5
1AE0
330
1E
100
AcDbEntity
  8
0
100
AcDbLine
 10
148.8622
 20
1310.74525
 30
0.0
 11
149.0413
 21
1310.55525
 31
0.0
  0
LINE
  5
1AE1
330
1E
100
AcDbEntity
  8
0
100
AcDbLine
 10
149.3808999999999
 20
1309.31525
 30
0.0
 11
149.1089
 21
1310.31525
 31
0.0
  0
LINE
  5
1AE2
330
1E
100
AcDbEntity
  8
0
100
AcDbLine
 10
149.3808999999999
 20
1309.31525
 30
0.0
 11
149.3808999999999
 21
1296.92394294279
 31
0.0
  0
LINE
  5
1AE3
330
1E
100
AcDbEntity
  8
0
100
AcDbLine
 10
149.1089
 20
1310.31525
 30
0.0
 11
149.0413
 21
1310.55525
 31
0.0
  0
LINE
  5
1AE4
330
1E
100
AcDbEntity
  8
0
100
AcDbLine
 10
148.8622
 20
1310.74525
 30
0.0
 11
148.6185
 21
1310.80525
 31
0.0
  0
LINE
  5
1AE5
330
1E
100
AcDbEntity
  8
0
100
AcDbLine
 10
149.3808999999999
 20
1296.92394294279
 30
0.0
 11
149.3808999999999
 21
1309.31525
 31
0.0
  0
LINE
  5
1AE6
330
1E
100
AcDbEntity
  8
0
100
AcDbLine
 10
148.0107
 20
1310.82525
 30
0.0
 11
147.8068
 21
1310.82525
 31
0.0
  0
LINE
  5
1AE7
330
1E
100
AcDbEntity
  8
0
100
AcDbLine
 10
148.4534
 20
1310.81525
 30
0.0
 11
148.0107
 21
1310.82525
 31
0.0
  0
LINE
  5
1AE8
330
1E
100
AcDbEntity
  8
0
100
AcDbLine
 10
125.04
 20
1311.055249999999
 30
0.0
 11
113.5705
 21
1311.11525
 31
0.0
  0
LINE
  5
1AE9
330
1E
100
AcDbEntity
  8
0
100
AcDbLine
 10
107.2045
 20
1279.73525
 30
0.0
 11
106.8165
 21
1279.73525
 31
0.0
  0
LINE
  5
1AEA
330
1E
100
AcDbEntity
  8
0
100
AcDbLine
 10
106.8165
 20
1279.73525
 30
0.0
 11
106.4285
 21
1279.73525
 31
0.0
  0
LINE
  5
1AEB
330
1E
100
AcDbEntity
  8
0
100
AcDbLine
 10
107.2095
 20
1296.92525
 30
0.0
 11
106.8165
 21
1296.92525
 31
0.0
  0
LINE
  5
1AEC
330
1E
100
AcDbEntity
  8
0
100
AcDbLine
 10
106.8165
 20
1296.92525
 30
0.0
 11
106.4235
 21
1296.92525
 31
0.0
  0
ENDSEC
  0
SECTION
  2
OBJECTS
  0
DICTIONARY
  5
C
330
0
100
AcDbDictionary
281
     1
  3
ACAD_GROUP
350
D
  3
ACAD_LAYOUT
350
19
  3
ACAD_MLINESTYLE
350
16
  3
ACAD_PLOTSETTINGS
350
18
  3
ACAD_PLOTSTYLENAME
350
E
  3
AcDbVariableDictionary
350
1AEE
  0
DICTIONARY
  5
D
102
{ACAD_REACTORS
330
C
102
}
330
C
100
AcDbDictionary
281
     1
  0
DICTIONARY
  5
19
102
{ACAD_REACTORS
330
C
102
}
330
C
100
AcDbDictionary
281
     1
  3
Layout1
350
1D
  3
Model
350
21
  0
DICTIONARY
  5
16
102
{ACAD_REACTORS
330
C
102
}
330
C
100
AcDbDictionary
281
     1
  3
Standard
350
17
  0
DICTIONARY
  5
18
102
{ACAD_REACTORS
330
C
102
}
330
C
100
AcDbDictionary
281
     1
  0
ACDBDICTIONARYWDFLT
  5
E
102
{ACAD_REACTORS
330
C
102
}
330
C
100
AcDbDictionary
281
     1
  3
Normal
350
F
100
AcDbDictionaryWithDefault
340
F
  0
DICTIONARY
  5
1AEE
102
{ACAD_REACTORS
330
C
102
}
330
C
100
AcDbDictionary
281
     1
  3
DIMASSOC
350
1AEF
  0
LAYOUT
  5
1D
102
{ACAD_REACTORS
330
19
102
}
330
19
100
AcDbPlotSettings
  1

  2
C:\Programme\AutoCAD LT 2002 Deu\plotters\DWF ePlot (optimized for plotting).pc3
  4

  6

 40
0.0
 41
0.0
 42
0.0
 43
0.0
 44
0.0
 45
0.0
 46
0.0
 47
0.0
 48
0.0
 49
0.0
140
0.0
141
0.0
142
1.0
143
1.0
 70
   688
 72
     0
 73
     0
 74
     5
  7

 75
    16
147
1.0
148
0.0
149
0.0
100
AcDbLayout
  1
Layout1
 70
     1
 71
     1
 10
0.0
 20
0.0
 11
12.0
 21
9.0
 12
0.0
 22
0.0
 32
0.0
 14
1.000000000000000E+20
 24
1.000000000000000E+20
 34
1.000000000000000E+20
 15
-1.000000000000000E+20
 25
-1.000000000000000E+20
 35
-1.000000000000000E+20
146
0.0
 13
0.0
 23
0.0
 33
0.0
 16
1.0
 26
0.0
 36
0.0
 17
0.0
 27
1.0
 37
0.0
 76
     0
330
1A
  0
LAYOUT
  5
21
102
{ACAD_REACTORS
330
19
102
}
330
19
100
AcDbPlotSettings
  1

  2
C:\Programme\AutoCAD LT 2002 Deu\plotters\DWF ePlot (optimized for plotting).pc3
  4

  6

 40
0.0
 41
0.0
 42
0.0
 43
0.0
 44
0.0
 45
0.0
 46
0.0
 47
0.0
 48
0.0
 49
0.0
140
0.0
141
0.0
142
1.0
143
1.0
 70
  1712
 72
     0
 73
     0
 74
     0
  7

 75
     0
147
1.0
148
0.0
149
0.0
100
AcDbLayout
  1
Model
 70
     1
 71
     0
 10
0.0
 20
0.0
 11
12.0
 21
9.0
 12
0.0
 22
0.0
 32
0.0
 14
0.0
 24
0.0
 34
0.0
 15
0.0
 25
0.0
 35
0.0
146
0.0
 13
0.0
 23
0.0
 33
0.0
 16
1.0
 26
0.0
 36
0.0
 17
0.0
 27
1.0
 37
0.0
 76
     0
330
1E
  0
MLINESTYLE
  5
17
102
{ACAD_REACTORS
330
16
102
}
330
16
100
AcDbMlineStyle
  2
STANDARD
 70
     0
  3

 62
   256
 51
90.0
 52
90.0
 71
     2
 49
0.5
 62
   256
  6
BYLAYER
 49
-0.5
 62
   256
  6
BYLAYER
  0
ACDBPLACEHOLDER
  5
F
102
{ACAD_REACTORS
330
E
102
}
330
E
  0
DICTIONARYVAR
  5
1AEF
102
{ACAD_REACTORS
330
1AEE
102
}
330
1AEE
100
DictionaryVariables
280
     0
  1
1
  0
ENDSEC
  0
EOF
