  0
SECTION
  2
HEADER
  9
$ACADVER
  1
AC1015
  9
$ACADMAINTVER
 70
    13
  9
$DWGCODEPAGE
  3
ANSI_1252
  9
$INSBASE
 10
0.0
 20
0.0
 30
0.0
  9
$EXTMIN
 10
0.0
 20
0.0001765000000037
 30
0.0
  9
$EXTMAX
 10
137.0
 20
136.9994705
 30
0.0
  9
$LIMMIN
 10
0.0
 20
0.0
  9
$LIMMAX
 10
12.0
 20
9.0
  9
$ORTHOMODE
 70
     0
  9
$REGENMODE
 70
     1
  9
$FILLMODE
 70
     1
  9
$QTEXTMODE
 70
     0
  9
$MIRRTEXT
 70
     1
  9
$LTSCALE
 40
1.0
  9
$ATTMODE
 70
     1
  9
$TEXTSIZE
 40
0.2
  9
$TRACEWID
 40
0.05
  9
$TEXTSTYLE
  7
Standard
  9
$CLAYER
  8
0
  9
$CELTYPE
  6
Continuous
  9
$CECOLOR
 62
   256
  9
$CELTSCALE
 40
1.0
  9
$DISPSILH
 70
     0
  9
$DIMSCALE
 40
1.0
  9
$DIMASZ
 40
0.18
  9
$DIMEXO
 40
0.0625
  9
$DIMDLI
 40
0.38
  9
$DIMRND
 40
0.0
  9
$DIMDLE
 40
0.0
  9
$DIMEXE
 40
0.18
  9
$DIMTP
 40
0.0
  9
$DIMTM
 40
0.0
  9
$DIMTXT
 40
0.18
  9
$DIMCEN
 40
0.09
  9
$DIMTSZ
 40
0.0
  9
$DIMTOL
 70
     0
  9
$DIMLIM
 70
     0
  9
$DIMTIH
 70
     1
  9
$DIMTOH
 70
     1
  9
$DIMSE1
 70
     0
  9
$DIMSE2
 70
     0
  9
$DIMTAD
 70
     0
  9
$DIMZIN
 70
     0
  9
$DIMBLK
  1

  9
$DIMASO
 70
     1
  9
$DIMSHO
 70
     1
  9
$DIMPOST
  1

  9
$DIMAPOST
  1

  9
$DIMALT
 70
     0
  9
$DIMALTD
 70
     2
  9
$DIMALTF
 40
25.4
  9
$DIMLFAC
 40
1.0
  9
$DIMTOFL
 70
     0
  9
$DIMTVP
 40
0.0
  9
$DIMTIX
 70
     0
  9
$DIMSOXD
 70
     0
  9
$DIMSAH
 70
     0
  9
$DIMBLK1
  1

  9
$DIMBLK2
  1

  9
$DIMSTYLE
  2
Standard
  9
$DIMCLRD
 70
     0
  9
$DIMCLRE
 70
     0
  9
$DIMCLRT
 70
     0
  9
$DIMTFAC
 40
1.0
  9
$DIMGAP
 40
0.09
  9
$DIMJUST
 70
     0
  9
$DIMSD1
 70
     0
  9
$DIMSD2
 70
     0
  9
$DIMTOLJ
 70
     1
  9
$DIMTZIN
 70
     0
  9
$DIMALTZ
 70
     0
  9
$DIMALTTZ
 70
     0
  9
$DIMUPT
 70
     0
  9
$DIMDEC
 70
     4
  9
$DIMTDEC
 70
     4
  9
$DIMALTU
 70
     2
  9
$DIMALTTD
 70
     2
  9
$DIMTXSTY
  7
Standard
  9
$DIMAUNIT
 70
     0
  9
$DIMADEC
 70
     0
  9
$DIMALTRND
 40
0.0
  9
$DIMAZIN
 70
     0
  9
$DIMDSEP
 70
    46
  9
$DIMATFIT
 70
     3
  9
$DIMFRAC
 70
     0
  9
$DIMLDRBLK
  1

  9
$DIMLUNIT
 70
     2
  9
$DIMLWD
 70
    -2
  9
$DIMLWE
 70
    -2
  9
$DIMTMOVE
 70
     0
  9
$LUNITS
 70
     2
  9
$LUPREC
 70
     4
  9
$SKETCHINC
 40
0.1
  9
$FILLETRAD
 40
0.0
  9
$AUNITS
 70
     0
  9
$AUPREC
 70
     0
  9
$MENU
  1
.
  9
$ELEVATION
 40
0.0
  9
$PELEVATION
 40
0.0
  9
$THICKNESS
 40
0.0
  9
$LIMCHECK
 70
     0
  9
$CHAMFERA
 40
0.0
  9
$CHAMFERB
 40
0.0
  9
$CHAMFERC
 40
0.0
  9
$CHAMFERD
 40
0.0
  9
$SKPOLY
 70
     0
  9
$TDCREATE
 40
2455650.990277951
  9
$TDUCREATE
 40
2455650.906944618
  9
$TDUPDATE
 40
2455650.996258309
  9
$TDUUPDATE
 40
2455650.912924977
  9
$TDINDWG
 40
0.0059803588
  9
$TDUSRTIMER
 40
0.0059803588
  9
$USRTIMER
 70
     1
  9
$ANGBASE
 50
0.0
  9
$ANGDIR
 70
     0
  9
$PDMODE
 70
     0
  9
$PDSIZE
 40
0.0
  9
$PLINEWID
 40
0.0
  9
$SPLFRAME
 70
     0
  9
$SPLINETYPE
 70
     6
  9
$SPLINESEGS
 70
     8
  9
$HANDSEED
  5
51B
  9
$SURFTAB1
 70
     6
  9
$SURFTAB2
 70
     6
  9
$SURFTYPE
 70
     6
  9
$SURFU
 70
     6
  9
$SURFV
 70
     6
  9
$UCSBASE
  2

  9
$UCSNAME
  2

  9
$UCSORG
 10
0.0
 20
0.0
 30
0.0
  9
$UCSXDIR
 10
1.0
 20
0.0
 30
0.0
  9
$UCSYDIR
 10
0.0
 20
1.0
 30
0.0
  9
$UCSORTHOREF
  2

  9
$UCSORTHOVIEW
 70
     1
  9
$UCSORGTOP
 10
0.0
 20
0.0
 30
0.0
  9
$UCSORGBOTTOM
 10
0.0
 20
0.0
 30
0.0
  9
$UCSORGLEFT
 10
0.0
 20
0.0
 30
0.0
  9
$UCSORGRIGHT
 10
0.0
 20
0.0
 30
0.0
  9
$UCSORGFRONT
 10
0.0
 20
0.0
 30
0.0
  9
$UCSORGBACK
 10
0.0
 20
0.0
 30
0.0
  9
$PUCSBASE
  2

  9
$PUCSNAME
  2

  9
$PUCSORG
 10
0.0
 20
0.0
 30
0.0
  9
$PUCSXDIR
 10
1.0
 20
0.0
 30
0.0
  9
$PUCSYDIR
 10
0.0
 20
1.0
 30
0.0
  9
$PUCSORTHOREF
  2

  9
$PUCSORTHOVIEW
 70
     0
  9
$PUCSORGTOP
 10
0.0
 20
0.0
 30
0.0
  9
$PUCSORGBOTTOM
 10
0.0
 20
0.0
 30
0.0
  9
$PUCSORGLEFT
 10
0.0
 20
0.0
 30
0.0
  9
$PUCSORGRIGHT
 10
0.0
 20
0.0
 30
0.0
  9
$PUCSORGFRONT
 10
0.0
 20
0.0
 30
0.0
  9
$PUCSORGBACK
 10
0.0
 20
0.0
 30
0.0
  9
$USERI1
 70
     0
  9
$USERI2
 70
     0
  9
$USERI3
 70
     0
  9
$USERI4
 70
     0
  9
$USERI5
 70
     0
  9
$USERR1
 40
0.0
  9
$USERR2
 40
0.0
  9
$USERR3
 40
0.0
  9
$USERR4
 40
0.0
  9
$USERR5
 40
0.0
  9
$WORLDVIEW
 70
     1
  9
$SHADEDGE
 70
     3
  9
$SHADEDIF
 70
    70
  9
$TILEMODE
 70
     1
  9
$MAXACTVP
 70
    64
  9
$PINSBASE
 10
0.0
 20
0.0
 30
0.0
  9
$PLIMCHECK
 70
     0
  9
$PEXTMIN
 10
1.000000000000000E+20
 20
1.000000000000000E+20
 30
1.000000000000000E+20
  9
$PEXTMAX
 10
-1.000000000000000E+20
 20
-1.000000000000000E+20
 30
-1.000000000000000E+20
  9
$PLIMMIN
 10
0.0
 20
0.0
  9
$PLIMMAX
 10
12.0
 20
9.0
  9
$UNITMODE
 70
     0
  9
$VISRETAIN
 70
     1
  9
$PLINEGEN
 70
     0
  9
$PSLTSCALE
 70
     1
  9
$TREEDEPTH
 70
  3020
  9
$CMLSTYLE
  2
Standard
  9
$CMLJUST
 70
     0
  9
$CMLSCALE
 40
1.0
  9
$PROXYGRAPHICS
 70
     1
  9
$MEASUREMENT
 70
     0
  9
$CELWEIGHT
370
    -1
  9
$ENDCAPS
280
     0
  9
$JOINSTYLE
280
     0
  9
$LWDISPLAY
290
     0
  9
$INSUNITS
 70
     0
  9
$HYPERLINKBASE
  1

  9
$STYLESHEET
  1

  9
$XEDIT
290
     1
  9
$CEPSNTYPE
380
     0
  9
$PSTYLEMODE
290
     1
  9
$FINGERPRINTGUID
  2
{9F8B7115-4470-40AE-9971-3538FB0E3420}
  9
$VERSIONGUID
  2
{3570145F-B60C-4576-BF5C-9E0BB27E6DAE}
  9
$EXTNAMES
290
     1
  9
$PSVPSCALE
 40
0.0
  9
$OLESTARTUP
290
     0
  0
ENDSEC
  0
SECTION
  2
CLASSES
  0
CLASS
  1
ACDBDICTIONARYWDFLT
  2
AcDbDictionaryWithDefault
  3
AutoCAD 2000
 90
        0
280
     0
281
     0
  0
CLASS
  1
ACDBPLACEHOLDER
  2
AcDbPlaceHolder
  3
AutoCAD 2000
 90
        0
280
     0
281
     0
  0
CLASS
  1
LAYOUT
  2
AcDbLayout
  3
AutoCAD 2000
 90
        0
280
     0
281
     0
  0
CLASS
  1
DICTIONARYVAR
  2
AcDbDictionaryVar
  3
AutoCAD 2000
 90
        0
280
     0
281
     0
  0
ENDSEC
  0
SECTION
  2
TABLES
  0
TABLE
  2
VPORT
  5
8
330
0
100
AcDbSymbolTable
 70
     3
  0
VPORT
  5
51A
330
8
100
AcDbSymbolTableRecord
100
AcDbViewportTableRecord
  2
*Active
 70
     0
 10
0.0
 20
0.0
 11
1.0
 21
1.0
 12
68.5
 22
68.49982350000001
 13
0.0
 23
0.0
 14
1.0
 24
1.0
 15
0.0
 25
0.0
 16
0.0
 26
0.0
 36
1.0
 17
0.0
 27
0.0
 37
0.0
 40
137.9260085028184
 41
2.073363431151241
 42
50.0
 43
0.0
 44
0.0
 50
0.0
 51
0.0
 71
     0
 72
   100
 73
     1
 74
     3
 75
     0
 76
     0
 77
     0
 78
     0
281
     0
 65
     1
110
0.0
120
0.0
130
0.0
111
1.0
121
0.0
131
0.0
112
0.0
122
1.0
132
0.0
 79
     1
146
0.0
  0
ENDTAB
  0
TABLE
  2
LTYPE
  5
5
330
0
100
AcDbSymbolTable
 70
     1
  0
LTYPE
  5
13
330
5
100
AcDbSymbolTableRecord
100
AcDbLinetypeTableRecord
  2
ByBlock
 70
     0
  3

 72
    65
 73
     0
 40
0.0
  0
LTYPE
  5
14
330
5
100
AcDbSymbolTableRecord
100
AcDbLinetypeTableRecord
  2
ByLayer
 70
     0
  3

 72
    65
 73
     0
 40
0.0
  0
LTYPE
  5
15
330
5
100
AcDbSymbolTableRecord
100
AcDbLinetypeTableRecord
  2
Continuous
 70
     0
  3
Solid line
 72
    65
 73
     0
 40
0.0
  0
ENDTAB
  0
TABLE
  2
LAYER
  5
2
330
0
100
AcDbSymbolTable
 70
     1
  0
LAYER
  5
10
330
2
100
AcDbSymbolTableRecord
100
AcDbLayerTableRecord
  2
0
 70
     0
 62
     7
  6
Continuous
370
    -3
390
F
  0
ENDTAB
  0
TABLE
  2
STYLE
  5
3
330
0
100
AcDbSymbolTable
 70
     1
  0
STYLE
  5
11
330
3
100
AcDbSymbolTableRecord
100
AcDbTextStyleTableRecord
  2
Standard
 70
     0
 40
0.0
 41
1.0
 50
0.0
 71
     0
 42
0.2
  3
txt
  4

  0
ENDTAB
  0
TABLE
  2
VIEW
  5
6
330
0
100
AcDbSymbolTable
 70
     0
  0
ENDTAB
  0
TABLE
  2
UCS
  5
7
330
0
100
AcDbSymbolTable
 70
     0
  0
ENDTAB
  0
TABLE
  2
APPID
  5
9
330
0
100
AcDbSymbolTable
 70
     1
  0
APPID
  5
12
330
9
100
AcDbSymbolTableRecord
100
AcDbRegAppTableRecord
  2
ACAD
 70
     0
  0
ENDTAB
  0
TABLE
  2
DIMSTYLE
  5
A
330
0
100
AcDbSymbolTable
 70
     1
100
AcDbDimStyleTable
 71
     0
  0
DIMSTYLE
105
30A
330
A
100
AcDbSymbolTableRecord
100
AcDbDimStyleTableRecord
  2
Standard
 70
     0
340
11
  0
ENDTAB
  0
TABLE
  2
BLOCK_RECORD
  5
1
330
0
100
AcDbSymbolTable
 70
     0
  0
BLOCK_RECORD
  5
1E
330
1
100
AcDbSymbolTableRecord
100
AcDbBlockTableRecord
  2
*Model_Space
340
21
  0
BLOCK_RECORD
  5
1A
330
1
100
AcDbSymbolTableRecord
100
AcDbBlockTableRecord
  2
*Paper_Space
340
1D
  0
ENDTAB
  0
ENDSEC
  0
SECTION
  2
BLOCKS
  0
BLOCK
  5
1F
330
1E
100
AcDbEntity
  8
0
100
AcDbBlockBegin
  2
*Model_Space
 70
     0
 10
0.0
 20
0.0
 30
0.0
  3
*Model_Space
  1

  0
ENDBLK
  5
20
330
1E
100
AcDbEntity
  8
0
100
AcDbBlockEnd
  0
BLOCK
  5
1B
330
1A
100
AcDbEntity
 67
     1
  8
0
100
AcDbBlockBegin
  2
*Paper_Space
 70
     0
 10
0.0
 20
0.0
 30
0.0
  3
*Paper_Space
  1

  0
ENDBLK
  5
1C
330
1A
100
AcDbEntity
 67
     1
  8
0
100
AcDbBlockEnd
  0
ENDSEC
  0
SECTION
  2
ENTITIES
  0
LINE
  5
22
330
1E
100
AcDbEntity
  8
0
100
AcDbLine
 10
50.8
 20
2.500123499999999
 30
0.0
 11
59.7
 21
0.6999875000000041
 31
0.0
  0
LINE
  5
23
330
1E
100
AcDbEntity
  8
0
100
AcDbLine
 10
59.7
 20
0.6999875000000041
 30
0.0
 11
68.5
 21
0.0001765000000037
 31
0.0
  0
LINE
  5
24
330
1E
100
AcDbEntity
  8
0
100
AcDbLine
 10
59.7
 20
0.6999875000000041
 30
0.0
 11
68.5
 21
0.0001765000000037
 31
0.0
  0
LINE
  5
25
330
1E
100
AcDbEntity
  8
0
100
AcDbLine
 10
50.8
 20
2.500383500000009
 30
0.0
 11
59.7
 21
0.7002545000000051
 31
0.0
  0
LINE
  5
26
330
1E
100
AcDbEntity
  8
0
100
AcDbLine
 10
50.8
 20
2.500383500000009
 30
0.0
 11
59.7
 21
0.7002545000000051
 31
0.0
  0
LINE
  5
27
330
1E
100
AcDbEntity
  8
0
100
AcDbLine
 10
59.7
 20
0.7002545000000051
 30
0.0
 11
68.5
 21
0.0004425000000049
 31
0.0
  0
LINE
  5
28
330
1E
100
AcDbEntity
  8
0
100
AcDbLine
 10
59.7
 20
0.7002545000000051
 30
0.0
 11
68.5
 21
0.000442500000005
 31
0.0
  0
LINE
  5
29
330
1E
100
AcDbEntity
  8
0
100
AcDbLine
 10
34.39999999999999
 20
9.199803499999999
 30
0.0
 11
42.29999999999999
 21
5.3002335
 31
0.0
  0
LINE
  5
2A
330
1E
100
AcDbEntity
  8
0
100
AcDbLine
 10
42.29999999999999
 20
5.3002335
 30
0.0
 11
50.8
 21
2.500123499999999
 31
0.0
  0
LINE
  5
2B
330
1E
100
AcDbEntity
  8
0
100
AcDbLine
 10
34.39999999999999
 20
9.200063499999998
 30
0.0
 11
42.29999999999999
 21
5.3005035
 31
0.0
  0
LINE
  5
2C
330
1E
100
AcDbEntity
  8
0
100
AcDbLine
 10
42.29999999999999
 20
5.3005035
 30
0.0
 11
50.8
 21
2.500383500000009
 31
0.0
  0
LINE
  5
2D
330
1E
100
AcDbEntity
  8
0
100
AcDbLine
 10
20.1
 20
20.10012349999999
 30
0.0
 11
26.89999999999999
 21
14.1997235
 31
0.0
  0
LINE
  5
2E
330
1E
100
AcDbEntity
  8
0
100
AcDbLine
 10
26.89999999999999
 20
14.1997235
 30
0.0
 11
34.39999999999999
 21
9.199803499999999
 31
0.0
  0
LINE
  5
2F
330
1E
100
AcDbEntity
  8
0
100
AcDbLine
 10
20.1
 20
20.10032349999999
 30
0.0
 11
26.89999999999999
 21
14.1999235
 31
0.0
  0
LINE
  5
30
330
1E
100
AcDbEntity
  8
0
100
AcDbLine
 10
26.89999999999999
 20
14.1999235
 30
0.0
 11
34.39999999999999
 21
9.200063499999998
 31
0.0
  0
LINE
  5
31
330
1E
100
AcDbEntity
  8
0
100
AcDbLine
 10
0.7
 20
59.69952349999999
 30
0.0
 11
2.5
 21
50.8001235
 31
0.0
  0
LINE
  5
32
330
1E
100
AcDbEntity
  8
0
100
AcDbLine
 10
0.0
 20
68.49952349999999
 30
0.0
 11
0.7
 21
59.69952349999999
 31
0.0
  0
LINE
  5
33
330
1E
100
AcDbEntity
  8
0
100
AcDbLine
 10
0.7
 20
59.6998235
 30
0.0
 11
2.5
 21
50.80032349999999
 31
0.0
  0
LINE
  5
35
330
1E
100
AcDbEntity
  8
0
100
AcDbLine
 10
0.0
 20
68.49982350000001
 30
0.0
 11
0.7
 21
59.6998235
 31
0.0
  0
LINE
  5
37
330
1E
100
AcDbEntity
  8
0
100
AcDbLine
 10
2.5
 20
50.8001235
 30
0.0
 11
5.299999999999999
 21
42.3003235
 31
0.0
  0
LINE
  5
38
330
1E
100
AcDbEntity
  8
0
100
AcDbLine
 10
2.5
 20
50.80032349999999
 30
0.0
 11
5.299999999999999
 21
42.3005235
 31
0.0
  0
LINE
  5
39
330
1E
100
AcDbEntity
  8
0
100
AcDbLine
 10
9.199999999999999
 20
34.3999235
 30
0.0
 11
14.19999999999999
 21
26.90012349999999
 31
0.0
  0
LINE
  5
3A
330
1E
100
AcDbEntity
  8
0
100
AcDbLine
 10
5.299999999999999
 20
42.3003235
 30
0.0
 11
9.199999999999999
 21
34.3999235
 31
0.0
  0
LINE
  5
3B
330
1E
100
AcDbEntity
  8
0
100
AcDbLine
 10
9.199999999999999
 20
34.40022349999999
 30
0.0
 11
14.19999999999999
 21
26.9003235
 31
0.0
  0
LINE
  5
3C
330
1E
100
AcDbEntity
  8
0
100
AcDbLine
 10
5.299999999999999
 20
42.3005235
 30
0.0
 11
9.199999999999999
 21
34.40022349999999
 31
0.0
  0
LINE
  5
3D
330
1E
100
AcDbEntity
  8
0
100
AcDbLine
 10
14.19999999999999
 20
26.90012349999999
 30
0.0
 11
20.1
 21
20.10012349999999
 31
0.0
  0
LINE
  5
3E
330
1E
100
AcDbEntity
  8
0
100
AcDbLine
 10
14.19999999999999
 20
26.9003235
 30
0.0
 11
20.1
 21
20.10032349999999
 31
0.0
  0
LINE
  5
3F
330
1E
100
AcDbEntity
  8
0
100
AcDbLine
 10
15.0
 20
27.49982349999999
 30
0.0
 11
20.8
 21
20.8001235
 31
0.0
  0
LINE
  5
40
330
1E
100
AcDbEntity
  8
0
100
AcDbLine
 10
10.0
 20
34.90022349999999
 30
0.0
 11
15.0
 21
27.49982349999999
 31
0.0
  0
LINE
  5
41
330
1E
100
AcDbEntity
  8
0
100
AcDbLine
 10
6.299999999999999
 20
42.7002235
 30
0.0
 11
10.0
 21
34.90022349999999
 31
0.0
  0
LINE
  5
42
330
1E
100
AcDbEntity
  8
0
100
AcDbLine
 10
3.399999999999999
 20
51.5002235
 30
0.0
 11
6.299999999999999
 21
42.7002235
 31
0.0
  0
LINE
  5
50
330
1E
100
AcDbEntity
  8
0
100
AcDbLine
 10
1.7
 20
59.8002235
 30
0.0
 11
3.399999999999999
 21
51.5002235
 31
0.0
  0
LINE
  5
51
330
1E
100
AcDbEntity
  8
0
100
AcDbLine
 10
1.0
 20
68.49982350000001
 30
0.0
 11
1.7
 21
59.8002235
 31
0.0
  0
LINE
  5
53
330
1E
100
AcDbEntity
  8
0
100
AcDbLine
 10
20.8
 20
20.8001235
 30
0.0
 11
27.5
 21
15.00012349999999
 31
0.0
  0
LINE
  5
54
330
1E
100
AcDbEntity
  8
0
100
AcDbLine
 10
31.6158
 20
53.2156235
 30
0.0
 11
33.8474
 21
48.5840235
 31
0.0
  0
LINE
  5
55
330
1E
100
AcDbEntity
  8
0
100
AcDbLine
 10
29.93159999999999
 20
58.1840235
 30
0.0
 11
31.6158
 21
53.2156235
 31
0.0
  0
LINE
  5
56
330
1E
100
AcDbEntity
  8
0
100
AcDbLine
 10
28.9211
 20
63.27872349999999
 30
0.0
 11
29.93159999999999
 21
58.1840235
 31
0.0
  0
LINE
  5
5A
330
1E
100
AcDbEntity
  8
0
100
AcDbLine
 10
28.5
 20
68.49982350000001
 30
0.0
 11
28.9211
 21
63.27872349999999
 31
0.0
  0
LINE
  5
5C
330
1E
100
AcDbEntity
  8
0
100
AcDbLine
 10
36.83679999999999
 20
44.1630235
 30
0.0
 11
40.2474
 21
40.2472235
 31
0.0
  0
LINE
  5
5F
330
1E
100
AcDbEntity
  8
0
100
AcDbLine
 10
33.8474
 20
48.5840235
 30
0.0
 11
36.83679999999999
 21
44.1630235
 31
0.0
  0
LINE
  5
61
330
1E
100
AcDbEntity
  8
0
100
AcDbLine
 10
40.2474
 20
40.2472235
 30
0.0
 11
44.1632
 21
36.8366235
 31
0.0
  0
LINE
  5
66
330
1E
100
AcDbEntity
  8
0
100
AcDbLine
 10
27.5
 20
15.00012349999999
 30
0.0
 11
34.9
 21
10.0002235
 31
0.0
  0
LINE
  5
67
330
1E
100
AcDbEntity
  8
0
100
AcDbLine
 10
34.9
 20
10.0002235
 30
0.0
 11
42.7
 21
6.300493500000009
 31
0.0
  0
LINE
  5
69
330
1E
100
AcDbEntity
  8
0
100
AcDbLine
 10
44.1632
 20
36.8366235
 30
0.0
 11
48.5842
 21
33.8472235
 31
0.0
  0
LINE
  5
6B
330
1E
100
AcDbEntity
  8
0
100
AcDbLine
 10
48.5842
 20
33.8472235
 30
0.0
 11
53.2158
 21
31.6156235
 31
0.0
  0
LINE
  5
6D
330
1E
100
AcDbEntity
  8
0
100
AcDbLine
 10
53.2158
 20
31.6156235
 30
0.0
 11
58.18419999999999
 21
29.93142349999999
 31
0.0
  0
LINE
  5
6E
330
1E
100
AcDbEntity
  8
0
100
AcDbLine
 10
55.28929999999999
 20
61.29582349999999
 30
0.0
 11
56.0574
 21
60.0393235
 31
0.0
  0
LINE
  5
6F
330
1E
100
AcDbEntity
  8
0
100
AcDbLine
 10
54.13949999999999
 20
64.00202349999999
 30
0.0
 11
54.6479
 21
62.6207235
 31
0.0
  0
LINE
  5
70
330
1E
100
AcDbEntity
  8
0
100
AcDbLine
 10
54.6479
 20
62.6207235
 30
0.0
 11
55.28929999999999
 21
61.29582349999999
 31
0.0
  0
LINE
  5
71
330
1E
100
AcDbEntity
  8
0
100
AcDbLine
 10
53.769
 20
65.4266235
 30
0.0
 11
54.13949999999999
 21
64.00202349999999
 31
0.0
  0
LINE
  5
72
330
1E
100
AcDbEntity
  8
0
100
AcDbLine
 10
53.768
 20
65.4266235
 30
0.0
 11
54.13949999999999
 21
64.00202349999999
 31
0.0
  0
LINE
  5
73
330
1E
100
AcDbEntity
  8
0
100
AcDbLine
 10
53.5395
 20
66.88042349999999
 30
0.0
 11
53.768
 21
65.4266235
 31
0.0
  0
LINE
  5
74
330
1E
100
AcDbEntity
  8
0
100
AcDbLine
 10
53.5395
 20
66.88042349999999
 30
0.0
 11
53.769
 21
65.4266235
 31
0.0
  0
LINE
  5
78
330
1E
100
AcDbEntity
  8
0
100
AcDbLine
 10
53.4539
 20
68.3503235
 30
0.0
 11
53.4593
 21
68.4872235
 31
0.0
  0
LINE
  5
79
330
1E
100
AcDbEntity
  8
0
100
AcDbLine
 10
53.4539
 20
68.3503235
 30
0.0
 11
53.5395
 21
66.88042349999999
 31
0.0
  0
LINE
  5
7A
330
1E
100
AcDbEntity
  8
0
100
AcDbLine
 10
54.4638
 20
68.4872235
 30
0.0
 11
54.5221
 21
67.16432349999999
 31
0.0
  0
LINE
  5
87
330
1E
100
AcDbEntity
  8
0
100
AcDbLine
 10
53.9606
 20
68.4872235
 30
0.0
 11
54.0207
 21
67.1170235
 31
0.0
  0
LINE
  5
8C
330
1E
100
AcDbEntity
  8
0
100
AcDbLine
 10
54.5221
 20
67.16432349999999
 30
0.0
 11
54.7275
 21
65.7618235
 31
0.0
  0
LINE
  5
8D
330
1E
100
AcDbEntity
  8
0
100
AcDbLine
 10
54.0207
 20
67.1170235
 30
0.0
 11
54.2331
 21
65.6642235
 31
0.0
  0
LINE
  5
8F
330
1E
100
AcDbEntity
  8
0
100
AcDbLine
 10
54.7275
 20
65.7618235
 30
0.0
 11
55.0738
 21
64.38762350000001
 31
0.0
  0
LINE
  5
90
330
1E
100
AcDbEntity
  8
0
100
AcDbLine
 10
54.2331
 20
65.6642235
 30
0.0
 11
54.5926
 21
64.24062349999999
 31
0.0
  0
LINE
  5
92
330
1E
100
AcDbEntity
  8
0
100
AcDbLine
 10
55.0738
 20
64.38762350000001
 30
0.0
 11
55.5571
 21
63.05462349999999
 31
0.0
  0
LINE
  5
93
330
1E
100
AcDbEntity
  8
0
100
AcDbLine
 10
54.5926
 20
64.24062349999999
 30
0.0
 11
55.0929
 21
62.8593235
 31
0.0
  0
LINE
  5
97
330
1E
100
AcDbEntity
  8
0
100
AcDbLine
 10
55.5571
 20
63.05462349999999
 30
0.0
 11
56.1732
 21
61.7780235
 31
0.0
  0
LINE
  5
98
330
1E
100
AcDbEntity
  8
0
100
AcDbLine
 10
55.0929
 20
62.8593235
 30
0.0
 11
55.7312
 21
61.5364235
 31
0.0
  0
LINE
  5
99
330
1E
100
AcDbEntity
  8
0
100
AcDbLine
 10
55.7312
 20
61.5364235
 30
0.0
 11
56.4994
 21
60.2850235
 31
0.0
  0
LINE
  5
9A
330
1E
100
AcDbEntity
  8
0
100
AcDbLine
 10
56.94539999999999
 20
58.8654235
 30
0.0
 11
57.9441
 21
57.7831235
 31
0.0
  0
LINE
  5
9B
330
1E
100
AcDbEntity
  8
0
100
AcDbLine
 10
56.0574
 20
60.0393235
 30
0.0
 11
56.94539999999999
 21
58.8654235
 31
0.0
  0
LINE
  5
9C
330
1E
100
AcDbEntity
  8
0
100
AcDbLine
 10
56.9142
 20
60.5699235
 30
0.0
 11
57.77499999999999
 21
59.44332349999999
 31
0.0
  0
LINE
  5
9D
330
1E
100
AcDbEntity
  8
0
100
AcDbLine
 10
56.4994
 20
60.2850235
 30
0.0
 11
57.3904
 21
59.11812349999999
 31
0.0
  0
LINE
  5
9E
330
1E
100
AcDbEntity
  8
0
100
AcDbLine
 10
57.9441
 20
57.7831235
 30
0.0
 11
59.0435
 21
56.8045235
 31
0.0
  0
LINE
  5
9F
330
1E
100
AcDbEntity
  8
0
100
AcDbLine
 10
57.77499999999999
 20
59.44332349999999
 30
0.0
 11
58.7445
 21
58.4093235
 31
0.0
  0
LINE
  5
A0
330
1E
100
AcDbEntity
  8
0
100
AcDbLine
 10
57.3904
 20
59.11812349999999
 30
0.0
 11
58.3952
 21
58.04692349999999
 31
0.0
  0
LINE
  5
A2
330
1E
100
AcDbEntity
  8
0
100
AcDbLine
 10
56.1732
 20
61.7780235
 30
0.0
 11
56.9142
 21
60.5699235
 31
0.0
  0
LINE
  5
A3
330
1E
100
AcDbEntity
  8
0
100
AcDbLine
 10
58.18419999999999
 20
29.93142349999999
 30
0.0
 11
63.2789
 21
28.9209235
 31
0.0
  0
LINE
  5
A4
330
1E
100
AcDbEntity
  8
0
100
AcDbLine
 10
58.3952
 20
58.04692349999999
 30
0.0
 11
59.50359999999999
 21
57.08242349999999
 31
0.0
  0
LINE
  5
A5
330
1E
100
AcDbEntity
  8
0
100
AcDbLine
 10
59.0435
 20
56.8045235
 30
0.0
 11
60.2335
 21
55.9387235
 31
0.0
  0
LINE
  5
A6
330
1E
100
AcDbEntity
  8
0
100
AcDbLine
 10
58.7445
 20
58.4093235
 30
0.0
 11
59.8137
 21
57.4791235
 31
0.0
  0
LINE
  5
A8
330
1E
100
AcDbEntity
  8
0
100
AcDbLine
 10
59.50359999999999
 20
57.08242349999999
 30
0.0
 11
60.7027
 21
56.23572349999999
 31
0.0
  0
LINE
  5
AE
330
1E
100
AcDbEntity
  8
0
100
AcDbLine
 10
59.18449999999999
 20
62.4264235
 30
0.0
 11
60.0966
 21
61.2213235
 31
0.0
  0
LINE
  5
C5
330
1E
100
AcDbEntity
  8
0
100
AcDbLine
 10
59.3254
 20
65.79912349999999
 30
0.0
 11
59.8278
 21
64.4681235
 31
0.0
  0
LINE
  5
C6
330
1E
100
AcDbEntity
  8
0
100
AcDbLine
 10
57.8938
 20
65.1517235
 30
0.0
 11
58.4465
 21
63.74532349999999
 31
0.0
  0
LINE
  5
D2
330
1E
100
AcDbEntity
  8
0
100
AcDbLine
 10
59.0264
 20
67.18952349999999
 30
0.0
 11
59.3254
 21
65.79912349999999
 31
0.0
  0
LINE
  5
D4
330
1E
100
AcDbEntity
  8
0
100
AcDbLine
 10
57.5374
 20
66.62062349999999
 30
0.0
 11
57.8938
 21
65.1517235
 31
0.0
  0
LINE
  5
F2
330
1E
100
AcDbEntity
  8
0
100
AcDbLine
 10
58.9454
 20
68.4872235
 30
0.0
 11
59.0264
 21
67.18952349999999
 31
0.0
  0
LINE
  5
F5
330
1E
100
AcDbEntity
  8
0
100
AcDbLine
 10
57.3854
 20
68.1248235
 30
0.0
 11
57.3982
 21
68.4872235
 31
0.0
  0
LINE
  5
F7
330
1E
100
AcDbEntity
  8
0
100
AcDbLine
 10
57.3854
 20
68.1248235
 30
0.0
 11
57.5374
 21
66.62062349999999
 31
0.0
  0
LINE
  5
FA
330
1E
100
AcDbEntity
  8
0
100
AcDbLine
 10
58.4465
 20
63.74532349999999
 30
0.0
 11
59.18449999999999
 21
62.4264235
 31
0.0
  0
LINE
  5
FE
330
1E
100
AcDbEntity
  8
0
100
AcDbLine
 10
42.7
 20
6.300493500000009
 30
0.0
 11
51.5
 21
3.400033499999999
 31
0.0
  0
LINE
  5
FF
330
1E
100
AcDbEntity
  8
0
100
AcDbLine
 10
51.5
 20
3.400033499999999
 30
0.0
 11
59.8
 21
1.7002435
 31
0.0
  0
LINE
  5
104
330
1E
100
AcDbEntity
  8
0
100
AcDbLine
 10
59.8137
 20
57.4791235
 30
0.0
 11
60.9715
 21
56.6616235
 31
0.0
  0
LINE
  5
105
330
1E
100
AcDbEntity
  8
0
100
AcDbLine
 10
60.2335
 20
55.9387235
 30
0.0
 11
61.50310000000001
 21
55.1937235
 31
0.0
  0
LINE
  5
106
330
1E
100
AcDbEntity
  8
0
100
AcDbLine
 10
60.7027
 20
56.23572349999999
 30
0.0
 11
61.9823
 21
55.5138235
 31
0.0
  0
LINE
  5
107
330
1E
100
AcDbEntity
  8
0
100
AcDbLine
 10
60.9715
 20
56.6616235
 30
0.0
 11
62.2068
 21
55.9649235
 31
0.0
  0
LINE
  5
108
330
1E
100
AcDbEntity
  8
0
100
AcDbLine
 10
61.50310000000001
 20
55.1937235
 30
0.0
 11
62.8401
 21
54.5765235
 31
0.0
  0
LINE
  5
109
330
1E
100
AcDbEntity
  8
0
100
AcDbLine
 10
61.9823
 20
55.5138235
 30
0.0
 11
63.3274
 21
54.92592349999999
 31
0.0
  0
LINE
  5
10A
330
1E
100
AcDbEntity
  8
0
100
AcDbLine
 10
62.2068
 20
55.9649235
 30
0.0
 11
63.5056
 21
55.3971235
 31
0.0
  0
LINE
  5
10B
330
1E
100
AcDbEntity
  8
0
100
AcDbLine
 10
63.2789
 20
28.9209235
 30
0.0
 11
68.5
 21
28.49982349999999
 31
0.0
  0
LINE
  5
10C
330
1E
100
AcDbEntity
  8
0
100
AcDbLine
 10
62.8401
 20
54.5765235
 30
0.0
 11
64.2305
 21
54.09332349999999
 31
0.0
  0
LINE
  5
10D
330
1E
100
AcDbEntity
  8
0
100
AcDbLine
 10
63.3274
 20
54.92592349999999
 30
0.0
 11
64.7258
 21
54.4769235
 31
0.0
  0
LINE
  5
10E
330
1E
100
AcDbEntity
  8
0
100
AcDbLine
 10
63.5056
 20
55.3971235
 30
0.0
 11
64.8557
 21
54.9631235
 31
0.0
  0
LINE
  5
110
330
1E
100
AcDbEntity
  8
0
100
AcDbLine
 10
63.6838
 20
58.49292349999999
 30
0.0
 11
65.0892
 21
57.93622349999999
 31
0.0
  0
LINE
  5
113
330
1E
100
AcDbEntity
  8
0
100
AcDbLine
 10
62.3669
 20
59.23592349999999
 30
0.0
 11
63.6838
 21
58.49292349999999
 31
0.0
  0
LINE
  5
116
330
1E
100
AcDbEntity
  8
0
100
AcDbLine
 10
63.59020000000001
 20
60.30712349999999
 30
0.0
 11
64.86369999999999
 21
59.6739235
 31
0.0
  0
LINE
  5
117
330
1E
100
AcDbEntity
  8
0
100
AcDbLine
 10
62.4253
 20
61.1236235
 30
0.0
 11
63.59020000000001
 21
60.30712349999999
 31
0.0
  0
LINE
  5
118
330
1E
100
AcDbEntity
  8
0
100
AcDbLine
 10
61.1638
 20
60.1501235
 30
0.0
 11
62.3669
 21
59.23592349999999
 31
0.0
  0
LINE
  5
119
330
1E
100
AcDbEntity
  8
0
100
AcDbLine
 10
61.3954
 20
62.10422349999999
 30
0.0
 11
62.4253
 21
61.1236235
 31
0.0
  0
LINE
  5
11A
330
1E
100
AcDbEntity
  8
0
100
AcDbLine
 10
60.0966
 20
61.2213235
 30
0.0
 11
61.1638
 21
60.1501235
 31
0.0
  0
LINE
  5
11B
330
1E
100
AcDbEntity
  8
0
100
AcDbLine
 10
60.5225
 20
63.2268235
 30
0.0
 11
61.3954
 21
62.10422349999999
 31
0.0
  0
LINE
  5
11C
330
1E
100
AcDbEntity
  8
0
100
AcDbLine
 10
61.9853
 20
63.5328235
 30
0.0
 11
62.7565
 21
62.6630235
 31
0.0
  0
LINE
  5
11D
330
1E
100
AcDbEntity
  8
0
100
AcDbLine
 10
62.7565
 20
62.6630235
 30
0.0
 11
63.6435
 21
61.91092349999999
 31
0.0
  0
LINE
  5
11E
330
1E
100
AcDbEntity
  8
0
100
AcDbLine
 10
63.6435
 20
61.91092349999999
 30
0.0
 11
64.62810000000001
 21
61.2938235
 31
0.0
  0
LINE
  5
132
330
1E
100
AcDbEntity
  8
0
100
AcDbLine
 10
60.32630000000001
 20
68.4872235
 30
0.0
 11
60.33319999999999
 21
67.8167235
 31
0.0
  0
LINE
  5
134
330
1E
100
AcDbEntity
  8
0
100
AcDbLine
 10
60.33319999999999
 20
67.8167235
 30
0.0
 11
60.5114
 21
66.66802350000001
 31
0.0
  0
LINE
  5
13E
330
1E
100
AcDbEntity
  8
0
100
AcDbLine
 10
60.5114
 20
66.66802350000001
 30
0.0
 11
60.8517
 21
65.55552349999999
 31
0.0
  0
LINE
  5
13F
330
1E
100
AcDbEntity
  8
0
100
AcDbLine
 10
60.8517
 20
65.55552349999999
 30
0.0
 11
61.346
 21
64.5044235
 31
0.0
  0
LINE
  5
156
330
1E
100
AcDbEntity
  8
0
100
AcDbLine
 10
61.346
 20
64.5044235
 30
0.0
 11
61.9853
 21
63.5328235
 31
0.0
  0
LINE
  5
157
330
1E
100
AcDbEntity
  8
0
100
AcDbLine
 10
59.8278
 20
64.4681235
 30
0.0
 11
60.5225
 21
63.2268235
 31
0.0
  0
LINE
  5
15F
330
1E
100
AcDbEntity
  8
0
100
AcDbLine
 10
67.1199
 20
53.5456235
 30
0.0
 11
68.4539
 21
53.4926235
 31
0.0
  0
LINE
  5
163
330
1E
100
AcDbEntity
  8
0
100
AcDbLine
 10
64.62810000000001
 20
61.2938235
 30
0.0
 11
65.69029999999999
 21
60.8226235
 31
0.0
  0
LINE
  5
164
330
1E
100
AcDbEntity
  8
0
100
AcDbLine
 10
64.7258
 20
54.4769235
 30
0.0
 11
66.16249999999999
 21
54.1718235
 31
0.0
  0
LINE
  5
165
330
1E
100
AcDbEntity
  8
0
100
AcDbLine
 10
64.8557
 20
54.9631235
 30
0.0
 11
66.242
 21
54.6692235
 31
0.0
  0
LINE
  5
166
330
1E
100
AcDbEntity
  8
0
100
AcDbLine
 10
66.16249999999999
 20
54.1718235
 30
0.0
 11
67.62229999999999
 21
54.01372349999999
 31
0.0
  0
LINE
  5
168
330
1E
100
AcDbEntity
  8
0
100
AcDbLine
 10
67.62229999999999
 20
54.01372349999999
 30
0.0
 11
68.4539
 21
54.0080235
 31
0.0
  0
LINE
  5
169
330
1E
100
AcDbEntity
  8
0
100
AcDbLine
 10
66.242
 20
54.6692235
 30
0.0
 11
67.6515
 21
54.5161235
 31
0.0
  0
LINE
  5
16A
330
1E
100
AcDbEntity
  8
0
100
AcDbLine
 10
67.6515
 20
54.5161235
 30
0.0
 11
68.4539
 21
54.5110235
 31
0.0
  0
LINE
  5
16B
330
1E
100
AcDbEntity
  8
0
100
AcDbLine
 10
68.4539
 20
54.0080235
 30
0.0
 11
69.2855
 21
54.01372349999999
 31
0.0
  0
LINE
  5
172
330
1E
100
AcDbEntity
  8
0
100
AcDbLine
 10
68.4539
 20
54.5110235
 30
0.0
 11
69.25629999999999
 21
54.5161235
 31
0.0
  0
LINE
  5
18B
330
1E
100
AcDbEntity
  8
0
100
AcDbLine
 10
66.5571
 20
57.57672349999999
 30
0.0
 11
68.0602
 21
57.4197235
 31
0.0
  0
LINE
  5
192
330
1E
100
AcDbEntity
  8
0
100
AcDbLine
 10
67.6213
 20
59.0074235
 30
0.0
 11
68.4539
 21
58.99682349999999
 31
0.0
  0
LINE
  5
193
330
1E
100
AcDbEntity
  8
0
100
AcDbLine
 10
66.2178
 20
59.23692349999999
 30
0.0
 11
67.6213
 21
59.0074235
 31
0.0
  0
LINE
  5
194
330
1E
100
AcDbEntity
  8
0
100
AcDbLine
 10
65.0892
 20
57.93622349999999
 30
0.0
 11
66.5571
 21
57.57672349999999
 31
0.0
  0
LINE
  5
195
330
1E
100
AcDbEntity
  8
0
100
AcDbLine
 10
64.86369999999999
 20
59.6739235
 30
0.0
 11
66.2178
 21
59.23692349999999
 31
0.0
  0
LINE
  5
1B2
330
1E
100
AcDbEntity
  8
0
100
AcDbLine
 10
65.69029999999999
 20
60.8226235
 30
0.0
 11
66.80979999999999
 21
60.5065235
 31
0.0
  0
LINE
  5
1B3
330
1E
100
AcDbEntity
  8
0
100
AcDbLine
 10
66.80979999999999
 20
60.5065235
 30
0.0
 11
67.9626
 21
60.3544235
 31
0.0
  0
LINE
  5
1B5
330
1E
100
AcDbEntity
  8
0
100
AcDbLine
 10
68.4539
 20
57.4325235
 30
0.0
 11
68.84759999999999
 21
57.4197235
 31
0.0
  0
LINE
  5
1BE
330
1E
100
AcDbEntity
  8
0
100
AcDbLine
 10
68.4539
 20
58.99682349999999
 30
0.0
 11
69.28650000000001
 21
59.0074235
 31
0.0
  0
LINE
  5
1C7
330
1E
100
AcDbEntity
  8
0
100
AcDbLine
 10
68.4539
 20
60.3600235
 30
0.0
 11
68.94519999999999
 21
60.3544235
 31
0.0
  0
LINE
  5
237
330
1E
100
AcDbEntity
  8
0
100
AcDbLine
 10
68.0602
 20
57.4197235
 30
0.0
 11
68.4539
 21
57.4325235
 31
0.0
  0
LINE
  5
238
330
1E
100
AcDbEntity
  8
0
100
AcDbLine
 10
67.9626
 20
60.3544235
 30
0.0
 11
68.4539
 21
60.3600235
 31
0.0
  0
LINE
  5
23B
330
1E
100
AcDbEntity
  8
0
100
AcDbLine
 10
65.66209999999999
 20
53.74802349999999
 30
0.0
 11
67.1199
 21
53.5456235
 31
0.0
  0
LINE
  5
23C
330
1E
100
AcDbEntity
  8
0
100
AcDbLine
 10
64.2305
 20
54.09332349999999
 30
0.0
 11
65.66209999999999
 21
53.74802349999999
 31
0.0
  0
LINE
  5
309
330
1E
100
AcDbEntity
  8
0
100
AcDbLine
 10
59.8
 20
1.7002435
 30
0.0
 11
68.5
 21
1.000433499999999
 31
0.0
  0
LINE
  5
36A
330
1E
100
AcDbEntity
  8
0
100
AcDbLine
 10
68.4539
 20
76.63962350000002
 30
0.0
 11
68.94519999999999
 21
76.64522350000002
 31
0.0
  0
LINE
  5
36B
330
1E
100
AcDbEntity
  8
0
100
AcDbLine
 10
68.4539
 20
78.0028235
 30
0.0
 11
69.28650000000001
 21
77.9922235
 31
0.0
  0
LINE
  5
36C
330
1E
100
AcDbEntity
  8
0
100
AcDbLine
 10
68.4539
 20
79.5671235
 30
0.0
 11
68.84759999999999
 21
79.57992350000001
 31
0.0
  0
LINE
  5
36D
330
1E
100
AcDbEntity
  8
0
100
AcDbLine
 10
68.4539
 20
82.48862350000001
 30
0.0
 11
69.25629999999999
 21
82.48352350000002
 31
0.0
  0
LINE
  5
36E
330
1E
100
AcDbEntity
  8
0
100
AcDbLine
 10
68.4539
 20
82.99162350000001
 30
0.0
 11
69.2855
 21
82.98592350000001
 31
0.0
  0
LINE
  5
36F
330
1E
100
AcDbEntity
  8
0
100
AcDbLine
 10
20.8
 20
116.1995235
 30
0.0
 11
27.5
 21
121.9995235
 31
0.0
  0
LINE
  5
370
330
1E
100
AcDbEntity
  8
0
100
AcDbLine
 10
20.1
 20
116.8993235
 30
0.0
 11
26.89999999999999
 21
122.7997235
 31
0.0
  0
LINE
  5
371
330
1E
100
AcDbEntity
  8
0
100
AcDbLine
 10
20.1
 20
116.8995235
 30
0.0
 11
26.89999999999999
 21
122.7999235
 31
0.0
  0
LINE
  5
372
330
1E
100
AcDbEntity
  8
0
100
AcDbLine
 10
14.19999999999999
 20
110.0993235
 30
0.0
 11
20.1
 21
116.8993235
 31
0.0
  0
LINE
  5
373
330
1E
100
AcDbEntity
  8
0
100
AcDbLine
 10
14.19999999999999
 20
110.0995235
 30
0.0
 11
20.1
 21
116.8995235
 31
0.0
  0
LINE
  5
374
330
1E
100
AcDbEntity
  8
0
100
AcDbLine
 10
15.0
 20
109.4998235
 30
0.0
 11
20.8
 21
116.1995235
 31
0.0
  0
LINE
  5
375
330
1E
100
AcDbEntity
  8
0
100
AcDbLine
 10
3.399999999999999
 20
85.4994235
 30
0.0
 11
6.299999999999999
 21
94.29942350000002
 31
0.0
  0
LINE
  5
376
330
1E
100
AcDbEntity
  8
0
100
AcDbLine
 10
2.5
 20
86.19932350000002
 30
0.0
 11
5.299999999999999
 21
94.69912350000001
 31
0.0
  0
LINE
  5
377
330
1E
100
AcDbEntity
  8
0
100
AcDbLine
 10
2.5
 20
86.19952350000001
 30
0.0
 11
5.299999999999999
 21
94.69932350000002
 31
0.0
  0
LINE
  5
378
330
1E
100
AcDbEntity
  8
0
100
AcDbLine
 10
1.7
 20
77.19942350000001
 30
0.0
 11
3.399999999999999
 21
85.4994235
 31
0.0
  0
LINE
  5
379
330
1E
100
AcDbEntity
  8
0
100
AcDbLine
 10
0.7
 20
77.2998235
 30
0.0
 11
2.5
 21
86.19932350000002
 31
0.0
  0
LINE
  5
37A
330
1E
100
AcDbEntity
  8
0
100
AcDbLine
 10
0.7
 20
77.30012350000001
 30
0.0
 11
2.5
 21
86.19952350000001
 31
0.0
  0
LINE
  5
37B
330
1E
100
AcDbEntity
  8
0
100
AcDbLine
 10
1.0
 20
68.49982350000001
 30
0.0
 11
1.7
 21
77.19942350000001
 31
0.0
  0
LINE
  5
37C
330
1E
100
AcDbEntity
  8
0
100
AcDbLine
 10
0.0
 20
68.49982350000001
 30
0.0
 11
0.7
 21
77.2998235
 31
0.0
  0
LINE
  5
37D
330
1E
100
AcDbEntity
  8
0
100
AcDbLine
 10
0.0
 20
68.50012350000001
 30
0.0
 11
0.7
 21
77.30012350000001
 31
0.0
  0
LINE
  5
37E
330
1E
100
AcDbEntity
  8
0
100
AcDbLine
 10
10.0
 20
102.0994235
 30
0.0
 11
15.0
 21
109.4998235
 31
0.0
  0
LINE
  5
37F
330
1E
100
AcDbEntity
  8
0
100
AcDbLine
 10
6.299999999999999
 20
94.29942350000002
 30
0.0
 11
10.0
 21
102.0994235
 31
0.0
  0
LINE
  5
380
330
1E
100
AcDbEntity
  8
0
100
AcDbLine
 10
5.299999999999999
 20
94.69912350000001
 30
0.0
 11
9.199999999999999
 21
102.5994235
 31
0.0
  0
LINE
  5
381
330
1E
100
AcDbEntity
  8
0
100
AcDbLine
 10
5.299999999999999
 20
94.69932350000002
 30
0.0
 11
9.199999999999999
 21
102.5997235
 31
0.0
  0
LINE
  5
382
330
1E
100
AcDbEntity
  8
0
100
AcDbLine
 10
9.199999999999999
 20
102.5994235
 30
0.0
 11
14.19999999999999
 21
110.0993235
 31
0.0
  0
LINE
  5
383
330
1E
100
AcDbEntity
  8
0
100
AcDbLine
 10
9.199999999999999
 20
102.5997235
 30
0.0
 11
14.19999999999999
 21
110.0995235
 31
0.0
  0
LINE
  5
384
330
1E
100
AcDbEntity
  8
0
100
AcDbLine
 10
42.7
 20
130.6991534999999
 30
0.0
 11
51.5
 21
133.5996135
 31
0.0
  0
LINE
  5
385
330
1E
100
AcDbEntity
  8
0
100
AcDbLine
 10
42.29999999999999
 20
131.6991435
 30
0.0
 11
50.8
 21
134.4992635
 31
0.0
  0
LINE
  5
386
330
1E
100
AcDbEntity
  8
0
100
AcDbLine
 10
42.29999999999999
 20
131.6994135
 30
0.0
 11
50.8
 21
134.4995235
 31
0.0
  0
LINE
  5
387
330
1E
100
AcDbEntity
  8
0
100
AcDbLine
 10
34.9
 20
126.9994235
 30
0.0
 11
42.7
 21
130.6991534999999
 31
0.0
  0
LINE
  5
388
330
1E
100
AcDbEntity
  8
0
100
AcDbLine
 10
34.39999999999999
 20
127.7995835
 30
0.0
 11
42.29999999999999
 21
131.6991435
 31
0.0
  0
LINE
  5
389
330
1E
100
AcDbEntity
  8
0
100
AcDbLine
 10
34.39999999999999
 20
127.7998435
 30
0.0
 11
42.29999999999999
 21
131.6994135
 31
0.0
  0
LINE
  5
38A
330
1E
100
AcDbEntity
  8
0
100
AcDbLine
 10
27.5
 20
121.9995235
 30
0.0
 11
34.9
 21
126.9994235
 31
0.0
  0
LINE
  5
38B
330
1E
100
AcDbEntity
  8
0
100
AcDbLine
 10
26.89999999999999
 20
122.7997235
 30
0.0
 11
34.39999999999999
 21
127.7995835
 31
0.0
  0
LINE
  5
38C
330
1E
100
AcDbEntity
  8
0
100
AcDbLine
 10
26.89999999999999
 20
122.7999235
 30
0.0
 11
34.39999999999999
 21
127.7998435
 31
0.0
  0
LINE
  5
38D
330
1E
100
AcDbEntity
  8
0
100
AcDbLine
 10
51.5
 20
133.5996135
 30
0.0
 11
59.8
 21
135.2994035
 31
0.0
  0
LINE
  5
38E
330
1E
100
AcDbEntity
  8
0
100
AcDbLine
 10
50.8
 20
134.4992635
 30
0.0
 11
59.7
 21
136.2993925
 31
0.0
  0
LINE
  5
38F
330
1E
100
AcDbEntity
  8
0
100
AcDbLine
 10
50.8
 20
134.4992635
 30
0.0
 11
59.7
 21
136.2993925
 31
0.0
  0
LINE
  5
390
330
1E
100
AcDbEntity
  8
0
100
AcDbLine
 10
50.8
 20
134.4995235
 30
0.0
 11
59.7
 21
136.2996595
 31
0.0
  0
LINE
  5
391
330
1E
100
AcDbEntity
  8
0
100
AcDbLine
 10
59.8
 20
135.2994035
 30
0.0
 11
68.5
 21
135.9992134999999
 31
0.0
  0
LINE
  5
392
330
1E
100
AcDbEntity
  8
0
100
AcDbLine
 10
59.7
 20
136.2993925
 30
0.0
 11
68.5
 21
136.9992045
 31
0.0
  0
LINE
  5
393
330
1E
100
AcDbEntity
  8
0
100
AcDbLine
 10
59.7
 20
136.2993925
 30
0.0
 11
68.5
 21
136.9992045
 31
0.0
  0
LINE
  5
394
330
1E
100
AcDbEntity
  8
0
100
AcDbLine
 10
59.7
 20
136.2996595
 30
0.0
 11
68.5
 21
136.9994705
 31
0.0
  0
LINE
  5
395
330
1E
100
AcDbEntity
  8
0
100
AcDbLine
 10
59.7
 20
136.2996595
 30
0.0
 11
68.5
 21
136.9994705
 31
0.0
  0
LINE
  5
396
330
1E
100
AcDbEntity
  8
0
100
AcDbLine
 10
44.1632
 20
100.1630235
 30
0.0
 11
48.5842
 21
103.1524235
 31
0.0
  0
LINE
  5
397
330
1E
100
AcDbEntity
  8
0
100
AcDbLine
 10
33.8474
 20
88.41562350000002
 30
0.0
 11
36.83679999999999
 21
92.8366235
 31
0.0
  0
LINE
  5
398
330
1E
100
AcDbEntity
  8
0
100
AcDbLine
 10
40.2474
 20
96.75242350000003
 30
0.0
 11
44.1632
 21
100.1630235
 31
0.0
  0
LINE
  5
399
330
1E
100
AcDbEntity
  8
0
100
AcDbLine
 10
36.83679999999999
 20
92.8366235
 30
0.0
 11
40.2474
 21
96.75242350000003
 31
0.0
  0
LINE
  5
39A
330
1E
100
AcDbEntity
  8
0
100
AcDbLine
 10
29.93159999999999
 20
78.81562350000002
 30
0.0
 11
31.6158
 21
83.78402350000001
 31
0.0
  0
LINE
  5
39B
330
1E
100
AcDbEntity
  8
0
100
AcDbLine
 10
31.6158
 20
83.78402350000001
 30
0.0
 11
33.8474
 21
88.41562350000002
 31
0.0
  0
LINE
  5
39C
330
1E
100
AcDbEntity
  8
0
100
AcDbLine
 10
28.9211
 20
73.72092350000001
 30
0.0
 11
29.93159999999999
 21
78.81562350000002
 31
0.0
  0
LINE
  5
39D
330
1E
100
AcDbEntity
  8
0
100
AcDbLine
 10
28.5
 20
68.49982350000001
 30
0.0
 11
28.9211
 21
73.72092350000001
 31
0.0
  0
LINE
  5
39E
330
1E
100
AcDbEntity
  8
0
100
AcDbLine
 10
53.2158
 20
105.3840235
 30
0.0
 11
58.18419999999999
 21
107.0682235
 31
0.0
  0
LINE
  5
39F
330
1E
100
AcDbEntity
  8
0
100
AcDbLine
 10
48.5842
 20
103.1524235
 30
0.0
 11
53.2158
 21
105.3840235
 31
0.0
  0
LINE
  5
3A0
330
1E
100
AcDbEntity
  8
0
100
AcDbLine
 10
58.18419999999999
 20
107.0682235
 30
0.0
 11
63.2789
 21
108.0787235
 31
0.0
  0
LINE
  5
3A1
330
1E
100
AcDbEntity
  8
0
100
AcDbLine
 10
63.2789
 20
108.0787235
 30
0.0
 11
68.5
 21
108.4998235
 31
0.0
  0
LINE
  5
3A2
330
1E
100
AcDbEntity
  8
0
100
AcDbLine
 10
57.5374
 20
70.37902350000002
 30
0.0
 11
57.8938
 21
71.84792350000001
 31
0.0
  0
LINE
  5
3A3
330
1E
100
AcDbEntity
  8
0
100
AcDbLine
 10
57.3904
 20
77.88152350000001
 30
0.0
 11
58.3952
 21
78.95272350000002
 31
0.0
  0
LINE
  5
3A4
330
1E
100
AcDbEntity
  8
0
100
AcDbLine
 10
57.77499999999999
 20
77.55632350000002
 30
0.0
 11
58.7445
 21
78.59032350000001
 31
0.0
  0
LINE
  5
3A5
330
1E
100
AcDbEntity
  8
0
100
AcDbLine
 10
56.94539999999999
 20
78.13422350000002
 30
0.0
 11
57.9441
 21
79.21652350000001
 31
0.0
  0
LINE
  5
3A6
330
1E
100
AcDbEntity
  8
0
100
AcDbLine
 10
54.5926
 20
72.75902350000001
 30
0.0
 11
55.0929
 21
74.14032350000001
 31
0.0
  0
LINE
  5
3A7
330
1E
100
AcDbEntity
  8
0
100
AcDbLine
 10
55.0738
 20
72.61202350000001
 30
0.0
 11
55.5571
 21
73.94502350000002
 31
0.0
  0
LINE
  5
3A8
330
1E
100
AcDbEntity
  8
0
100
AcDbLine
 10
54.13949999999999
 20
72.99762350000001
 30
0.0
 11
54.6479
 21
74.37892350000002
 31
0.0
  0
LINE
  5
3A9
330
1E
100
AcDbEntity
  8
0
100
AcDbLine
 10
55.0929
 20
74.14032350000001
 30
0.0
 11
55.7312
 21
75.46322350000001
 31
0.0
  0
LINE
  5
3AA
330
1E
100
AcDbEntity
  8
0
100
AcDbLine
 10
54.6479
 20
74.37892350000002
 30
0.0
 11
55.28929999999999
 21
75.70382350000001
 31
0.0
  0
LINE
  5
3AB
330
1E
100
AcDbEntity
  8
0
100
AcDbLine
 10
56.9142
 20
76.4297235
 30
0.0
 11
57.77499999999999
 21
77.55632350000002
 31
0.0
  0
LINE
  5
3AC
330
1E
100
AcDbEntity
  8
0
100
AcDbLine
 10
55.7312
 20
75.46322350000001
 30
0.0
 11
56.4994
 21
76.71462350000002
 31
0.0
  0
LINE
  5
3AD
330
1E
100
AcDbEntity
  8
0
100
AcDbLine
 10
55.28929999999999
 20
75.70382350000001
 30
0.0
 11
56.0574
 21
76.96032350000002
 31
0.0
  0
LINE
  5
3AE
330
1E
100
AcDbEntity
  8
0
100
AcDbLine
 10
56.0574
 20
76.96032350000002
 30
0.0
 11
56.94539999999999
 21
78.13422350000002
 31
0.0
  0
LINE
  5
3AF
330
1E
100
AcDbEntity
  8
0
100
AcDbLine
 10
56.4994
 20
76.71462350000002
 30
0.0
 11
57.3904
 21
77.88152350000001
 31
0.0
  0
LINE
  5
3B0
330
1E
100
AcDbEntity
  8
0
100
AcDbLine
 10
56.1732
 20
75.22162350000002
 30
0.0
 11
56.9142
 21
76.4297235
 31
0.0
  0
LINE
  5
3B1
330
1E
100
AcDbEntity
  8
0
100
AcDbLine
 10
55.5571
 20
73.94502350000002
 30
0.0
 11
56.1732
 21
75.22162350000002
 31
0.0
  0
LINE
  5
3B2
330
1E
100
AcDbEntity
  8
0
100
AcDbLine
 10
54.0207
 20
69.88262350000001
 30
0.0
 11
54.2331
 21
71.3354235
 31
0.0
  0
LINE
  5
3B3
330
1E
100
AcDbEntity
  8
0
100
AcDbLine
 10
54.5221
 20
69.83532350000001
 30
0.0
 11
54.7275
 21
71.2378235
 31
0.0
  0
LINE
  5
3B4
330
1E
100
AcDbEntity
  8
0
100
AcDbLine
 10
53.5395
 20
70.11922350000002
 30
0.0
 11
53.769
 21
71.57302350000001
 31
0.0
  0
LINE
  5
3B5
330
1E
100
AcDbEntity
  8
0
100
AcDbLine
 10
53.5395
 20
70.11922350000002
 30
0.0
 11
53.768
 21
71.57302350000001
 31
0.0
  0
LINE
  5
3B6
330
1E
100
AcDbEntity
  8
0
100
AcDbLine
 10
53.768
 20
71.57302350000001
 30
0.0
 11
54.13949999999999
 21
72.99762350000001
 31
0.0
  0
LINE
  5
3B7
330
1E
100
AcDbEntity
  8
0
100
AcDbLine
 10
53.769
 20
71.57302350000001
 30
0.0
 11
54.13949999999999
 21
72.99762350000001
 31
0.0
  0
LINE
  5
3B8
330
1E
100
AcDbEntity
  8
0
100
AcDbLine
 10
54.2331
 20
71.3354235
 30
0.0
 11
54.5926
 21
72.75902350000001
 31
0.0
  0
LINE
  5
3B9
330
1E
100
AcDbEntity
  8
0
100
AcDbLine
 10
54.7275
 20
71.2378235
 30
0.0
 11
55.0738
 21
72.61202350000001
 31
0.0
  0
LINE
  5
3BA
330
1E
100
AcDbEntity
  8
0
100
AcDbLine
 10
53.4539
 20
68.64932350000001
 30
0.0
 11
53.5395
 21
70.11922350000002
 31
0.0
  0
LINE
  5
3BB
330
1E
100
AcDbEntity
  8
0
100
AcDbLine
 10
53.4539
 20
68.64932350000001
 30
0.0
 11
53.4593
 21
68.51242350000001
 31
0.0
  0
LINE
  5
3BC
330
1E
100
AcDbEntity
  8
0
100
AcDbLine
 10
53.9606
 20
68.51242350000001
 30
0.0
 11
54.0207
 21
69.88262350000001
 31
0.0
  0
LINE
  5
3BD
330
1E
100
AcDbEntity
  8
0
100
AcDbLine
 10
54.4638
 20
68.51242350000001
 30
0.0
 11
54.5221
 21
69.83532350000001
 31
0.0
  0
LINE
  5
3BE
330
1E
100
AcDbEntity
  8
0
100
AcDbLine
 10
57.3854
 20
68.8748235
 30
0.0
 11
57.5374
 21
70.37902350000002
 31
0.0
  0
LINE
  5
3BF
330
1E
100
AcDbEntity
  8
0
100
AcDbLine
 10
57.3854
 20
68.8748235
 30
0.0
 11
57.3982
 21
68.51242350000001
 31
0.0
  0
LINE
  5
3C0
330
1E
100
AcDbEntity
  8
0
100
AcDbLine
 10
65.0892
 20
79.06342350000001
 30
0.0
 11
66.5571
 21
79.42292350000001
 31
0.0
  0
LINE
  5
3C1
330
1E
100
AcDbEntity
  8
0
100
AcDbLine
 10
58.7445
 20
78.59032350000001
 30
0.0
 11
59.8137
 21
79.52052350000001
 31
0.0
  0
LINE
  5
3C2
330
1E
100
AcDbEntity
  8
0
100
AcDbLine
 10
58.3952
 20
78.95272350000002
 30
0.0
 11
59.50359999999999
 21
79.9172235
 31
0.0
  0
LINE
  5
3C3
330
1E
100
AcDbEntity
  8
0
100
AcDbLine
 10
62.8401
 20
82.4231235
 30
0.0
 11
64.2305
 21
82.9063235
 31
0.0
  0
LINE
  5
3C4
330
1E
100
AcDbEntity
  8
0
100
AcDbLine
 10
62.2068
 20
81.03472350000002
 30
0.0
 11
63.5056
 21
81.60252350000002
 31
0.0
  0
LINE
  5
3C5
330
1E
100
AcDbEntity
  8
0
100
AcDbLine
 10
61.9823
 20
81.48582350000001
 30
0.0
 11
63.3274
 21
82.07372350000001
 31
0.0
  0
LINE
  5
3C6
330
1E
100
AcDbEntity
  8
0
100
AcDbLine
 10
60.2335
 20
81.0609235
 30
0.0
 11
61.50310000000001
 21
81.80592350000001
 31
0.0
  0
LINE
  5
3C7
330
1E
100
AcDbEntity
  8
0
100
AcDbLine
 10
59.8137
 20
79.52052350000001
 30
0.0
 11
60.9715
 21
80.33802350000001
 31
0.0
  0
LINE
  5
3C8
330
1E
100
AcDbEntity
  8
0
100
AcDbLine
 10
59.50359999999999
 20
79.9172235
 30
0.0
 11
60.7027
 21
80.7639235
 31
0.0
  0
LINE
  5
3C9
330
1E
100
AcDbEntity
  8
0
100
AcDbLine
 10
59.0435
 20
80.19512350000001
 30
0.0
 11
60.2335
 21
81.0609235
 31
0.0
  0
LINE
  5
3CA
330
1E
100
AcDbEntity
  8
0
100
AcDbLine
 10
57.9441
 20
79.21652350000001
 30
0.0
 11
59.0435
 21
80.19512350000001
 31
0.0
  0
LINE
  5
3CB
330
1E
100
AcDbEntity
  8
0
100
AcDbLine
 10
61.50310000000001
 20
81.80592350000001
 30
0.0
 11
62.8401
 21
82.4231235
 31
0.0
  0
LINE
  5
3CC
330
1E
100
AcDbEntity
  8
0
100
AcDbLine
 10
60.9715
 20
80.33802350000001
 30
0.0
 11
62.2068
 21
81.03472350000002
 31
0.0
  0
LINE
  5
3CD
330
1E
100
AcDbEntity
  8
0
100
AcDbLine
 10
60.7027
 20
80.7639235
 30
0.0
 11
61.9823
 21
81.48582350000001
 31
0.0
  0
LINE
  5
3CE
330
1E
100
AcDbEntity
  8
0
100
AcDbLine
 10
65.66209999999999
 20
83.25162350000002
 30
0.0
 11
67.1199
 21
83.4540235
 31
0.0
  0
LINE
  5
3CF
330
1E
100
AcDbEntity
  8
0
100
AcDbLine
 10
64.8557
 20
82.03652350000002
 30
0.0
 11
66.242
 21
82.33042350000001
 31
0.0
  0
LINE
  5
3D0
330
1E
100
AcDbEntity
  8
0
100
AcDbLine
 10
64.7258
 20
82.52272350000001
 30
0.0
 11
66.16249999999999
 21
82.82782350000001
 31
0.0
  0
LINE
  5
3D1
330
1E
100
AcDbEntity
  8
0
100
AcDbLine
 10
63.5056
 20
81.60252350000002
 30
0.0
 11
64.8557
 21
82.03652350000002
 31
0.0
  0
LINE
  5
3D2
330
1E
100
AcDbEntity
  8
0
100
AcDbLine
 10
64.2305
 20
82.9063235
 30
0.0
 11
65.66209999999999
 21
83.25162350000002
 31
0.0
  0
LINE
  5
3D3
330
1E
100
AcDbEntity
  8
0
100
AcDbLine
 10
63.3274
 20
82.07372350000001
 30
0.0
 11
64.7258
 21
82.52272350000001
 31
0.0
  0
LINE
  5
3D4
330
1E
100
AcDbEntity
  8
0
100
AcDbLine
 10
66.242
 20
82.33042350000001
 30
0.0
 11
67.6515
 21
82.48352350000002
 31
0.0
  0
LINE
  5
3D5
330
1E
100
AcDbEntity
  8
0
100
AcDbLine
 10
66.16249999999999
 20
82.82782350000001
 30
0.0
 11
67.62229999999999
 21
82.98592350000001
 31
0.0
  0
LINE
  5
3D6
330
1E
100
AcDbEntity
  8
0
100
AcDbLine
 10
67.1199
 20
83.4540235
 30
0.0
 11
68.4539
 21
83.5070235
 31
0.0
  0
LINE
  5
3D7
330
1E
100
AcDbEntity
  8
0
100
AcDbLine
 10
67.6515
 20
82.48352350000002
 30
0.0
 11
68.4539
 21
82.48862350000001
 31
0.0
  0
LINE
  5
3D8
330
1E
100
AcDbEntity
  8
0
100
AcDbLine
 10
67.62229999999999
 20
82.98592350000001
 30
0.0
 11
68.4539
 21
82.99162350000001
 31
0.0
  0
LINE
  5
3D9
330
1E
100
AcDbEntity
  8
0
100
AcDbLine
 10
66.5571
 20
79.42292350000001
 30
0.0
 11
68.0602
 21
79.57992350000001
 31
0.0
  0
LINE
  5
3DA
330
1E
100
AcDbEntity
  8
0
100
AcDbLine
 10
68.0602
 20
79.57992350000001
 30
0.0
 11
68.4539
 21
79.5671235
 31
0.0
  0
LINE
  5
3DB
330
1E
100
AcDbEntity
  8
0
100
AcDbLine
 10
62.7565
 20
74.3366235
 30
0.0
 11
63.6435
 21
75.08872350000001
 31
0.0
  0
LINE
  5
3DC
330
1E
100
AcDbEntity
  8
0
100
AcDbLine
 10
62.4253
 20
75.8760235
 30
0.0
 11
63.59020000000001
 21
76.69252350000002
 31
0.0
  0
LINE
  5
3DD
330
1E
100
AcDbEntity
  8
0
100
AcDbLine
 10
62.3669
 20
77.76372350000001
 30
0.0
 11
63.6838
 21
78.50672350000002
 31
0.0
  0
LINE
  5
3DE
330
1E
100
AcDbEntity
  8
0
100
AcDbLine
 10
61.9853
 20
73.4668235
 30
0.0
 11
62.7565
 21
74.3366235
 31
0.0
  0
LINE
  5
3DF
330
1E
100
AcDbEntity
  8
0
100
AcDbLine
 10
60.5225
 20
73.77282350000001
 30
0.0
 11
61.3954
 21
74.89542350000002
 31
0.0
  0
LINE
  5
3E0
330
1E
100
AcDbEntity
  8
0
100
AcDbLine
 10
58.4465
 20
73.25432350000001
 30
0.0
 11
59.18449999999999
 21
74.57322350000001
 31
0.0
  0
LINE
  5
3E1
330
1E
100
AcDbEntity
  8
0
100
AcDbLine
 10
60.0966
 20
75.77832350000001
 30
0.0
 11
61.1638
 21
76.8495235
 31
0.0
  0
LINE
  5
3E2
330
1E
100
AcDbEntity
  8
0
100
AcDbLine
 10
59.18449999999999
 20
74.57322350000001
 30
0.0
 11
60.0966
 21
75.77832350000001
 31
0.0
  0
LINE
  5
3E3
330
1E
100
AcDbEntity
  8
0
100
AcDbLine
 10
61.1638
 20
76.8495235
 30
0.0
 11
62.3669
 21
77.76372350000001
 31
0.0
  0
LINE
  5
3E4
330
1E
100
AcDbEntity
  8
0
100
AcDbLine
 10
61.3954
 20
74.89542350000002
 30
0.0
 11
62.4253
 21
75.8760235
 31
0.0
  0
LINE
  5
3E5
330
1E
100
AcDbEntity
  8
0
100
AcDbLine
 10
59.8278
 20
72.5315235
 30
0.0
 11
60.5225
 21
73.77282350000001
 31
0.0
  0
LINE
  5
3E6
330
1E
100
AcDbEntity
  8
0
100
AcDbLine
 10
60.33319999999999
 20
69.18292350000001
 30
0.0
 11
60.5114
 21
70.33162350000001
 31
0.0
  0
LINE
  5
3E7
330
1E
100
AcDbEntity
  8
0
100
AcDbLine
 10
59.0264
 20
69.81012350000002
 30
0.0
 11
59.3254
 21
71.20052350000001
 31
0.0
  0
LINE
  5
3E8
330
1E
100
AcDbEntity
  8
0
100
AcDbLine
 10
57.8938
 20
71.84792350000001
 30
0.0
 11
58.4465
 21
73.25432350000001
 31
0.0
  0
LINE
  5
3E9
330
1E
100
AcDbEntity
  8
0
100
AcDbLine
 10
59.3254
 20
71.20052350000001
 30
0.0
 11
59.8278
 21
72.5315235
 31
0.0
  0
LINE
  5
3EA
330
1E
100
AcDbEntity
  8
0
100
AcDbLine
 10
58.9454
 20
68.51242350000001
 30
0.0
 11
59.0264
 21
69.81012350000002
 31
0.0
  0
LINE
  5
3EB
330
1E
100
AcDbEntity
  8
0
100
AcDbLine
 10
60.32630000000001
 20
68.51242350000001
 30
0.0
 11
60.33319999999999
 21
69.18292350000001
 31
0.0
  0
LINE
  5
3EC
330
1E
100
AcDbEntity
  8
0
100
AcDbLine
 10
60.5114
 20
70.33162350000001
 30
0.0
 11
60.8517
 21
71.44412350000002
 31
0.0
  0
LINE
  5
3ED
330
1E
100
AcDbEntity
  8
0
100
AcDbLine
 10
61.346
 20
72.49522350000001
 30
0.0
 11
61.9853
 21
73.4668235
 31
0.0
  0
LINE
  5
3EE
330
1E
100
AcDbEntity
  8
0
100
AcDbLine
 10
60.8517
 20
71.44412350000002
 30
0.0
 11
61.346
 21
72.49522350000001
 31
0.0
  0
LINE
  5
3EF
330
1E
100
AcDbEntity
  8
0
100
AcDbLine
 10
65.69029999999999
 20
76.17702350000001
 30
0.0
 11
66.80979999999999
 21
76.49312350000001
 31
0.0
  0
LINE
  5
3F0
330
1E
100
AcDbEntity
  8
0
100
AcDbLine
 10
64.86369999999999
 20
77.32572350000001
 30
0.0
 11
66.2178
 21
77.76272350000002
 31
0.0
  0
LINE
  5
3F1
330
1E
100
AcDbEntity
  8
0
100
AcDbLine
 10
63.59020000000001
 20
76.69252350000002
 30
0.0
 11
64.86369999999999
 21
77.32572350000001
 31
0.0
  0
LINE
  5
3F2
330
1E
100
AcDbEntity
  8
0
100
AcDbLine
 10
63.6838
 20
78.50672350000002
 30
0.0
 11
65.0892
 21
79.06342350000001
 31
0.0
  0
LINE
  5
3F3
330
1E
100
AcDbEntity
  8
0
100
AcDbLine
 10
63.6435
 20
75.08872350000001
 30
0.0
 11
64.62810000000001
 21
75.70582350000001
 31
0.0
  0
LINE
  5
3F4
330
1E
100
AcDbEntity
  8
0
100
AcDbLine
 10
64.62810000000001
 20
75.70582350000001
 30
0.0
 11
65.69029999999999
 21
76.17702350000001
 31
0.0
  0
LINE
  5
3F5
330
1E
100
AcDbEntity
  8
0
100
AcDbLine
 10
66.80979999999999
 20
76.49312350000001
 30
0.0
 11
67.9626
 21
76.64522350000002
 31
0.0
  0
LINE
  5
3F6
330
1E
100
AcDbEntity
  8
0
100
AcDbLine
 10
66.2178
 20
77.76272350000002
 30
0.0
 11
67.6213
 21
77.9922235
 31
0.0
  0
LINE
  5
3F7
330
1E
100
AcDbEntity
  8
0
100
AcDbLine
 10
67.9626
 20
76.64522350000002
 30
0.0
 11
68.4539
 21
76.63962350000002
 31
0.0
  0
LINE
  5
3F8
330
1E
100
AcDbEntity
  8
0
100
AcDbLine
 10
67.6213
 20
77.9922235
 30
0.0
 11
68.4539
 21
78.0028235
 31
0.0
  0
LINE
  5
3F9
330
1E
100
AcDbEntity
  8
0
100
AcDbLine
 10
68.5461
 20
82.99162350000001
 30
0.0
 11
67.71450000000001
 21
82.98592350000003
 31
0.0
  0
LINE
  5
3FA
330
1E
100
AcDbEntity
  8
0
100
AcDbLine
 10
68.5461
 20
82.48862350000003
 30
0.0
 11
67.74370000000002
 21
82.48352350000002
 31
0.0
  0
LINE
  5
3FB
330
1E
100
AcDbEntity
  8
0
100
AcDbLine
 10
68.5461
 20
79.56712350000002
 30
0.0
 11
68.15240000000001
 21
79.57992350000002
 31
0.0
  0
LINE
  5
3FC
330
1E
100
AcDbEntity
  8
0
100
AcDbLine
 10
68.5461
 20
78.00282350000002
 30
0.0
 11
67.71350000000001
 21
77.99222350000002
 31
0.0
  0
LINE
  5
3FD
330
1E
100
AcDbEntity
  8
0
100
AcDbLine
 10
68.5461
 20
76.63962350000002
 30
0.0
 11
68.05480000000001
 21
76.64522350000003
 31
0.0
  0
LINE
  5
3FE
330
1E
100
AcDbEntity
  8
0
100
AcDbLine
 10
68.5461
 20
60.36002350000001
 30
0.0
 11
68.05480000000001
 21
60.35442350000001
 31
0.0
  0
LINE
  5
3FF
330
1E
100
AcDbEntity
  8
0
100
AcDbLine
 10
68.5461
 20
58.99682350000001
 30
0.0
 11
67.71350000000001
 21
59.00742350000001
 31
0.0
  0
LINE
  5
400
330
1E
100
AcDbEntity
  8
0
100
AcDbLine
 10
68.5461
 20
57.43252350000002
 30
0.0
 11
68.15240000000001
 21
57.41972350000001
 31
0.0
  0
LINE
  5
401
330
1E
100
AcDbEntity
  8
0
100
AcDbLine
 10
68.5461
 20
54.51102350000001
 30
0.0
 11
67.74370000000002
 21
54.51612350000001
 31
0.0
  0
LINE
  5
402
330
1E
100
AcDbEntity
  8
0
100
AcDbLine
 10
68.5461
 20
54.00802350000001
 30
0.0
 11
67.71450000000001
 21
54.01372350000001
 31
0.0
  0
LINE
  5
403
330
1E
100
AcDbEntity
  8
0
100
AcDbLine
 10
108.5
 20
68.49982350000001
 30
0.0
 11
108.0789
 21
73.72092350000001
 31
0.0
  0
LINE
  5
404
330
1E
100
AcDbEntity
  8
0
100
AcDbLine
 10
137.0
 20
68.49982350000001
 30
0.0
 11
136.3
 21
77.2998235
 31
0.0
  0
LINE
  5
405
330
1E
100
AcDbEntity
  8
0
100
AcDbLine
 10
136.0
 20
68.49982350000001
 30
0.0
 11
135.3
 21
77.19942350000001
 31
0.0
  0
LINE
  5
406
330
1E
100
AcDbEntity
  8
0
100
AcDbLine
 10
116.2
 20
20.8001235
 30
0.0
 11
109.4999999999999
 21
15.0001235
 31
0.0
  0
LINE
  5
407
330
1E
100
AcDbEntity
  8
0
100
AcDbLine
 10
116.9
 20
20.1003235
 30
0.0
 11
110.1
 21
14.1999235
 31
0.0
  0
LINE
  5
408
330
1E
100
AcDbEntity
  8
0
100
AcDbLine
 10
116.9
 20
20.1001235
 30
0.0
 11
110.1
 21
14.1997235
 31
0.0
  0
LINE
  5
409
330
1E
100
AcDbEntity
  8
0
100
AcDbLine
 10
122.8
 20
26.9003235
 30
0.0
 11
116.9
 21
20.1003235
 31
0.0
  0
LINE
  5
40A
330
1E
100
AcDbEntity
  8
0
100
AcDbLine
 10
122.8
 20
26.9001235
 30
0.0
 11
116.9
 21
20.1001235
 31
0.0
  0
LINE
  5
40B
330
1E
100
AcDbEntity
  8
0
100
AcDbLine
 10
122.0
 20
27.4998235
 30
0.0
 11
116.2
 21
20.8001235
 31
0.0
  0
LINE
  5
40C
330
1E
100
AcDbEntity
  8
0
100
AcDbLine
 10
133.6
 20
51.5002235
 30
0.0
 11
130.7
 21
42.7002235
 31
0.0
  0
LINE
  5
40D
330
1E
100
AcDbEntity
  8
0
100
AcDbLine
 10
134.4999999999999
 20
50.80032349999999
 30
0.0
 11
131.7
 21
42.3005235
 31
0.0
  0
LINE
  5
40E
330
1E
100
AcDbEntity
  8
0
100
AcDbLine
 10
134.4999999999999
 20
50.8001235
 30
0.0
 11
131.7
 21
42.3003235
 31
0.0
  0
LINE
  5
40F
330
1E
100
AcDbEntity
  8
0
100
AcDbLine
 10
135.3
 20
59.8002235
 30
0.0
 11
133.6
 21
51.5002235
 31
0.0
  0
LINE
  5
410
330
1E
100
AcDbEntity
  8
0
100
AcDbLine
 10
136.3
 20
59.6998235
 30
0.0
 11
134.4999999999999
 21
50.80032349999999
 31
0.0
  0
LINE
  5
411
330
1E
100
AcDbEntity
  8
0
100
AcDbLine
 10
136.3
 20
59.69952349999999
 30
0.0
 11
134.4999999999999
 21
50.8001235
 31
0.0
  0
LINE
  5
412
330
1E
100
AcDbEntity
  8
0
100
AcDbLine
 10
136.0
 20
68.49982350000001
 30
0.0
 11
135.3
 21
59.8002235
 31
0.0
  0
LINE
  5
413
330
1E
100
AcDbEntity
  8
0
100
AcDbLine
 10
137.0
 20
68.49982350000001
 30
0.0
 11
136.3
 21
59.6998235
 31
0.0
  0
LINE
  5
414
330
1E
100
AcDbEntity
  8
0
100
AcDbLine
 10
137.0
 20
68.49952349999999
 30
0.0
 11
136.3
 21
59.69952349999999
 31
0.0
  0
LINE
  5
415
330
1E
100
AcDbEntity
  8
0
100
AcDbLine
 10
127.0
 20
34.90022349999999
 30
0.0
 11
122.0
 21
27.4998235
 31
0.0
  0
LINE
  5
416
330
1E
100
AcDbEntity
  8
0
100
AcDbLine
 10
130.7
 20
42.7002235
 30
0.0
 11
127.0
 21
34.90022349999999
 31
0.0
  0
LINE
  5
417
330
1E
100
AcDbEntity
  8
0
100
AcDbLine
 10
131.7
 20
42.3005235
 30
0.0
 11
127.8
 21
34.40022349999999
 31
0.0
  0
LINE
  5
418
330
1E
100
AcDbEntity
  8
0
100
AcDbLine
 10
131.7
 20
42.3003235
 30
0.0
 11
127.8
 21
34.3999235
 31
0.0
  0
LINE
  5
419
330
1E
100
AcDbEntity
  8
0
100
AcDbLine
 10
127.8
 20
34.40022349999999
 30
0.0
 11
122.8
 21
26.9003235
 31
0.0
  0
LINE
  5
41A
330
1E
100
AcDbEntity
  8
0
100
AcDbLine
 10
127.8
 20
34.3999235
 30
0.0
 11
122.8
 21
26.9001235
 31
0.0
  0
LINE
  5
41B
330
1E
100
AcDbEntity
  8
0
100
AcDbLine
 10
94.29999999999999
 20
6.300493500000017
 30
0.0
 11
85.5
 21
3.400033500000009
 31
0.0
  0
LINE
  5
41C
330
1E
100
AcDbEntity
  8
0
100
AcDbLine
 10
94.7
 20
5.300503500000008
 30
0.0
 11
86.2
 21
2.500383500000019
 31
0.0
  0
LINE
  5
41D
330
1E
100
AcDbEntity
  8
0
100
AcDbLine
 10
94.7
 20
5.300233500000008
 30
0.0
 11
86.2
 21
2.500123500000009
 31
0.0
  0
LINE
  5
41E
330
1E
100
AcDbEntity
  8
0
100
AcDbLine
 10
102.0999999999999
 20
10.0002235
 30
0.0
 11
94.29999999999999
 21
6.300493500000017
 31
0.0
  0
LINE
  5
41F
330
1E
100
AcDbEntity
  8
0
100
AcDbLine
 10
102.6
 20
9.200063500000005
 30
0.0
 11
94.7
 21
5.300503500000008
 31
0.0
  0
LINE
  5
420
330
1E
100
AcDbEntity
  8
0
100
AcDbLine
 10
102.6
 20
9.199803500000006
 30
0.0
 11
94.7
 21
5.300233500000008
 31
0.0
  0
LINE
  5
421
330
1E
100
AcDbEntity
  8
0
100
AcDbLine
 10
109.4999999999999
 20
15.0001235
 30
0.0
 11
102.0999999999999
 21
10.0002235
 31
0.0
  0
LINE
  5
422
330
1E
100
AcDbEntity
  8
0
100
AcDbLine
 10
110.1
 20
14.1999235
 30
0.0
 11
102.6
 21
9.200063500000005
 31
0.0
  0
LINE
  5
423
330
1E
100
AcDbEntity
  8
0
100
AcDbLine
 10
110.1
 20
14.1997235
 30
0.0
 11
102.6
 21
9.199803500000006
 31
0.0
  0
LINE
  5
424
330
1E
100
AcDbEntity
  8
0
100
AcDbLine
 10
85.5
 20
3.400033500000009
 30
0.0
 11
77.2
 21
1.700243500000011
 31
0.0
  0
LINE
  5
425
330
1E
100
AcDbEntity
  8
0
100
AcDbLine
 10
86.2
 20
2.500383500000019
 30
0.0
 11
77.3
 21
0.7002545000000168
 31
0.0
  0
LINE
  5
426
330
1E
100
AcDbEntity
  8
0
100
AcDbLine
 10
86.2
 20
2.500383500000019
 30
0.0
 11
77.3
 21
0.7002545000000168
 31
0.0
  0
LINE
  5
427
330
1E
100
AcDbEntity
  8
0
100
AcDbLine
 10
86.2
 20
2.500123500000009
 30
0.0
 11
77.3
 21
0.6999875000000157
 31
0.0
  0
LINE
  5
428
330
1E
100
AcDbEntity
  8
0
100
AcDbLine
 10
77.2
 20
1.700243500000011
 30
0.0
 11
68.5
 21
1.000433500000013
 31
0.0
  0
LINE
  5
429
330
1E
100
AcDbEntity
  8
0
100
AcDbLine
 10
77.3
 20
0.7002545000000168
 30
0.0
 11
68.5
 21
0.0004425000000183
 31
0.0
  0
LINE
  5
42A
330
1E
100
AcDbEntity
  8
0
100
AcDbLine
 10
77.3
 20
0.7002545000000168
 30
0.0
 11
68.5
 21
0.0004425000000182
 31
0.0
  0
LINE
  5
42B
330
1E
100
AcDbEntity
  8
0
100
AcDbLine
 10
77.3
 20
0.6999875000000157
 30
0.0
 11
68.5
 21
0.000176500000017
 31
0.0
  0
LINE
  5
42C
330
1E
100
AcDbEntity
  8
0
100
AcDbLine
 10
77.3
 20
0.6999875000000157
 30
0.0
 11
68.5
 21
0.0001765000000171
 31
0.0
  0
LINE
  5
42D
330
1E
100
AcDbEntity
  8
0
100
AcDbLine
 10
92.83680000000002
 20
36.8366235
 30
0.0
 11
88.4158
 21
33.8472235
 31
0.0
  0
LINE
  5
42E
330
1E
100
AcDbEntity
  8
0
100
AcDbLine
 10
103.1526
 20
48.58402350000001
 30
0.0
 11
100.1632
 21
44.16302350000001
 31
0.0
  0
LINE
  5
42F
330
1E
100
AcDbEntity
  8
0
100
AcDbLine
 10
96.75260000000001
 20
40.2472235
 30
0.0
 11
92.83680000000002
 21
36.8366235
 31
0.0
  0
LINE
  5
430
330
1E
100
AcDbEntity
  8
0
100
AcDbLine
 10
100.1632
 20
44.16302350000001
 30
0.0
 11
96.75260000000001
 21
40.2472235
 31
0.0
  0
LINE
  5
431
330
1E
100
AcDbEntity
  8
0
100
AcDbLine
 10
107.0684
 20
58.18402350000001
 30
0.0
 11
105.3842
 21
53.2156235
 31
0.0
  0
LINE
  5
432
330
1E
100
AcDbEntity
  8
0
100
AcDbLine
 10
105.3842
 20
53.2156235
 30
0.0
 11
103.1526
 21
48.58402350000001
 31
0.0
  0
LINE
  5
433
330
1E
100
AcDbEntity
  8
0
100
AcDbLine
 10
108.0789
 20
63.2787235
 30
0.0
 11
107.0684
 21
58.18402350000001
 31
0.0
  0
LINE
  5
434
330
1E
100
AcDbEntity
  8
0
100
AcDbLine
 10
108.5
 20
68.49982350000001
 30
0.0
 11
108.0789
 21
63.2787235
 31
0.0
  0
LINE
  5
435
330
1E
100
AcDbEntity
  8
0
100
AcDbLine
 10
83.7842
 20
31.6156235
 30
0.0
 11
78.81580000000001
 21
29.93142350000001
 31
0.0
  0
LINE
  5
436
330
1E
100
AcDbEntity
  8
0
100
AcDbLine
 10
88.4158
 20
33.8472235
 30
0.0
 11
83.7842
 21
31.6156235
 31
0.0
  0
LINE
  5
437
330
1E
100
AcDbEntity
  8
0
100
AcDbLine
 10
78.81580000000001
 20
29.93142350000001
 30
0.0
 11
73.72110000000001
 21
28.9209235
 31
0.0
  0
LINE
  5
438
330
1E
100
AcDbEntity
  8
0
100
AcDbLine
 10
73.72110000000001
 20
28.9209235
 30
0.0
 11
68.5
 21
28.49982350000001
 31
0.0
  0
LINE
  5
439
330
1E
100
AcDbEntity
  8
0
100
AcDbLine
 10
79.46260000000001
 20
66.62062350000001
 30
0.0
 11
79.10620000000001
 21
65.15172350000002
 31
0.0
  0
LINE
  5
43A
330
1E
100
AcDbEntity
  8
0
100
AcDbLine
 10
79.60960000000001
 20
59.11812350000001
 30
0.0
 11
78.60480000000001
 21
58.04692350000001
 31
0.0
  0
LINE
  5
43B
330
1E
100
AcDbEntity
  8
0
100
AcDbLine
 10
79.22500000000002
 20
59.44332350000001
 30
0.0
 11
78.25550000000001
 21
58.40932350000001
 31
0.0
  0
LINE
  5
43C
330
1E
100
AcDbEntity
  8
0
100
AcDbLine
 10
80.05460000000002
 20
58.86542350000001
 30
0.0
 11
79.05590000000001
 21
57.78312350000001
 31
0.0
  0
LINE
  5
43D
330
1E
100
AcDbEntity
  8
0
100
AcDbLine
 10
82.40740000000002
 20
64.24062350000001
 30
0.0
 11
81.90710000000001
 21
62.85932350000002
 31
0.0
  0
LINE
  5
43E
330
1E
100
AcDbEntity
  8
0
100
AcDbLine
 10
81.92620000000003
 20
64.38762350000001
 30
0.0
 11
81.44290000000001
 21
63.05462350000001
 31
0.0
  0
LINE
  5
43F
330
1E
100
AcDbEntity
  8
0
100
AcDbLine
 10
82.86050000000001
 20
64.0020235
 30
0.0
 11
82.3521
 21
62.6207235
 31
0.0
  0
LINE
  5
440
330
1E
100
AcDbEntity
  8
0
100
AcDbLine
 10
81.90710000000001
 20
62.85932350000002
 30
0.0
 11
81.26880000000001
 21
61.53642350000001
 31
0.0
  0
LINE
  5
441
330
1E
100
AcDbEntity
  8
0
100
AcDbLine
 10
82.3521
 20
62.6207235
 30
0.0
 11
81.71070000000002
 21
61.29582350000001
 31
0.0
  0
LINE
  5
442
330
1E
100
AcDbEntity
  8
0
100
AcDbLine
 10
80.0858
 20
60.56992350000001
 30
0.0
 11
79.22500000000002
 21
59.44332350000001
 31
0.0
  0
LINE
  5
443
330
1E
100
AcDbEntity
  8
0
100
AcDbLine
 10
81.26880000000001
 20
61.53642350000001
 30
0.0
 11
80.50060000000001
 21
60.28502350000001
 31
0.0
  0
LINE
  5
444
330
1E
100
AcDbEntity
  8
0
100
AcDbLine
 10
81.71070000000002
 20
61.29582350000001
 30
0.0
 11
80.94260000000002
 21
60.03932350000002
 31
0.0
  0
LINE
  5
445
330
1E
100
AcDbEntity
  8
0
100
AcDbLine
 10
80.94260000000002
 20
60.03932350000002
 30
0.0
 11
80.05460000000002
 21
58.86542350000001
 31
0.0
  0
LINE
  5
446
330
1E
100
AcDbEntity
  8
0
100
AcDbLine
 10
80.50060000000001
 20
60.28502350000001
 30
0.0
 11
79.60960000000001
 21
59.11812350000001
 31
0.0
  0
LINE
  5
447
330
1E
100
AcDbEntity
  8
0
100
AcDbLine
 10
80.82680000000001
 20
61.77802350000001
 30
0.0
 11
80.0858
 21
60.56992350000001
 31
0.0
  0
LINE
  5
448
330
1E
100
AcDbEntity
  8
0
100
AcDbLine
 10
81.44290000000001
 20
63.05462350000001
 30
0.0
 11
80.82680000000001
 21
61.77802350000001
 31
0.0
  0
LINE
  5
449
330
1E
100
AcDbEntity
  8
0
100
AcDbLine
 10
82.97930000000002
 20
67.11702350000002
 30
0.0
 11
82.76690000000002
 21
65.66422350000002
 31
0.0
  0
LINE
  5
44A
330
1E
100
AcDbEntity
  8
0
100
AcDbLine
 10
82.4779
 20
67.16432350000001
 30
0.0
 11
82.27250000000001
 21
65.76182350000002
 31
0.0
  0
LINE
  5
44B
330
1E
100
AcDbEntity
  8
0
100
AcDbLine
 10
83.46050000000003
 20
66.8804235
 30
0.0
 11
83.23100000000001
 21
65.42662350000002
 31
0.0
  0
LINE
  5
44C
330
1E
100
AcDbEntity
  8
0
100
AcDbLine
 10
83.46050000000003
 20
66.8804235
 30
0.0
 11
83.23200000000001
 21
65.42662350000002
 31
0.0
  0
LINE
  5
44D
330
1E
100
AcDbEntity
  8
0
100
AcDbLine
 10
83.23200000000001
 20
65.42662350000002
 30
0.0
 11
82.86050000000001
 21
64.0020235
 31
0.0
  0
LINE
  5
44E
330
1E
100
AcDbEntity
  8
0
100
AcDbLine
 10
83.23100000000001
 20
65.42662350000002
 30
0.0
 11
82.86050000000001
 21
64.0020235
 31
0.0
  0
LINE
  5
44F
330
1E
100
AcDbEntity
  8
0
100
AcDbLine
 10
82.76690000000002
 20
65.66422350000002
 30
0.0
 11
82.40740000000002
 21
64.24062350000001
 31
0.0
  0
LINE
  5
450
330
1E
100
AcDbEntity
  8
0
100
AcDbLine
 10
82.27250000000001
 20
65.76182350000002
 30
0.0
 11
81.92620000000003
 21
64.38762350000001
 31
0.0
  0
LINE
  5
451
330
1E
100
AcDbEntity
  8
0
100
AcDbLine
 10
83.54610000000002
 20
68.35032350000002
 30
0.0
 11
83.46050000000003
 21
66.8804235
 31
0.0
  0
LINE
  5
452
330
1E
100
AcDbEntity
  8
0
100
AcDbLine
 10
83.54610000000002
 20
68.35032350000002
 30
0.0
 11
83.54070000000001
 21
68.48722350000001
 31
0.0
  0
LINE
  5
453
330
1E
100
AcDbEntity
  8
0
100
AcDbLine
 10
83.03940000000002
 20
68.48722350000001
 30
0.0
 11
82.97930000000002
 21
67.11702350000002
 31
0.0
  0
LINE
  5
454
330
1E
100
AcDbEntity
  8
0
100
AcDbLine
 10
82.53620000000001
 20
68.48722350000001
 30
0.0
 11
82.4779
 21
67.16432350000001
 31
0.0
  0
LINE
  5
455
330
1E
100
AcDbEntity
  8
0
100
AcDbLine
 10
79.61460000000002
 20
68.12482350000002
 30
0.0
 11
79.46260000000001
 21
66.62062350000001
 31
0.0
  0
LINE
  5
456
330
1E
100
AcDbEntity
  8
0
100
AcDbLine
 10
79.61460000000002
 20
68.12482350000002
 30
0.0
 11
79.60180000000001
 21
68.48722350000001
 31
0.0
  0
LINE
  5
457
330
1E
100
AcDbEntity
  8
0
100
AcDbLine
 10
71.91080000000001
 20
57.93622350000001
 30
0.0
 11
70.44290000000001
 21
57.57672350000001
 31
0.0
  0
LINE
  5
458
330
1E
100
AcDbEntity
  8
0
100
AcDbLine
 10
78.25550000000001
 20
58.40932350000001
 30
0.0
 11
77.18630000000001
 21
57.47912350000001
 31
0.0
  0
LINE
  5
459
330
1E
100
AcDbEntity
  8
0
100
AcDbLine
 10
78.60480000000001
 20
58.04692350000001
 30
0.0
 11
77.49640000000002
 21
57.08242350000001
 31
0.0
  0
LINE
  5
45A
330
1E
100
AcDbEntity
  8
0
100
AcDbLine
 10
74.1599
 20
54.57652350000001
 30
0.0
 11
72.76950000000001
 21
54.09332350000001
 31
0.0
  0
LINE
  5
45B
330
1E
100
AcDbEntity
  8
0
100
AcDbLine
 10
74.79320000000001
 20
55.96492350000001
 30
0.0
 11
73.49440000000001
 21
55.39712350000002
 31
0.0
  0
LINE
  5
45C
330
1E
100
AcDbEntity
  8
0
100
AcDbLine
 10
75.01770000000002
 20
55.51382350000001
 30
0.0
 11
73.67260000000001
 21
54.92592350000001
 31
0.0
  0
LINE
  5
45D
330
1E
100
AcDbEntity
  8
0
100
AcDbLine
 10
76.76650000000001
 20
55.93872350000001
 30
0.0
 11
75.49690000000001
 21
55.19372350000001
 31
0.0
  0
LINE
  5
45E
330
1E
100
AcDbEntity
  8
0
100
AcDbLine
 10
77.18630000000001
 20
57.47912350000001
 30
0.0
 11
76.0285
 21
56.66162350000001
 31
0.0
  0
LINE
  5
45F
330
1E
100
AcDbEntity
  8
0
100
AcDbLine
 10
77.49640000000002
 20
57.08242350000001
 30
0.0
 11
76.29730000000001
 21
56.23572350000001
 31
0.0
  0
LINE
  5
460
330
1E
100
AcDbEntity
  8
0
100
AcDbLine
 10
77.95650000000001
 20
56.80452350000002
 30
0.0
 11
76.76650000000001
 21
55.93872350000001
 31
0.0
  0
LINE
  5
461
330
1E
100
AcDbEntity
  8
0
100
AcDbLine
 10
79.05590000000001
 20
57.78312350000001
 30
0.0
 11
77.95650000000001
 21
56.80452350000002
 31
0.0
  0
LINE
  5
462
330
1E
100
AcDbEntity
  8
0
100
AcDbLine
 10
75.49690000000001
 20
55.19372350000001
 30
0.0
 11
74.1599
 21
54.57652350000001
 31
0.0
  0
LINE
  5
463
330
1E
100
AcDbEntity
  8
0
100
AcDbLine
 10
76.0285
 20
56.66162350000001
 30
0.0
 11
74.79320000000001
 21
55.96492350000001
 31
0.0
  0
LINE
  5
464
330
1E
100
AcDbEntity
  8
0
100
AcDbLine
 10
76.29730000000001
 20
56.23572350000001
 30
0.0
 11
75.01770000000002
 21
55.51382350000001
 31
0.0
  0
LINE
  5
465
330
1E
100
AcDbEntity
  8
0
100
AcDbLine
 10
71.33790000000002
 20
53.74802350000001
 30
0.0
 11
69.88010000000001
 21
53.54562350000001
 31
0.0
  0
LINE
  5
466
330
1E
100
AcDbEntity
  8
0
100
AcDbLine
 10
72.14430000000001
 20
54.96312350000001
 30
0.0
 11
70.758
 21
54.66922350000001
 31
0.0
  0
LINE
  5
467
330
1E
100
AcDbEntity
  8
0
100
AcDbLine
 10
72.27420000000001
 20
54.47692350000001
 30
0.0
 11
70.83750000000001
 21
54.17182350000001
 31
0.0
  0
LINE
  5
468
330
1E
100
AcDbEntity
  8
0
100
AcDbLine
 10
73.49440000000001
 20
55.39712350000002
 30
0.0
 11
72.14430000000001
 21
54.96312350000001
 31
0.0
  0
LINE
  5
469
330
1E
100
AcDbEntity
  8
0
100
AcDbLine
 10
72.76950000000001
 20
54.09332350000001
 30
0.0
 11
71.33790000000002
 21
53.74802350000001
 31
0.0
  0
LINE
  5
46A
330
1E
100
AcDbEntity
  8
0
100
AcDbLine
 10
73.67260000000001
 20
54.92592350000001
 30
0.0
 11
72.27420000000001
 21
54.47692350000001
 31
0.0
  0
LINE
  5
46B
330
1E
100
AcDbEntity
  8
0
100
AcDbLine
 10
70.758
 20
54.66922350000001
 30
0.0
 11
69.34850000000001
 21
54.51612350000001
 31
0.0
  0
LINE
  5
46C
330
1E
100
AcDbEntity
  8
0
100
AcDbLine
 10
70.83750000000001
 20
54.17182350000001
 30
0.0
 11
69.37770000000002
 21
54.01372350000001
 31
0.0
  0
LINE
  5
46D
330
1E
100
AcDbEntity
  8
0
100
AcDbLine
 10
69.88010000000001
 20
53.54562350000001
 30
0.0
 11
68.5461
 21
53.49262350000001
 31
0.0
  0
LINE
  5
46E
330
1E
100
AcDbEntity
  8
0
100
AcDbLine
 10
69.34850000000001
 20
54.51612350000001
 30
0.0
 11
68.5461
 21
54.51102350000001
 31
0.0
  0
LINE
  5
46F
330
1E
100
AcDbEntity
  8
0
100
AcDbLine
 10
69.37770000000002
 20
54.01372350000001
 30
0.0
 11
68.5461
 21
54.00802350000001
 31
0.0
  0
LINE
  5
470
330
1E
100
AcDbEntity
  8
0
100
AcDbLine
 10
70.44290000000001
 20
57.57672350000001
 30
0.0
 11
68.93980000000002
 21
57.41972350000001
 31
0.0
  0
LINE
  5
471
330
1E
100
AcDbEntity
  8
0
100
AcDbLine
 10
68.93980000000002
 20
57.41972350000001
 30
0.0
 11
68.5461
 21
57.43252350000002
 31
0.0
  0
LINE
  5
472
330
1E
100
AcDbEntity
  8
0
100
AcDbLine
 10
74.24350000000001
 20
62.66302350000001
 30
0.0
 11
73.35650000000001
 21
61.91092350000001
 31
0.0
  0
LINE
  5
473
330
1E
100
AcDbEntity
  8
0
100
AcDbLine
 10
74.5747
 20
61.12362350000001
 30
0.0
 11
73.40980000000001
 21
60.30712350000001
 31
0.0
  0
LINE
  5
474
330
1E
100
AcDbEntity
  8
0
100
AcDbLine
 10
74.63310000000001
 20
59.23592350000001
 30
0.0
 11
73.3162
 21
58.49292350000001
 31
0.0
  0
LINE
  5
475
330
1E
100
AcDbEntity
  8
0
100
AcDbLine
 10
75.01470000000001
 20
63.53282350000001
 30
0.0
 11
74.24350000000001
 21
62.66302350000001
 31
0.0
  0
LINE
  5
476
330
1E
100
AcDbEntity
  8
0
100
AcDbLine
 10
76.47750000000002
 20
63.22682350000001
 30
0.0
 11
75.6046
 21
62.10422350000001
 31
0.0
  0
LINE
  5
477
330
1E
100
AcDbEntity
  8
0
100
AcDbLine
 10
78.55350000000001
 20
63.74532350000001
 30
0.0
 11
77.81550000000001
 21
62.42642350000001
 31
0.0
  0
LINE
  5
478
330
1E
100
AcDbEntity
  8
0
100
AcDbLine
 10
76.9034
 20
61.22132350000001
 30
0.0
 11
75.83620000000002
 21
60.15012350000001
 31
0.0
  0
LINE
  5
479
330
1E
100
AcDbEntity
  8
0
100
AcDbLine
 10
77.81550000000001
 20
62.42642350000001
 30
0.0
 11
76.9034
 21
61.22132350000001
 31
0.0
  0
LINE
  5
47A
330
1E
100
AcDbEntity
  8
0
100
AcDbLine
 10
75.83620000000002
 20
60.15012350000001
 30
0.0
 11
74.63310000000001
 21
59.23592350000001
 31
0.0
  0
LINE
  5
47B
330
1E
100
AcDbEntity
  8
0
100
AcDbLine
 10
75.6046
 20
62.10422350000001
 30
0.0
 11
74.5747
 21
61.12362350000001
 31
0.0
  0
LINE
  5
47C
330
1E
100
AcDbEntity
  8
0
100
AcDbLine
 10
77.17220000000001
 20
64.46812350000001
 30
0.0
 11
76.47750000000002
 21
63.22682350000001
 31
0.0
  0
LINE
  5
47D
330
1E
100
AcDbEntity
  8
0
100
AcDbLine
 10
76.66680000000003
 20
67.8167235
 30
0.0
 11
76.48860000000002
 21
66.66802350000001
 31
0.0
  0
LINE
  5
47E
330
1E
100
AcDbEntity
  8
0
100
AcDbLine
 10
77.97360000000001
 20
67.18952350000001
 30
0.0
 11
77.67460000000001
 21
65.7991235
 31
0.0
  0
LINE
  5
47F
330
1E
100
AcDbEntity
  8
0
100
AcDbLine
 10
79.10620000000001
 20
65.15172350000002
 30
0.0
 11
78.55350000000001
 21
63.74532350000001
 31
0.0
  0
LINE
  5
480
330
1E
100
AcDbEntity
  8
0
100
AcDbLine
 10
77.67460000000001
 20
65.7991235
 30
0.0
 11
77.17220000000001
 21
64.46812350000001
 31
0.0
  0
LINE
  5
481
330
1E
100
AcDbEntity
  8
0
100
AcDbLine
 10
78.05460000000002
 20
68.48722350000001
 30
0.0
 11
77.97360000000001
 21
67.18952350000001
 31
0.0
  0
LINE
  5
482
330
1E
100
AcDbEntity
  8
0
100
AcDbLine
 10
76.67370000000001
 20
68.48722350000001
 30
0.0
 11
76.66680000000003
 21
67.8167235
 31
0.0
  0
LINE
  5
483
330
1E
100
AcDbEntity
  8
0
100
AcDbLine
 10
76.48860000000002
 20
66.66802350000001
 30
0.0
 11
76.14830000000001
 21
65.55552350000001
 31
0.0
  0
LINE
  5
484
330
1E
100
AcDbEntity
  8
0
100
AcDbLine
 10
75.65400000000001
 20
64.50442350000002
 30
0.0
 11
75.01470000000001
 21
63.53282350000001
 31
0.0
  0
LINE
  5
485
330
1E
100
AcDbEntity
  8
0
100
AcDbLine
 10
76.14830000000001
 20
65.55552350000001
 30
0.0
 11
75.65400000000001
 21
64.50442350000002
 31
0.0
  0
LINE
  5
486
330
1E
100
AcDbEntity
  8
0
100
AcDbLine
 10
71.30970000000002
 20
60.82262350000001
 30
0.0
 11
70.19020000000002
 21
60.50652350000001
 31
0.0
  0
LINE
  5
487
330
1E
100
AcDbEntity
  8
0
100
AcDbLine
 10
72.13630000000001
 20
59.67392350000001
 30
0.0
 11
70.78220000000001
 21
59.23692350000001
 31
0.0
  0
LINE
  5
488
330
1E
100
AcDbEntity
  8
0
100
AcDbLine
 10
73.40980000000001
 20
60.30712350000001
 30
0.0
 11
72.13630000000001
 21
59.67392350000001
 31
0.0
  0
LINE
  5
489
330
1E
100
AcDbEntity
  8
0
100
AcDbLine
 10
73.3162
 20
58.49292350000001
 30
0.0
 11
71.91080000000001
 21
57.93622350000001
 31
0.0
  0
LINE
  5
48A
330
1E
100
AcDbEntity
  8
0
100
AcDbLine
 10
73.35650000000001
 20
61.91092350000001
 30
0.0
 11
72.37190000000001
 21
61.29382350000001
 31
0.0
  0
LINE
  5
48B
330
1E
100
AcDbEntity
  8
0
100
AcDbLine
 10
72.37190000000001
 20
61.29382350000001
 30
0.0
 11
71.30970000000002
 21
60.82262350000001
 31
0.0
  0
LINE
  5
48C
330
1E
100
AcDbEntity
  8
0
100
AcDbLine
 10
70.19020000000002
 20
60.50652350000001
 30
0.0
 11
69.03740000000002
 21
60.35442350000001
 31
0.0
  0
LINE
  5
48D
330
1E
100
AcDbEntity
  8
0
100
AcDbLine
 10
70.78220000000001
 20
59.23692350000001
 30
0.0
 11
69.37870000000001
 21
59.00742350000001
 31
0.0
  0
LINE
  5
48E
330
1E
100
AcDbEntity
  8
0
100
AcDbLine
 10
69.03740000000002
 20
60.35442350000001
 30
0.0
 11
68.5461
 21
60.36002350000001
 31
0.0
  0
LINE
  5
48F
330
1E
100
AcDbEntity
  8
0
100
AcDbLine
 10
69.37870000000001
 20
59.00742350000001
 30
0.0
 11
68.5461
 21
58.99682350000001
 31
0.0
  0
LINE
  5
490
330
1E
100
AcDbEntity
  8
0
100
AcDbLine
 10
116.9
 20
116.8995235
 30
0.0
 11
110.1
 21
122.7999235
 31
0.0
  0
LINE
  5
491
330
1E
100
AcDbEntity
  8
0
100
AcDbLine
 10
116.9
 20
116.8993235
 30
0.0
 11
110.1
 21
122.7997235
 31
0.0
  0
LINE
  5
492
330
1E
100
AcDbEntity
  8
0
100
AcDbLine
 10
116.2
 20
116.1995235
 30
0.0
 11
109.5
 21
121.9995235
 31
0.0
  0
LINE
  5
493
330
1E
100
AcDbEntity
  8
0
100
AcDbLine
 10
122.0
 20
109.4998235
 30
0.0
 11
116.2
 21
116.1995235
 31
0.0
  0
LINE
  5
494
330
1E
100
AcDbEntity
  8
0
100
AcDbLine
 10
122.8
 20
110.0995235
 30
0.0
 11
116.9
 21
116.8995235
 31
0.0
  0
LINE
  5
495
330
1E
100
AcDbEntity
  8
0
100
AcDbLine
 10
122.8
 20
110.0993235
 30
0.0
 11
116.9
 21
116.8993235
 31
0.0
  0
LINE
  5
496
330
1E
100
AcDbEntity
  8
0
100
AcDbLine
 10
134.5
 20
86.19952350000001
 30
0.0
 11
131.7
 21
94.69932350000002
 31
0.0
  0
LINE
  5
497
330
1E
100
AcDbEntity
  8
0
100
AcDbLine
 10
134.5
 20
86.19932350000002
 30
0.0
 11
131.7
 21
94.69912350000001
 31
0.0
  0
LINE
  5
498
330
1E
100
AcDbEntity
  8
0
100
AcDbLine
 10
133.6
 20
85.4994235
 30
0.0
 11
130.7
 21
94.29942350000002
 31
0.0
  0
LINE
  5
499
330
1E
100
AcDbEntity
  8
0
100
AcDbLine
 10
136.3
 20
77.30012350000001
 30
0.0
 11
134.5
 21
86.19952350000001
 31
0.0
  0
LINE
  5
49A
330
1E
100
AcDbEntity
  8
0
100
AcDbLine
 10
136.3
 20
77.2998235
 30
0.0
 11
134.5
 21
86.19932350000002
 31
0.0
  0
LINE
  5
49B
330
1E
100
AcDbEntity
  8
0
100
AcDbLine
 10
135.3
 20
77.19942350000001
 30
0.0
 11
133.6
 21
85.4994235
 31
0.0
  0
LINE
  5
49C
330
1E
100
AcDbEntity
  8
0
100
AcDbLine
 10
137.0
 20
68.50012350000001
 30
0.0
 11
136.3
 21
77.30012350000001
 31
0.0
  0
LINE
  5
49D
330
1E
100
AcDbEntity
  8
0
100
AcDbLine
 10
127.0
 20
102.0994235
 30
0.0
 11
122.0
 21
109.4998235
 31
0.0
  0
LINE
  5
49E
330
1E
100
AcDbEntity
  8
0
100
AcDbLine
 10
131.7
 20
94.69932350000002
 30
0.0
 11
127.8
 21
102.5997235
 31
0.0
  0
LINE
  5
49F
330
1E
100
AcDbEntity
  8
0
100
AcDbLine
 10
131.7
 20
94.69912350000001
 30
0.0
 11
127.8
 21
102.5994235
 31
0.0
  0
LINE
  5
4A0
330
1E
100
AcDbEntity
  8
0
100
AcDbLine
 10
130.7
 20
94.29942350000002
 30
0.0
 11
127.0
 21
102.0994235
 31
0.0
  0
LINE
  5
4A1
330
1E
100
AcDbEntity
  8
0
100
AcDbLine
 10
127.8
 20
102.5997235
 30
0.0
 11
122.8
 21
110.0995235
 31
0.0
  0
LINE
  5
4A2
330
1E
100
AcDbEntity
  8
0
100
AcDbLine
 10
127.8
 20
102.5994235
 30
0.0
 11
122.8
 21
110.0993235
 31
0.0
  0
LINE
  5
4A3
330
1E
100
AcDbEntity
  8
0
100
AcDbLine
 10
92.83680000000002
 20
100.1630235
 30
0.0
 11
88.41580000000002
 21
103.1524235
 31
0.0
  0
LINE
  5
4A4
330
1E
100
AcDbEntity
  8
0
100
AcDbLine
 10
103.1526
 20
88.41562350000002
 30
0.0
 11
100.1632
 21
92.83662350000001
 31
0.0
  0
LINE
  5
4A5
330
1E
100
AcDbEntity
  8
0
100
AcDbLine
 10
107.0684
 20
78.81562350000002
 30
0.0
 11
105.3842
 21
83.78402350000001
 31
0.0
  0
LINE
  5
4A6
330
1E
100
AcDbEntity
  8
0
100
AcDbLine
 10
108.0789
 20
73.72092350000001
 30
0.0
 11
107.0684
 21
78.81562350000002
 31
0.0
  0
LINE
  5
4A7
330
1E
100
AcDbEntity
  8
0
100
AcDbLine
 10
105.3842
 20
83.78402350000001
 30
0.0
 11
103.1526
 21
88.41562350000002
 31
0.0
  0
LINE
  5
4A8
330
1E
100
AcDbEntity
  8
0
100
AcDbLine
 10
96.75260000000003
 20
96.75242350000004
 30
0.0
 11
92.83680000000002
 21
100.1630235
 31
0.0
  0
LINE
  5
4A9
330
1E
100
AcDbEntity
  8
0
100
AcDbLine
 10
100.1632
 20
92.83662350000001
 30
0.0
 11
96.75260000000003
 21
96.75242350000004
 31
0.0
  0
LINE
  5
4AA
330
1E
100
AcDbEntity
  8
0
100
AcDbLine
 10
80.05460000000002
 20
78.13422350000003
 30
0.0
 11
79.05590000000001
 21
79.21652350000002
 31
0.0
  0
LINE
  5
4AB
330
1E
100
AcDbEntity
  8
0
100
AcDbLine
 10
79.22500000000002
 20
77.55632350000003
 30
0.0
 11
78.25550000000001
 21
78.59032350000003
 31
0.0
  0
LINE
  5
4AC
330
1E
100
AcDbEntity
  8
0
100
AcDbLine
 10
79.60960000000001
 20
77.88152350000003
 30
0.0
 11
78.60480000000001
 21
78.95272350000003
 31
0.0
  0
LINE
  5
4AD
330
1E
100
AcDbEntity
  8
0
100
AcDbLine
 10
79.46260000000001
 20
70.37902350000003
 30
0.0
 11
79.10620000000001
 21
71.84792350000002
 31
0.0
  0
LINE
  5
4AE
330
1E
100
AcDbEntity
  8
0
100
AcDbLine
 10
82.86050000000001
 20
72.99762350000003
 30
0.0
 11
82.3521
 21
74.37892350000002
 31
0.0
  0
LINE
  5
4AF
330
1E
100
AcDbEntity
  8
0
100
AcDbLine
 10
81.92620000000003
 20
72.61202350000002
 30
0.0
 11
81.44290000000001
 21
73.94502350000003
 31
0.0
  0
LINE
  5
4B0
330
1E
100
AcDbEntity
  8
0
100
AcDbLine
 10
82.40740000000002
 20
72.75902350000002
 30
0.0
 11
81.90710000000001
 21
74.14032350000002
 31
0.0
  0
LINE
  5
4B1
330
1E
100
AcDbEntity
  8
0
100
AcDbLine
 10
83.46050000000003
 20
70.11922350000003
 30
0.0
 11
83.23200000000001
 21
71.57302350000001
 31
0.0
  0
LINE
  5
4B2
330
1E
100
AcDbEntity
  8
0
100
AcDbLine
 10
83.46050000000003
 20
70.11922350000003
 30
0.0
 11
83.23100000000001
 21
71.57302350000001
 31
0.0
  0
LINE
  5
4B3
330
1E
100
AcDbEntity
  8
0
100
AcDbLine
 10
82.4779
 20
69.83532350000003
 30
0.0
 11
82.27250000000001
 21
71.23782350000002
 31
0.0
  0
LINE
  5
4B4
330
1E
100
AcDbEntity
  8
0
100
AcDbLine
 10
82.97930000000002
 20
69.88262350000002
 30
0.0
 11
82.76690000000002
 21
71.33542350000002
 31
0.0
  0
LINE
  5
4B5
330
1E
100
AcDbEntity
  8
0
100
AcDbLine
 10
83.54610000000002
 20
68.64932350000002
 30
0.0
 11
83.54070000000001
 21
68.51242350000003
 31
0.0
  0
LINE
  5
4B6
330
1E
100
AcDbEntity
  8
0
100
AcDbLine
 10
83.54610000000002
 20
68.64932350000002
 30
0.0
 11
83.46050000000003
 21
70.11922350000003
 31
0.0
  0
LINE
  5
4B7
330
1E
100
AcDbEntity
  8
0
100
AcDbLine
 10
82.53620000000001
 20
68.51242350000003
 30
0.0
 11
82.4779
 21
69.83532350000003
 31
0.0
  0
LINE
  5
4B8
330
1E
100
AcDbEntity
  8
0
100
AcDbLine
 10
83.03940000000002
 20
68.51242350000003
 30
0.0
 11
82.97930000000002
 21
69.88262350000002
 31
0.0
  0
LINE
  5
4B9
330
1E
100
AcDbEntity
  8
0
100
AcDbLine
 10
83.23100000000001
 20
71.57302350000001
 30
0.0
 11
82.86050000000001
 21
72.99762350000003
 31
0.0
  0
LINE
  5
4BA
330
1E
100
AcDbEntity
  8
0
100
AcDbLine
 10
83.23200000000001
 20
71.57302350000001
 30
0.0
 11
82.86050000000001
 21
72.99762350000003
 31
0.0
  0
LINE
  5
4BB
330
1E
100
AcDbEntity
  8
0
100
AcDbLine
 10
82.27250000000001
 20
71.23782350000002
 30
0.0
 11
81.92620000000003
 21
72.61202350000002
 31
0.0
  0
LINE
  5
4BC
330
1E
100
AcDbEntity
  8
0
100
AcDbLine
 10
82.76690000000002
 20
71.33542350000002
 30
0.0
 11
82.40740000000002
 21
72.75902350000002
 31
0.0
  0
LINE
  5
4BD
330
1E
100
AcDbEntity
  8
0
100
AcDbLine
 10
79.61460000000002
 20
68.87482350000002
 30
0.0
 11
79.60180000000001
 21
68.51242350000003
 31
0.0
  0
LINE
  5
4BE
330
1E
100
AcDbEntity
  8
0
100
AcDbLine
 10
79.61460000000002
 20
68.87482350000002
 30
0.0
 11
79.46260000000001
 21
70.37902350000003
 31
0.0
  0
LINE
  5
4BF
330
1E
100
AcDbEntity
  8
0
100
AcDbLine
 10
82.3521
 20
74.37892350000002
 30
0.0
 11
81.71070000000002
 21
75.70382350000002
 31
0.0
  0
LINE
  5
4C0
330
1E
100
AcDbEntity
  8
0
100
AcDbLine
 10
81.90710000000001
 20
74.14032350000002
 30
0.0
 11
81.26880000000001
 21
75.46322350000003
 31
0.0
  0
LINE
  5
4C1
330
1E
100
AcDbEntity
  8
0
100
AcDbLine
 10
81.71070000000002
 20
75.70382350000002
 30
0.0
 11
80.94260000000002
 21
76.96032350000002
 31
0.0
  0
LINE
  5
4C2
330
1E
100
AcDbEntity
  8
0
100
AcDbLine
 10
81.26880000000001
 20
75.46322350000003
 30
0.0
 11
80.50060000000001
 21
76.71462350000003
 31
0.0
  0
LINE
  5
4C3
330
1E
100
AcDbEntity
  8
0
100
AcDbLine
 10
80.0858
 20
76.42972350000002
 30
0.0
 11
79.22500000000002
 21
77.55632350000003
 31
0.0
  0
LINE
  5
4C4
330
1E
100
AcDbEntity
  8
0
100
AcDbLine
 10
80.82680000000001
 20
75.22162350000003
 30
0.0
 11
80.0858
 21
76.42972350000002
 31
0.0
  0
LINE
  5
4C5
330
1E
100
AcDbEntity
  8
0
100
AcDbLine
 10
81.44290000000001
 20
73.94502350000003
 30
0.0
 11
80.82680000000001
 21
75.22162350000003
 31
0.0
  0
LINE
  5
4C6
330
1E
100
AcDbEntity
  8
0
100
AcDbLine
 10
80.94260000000002
 20
76.96032350000002
 30
0.0
 11
80.05460000000002
 21
78.13422350000003
 31
0.0
  0
LINE
  5
4C7
330
1E
100
AcDbEntity
  8
0
100
AcDbLine
 10
80.50060000000001
 20
76.71462350000003
 30
0.0
 11
79.60960000000001
 21
77.88152350000003
 31
0.0
  0
LINE
  5
4C8
330
1E
100
AcDbEntity
  8
0
100
AcDbLine
 10
78.60480000000001
 20
78.95272350000003
 30
0.0
 11
77.49640000000002
 21
79.91722350000002
 31
0.0
  0
LINE
  5
4C9
330
1E
100
AcDbEntity
  8
0
100
AcDbLine
 10
78.25550000000001
 20
78.59032350000003
 30
0.0
 11
77.18630000000001
 21
79.52052350000002
 31
0.0
  0
LINE
  5
4CA
330
1E
100
AcDbEntity
  8
0
100
AcDbLine
 10
71.91080000000001
 20
79.06342350000002
 30
0.0
 11
70.44290000000001
 21
79.42292350000002
 31
0.0
  0
LINE
  5
4CB
330
1E
100
AcDbEntity
  8
0
100
AcDbLine
 10
74.63310000000001
 20
77.76372350000002
 30
0.0
 11
73.3162
 21
78.50672350000003
 31
0.0
  0
LINE
  5
4CC
330
1E
100
AcDbEntity
  8
0
100
AcDbLine
 10
74.5747
 20
75.87602350000001
 30
0.0
 11
73.40980000000001
 21
76.69252350000004
 31
0.0
  0
LINE
  5
4CD
330
1E
100
AcDbEntity
  8
0
100
AcDbLine
 10
74.24350000000001
 20
74.33662350000002
 30
0.0
 11
73.35650000000001
 21
75.08872350000003
 31
0.0
  0
LINE
  5
4CE
330
1E
100
AcDbEntity
  8
0
100
AcDbLine
 10
78.55350000000001
 20
73.25432350000003
 30
0.0
 11
77.81550000000001
 21
74.57322350000002
 31
0.0
  0
LINE
  5
4CF
330
1E
100
AcDbEntity
  8
0
100
AcDbLine
 10
76.47750000000002
 20
73.77282350000003
 30
0.0
 11
75.6046
 21
74.89542350000004
 31
0.0
  0
LINE
  5
4D0
330
1E
100
AcDbEntity
  8
0
100
AcDbLine
 10
75.01470000000001
 20
73.46682350000001
 30
0.0
 11
74.24350000000001
 21
74.33662350000002
 31
0.0
  0
LINE
  5
4D1
330
1E
100
AcDbEntity
  8
0
100
AcDbLine
 10
76.66680000000003
 20
69.18292350000003
 30
0.0
 11
76.48860000000002
 21
70.33162350000002
 31
0.0
  0
LINE
  5
4D2
330
1E
100
AcDbEntity
  8
0
100
AcDbLine
 10
77.17220000000001
 20
72.53152350000002
 30
0.0
 11
76.47750000000002
 21
73.77282350000003
 31
0.0
  0
LINE
  5
4D3
330
1E
100
AcDbEntity
  8
0
100
AcDbLine
 10
77.97360000000001
 20
69.81012350000003
 30
0.0
 11
77.67460000000001
 21
71.20052350000003
 31
0.0
  0
LINE
  5
4D4
330
1E
100
AcDbEntity
  8
0
100
AcDbLine
 10
78.05460000000002
 20
68.51242350000003
 30
0.0
 11
77.97360000000001
 21
69.81012350000003
 31
0.0
  0
LINE
  5
4D5
330
1E
100
AcDbEntity
  8
0
100
AcDbLine
 10
76.67370000000001
 20
68.51242350000003
 30
0.0
 11
76.66680000000003
 21
69.18292350000003
 31
0.0
  0
LINE
  5
4D6
330
1E
100
AcDbEntity
  8
0
100
AcDbLine
 10
79.10620000000001
 20
71.84792350000002
 30
0.0
 11
78.55350000000001
 21
73.25432350000003
 31
0.0
  0
LINE
  5
4D7
330
1E
100
AcDbEntity
  8
0
100
AcDbLine
 10
77.67460000000001
 20
71.20052350000003
 30
0.0
 11
77.17220000000001
 21
72.53152350000002
 31
0.0
  0
LINE
  5
4D8
330
1E
100
AcDbEntity
  8
0
100
AcDbLine
 10
76.48860000000002
 20
70.33162350000002
 30
0.0
 11
76.14830000000001
 21
71.44412350000003
 31
0.0
  0
LINE
  5
4D9
330
1E
100
AcDbEntity
  8
0
100
AcDbLine
 10
75.65400000000001
 20
72.49522350000003
 30
0.0
 11
75.01470000000001
 21
73.46682350000001
 31
0.0
  0
LINE
  5
4DA
330
1E
100
AcDbEntity
  8
0
100
AcDbLine
 10
76.14830000000001
 20
71.44412350000003
 30
0.0
 11
75.65400000000001
 21
72.49522350000003
 31
0.0
  0
LINE
  5
4DB
330
1E
100
AcDbEntity
  8
0
100
AcDbLine
 10
76.9034
 20
75.77832350000003
 30
0.0
 11
75.83620000000002
 21
76.84952350000002
 31
0.0
  0
LINE
  5
4DC
330
1E
100
AcDbEntity
  8
0
100
AcDbLine
 10
77.81550000000001
 20
74.57322350000002
 30
0.0
 11
76.9034
 21
75.77832350000003
 31
0.0
  0
LINE
  5
4DD
330
1E
100
AcDbEntity
  8
0
100
AcDbLine
 10
75.6046
 20
74.89542350000004
 30
0.0
 11
74.5747
 21
75.87602350000001
 31
0.0
  0
LINE
  5
4DE
330
1E
100
AcDbEntity
  8
0
100
AcDbLine
 10
75.83620000000002
 20
76.84952350000002
 30
0.0
 11
74.63310000000001
 21
77.76372350000002
 31
0.0
  0
LINE
  5
4DF
330
1E
100
AcDbEntity
  8
0
100
AcDbLine
 10
72.13630000000001
 20
77.32572350000002
 30
0.0
 11
70.78220000000001
 21
77.76272350000003
 31
0.0
  0
LINE
  5
4E0
330
1E
100
AcDbEntity
  8
0
100
AcDbLine
 10
71.30970000000002
 20
76.17702350000003
 30
0.0
 11
70.19020000000002
 21
76.49312350000002
 31
0.0
  0
LINE
  5
4E1
330
1E
100
AcDbEntity
  8
0
100
AcDbLine
 10
73.35650000000001
 20
75.08872350000003
 30
0.0
 11
72.37190000000001
 21
75.70582350000002
 31
0.0
  0
LINE
  5
4E2
330
1E
100
AcDbEntity
  8
0
100
AcDbLine
 10
72.37190000000001
 20
75.70582350000002
 30
0.0
 11
71.30970000000002
 21
76.17702350000003
 31
0.0
  0
LINE
  5
4E3
330
1E
100
AcDbEntity
  8
0
100
AcDbLine
 10
73.3162
 20
78.50672350000003
 30
0.0
 11
71.91080000000001
 21
79.06342350000002
 31
0.0
  0
LINE
  5
4E4
330
1E
100
AcDbEntity
  8
0
100
AcDbLine
 10
73.40980000000001
 20
76.69252350000004
 30
0.0
 11
72.13630000000001
 21
77.32572350000002
 31
0.0
  0
LINE
  5
4E5
330
1E
100
AcDbEntity
  8
0
100
AcDbLine
 10
70.19020000000002
 20
76.49312350000002
 30
0.0
 11
69.03740000000002
 21
76.64522350000003
 31
0.0
  0
LINE
  5
4E6
330
1E
100
AcDbEntity
  8
0
100
AcDbLine
 10
70.78220000000001
 20
77.76272350000003
 30
0.0
 11
69.37870000000001
 21
77.99222350000002
 31
0.0
  0
LINE
  5
4E7
330
1E
100
AcDbEntity
  8
0
100
AcDbLine
 10
69.37870000000001
 20
77.99222350000002
 30
0.0
 11
68.5461
 21
78.00282350000002
 31
0.0
  0
LINE
  5
4E8
330
1E
100
AcDbEntity
  8
0
100
AcDbLine
 10
69.03740000000002
 20
76.64522350000003
 30
0.0
 11
68.5461
 21
76.63962350000002
 31
0.0
  0
LINE
  5
4E9
330
1E
100
AcDbEntity
  8
0
100
AcDbLine
 10
75.01770000000002
 20
81.48582350000003
 30
0.0
 11
73.67260000000001
 21
82.07372350000003
 31
0.0
  0
LINE
  5
4EA
330
1E
100
AcDbEntity
  8
0
100
AcDbLine
 10
74.79320000000001
 20
81.03472350000002
 30
0.0
 11
73.49440000000001
 21
81.60252350000003
 31
0.0
  0
LINE
  5
4EB
330
1E
100
AcDbEntity
  8
0
100
AcDbLine
 10
74.15990000000002
 20
82.42312350000002
 30
0.0
 11
72.76950000000001
 21
82.90632350000002
 31
0.0
  0
LINE
  5
4EC
330
1E
100
AcDbEntity
  8
0
100
AcDbLine
 10
77.49640000000002
 20
79.91722350000002
 30
0.0
 11
76.29730000000001
 21
80.76392350000002
 31
0.0
  0
LINE
  5
4ED
330
1E
100
AcDbEntity
  8
0
100
AcDbLine
 10
77.18630000000001
 20
79.52052350000002
 30
0.0
 11
76.0285
 21
80.33802350000003
 31
0.0
  0
LINE
  5
4EE
330
1E
100
AcDbEntity
  8
0
100
AcDbLine
 10
76.76650000000001
 20
81.06092350000002
 30
0.0
 11
75.49690000000001
 21
81.80592350000003
 31
0.0
  0
LINE
  5
4EF
330
1E
100
AcDbEntity
  8
0
100
AcDbLine
 10
77.95650000000001
 20
80.19512350000002
 30
0.0
 11
76.76650000000001
 21
81.06092350000002
 31
0.0
  0
LINE
  5
4F0
330
1E
100
AcDbEntity
  8
0
100
AcDbLine
 10
79.05590000000001
 20
79.21652350000002
 30
0.0
 11
77.95650000000001
 21
80.19512350000002
 31
0.0
  0
LINE
  5
4F1
330
1E
100
AcDbEntity
  8
0
100
AcDbLine
 10
75.49690000000001
 20
81.80592350000003
 30
0.0
 11
74.15990000000002
 21
82.42312350000002
 31
0.0
  0
LINE
  5
4F2
330
1E
100
AcDbEntity
  8
0
100
AcDbLine
 10
76.29730000000001
 20
80.76392350000002
 30
0.0
 11
75.01770000000002
 21
81.48582350000003
 31
0.0
  0
LINE
  5
4F3
330
1E
100
AcDbEntity
  8
0
100
AcDbLine
 10
76.0285
 20
80.33802350000003
 30
0.0
 11
74.79320000000001
 21
81.03472350000002
 31
0.0
  0
LINE
  5
4F4
330
1E
100
AcDbEntity
  8
0
100
AcDbLine
 10
72.27420000000001
 20
82.52272350000003
 30
0.0
 11
70.83750000000001
 21
82.82782350000003
 31
0.0
  0
LINE
  5
4F5
330
1E
100
AcDbEntity
  8
0
100
AcDbLine
 10
72.14430000000001
 20
82.03652350000004
 30
0.0
 11
70.758
 21
82.33042350000003
 31
0.0
  0
LINE
  5
4F6
330
1E
100
AcDbEntity
  8
0
100
AcDbLine
 10
71.33790000000002
 20
83.25162350000004
 30
0.0
 11
69.88010000000001
 21
83.45402350000002
 31
0.0
  0
LINE
  5
4F7
330
1E
100
AcDbEntity
  8
0
100
AcDbLine
 10
73.49440000000001
 20
81.60252350000003
 30
0.0
 11
72.14430000000001
 21
82.03652350000004
 31
0.0
  0
LINE
  5
4F8
330
1E
100
AcDbEntity
  8
0
100
AcDbLine
 10
73.67260000000001
 20
82.07372350000003
 30
0.0
 11
72.27420000000001
 21
82.52272350000003
 31
0.0
  0
LINE
  5
4F9
330
1E
100
AcDbEntity
  8
0
100
AcDbLine
 10
72.76950000000001
 20
82.90632350000002
 30
0.0
 11
71.33790000000002
 21
83.25162350000004
 31
0.0
  0
LINE
  5
4FA
330
1E
100
AcDbEntity
  8
0
100
AcDbLine
 10
70.44290000000001
 20
79.42292350000002
 30
0.0
 11
68.93980000000002
 21
79.57992350000002
 31
0.0
  0
LINE
  5
4FB
330
1E
100
AcDbEntity
  8
0
100
AcDbLine
 10
68.93980000000002
 20
79.57992350000002
 30
0.0
 11
68.5461
 21
79.56712350000002
 31
0.0
  0
LINE
  5
4FC
330
1E
100
AcDbEntity
  8
0
100
AcDbLine
 10
69.88010000000001
 20
83.45402350000002
 30
0.0
 11
68.5461
 21
83.50702350000002
 31
0.0
  0
LINE
  5
4FD
330
1E
100
AcDbEntity
  8
0
100
AcDbLine
 10
70.83750000000001
 20
82.82782350000003
 30
0.0
 11
69.37770000000002
 21
82.98592350000003
 31
0.0
  0
LINE
  5
4FE
330
1E
100
AcDbEntity
  8
0
100
AcDbLine
 10
70.758
 20
82.33042350000003
 30
0.0
 11
69.34850000000001
 21
82.48352350000002
 31
0.0
  0
LINE
  5
4FF
330
1E
100
AcDbEntity
  8
0
100
AcDbLine
 10
69.37770000000002
 20
82.98592350000003
 30
0.0
 11
68.5461
 21
82.99162350000001
 31
0.0
  0
LINE
  5
500
330
1E
100
AcDbEntity
  8
0
100
AcDbLine
 10
69.34850000000001
 20
82.48352350000002
 30
0.0
 11
68.5461
 21
82.48862350000003
 31
0.0
  0
LINE
  5
501
330
1E
100
AcDbEntity
  8
0
100
AcDbLine
 10
83.78420000000003
 20
105.3840235
 30
0.0
 11
78.81580000000003
 21
107.0682235
 31
0.0
  0
LINE
  5
502
330
1E
100
AcDbEntity
  8
0
100
AcDbLine
 10
88.41580000000002
 20
103.1524235
 30
0.0
 11
83.78420000000003
 21
105.3840235
 31
0.0
  0
LINE
  5
503
330
1E
100
AcDbEntity
  8
0
100
AcDbLine
 10
78.81580000000003
 20
107.0682235
 30
0.0
 11
73.72110000000002
 21
108.0787235
 31
0.0
  0
LINE
  5
504
330
1E
100
AcDbEntity
  8
0
100
AcDbLine
 10
73.72110000000002
 20
108.0787235
 30
0.0
 11
68.50000000000001
 21
108.4998235
 31
0.0
  0
LINE
  5
505
330
1E
100
AcDbEntity
  8
0
100
AcDbLine
 10
94.70000000000004
 20
131.6994135
 30
0.0
 11
86.20000000000002
 21
134.4995235
 31
0.0
  0
LINE
  5
506
330
1E
100
AcDbEntity
  8
0
100
AcDbLine
 10
94.70000000000004
 20
131.6991435
 30
0.0
 11
86.20000000000002
 21
134.4992635
 31
0.0
  0
LINE
  5
507
330
1E
100
AcDbEntity
  8
0
100
AcDbLine
 10
94.30000000000003
 20
130.6991534999999
 30
0.0
 11
85.50000000000002
 21
133.5996135
 31
0.0
  0
LINE
  5
508
330
1E
100
AcDbEntity
  8
0
100
AcDbLine
 10
102.6
 20
127.7998435
 30
0.0
 11
94.70000000000004
 21
131.6994135
 31
0.0
  0
LINE
  5
509
330
1E
100
AcDbEntity
  8
0
100
AcDbLine
 10
102.6
 20
127.7995835
 30
0.0
 11
94.70000000000004
 21
131.6991435
 31
0.0
  0
LINE
  5
50A
330
1E
100
AcDbEntity
  8
0
100
AcDbLine
 10
102.1
 20
126.9994235
 30
0.0
 11
94.30000000000003
 21
130.6991534999999
 31
0.0
  0
LINE
  5
50B
330
1E
100
AcDbEntity
  8
0
100
AcDbLine
 10
109.5
 20
121.9995235
 30
0.0
 11
102.1
 21
126.9994235
 31
0.0
  0
LINE
  5
50C
330
1E
100
AcDbEntity
  8
0
100
AcDbLine
 10
110.1
 20
122.7999235
 30
0.0
 11
102.6
 21
127.7998435
 31
0.0
  0
LINE
  5
50D
330
1E
100
AcDbEntity
  8
0
100
AcDbLine
 10
110.1
 20
122.7997235
 30
0.0
 11
102.6
 21
127.7995835
 31
0.0
  0
LINE
  5
50E
330
1E
100
AcDbEntity
  8
0
100
AcDbLine
 10
86.20000000000002
 20
134.4995235
 30
0.0
 11
77.30000000000003
 21
136.2996595
 31
0.0
  0
LINE
  5
50F
330
1E
100
AcDbEntity
  8
0
100
AcDbLine
 10
86.20000000000002
 20
134.4992635
 30
0.0
 11
77.30000000000003
 21
136.2993925
 31
0.0
  0
LINE
  5
510
330
1E
100
AcDbEntity
  8
0
100
AcDbLine
 10
86.20000000000002
 20
134.4992635
 30
0.0
 11
77.30000000000003
 21
136.2993925
 31
0.0
  0
LINE
  5
511
330
1E
100
AcDbEntity
  8
0
100
AcDbLine
 10
85.50000000000002
 20
133.5996135
 30
0.0
 11
77.20000000000003
 21
135.2994035
 31
0.0
  0
LINE
  5
512
330
1E
100
AcDbEntity
  8
0
100
AcDbLine
 10
77.30000000000003
 20
136.2996595
 30
0.0
 11
68.50000000000003
 21
136.9994705
 31
0.0
  0
LINE
  5
513
330
1E
100
AcDbEntity
  8
0
100
AcDbLine
 10
77.30000000000003
 20
136.2996595
 30
0.0
 11
68.50000000000003
 21
136.9994705
 31
0.0
  0
LINE
  5
514
330
1E
100
AcDbEntity
  8
0
100
AcDbLine
 10
77.30000000000003
 20
136.2993925
 30
0.0
 11
68.50000000000003
 21
136.9992045
 31
0.0
  0
LINE
  5
515
330
1E
100
AcDbEntity
  8
0
100
AcDbLine
 10
77.30000000000003
 20
136.2993925
 30
0.0
 11
68.50000000000003
 21
136.9992045
 31
0.0
  0
LINE
  5
516
330
1E
100
AcDbEntity
  8
0
100
AcDbLine
 10
77.20000000000003
 20
135.2994035
 30
0.0
 11
68.50000000000003
 21
135.9992134999999
 31
0.0
  0
ENDSEC
  0
SECTION
  2
OBJECTS
  0
DICTIONARY
  5
C
330
0
100
AcDbDictionary
281
     1
  3
ACAD_GROUP
350
D
  3
ACAD_LAYOUT
350
19
  3
ACAD_MLINESTYLE
350
16
  3
ACAD_PLOTSETTINGS
350
18
  3
ACAD_PLOTSTYLENAME
350
E
  3
AcDbVariableDictionary
350
518
  0
DICTIONARY
  5
D
102
{ACAD_REACTORS
330
C
102
}
330
C
100
AcDbDictionary
281
     1
  0
DICTIONARY
  5
19
102
{ACAD_REACTORS
330
C
102
}
330
C
100
AcDbDictionary
281
     1
  3
Layout1
350
1D
  3
Model
350
21
  0
DICTIONARY
  5
16
102
{ACAD_REACTORS
330
C
102
}
330
C
100
AcDbDictionary
281
     1
  3
Standard
350
17
  0
DICTIONARY
  5
18
102
{ACAD_REACTORS
330
C
102
}
330
C
100
AcDbDictionary
281
     1
  0
ACDBDICTIONARYWDFLT
  5
E
102
{ACAD_REACTORS
330
C
102
}
330
C
100
AcDbDictionary
281
     1
  3
Normal
350
F
100
AcDbDictionaryWithDefault
340
F
  0
DICTIONARY
  5
518
102
{ACAD_REACTORS
330
C
102
}
330
C
100
AcDbDictionary
281
     1
  3
DIMASSOC
350
519
  0
LAYOUT
  5
1D
102
{ACAD_REACTORS
330
19
102
}
330
19
100
AcDbPlotSettings
  1

  2
C:\Programme\AutoCAD LT 2002 Deu\plotters\DWF ePlot (optimized for plotting).pc3
  4

  6

 40
0.0
 41
0.0
 42
0.0
 43
0.0
 44
0.0
 45
0.0
 46
0.0
 47
0.0
 48
0.0
 49
0.0
140
0.0
141
0.0
142
1.0
143
1.0
 70
   688
 72
     0
 73
     0
 74
     5
  7

 75
    16
147
1.0
148
0.0
149
0.0
100
AcDbLayout
  1
Layout1
 70
     1
 71
     1
 10
0.0
 20
0.0
 11
12.0
 21
9.0
 12
0.0
 22
0.0
 32
0.0
 14
1.000000000000000E+20
 24
1.000000000000000E+20
 34
1.000000000000000E+20
 15
-1.000000000000000E+20
 25
-1.000000000000000E+20
 35
-1.000000000000000E+20
146
0.0
 13
0.0
 23
0.0
 33
0.0
 16
1.0
 26
0.0
 36
0.0
 17
0.0
 27
1.0
 37
0.0
 76
     0
330
1A
  0
LAYOUT
  5
21
102
{ACAD_REACTORS
330
19
102
}
330
19
100
AcDbPlotSettings
  1

  2
C:\Programme\AutoCAD LT 2002 Deu\plotters\DWF ePlot (optimized for plotting).pc3
  4

  6

 40
0.0
 41
0.0
 42
0.0
 43
0.0
 44
0.0
 45
0.0
 46
0.0
 47
0.0
 48
0.0
 49
0.0
140
0.0
141
0.0
142
1.0
143
1.0
 70
  1712
 72
     0
 73
     0
 74
     0
  7

 75
     0
147
1.0
148
0.0
149
0.0
100
AcDbLayout
  1
Model
 70
     1
 71
     0
 10
0.0
 20
0.0
 11
12.0
 21
9.0
 12
0.0
 22
0.0
 32
0.0
 14
0.0
 24
0.0
 34
0.0
 15
0.0
 25
0.0
 35
0.0
146
0.0
 13
0.0
 23
0.0
 33
0.0
 16
1.0
 26
0.0
 36
0.0
 17
0.0
 27
1.0
 37
0.0
 76
     0
330
1E
  0
MLINESTYLE
  5
17
102
{ACAD_REACTORS
330
16
102
}
330
16
100
AcDbMlineStyle
  2
STANDARD
 70
     0
  3

 62
   256
 51
90.0
 52
90.0
 71
     2
 49
0.5
 62
   256
  6
BYLAYER
 49
-0.5
 62
   256
  6
BYLAYER
  0
ACDBPLACEHOLDER
  5
F
102
{ACAD_REACTORS
330
E
102
}
330
E
  0
DICTIONARYVAR
  5
519
102
{ACAD_REACTORS
330
518
102
}
330
518
100
DictionaryVariables
280
     0
  1
1
  0
ENDSEC
  0
EOF
