  0
SECTION
  2
HEADER
  9
$ACADVER
  1
AC1015
  9
$ACADMAINTVER
 70
    13
  9
$DWGCODEPAGE
  3
ANSI_1252
  9
$INSBASE
 10
0.0
 20
0.0
 30
0.0
  9
$EXTMIN
 10
0.0001765000000037
 20
0.158899999999995
 30
0.0
  9
$EXTMAX
 10
136.9998235
 20
73.84109999999999
 30
0.0
  9
$LIMMIN
 10
0.0
 20
0.0
  9
$LIMMAX
 10
12.0
 20
9.0
  9
$ORTHOMODE
 70
     0
  9
$REGENMODE
 70
     1
  9
$FILLMODE
 70
     1
  9
$QTEXTMODE
 70
     0
  9
$MIRRTEXT
 70
     1
  9
$LTSCALE
 40
1.0
  9
$ATTMODE
 70
     1
  9
$TEXTSIZE
 40
0.2
  9
$TRACEWID
 40
0.05
  9
$TEXTSTYLE
  7
Standard
  9
$CLAYER
  8
0
  9
$CELTYPE
  6
Continuous
  9
$CECOLOR
 62
   256
  9
$CELTSCALE
 40
1.0
  9
$DISPSILH
 70
     0
  9
$DIMSCALE
 40
1.0
  9
$DIMASZ
 40
0.18
  9
$DIMEXO
 40
0.0625
  9
$DIMDLI
 40
0.38
  9
$DIMRND
 40
0.0
  9
$DIMDLE
 40
0.0
  9
$DIMEXE
 40
0.18
  9
$DIMTP
 40
0.0
  9
$DIMTM
 40
0.0
  9
$DIMTXT
 40
0.18
  9
$DIMCEN
 40
0.09
  9
$DIMTSZ
 40
0.0
  9
$DIMTOL
 70
     0
  9
$DIMLIM
 70
     0
  9
$DIMTIH
 70
     1
  9
$DIMTOH
 70
     1
  9
$DIMSE1
 70
     0
  9
$DIMSE2
 70
     0
  9
$DIMTAD
 70
     0
  9
$DIMZIN
 70
     0
  9
$DIMBLK
  1

  9
$DIMASO
 70
     1
  9
$DIMSHO
 70
     1
  9
$DIMPOST
  1

  9
$DIMAPOST
  1

  9
$DIMALT
 70
     0
  9
$DIMALTD
 70
     2
  9
$DIMALTF
 40
25.4
  9
$DIMLFAC
 40
1.0
  9
$DIMTOFL
 70
     0
  9
$DIMTVP
 40
0.0
  9
$DIMTIX
 70
     0
  9
$DIMSOXD
 70
     0
  9
$DIMSAH
 70
     0
  9
$DIMBLK1
  1

  9
$DIMBLK2
  1

  9
$DIMSTYLE
  2
Standard
  9
$DIMCLRD
 70
     0
  9
$DIMCLRE
 70
     0
  9
$DIMCLRT
 70
     0
  9
$DIMTFAC
 40
1.0
  9
$DIMGAP
 40
0.09
  9
$DIMJUST
 70
     0
  9
$DIMSD1
 70
     0
  9
$DIMSD2
 70
     0
  9
$DIMTOLJ
 70
     1
  9
$DIMTZIN
 70
     0
  9
$DIMALTZ
 70
     0
  9
$DIMALTTZ
 70
     0
  9
$DIMUPT
 70
     0
  9
$DIMDEC
 70
     4
  9
$DIMTDEC
 70
     4
  9
$DIMALTU
 70
     2
  9
$DIMALTTD
 70
     2
  9
$DIMTXSTY
  7
Standard
  9
$DIMAUNIT
 70
     0
  9
$DIMADEC
 70
     0
  9
$DIMALTRND
 40
0.0
  9
$DIMAZIN
 70
     0
  9
$DIMDSEP
 70
    46
  9
$DIMATFIT
 70
     3
  9
$DIMFRAC
 70
     0
  9
$DIMLDRBLK
  1

  9
$DIMLUNIT
 70
     2
  9
$DIMLWD
 70
    -2
  9
$DIMLWE
 70
    -2
  9
$DIMTMOVE
 70
     0
  9
$LUNITS
 70
     2
  9
$LUPREC
 70
     4
  9
$SKETCHINC
 40
0.1
  9
$FILLETRAD
 40
0.0
  9
$AUNITS
 70
     0
  9
$AUPREC
 70
     0
  9
$MENU
  1
.
  9
$ELEVATION
 40
0.0
  9
$PELEVATION
 40
0.0
  9
$THICKNESS
 40
0.0
  9
$LIMCHECK
 70
     0
  9
$CHAMFERA
 40
0.0
  9
$CHAMFERB
 40
0.0
  9
$CHAMFERC
 40
0.0
  9
$CHAMFERD
 40
0.0
  9
$SKPOLY
 70
     0
  9
$TDCREATE
 40
2455650.990297488
  9
$TDUCREATE
 40
2455650.906964155
  9
$TDUPDATE
 40
2455650.991728692
  9
$TDUUPDATE
 40
2455650.908395358
  9
$TDINDWG
 40
0.0014313889
  9
$TDUSRTIMER
 40
0.0014313889
  9
$USRTIMER
 70
     1
  9
$ANGBASE
 50
0.0
  9
$ANGDIR
 70
     0
  9
$PDMODE
 70
     0
  9
$PDSIZE
 40
0.0
  9
$PLINEWID
 40
0.0
  9
$SPLFRAME
 70
     0
  9
$SPLINETYPE
 70
     6
  9
$SPLINESEGS
 70
     8
  9
$HANDSEED
  5
4DF
  9
$SURFTAB1
 70
     6
  9
$SURFTAB2
 70
     6
  9
$SURFTYPE
 70
     6
  9
$SURFU
 70
     6
  9
$SURFV
 70
     6
  9
$UCSBASE
  2

  9
$UCSNAME
  2

  9
$UCSORG
 10
0.0
 20
0.0
 30
0.0
  9
$UCSXDIR
 10
1.0
 20
0.0
 30
0.0
  9
$UCSYDIR
 10
0.0
 20
1.0
 30
0.0
  9
$UCSORTHOREF
  2

  9
$UCSORTHOVIEW
 70
     1
  9
$UCSORGTOP
 10
0.0
 20
0.0
 30
0.0
  9
$UCSORGBOTTOM
 10
0.0
 20
0.0
 30
0.0
  9
$UCSORGLEFT
 10
0.0
 20
0.0
 30
0.0
  9
$UCSORGRIGHT
 10
0.0
 20
0.0
 30
0.0
  9
$UCSORGFRONT
 10
0.0
 20
0.0
 30
0.0
  9
$UCSORGBACK
 10
0.0
 20
0.0
 30
0.0
  9
$PUCSBASE
  2

  9
$PUCSNAME
  2

  9
$PUCSORG
 10
0.0
 20
0.0
 30
0.0
  9
$PUCSXDIR
 10
1.0
 20
0.0
 30
0.0
  9
$PUCSYDIR
 10
0.0
 20
1.0
 30
0.0
  9
$PUCSORTHOREF
  2

  9
$PUCSORTHOVIEW
 70
     0
  9
$PUCSORGTOP
 10
0.0
 20
0.0
 30
0.0
  9
$PUCSORGBOTTOM
 10
0.0
 20
0.0
 30
0.0
  9
$PUCSORGLEFT
 10
0.0
 20
0.0
 30
0.0
  9
$PUCSORGRIGHT
 10
0.0
 20
0.0
 30
0.0
  9
$PUCSORGFRONT
 10
0.0
 20
0.0
 30
0.0
  9
$PUCSORGBACK
 10
0.0
 20
0.0
 30
0.0
  9
$USERI1
 70
     0
  9
$USERI2
 70
     0
  9
$USERI3
 70
     0
  9
$USERI4
 70
     0
  9
$USERI5
 70
     0
  9
$USERR1
 40
0.0
  9
$USERR2
 40
0.0
  9
$USERR3
 40
0.0
  9
$USERR4
 40
0.0
  9
$USERR5
 40
0.0
  9
$WORLDVIEW
 70
     1
  9
$SHADEDGE
 70
     3
  9
$SHADEDIF
 70
    70
  9
$TILEMODE
 70
     1
  9
$MAXACTVP
 70
    64
  9
$PINSBASE
 10
0.0
 20
0.0
 30
0.0
  9
$PLIMCHECK
 70
     0
  9
$PEXTMIN
 10
1.000000000000000E+20
 20
1.000000000000000E+20
 30
1.000000000000000E+20
  9
$PEXTMAX
 10
-1.000000000000000E+20
 20
-1.000000000000000E+20
 30
-1.000000000000000E+20
  9
$PLIMMIN
 10
0.0
 20
0.0
  9
$PLIMMAX
 10
12.0
 20
9.0
  9
$UNITMODE
 70
     0
  9
$VISRETAIN
 70
     1
  9
$PLINEGEN
 70
     0
  9
$PSLTSCALE
 70
     1
  9
$TREEDEPTH
 70
  3020
  9
$CMLSTYLE
  2
Standard
  9
$CMLJUST
 70
     0
  9
$CMLSCALE
 40
1.0
  9
$PROXYGRAPHICS
 70
     1
  9
$MEASUREMENT
 70
     0
  9
$CELWEIGHT
370
    -1
  9
$ENDCAPS
280
     0
  9
$JOINSTYLE
280
     0
  9
$LWDISPLAY
290
     0
  9
$INSUNITS
 70
     0
  9
$HYPERLINKBASE
  1

  9
$STYLESHEET
  1

  9
$XEDIT
290
     1
  9
$CEPSNTYPE
380
     0
  9
$PSTYLEMODE
290
     1
  9
$FINGERPRINTGUID
  2
{855E68BC-CD7A-4593-97DC-C6857DAE27BE}
  9
$VERSIONGUID
  2
{774C3B2D-F463-4DEE-A0A9-09DA05118ACB}
  9
$EXTNAMES
290
     1
  9
$PSVPSCALE
 40
0.0
  9
$OLESTARTUP
290
     0
  0
ENDSEC
  0
SECTION
  2
CLASSES
  0
CLASS
  1
ACDBDICTIONARYWDFLT
  2
AcDbDictionaryWithDefault
  3
AutoCAD 2000
 90
        0
280
     0
281
     0
  0
CLASS
  1
ACDBPLACEHOLDER
  2
AcDbPlaceHolder
  3
AutoCAD 2000
 90
        0
280
     0
281
     0
  0
CLASS
  1
LAYOUT
  2
AcDbLayout
  3
AutoCAD 2000
 90
        0
280
     0
281
     0
  0
CLASS
  1
DICTIONARYVAR
  2
AcDbDictionaryVar
  3
AutoCAD 2000
 90
        0
280
     0
281
     0
  0
ENDSEC
  0
SECTION
  2
TABLES
  0
TABLE
  2
VPORT
  5
8
330
0
100
AcDbSymbolTable
 70
     3
  0
VPORT
  5
4DE
330
8
100
AcDbSymbolTableRecord
100
AcDbViewportTableRecord
  2
*Active
 70
     0
 10
0.0
 20
0.0
 11
1.0
 21
1.0
 12
68.50000000000001
 22
37.0
 13
0.0
 23
0.0
 14
1.0
 24
1.0
 15
0.0
 25
0.0
 16
0.0
 26
0.0
 36
1.0
 17
0.0
 27
0.0
 37
0.0
 40
74.18061397970689
 41
2.073363431151241
 42
50.0
 43
0.0
 44
0.0
 50
0.0
 51
0.0
 71
     0
 72
   100
 73
     1
 74
     3
 75
     0
 76
     0
 77
     0
 78
     0
281
     0
 65
     1
110
0.0
120
0.0
130
0.0
111
1.0
121
0.0
131
0.0
112
0.0
122
1.0
132
0.0
 79
     1
146
0.0
  0
ENDTAB
  0
TABLE
  2
LTYPE
  5
5
330
0
100
AcDbSymbolTable
 70
     1
  0
LTYPE
  5
13
330
5
100
AcDbSymbolTableRecord
100
AcDbLinetypeTableRecord
  2
ByBlock
 70
     0
  3

 72
    65
 73
     0
 40
0.0
  0
LTYPE
  5
14
330
5
100
AcDbSymbolTableRecord
100
AcDbLinetypeTableRecord
  2
ByLayer
 70
     0
  3

 72
    65
 73
     0
 40
0.0
  0
LTYPE
  5
15
330
5
100
AcDbSymbolTableRecord
100
AcDbLinetypeTableRecord
  2
Continuous
 70
     0
  3
Solid line
 72
    65
 73
     0
 40
0.0
  0
ENDTAB
  0
TABLE
  2
LAYER
  5
2
330
0
100
AcDbSymbolTable
 70
     1
  0
LAYER
  5
10
330
2
100
AcDbSymbolTableRecord
100
AcDbLayerTableRecord
  2
0
 70
     0
 62
     7
  6
Continuous
370
    -3
390
F
  0
ENDTAB
  0
TABLE
  2
STYLE
  5
3
330
0
100
AcDbSymbolTable
 70
     1
  0
STYLE
  5
11
330
3
100
AcDbSymbolTableRecord
100
AcDbTextStyleTableRecord
  2
Standard
 70
     0
 40
0.0
 41
1.0
 50
0.0
 71
     0
 42
0.2
  3
txt
  4

  0
ENDTAB
  0
TABLE
  2
VIEW
  5
6
330
0
100
AcDbSymbolTable
 70
     0
  0
ENDTAB
  0
TABLE
  2
UCS
  5
7
330
0
100
AcDbSymbolTable
 70
     0
  0
ENDTAB
  0
TABLE
  2
APPID
  5
9
330
0
100
AcDbSymbolTable
 70
     1
  0
APPID
  5
12
330
9
100
AcDbSymbolTableRecord
100
AcDbRegAppTableRecord
  2
ACAD
 70
     0
  0
ENDTAB
  0
TABLE
  2
DIMSTYLE
  5
A
330
0
100
AcDbSymbolTable
 70
     1
100
AcDbDimStyleTable
 71
     0
  0
DIMSTYLE
105
432
330
A
100
AcDbSymbolTableRecord
100
AcDbDimStyleTableRecord
  2
Standard
 70
     0
340
11
  0
ENDTAB
  0
TABLE
  2
BLOCK_RECORD
  5
1
330
0
100
AcDbSymbolTable
 70
     0
  0
BLOCK_RECORD
  5
1E
330
1
100
AcDbSymbolTableRecord
100
AcDbBlockTableRecord
  2
*Model_Space
340
21
  0
BLOCK_RECORD
  5
1A
330
1
100
AcDbSymbolTableRecord
100
AcDbBlockTableRecord
  2
*Paper_Space
340
1D
  0
ENDTAB
  0
ENDSEC
  0
SECTION
  2
BLOCKS
  0
BLOCK
  5
1F
330
1E
100
AcDbEntity
  8
0
100
AcDbBlockBegin
  2
*Model_Space
 70
     0
 10
0.0
 20
0.0
 30
0.0
  3
*Model_Space
  1

  0
ENDBLK
  5
20
330
1E
100
AcDbEntity
  8
0
100
AcDbBlockEnd
  0
BLOCK
  5
1B
330
1A
100
AcDbEntity
 67
     1
  8
0
100
AcDbBlockBegin
  2
*Paper_Space
 70
     0
 10
0.0
 20
0.0
 30
0.0
  3
*Paper_Space
  1

  0
ENDBLK
  5
1C
330
1A
100
AcDbEntity
 67
     1
  8
0
100
AcDbBlockEnd
  0
ENDSEC
  0
SECTION
  2
ENTITIES
  0
LINE
  5
22
330
1E
100
AcDbEntity
  8
0
100
AcDbLine
 10
0.0001765000000037
 20
6.85936
 30
0.0
 11
0.000442500000005
 21
27.8589
 31
0.0
  0
LINE
  5
23
330
1E
100
AcDbEntity
  8
0
100
AcDbLine
 10
0.0001765000000037
 20
6.85936
 30
0.0
 11
0.000442500000005
 21
27.8589
 31
0.0
  0
LINE
  5
24
330
1E
100
AcDbEntity
  8
0
100
AcDbLine
 10
0.0001765000000037
 20
6.85936
 30
0.0
 11
0.6999875000000041
 21
6.85925
 31
0.0
  0
LINE
  5
25
330
1E
100
AcDbEntity
  8
0
100
AcDbLine
 10
0.0001765000000037
 20
6.85936
 30
0.0
 11
1.000143499999999
 21
5.859369999999999
 31
0.0
  0
LINE
  5
26
330
1E
100
AcDbEntity
  8
0
100
AcDbLine
 10
0.7002545000000051
 20
27.8588
 30
0.0
 11
2.500383500000009
 21
27.8589
 31
0.0
  0
LINE
  5
27
330
1E
100
AcDbEntity
  8
0
100
AcDbLine
 10
0.6999875000000041
 20
6.85925
 30
0.0
 11
2.500123499999999
 21
6.859329999999999
 31
0.0
  0
LINE
  5
28
330
1E
100
AcDbEntity
  8
0
100
AcDbLine
 10
0.7002545000000051
 20
27.8588
 30
0.0
 11
2.500383500000009
 21
27.8589
 31
0.0
  0
LINE
  5
29
330
1E
100
AcDbEntity
  8
0
100
AcDbLine
 10
0.0004425000000049
 20
27.8589
 30
0.0
 11
1.000433499999999
 21
28.85889999999999
 31
0.0
  0
LINE
  5
2A
330
1E
100
AcDbEntity
  8
0
100
AcDbLine
 10
0.0004425000000049
 20
27.8589
 30
0.0
 11
0.7002545000000051
 21
27.8588
 31
0.0
  0
LINE
  5
2B
330
1E
100
AcDbEntity
  8
0
100
AcDbLine
 10
1.000143499999999
 20
5.859369999999999
 30
0.0
 11
1.699953499999999
 21
5.859259999999999
 31
0.0
  0
LINE
  5
2C
330
1E
100
AcDbEntity
  8
0
100
AcDbLine
 10
0.0001765000000037
 20
6.85936
 30
0.0
 11
1.000143499999999
 21
5.859369999999999
 31
0.0
  0
LINE
  5
2D
330
1E
100
AcDbEntity
  8
0
100
AcDbLine
 10
0.0001765000000037
 20
6.85936
 30
0.0
 11
0.6999875000000041
 21
6.85925
 31
0.0
  0
LINE
  5
2E
330
1E
100
AcDbEntity
  8
0
100
AcDbLine
 10
0.000442500000005
 20
27.8589
 30
0.0
 11
1.000433499999999
 21
28.85889999999999
 31
0.0
  0
LINE
  5
2F
330
1E
100
AcDbEntity
  8
0
100
AcDbLine
 10
0.000442500000005
 20
27.8589
 30
0.0
 11
0.7002545000000051
 21
27.8588
 31
0.0
  0
LINE
  5
30
330
1E
100
AcDbEntity
  8
0
100
AcDbLine
 10
4.599543499999999
 20
5.85902
 30
0.0
 11
6.300193499999999
 21
5.859399999999999
 31
0.0
  0
LINE
  5
31
330
1E
100
AcDbEntity
  8
0
100
AcDbLine
 10
4.00265599975451
 20
5.8591940458377
 30
0.0
 11
6.22540674846105
 21
5.742178655795759
 31
0.0
  0
LINE
  5
32
330
1E
100
AcDbEntity
  8
0
100
AcDbLine
 10
4.00265599975451
 20
5.8591940458377
 30
0.0
 11
6.22540674846105
 21
5.742178655795759
 31
0.0
  0
LINE
  5
33
330
1E
100
AcDbEntity
  8
0
100
AcDbLine
 10
4.22451908161225
 20
5.859213933924469
 30
0.0
 11
4.599543499999999
 21
5.85902
 31
0.0
  0
LINE
  5
34
330
1E
100
AcDbEntity
  8
0
100
AcDbLine
 10
4.22451908161225
 20
5.859213933924469
 30
0.0
 11
4.599543499999999
 21
5.85902
 31
0.0
  0
LINE
  5
35
330
1E
100
AcDbEntity
  8
0
100
AcDbLine
 10
3.399743499999999
 20
5.85914
 30
0.0
 11
6.300193499999999
 21
5.859399999999999
 31
0.0
  0
LINE
  5
36
330
1E
100
AcDbEntity
  8
0
100
AcDbLine
 10
10.9448235
 20
4.858649999999999
 30
0.0
 11
10.9448235
 21
5.748110121008759
 31
0.0
  0
LINE
  5
37
330
1E
100
AcDbEntity
  8
0
100
AcDbLine
 10
10.9448235
 20
4.858649999999999
 30
0.0
 11
11.9457235
 21
4.85913
 31
0.0
  0
LINE
  5
38
330
1E
100
AcDbEntity
  8
0
100
AcDbLine
 10
9.212803499999999
 20
4.85863
 30
0.0
 11
9.212813384991241
 21
5.84710441098129
 31
0.0
  0
LINE
  5
39
330
1E
100
AcDbEntity
  8
0
100
AcDbLine
 10
9.212803499999999
 20
4.85863
 30
0.0
 11
10.9448235
 21
4.858649999999999
 31
0.0
  0
LINE
  5
3A
330
1E
100
AcDbEntity
  8
0
100
AcDbLine
 10
7.1089035
 20
4.85868
 30
0.0
 11
8.840943499999999
 21
4.858709999999999
 31
0.0
  0
LINE
  5
3B
330
1E
100
AcDbEntity
  8
0
100
AcDbLine
 10
7.840963499999999
 20
4.858719999999999
 30
0.0
 11
8.840943499999999
 21
4.858709999999999
 31
0.0
  0
LINE
  5
3C
330
1E
100
AcDbEntity
  8
0
100
AcDbLine
 10
6.1089235
 20
4.858699999999999
 30
0.0
 11
7.1089035
 21
4.85868
 31
0.0
  0
LINE
  5
3D
330
1E
100
AcDbEntity
  8
0
100
AcDbLine
 10
6.1089235
 20
4.858699999999999
 30
0.0
 11
6.108936844485779
 21
5.74831014456019
 31
0.0
  0
LINE
  5
3E
330
1E
100
AcDbEntity
  8
0
100
AcDbLine
 10
6.1089235
 20
4.858699999999999
 30
0.0
 11
7.840963499999999
 21
4.858719999999999
 31
0.0
  0
LINE
  5
3F
330
1E
100
AcDbEntity
  8
0
100
AcDbLine
 10
11.0585583760939
 20
4.85870454365124
 30
0.0
 11
11.5129235
 21
4.858699999999999
 31
0.0
  0
LINE
  5
40
330
1E
100
AcDbEntity
  8
0
100
AcDbLine
 10
11.0317036546935
 20
4.85869166497578
 30
0.0
 11
11.5129235
 21
4.858699999999999
 31
0.0
  0
LINE
  5
41
330
1E
100
AcDbEntity
  8
0
100
AcDbLine
 10
8.7809035
 20
4.85869
 30
0.0
 11
9.212803500513631
 21
4.85868136182723
 31
0.0
  0
LINE
  5
42
330
1E
100
AcDbEntity
  8
0
100
AcDbLine
 10
8.7809035
 20
4.85869
 30
0.0
 11
9.21280350064989
 21
4.858694987240339
 31
0.0
  0
LINE
  5
43
330
1E
100
AcDbEntity
  8
0
100
AcDbLine
 10
8.7809035
 20
4.85869
 30
0.0
 11
9.21280350064989
 21
4.858694987240339
 31
0.0
  0
LINE
  5
44
330
1E
100
AcDbEntity
  8
0
100
AcDbLine
 10
14.8730235
 20
4.858769999999999
 30
0.0
 11
16.60512349999999
 21
4.858799999999999
 31
0.0
  0
LINE
  5
45
330
1E
100
AcDbEntity
  8
0
100
AcDbLine
 10
14.8730235
 20
4.858769999999999
 30
0.0
 11
14.8730678231508
 21
5.745215286252419
 31
0.0
  0
LINE
  5
46
330
1E
100
AcDbEntity
  8
0
100
AcDbLine
 10
7.9574335
 20
4.85899
 30
0.0
 11
8.957413499999999
 21
4.858979999999999
 31
0.0
  0
LINE
  5
47
330
1E
100
AcDbEntity
  8
0
100
AcDbLine
 10
7.9574335
 20
4.85899
 30
0.0
 11
7.957441822002491
 21
5.69117360460874
 31
0.0
  0
LINE
  5
48
330
1E
100
AcDbEntity
  8
0
100
AcDbLine
 10
8.957413499999999
 20
4.858979999999999
 30
0.0
 11
8.957421322286348
 21
5.641189079023789
 31
0.0
  0
LINE
  5
49
330
1E
100
AcDbEntity
  8
0
100
AcDbLine
 10
6.2253935
 20
4.858969999999999
 30
0.0
 11
7.225373499999999
 21
4.858959999999999
 31
0.0
  0
LINE
  5
4A
330
1E
100
AcDbEntity
  8
0
100
AcDbLine
 10
6.2253935
 20
4.858969999999999
 30
0.0
 11
6.22540728204912
 21
5.77775030418283
 31
0.0
  0
LINE
  5
4B
330
1E
100
AcDbEntity
  8
0
100
AcDbLine
 10
6.2253935
 20
4.858969999999999
 30
0.0
 11
7.9574335
 21
4.85899
 31
0.0
  0
LINE
  5
4C
330
1E
100
AcDbEntity
  8
0
100
AcDbLine
 10
7.225373499999999
 20
4.858959999999999
 30
0.0
 11
8.957413499999999
 21
4.858979999999999
 31
0.0
  0
LINE
  5
4D
330
1E
100
AcDbEntity
  8
0
100
AcDbLine
 10
11.9457235
 20
4.85913
 30
0.0
 11
11.9457235
 21
5.690902958085799
 31
0.0
  0
LINE
  5
4E
330
1E
100
AcDbEntity
  8
0
100
AcDbLine
 10
16.60512349999999
 20
4.858799999999999
 30
0.0
 11
16.60512349999999
 21
5.658183842543509
 31
0.0
  0
LINE
  5
4F
330
1E
100
AcDbEntity
  8
0
100
AcDbLine
 10
13.87312349999999
 20
5.339569159822209
 30
0.0
 11
13.87312349999999
 21
4.858789999999999
 31
0.0
  0
LINE
  5
50
330
1E
100
AcDbEntity
  8
0
100
AcDbLine
 10
13.87312349999999
 20
4.858789999999999
 30
0.0
 11
14.8730235
 21
4.858769999999999
 31
0.0
  0
LINE
  5
51
330
1E
100
AcDbEntity
  8
0
100
AcDbLine
 10
13.87312349999999
 20
4.858789999999999
 30
0.0
 11
13.87312349999999
 21
5.339569159822209
 31
0.0
  0
LINE
  5
52
330
1E
100
AcDbEntity
  8
0
100
AcDbLine
 10
13.87312349999999
 20
4.858789999999999
 30
0.0
 11
13.87312349999999
 21
5.78225878869791
 31
0.0
  0
LINE
  5
53
330
1E
100
AcDbEntity
  8
0
100
AcDbLine
 10
19.15252349999999
 20
4.358489999999999
 30
0.0
 11
20.88462349999999
 21
4.358509999999999
 31
0.0
  0
LINE
  5
54
330
1E
100
AcDbEntity
  8
0
100
AcDbLine
 10
18.15252349999999
 20
4.3585
 30
0.0
 11
19.15252349999999
 21
4.358489999999999
 31
0.0
  0
LINE
  5
55
330
1E
100
AcDbEntity
  8
0
100
AcDbLine
 10
18.15252349999999
 20
4.3585
 30
0.0
 11
19.8846235
 21
4.358519999999999
 31
0.0
  0
LINE
  5
56
330
1E
100
AcDbEntity
  8
0
100
AcDbLine
 10
19.9441235
 20
5.113737040366169
 30
0.0
 11
19.9441235
 21
4.359409999999999
 31
0.0
  0
LINE
  5
57
330
1E
100
AcDbEntity
  8
0
100
AcDbLine
 10
19.9441235
 20
4.359409999999999
 30
0.0
 11
20.9441235
 21
4.359399999999999
 31
0.0
  0
LINE
  5
58
330
1E
100
AcDbEntity
  8
0
100
AcDbLine
 10
19.9441235
 20
4.359409999999999
 30
0.0
 11
21.6761235
 21
4.35943
 31
0.0
  0
LINE
  5
59
330
1E
100
AcDbEntity
  8
0
100
AcDbLine
 10
19.9441235
 20
4.359409999999999
 30
0.0
 11
19.9441235
 21
5.113737040366169
 31
0.0
  0
LINE
  5
5A
330
1E
100
AcDbEntity
  8
0
100
AcDbLine
 10
19.8846235
 20
5.050361817452629
 30
0.0
 11
19.8846235
 21
4.358519999999999
 31
0.0
  0
LINE
  5
5B
330
1E
100
AcDbEntity
  8
0
100
AcDbLine
 10
19.8846235
 20
4.358519999999999
 30
0.0
 11
20.88462349999999
 21
4.358509999999999
 31
0.0
  0
LINE
  5
5C
330
1E
100
AcDbEntity
  8
0
100
AcDbLine
 10
19.8846235
 20
4.358519999999999
 30
0.0
 11
19.8846235
 21
5.050361817452629
 31
0.0
  0
LINE
  5
5D
330
1E
100
AcDbEntity
  8
0
100
AcDbLine
 10
18.15236858531789
 20
5.133394858407669
 30
0.0
 11
18.15252349999999
 21
4.3585
 31
0.0
  0
LINE
  5
5E
330
1E
100
AcDbEntity
  8
0
100
AcDbLine
 10
20.88462349999999
 20
4.35871438279446
 30
0.0
 11
21.20892349999999
 21
4.358719999999999
 31
0.0
  0
LINE
  5
5F
330
1E
100
AcDbEntity
  8
0
100
AcDbLine
 10
20.9441235
 20
4.359399999999999
 30
0.0
 11
22.67612349999999
 21
4.35942
 31
0.0
  0
LINE
  5
60
330
1E
100
AcDbEntity
  8
0
100
AcDbLine
 10
21.6761235
 20
4.35943
 30
0.0
 11
22.67612349999999
 21
4.35942
 31
0.0
  0
LINE
  5
61
330
1E
100
AcDbEntity
  8
0
100
AcDbLine
 10
21.6761235
 20
4.35943
 30
0.0
 11
21.6761484813883
 21
4.85904777375019
 31
0.0
  0
LINE
  5
62
330
1E
100
AcDbEntity
  8
0
100
AcDbLine
 10
21.6761235
 20
4.35943
 30
0.0
 11
21.6761484813883
 21
4.85904777375019
 31
0.0
  0
LINE
  5
63
330
1E
100
AcDbEntity
  8
0
100
AcDbLine
 10
22.67612349999999
 20
4.35942
 30
0.0
 11
22.6761537509623
 21
4.964427144849139
 31
0.0
  0
LINE
  5
64
330
1E
100
AcDbEntity
  8
0
100
AcDbLine
 10
22.67612349999999
 20
4.35942
 30
0.0
 11
22.6761537509623
 21
4.964427144849139
 31
0.0
  0
LINE
  5
65
330
1E
100
AcDbEntity
  8
0
100
AcDbLine
 10
21.20892349999999
 20
4.358719999999999
 30
0.0
 11
22.20892349999999
 21
4.358699999999999
 31
0.0
  0
LINE
  5
66
330
1E
100
AcDbEntity
  8
0
100
AcDbLine
 10
20.88462349999999
 20
4.35868470873506
 30
0.0
 11
22.20892349999999
 21
4.358699999999999
 31
0.0
  0
LINE
  5
67
330
1E
100
AcDbEntity
  8
0
100
AcDbLine
 10
22.4535235
 20
4.85904
 30
0.0
 11
22.4535235
 21
5.59343659391037
 31
0.0
  0
LINE
  5
68
330
1E
100
AcDbEntity
  8
0
100
AcDbLine
 10
20.45352349999999
 20
4.859059999999999
 30
0.0
 11
22.4535235
 21
4.85904
 31
0.0
  0
LINE
  5
69
330
1E
100
AcDbEntity
  8
0
100
AcDbLine
 10
20.45352349999999
 20
4.859059999999999
 30
0.0
 11
20.4535735089106
 21
5.85921820856542
 31
0.0
  0
LINE
  5
6A
330
1E
100
AcDbEntity
  8
0
100
AcDbLine
 10
20.45352349999999
 20
4.859059999999999
 30
0.0
 11
20.4535654840132
 21
5.698723470236079
 31
0.0
  0
LINE
  5
6B
330
1E
100
AcDbEntity
  8
0
100
AcDbLine
 10
16.60512349999999
 20
5.195744646083719
 30
0.0
 11
18.15237240457489
 21
5.114290648524099
 31
0.0
  0
LINE
  5
6C
330
1E
100
AcDbEntity
  8
0
100
AcDbLine
 10
16.60512349999999
 20
5.195744646083719
 30
0.0
 11
18.15237240457489
 21
5.114290648524099
 31
0.0
  0
LINE
  5
6D
330
1E
100
AcDbEntity
  8
0
100
AcDbLine
 10
11.9457235
 20
5.690902958085799
 30
0.0
 11
11.9457235
 21
4.85913
 31
0.0
  0
LINE
  5
6E
330
1E
100
AcDbEntity
  8
0
100
AcDbLine
 10
10.9448235
 20
5.748110121008759
 30
0.0
 11
10.9448235
 21
4.858649999999999
 31
0.0
  0
LINE
  5
6F
330
1E
100
AcDbEntity
  8
0
100
AcDbLine
 10
22.4535235
 20
5.59343659391037
 30
0.0
 11
22.4535235
 21
4.85904
 31
0.0
  0
LINE
  5
70
330
1E
100
AcDbEntity
  8
0
100
AcDbLine
 10
16.60512349999999
 20
5.658183842543509
 30
0.0
 11
16.60512349999999
 21
4.858799999999999
 31
0.0
  0
LINE
  5
71
330
1E
100
AcDbEntity
  8
0
100
AcDbLine
 10
13.87312349999999
 20
5.78225878869791
 30
0.0
 11
13.87312349999999
 21
4.858789999999999
 31
0.0
  0
LINE
  5
72
330
1E
100
AcDbEntity
  8
0
100
AcDbLine
 10
8.957420893918829
 20
5.59835339737807
 30
0.0
 11
9.21281076296707
 21
5.58490854974645
 31
0.0
  0
LINE
  5
73
330
1E
100
AcDbEntity
  8
0
100
AcDbLine
 10
11.9457235
 20
5.44103598551018
 30
0.0
 11
13.87312349999999
 21
5.339569159822209
 31
0.0
  0
LINE
  5
74
330
1E
100
AcDbEntity
  8
0
100
AcDbLine
 10
11.9457235
 20
5.44103598551018
 30
0.0
 11
13.87312349999999
 21
5.339569159822209
 31
0.0
  0
LINE
  5
75
330
1E
100
AcDbEntity
  8
0
100
AcDbLine
 10
22.676149336472
 20
4.876139104786379
 30
0.0
 11
22.99962349999999
 21
4.85911
 31
0.0
  0
LINE
  5
76
330
1E
100
AcDbEntity
  8
0
100
AcDbLine
 10
21.2070172910817
 20
5.85920845485995
 30
0.0
 11
22.99962349999999
 21
5.85909
 31
0.0
  0
LINE
  5
77
330
1E
100
AcDbEntity
  8
0
100
AcDbLine
 10
21.2070172910991
 20
5.85920845485995
 30
0.0
 11
22.99962349999999
 21
5.85909
 31
0.0
  0
LINE
  5
78
330
1E
100
AcDbEntity
  8
0
100
AcDbLine
 10
14.99982349999999
 20
5.859189999999999
 30
0.0
 11
20.79992349999999
 21
5.859219999999999
 31
0.0
  0
LINE
  5
79
330
1E
100
AcDbEntity
  8
0
100
AcDbLine
 10
22.67619848883919
 20
5.85916678902504
 30
0.0
 11
24.2653235
 21
5.85912172159532
 31
0.0
  0
LINE
  5
7A
330
1E
100
AcDbEntity
  8
0
100
AcDbLine
 10
22.99962349999999
 20
4.85911
 30
0.0
 11
24.2653235
 21
4.813914597415029
 31
0.0
  0
LINE
  5
7B
330
1E
100
AcDbEntity
  8
0
100
AcDbLine
 10
35.6580235
 20
3.85819
 30
0.0
 11
37.39002349999999
 21
3.858219999999999
 31
0.0
  0
LINE
  5
7C
330
1E
100
AcDbEntity
  8
0
100
AcDbLine
 10
31.22262349999999
 20
3.858539999999999
 30
0.0
 11
32.22262349999999
 21
3.858519999999999
 31
0.0
  0
LINE
  5
7D
330
1E
100
AcDbEntity
  8
0
100
AcDbLine
 10
31.22262349999999
 20
3.858539999999999
 30
0.0
 11
32.95462349999999
 21
3.858559999999999
 31
0.0
  0
LINE
  5
7E
330
1E
100
AcDbEntity
  8
0
100
AcDbLine
 10
31.22262349999999
 20
3.858539999999999
 30
0.0
 11
31.22262349999999
 21
4.614051691018249
 31
0.0
  0
LINE
  5
7F
330
1E
100
AcDbEntity
  8
0
100
AcDbLine
 10
32.95462349999999
 20
3.858559999999999
 30
0.0
 11
33.95462349999999
 21
3.85855
 31
0.0
  0
LINE
  5
80
330
1E
100
AcDbEntity
  8
0
100
AcDbLine
 10
32.95462349999999
 20
3.858559999999999
 30
0.0
 11
32.95462349999999
 21
4.35896432121606
 31
0.0
  0
LINE
  5
81
330
1E
100
AcDbEntity
  8
0
100
AcDbLine
 10
33.95462349999999
 20
3.85855
 30
0.0
 11
33.95462349999999
 21
4.512885843231369
 31
0.0
  0
LINE
  5
82
330
1E
100
AcDbEntity
  8
0
100
AcDbLine
 10
32.22262349999999
 20
3.858519999999999
 30
0.0
 11
33.95462349999999
 21
3.85855
 31
0.0
  0
LINE
  5
83
330
1E
100
AcDbEntity
  8
0
100
AcDbLine
 10
31.1392235
 20
3.858909999999999
 30
0.0
 11
31.22262349999999
 21
3.858909166
 31
0.0
  0
LINE
  5
84
330
1E
100
AcDbEntity
  8
0
100
AcDbLine
 10
31.1392235
 20
3.858909999999999
 30
0.0
 11
31.22262349999999
 21
3.858910962992899
 31
0.0
  0
LINE
  5
85
330
1E
100
AcDbEntity
  8
0
100
AcDbLine
 10
31.1392235
 20
3.858909999999999
 30
0.0
 11
31.1392235
 21
4.568462533079999
 31
0.0
  0
LINE
  5
86
330
1E
100
AcDbEntity
  8
0
100
AcDbLine
 10
25.2653235
 20
4.358919999999999
 30
0.0
 11
25.2653235
 21
5.09168140524619
 31
0.0
  0
LINE
  5
87
330
1E
100
AcDbEntity
  8
0
100
AcDbLine
 10
25.2653235
 20
4.358919999999999
 30
0.0
 11
26.9973235
 21
4.35894
 31
0.0
  0
LINE
  5
88
330
1E
100
AcDbEntity
  8
0
100
AcDbLine
 10
26.9973235
 20
4.35894
 30
0.0
 11
26.9973235
 21
4.98669026849136
 31
0.0
  0
LINE
  5
89
330
1E
100
AcDbEntity
  8
0
100
AcDbLine
 10
32.95462349999999
 20
4.35896432121606
 30
0.0
 11
32.95462349999999
 21
3.858559999999999
 31
0.0
  0
LINE
  5
8A
330
1E
100
AcDbEntity
  8
0
100
AcDbLine
 10
33.90932349999999
 20
4.35895
 30
0.0
 11
33.90932349999999
 21
5.04506755667826
 31
0.0
  0
LINE
  5
8B
330
1E
100
AcDbEntity
  8
0
100
AcDbLine
 10
31.9094235
 20
4.358979999999999
 30
0.0
 11
33.90932349999999
 21
4.35895
 31
0.0
  0
LINE
  5
8C
330
1E
100
AcDbEntity
  8
0
100
AcDbLine
 10
31.9094235
 20
4.358979999999999
 30
0.0
 11
31.9094235
 21
5.09563505713308
 31
0.0
  0
LINE
  5
8D
330
1E
100
AcDbEntity
  8
0
100
AcDbLine
 10
24.2653235
 20
4.358929999999999
 30
0.0
 11
25.2653235
 21
4.358919999999999
 31
0.0
  0
LINE
  5
8E
330
1E
100
AcDbEntity
  8
0
100
AcDbLine
 10
24.2653235
 20
4.358929999999999
 30
0.0
 11
24.2653235
 21
4.813914597415029
 31
0.0
  0
LINE
  5
8F
330
1E
100
AcDbEntity
  8
0
100
AcDbLine
 10
24.2653235
 20
4.358929999999999
 30
0.0
 11
24.2653235
 21
5.152299844481079
 31
0.0
  0
LINE
  5
90
330
1E
100
AcDbEntity
  8
0
100
AcDbLine
 10
34.65787740764
 20
4.442819031529099
 30
0.0
 11
34.6580235
 21
3.858209999999999
 31
0.0
  0
LINE
  5
91
330
1E
100
AcDbEntity
  8
0
100
AcDbLine
 10
34.6580235
 20
3.858209999999999
 30
0.0
 11
35.6580235
 21
3.85819
 31
0.0
  0
LINE
  5
92
330
1E
100
AcDbEntity
  8
0
100
AcDbLine
 10
42.29712349999999
 20
3.358869999999999
 30
0.0
 11
43.2971235
 21
3.358849999999999
 31
0.0
  0
LINE
  5
93
330
1E
100
AcDbEntity
  8
0
100
AcDbLine
 10
42.29712349999999
 20
3.358869999999999
 30
0.0
 11
44.02922349999999
 21
3.35889
 31
0.0
  0
LINE
  5
94
330
1E
100
AcDbEntity
  8
0
100
AcDbLine
 10
42.29712349999999
 20
3.358869999999999
 30
0.0
 11
42.29712349999999
 21
4.180549844079989
 31
0.0
  0
LINE
  5
95
330
1E
100
AcDbEntity
  8
0
100
AcDbLine
 10
42.29712349999999
 20
4.180549844079989
 30
0.0
 11
42.29712349999999
 21
3.358869999999999
 31
0.0
  0
LINE
  5
96
330
1E
100
AcDbEntity
  8
0
100
AcDbLine
 10
42.9208235
 20
4.358881626
 30
0.0
 11
42.9208235
 21
3.85866
 31
0.0
  0
LINE
  5
97
330
1E
100
AcDbEntity
  8
0
100
AcDbLine
 10
42.9208235
 20
3.85866
 30
0.0
 11
44.92072349999999
 21
3.85863
 31
0.0
  0
LINE
  5
98
330
1E
100
AcDbEntity
  8
0
100
AcDbLine
 10
42.9208235
 20
3.85866
 30
0.0
 11
42.9208235
 21
4.358881626
 31
0.0
  0
LINE
  5
99
330
1E
100
AcDbEntity
  8
0
100
AcDbLine
 10
44.02922349999999
 20
3.35889
 30
0.0
 11
45.02912349999999
 21
3.35888
 31
0.0
  0
LINE
  5
9A
330
1E
100
AcDbEntity
  8
0
100
AcDbLine
 10
44.02922349999999
 20
3.35889
 30
0.0
 11
44.02922349999999
 21
3.85864337316866
 31
0.0
  0
LINE
  5
9B
330
1E
100
AcDbEntity
  8
0
100
AcDbLine
 10
45.02912349999999
 20
3.35888
 30
0.0
 11
45.0291596532858
 21
4.08192764016177
 31
0.0
  0
LINE
  5
9C
330
1E
100
AcDbEntity
  8
0
100
AcDbLine
 10
43.2971235
 20
3.358849999999999
 30
0.0
 11
45.02912349999999
 21
3.35888
 31
0.0
  0
LINE
  5
9D
330
1E
100
AcDbEntity
  8
0
100
AcDbLine
 10
44.02922349999999
 20
3.85864337316866
 30
0.0
 11
44.02922349999999
 21
3.35889
 31
0.0
  0
LINE
  5
9E
330
1E
100
AcDbEntity
  8
0
100
AcDbLine
 10
44.92072349999999
 20
3.85863
 30
0.0
 11
44.9207614956251
 21
4.618527304567558
 31
0.0
  0
LINE
  5
9F
330
1E
100
AcDbEntity
  8
0
100
AcDbLine
 10
44.92072349999999
 20
3.85863
 30
0.0
 11
44.9207614956251
 21
4.618527304567558
 31
0.0
  0
LINE
  5
A0
330
1E
100
AcDbEntity
  8
0
100
AcDbLine
 10
43.0292235
 20
4.35888
 30
0.0
 11
43.0292235
 21
5.0273022453865
 31
0.0
  0
LINE
  5
A1
330
1E
100
AcDbEntity
  8
0
100
AcDbLine
 10
41.0292235
 20
4.358909999999999
 30
0.0
 11
43.0292235
 21
4.35888
 31
0.0
  0
LINE
  5
A2
330
1E
100
AcDbEntity
  8
0
100
AcDbLine
 10
41.0292235
 20
4.358909999999999
 30
0.0
 11
41.02924850601429
 21
4.85901778263907
 31
0.0
  0
LINE
  5
A3
330
1E
100
AcDbEntity
  8
0
100
AcDbLine
 10
37.3899017888104
 20
4.34526436472105
 30
0.0
 11
42.29712349999999
 21
4.17003811773445
 31
0.0
  0
LINE
  5
A4
330
1E
100
AcDbEntity
  8
0
100
AcDbLine
 10
37.3899017888104
 20
4.34526436472105
 30
0.0
 11
42.29712349999999
 21
4.17003811773445
 31
0.0
  0
LINE
  5
A5
330
1E
100
AcDbEntity
  8
0
100
AcDbLine
 10
33.95462349999999
 20
4.512885843231369
 30
0.0
 11
33.95462349999999
 21
3.85855
 31
0.0
  0
LINE
  5
A6
330
1E
100
AcDbEntity
  8
0
100
AcDbLine
 10
31.22262349999999
 20
4.614051691018249
 30
0.0
 11
31.22262349999999
 21
3.858539999999999
 31
0.0
  0
LINE
  5
A7
330
1E
100
AcDbEntity
  8
0
100
AcDbLine
 10
31.1392235
 20
4.568462533079999
 30
0.0
 11
31.1392235
 21
3.858909999999999
 31
0.0
  0
LINE
  5
A8
330
1E
100
AcDbEntity
  8
0
100
AcDbLine
 10
34.6578307321745
 20
4.62959744120383
 30
0.0
 11
34.6580235
 21
3.858209999999999
 31
0.0
  0
LINE
  5
A9
330
1E
100
AcDbEntity
  8
0
100
AcDbLine
 10
37.3898545726764
 20
4.534206335032429
 30
0.0
 11
37.39002349999999
 21
3.858219999999999
 31
0.0
  0
LINE
  5
AA
330
1E
100
AcDbEntity
  8
0
100
AcDbLine
 10
35.6578375959339
 20
4.60211486526607
 30
0.0
 11
35.6580235
 21
3.85819
 31
0.0
  0
LINE
  5
AB
330
1E
100
AcDbEntity
  8
0
100
AcDbLine
 10
33.95462349999999
 20
4.46793070370675
 30
0.0
 11
34.65787740764
 21
4.442819031529099
 31
0.0
  0
LINE
  5
AC
330
1E
100
AcDbEntity
  8
0
100
AcDbLine
 10
33.95462349999999
 20
4.46793070370675
 30
0.0
 11
34.65787740764
 21
4.442819031529099
 31
0.0
  0
LINE
  5
AD
330
1E
100
AcDbEntity
  8
0
100
AcDbLine
 10
46.0502235
 20
3.35834
 30
0.0
 11
46.0502235
 21
4.194652547146509
 31
0.0
  0
LINE
  5
AE
330
1E
100
AcDbEntity
  8
0
100
AcDbLine
 10
46.0502235
 20
3.35834
 30
0.0
 11
47.7822235
 21
3.358359999999999
 31
0.0
  0
LINE
  5
AF
330
1E
100
AcDbEntity
  8
0
100
AcDbLine
 10
45.05022349999999
 20
4.20021051032636
 30
0.0
 11
45.05022349999999
 21
3.35835
 31
0.0
  0
LINE
  5
B0
330
1E
100
AcDbEntity
  8
0
100
AcDbLine
 10
47.7822235
 20
3.358359999999999
 30
0.0
 11
47.78226192011929
 21
4.126743176165789
 31
0.0
  0
LINE
  5
B1
330
1E
100
AcDbEntity
  8
0
100
AcDbLine
 10
46.0502235
 20
4.194652547146509
 30
0.0
 11
46.0502235
 21
3.35834
 31
0.0
  0
LINE
  5
B2
330
1E
100
AcDbEntity
  8
0
100
AcDbLine
 10
45.05022349999999
 20
4.07173088627622
 30
0.0
 11
45.05022349999999
 21
3.35835
 31
0.0
  0
LINE
  5
B3
330
1E
100
AcDbEntity
  8
0
100
AcDbLine
 10
45.05022349999999
 20
3.35835
 30
0.0
 11
46.0502235
 21
3.35834
 31
0.0
  0
LINE
  5
B4
330
1E
100
AcDbEntity
  8
0
100
AcDbLine
 10
45.05022349999999
 20
3.35835
 30
0.0
 11
45.05022349999999
 21
4.07173088627622
 31
0.0
  0
LINE
  5
B5
330
1E
100
AcDbEntity
  8
0
100
AcDbLine
 10
45.05022349999999
 20
3.35835
 30
0.0
 11
45.05022349999999
 21
4.20021051032636
 31
0.0
  0
LINE
  5
B6
330
1E
100
AcDbEntity
  8
0
100
AcDbLine
 10
24.2653235
 20
5.152299844481079
 30
0.0
 11
24.2653235
 21
4.358929999999999
 31
0.0
  0
LINE
  5
B7
330
1E
100
AcDbEntity
  8
0
100
AcDbLine
 10
26.9973235
 20
4.98669026849136
 30
0.0
 11
26.9973235
 21
4.35894
 31
0.0
  0
LINE
  5
B8
330
1E
100
AcDbEntity
  8
0
100
AcDbLine
 10
25.2653235
 20
5.09168140524619
 30
0.0
 11
25.2653235
 21
4.358919999999999
 31
0.0
  0
LINE
  5
B9
330
1E
100
AcDbEntity
  8
0
100
AcDbLine
 10
31.6854235
 20
5.71457132341444
 30
0.0
 11
31.6854235
 21
4.858959999999999
 31
0.0
  0
LINE
  5
BA
330
1E
100
AcDbEntity
  8
0
100
AcDbLine
 10
42.80742349999999
 20
4.858999999999999
 30
0.0
 11
42.80742349999999
 21
5.859239877840909
 31
0.0
  0
LINE
  5
BB
330
1E
100
AcDbEntity
  8
0
100
AcDbLine
 10
33.90932349999999
 20
5.04506755667826
 30
0.0
 11
33.90932349999999
 21
4.35895
 31
0.0
  0
LINE
  5
BC
330
1E
100
AcDbEntity
  8
0
100
AcDbLine
 10
31.9094235
 20
5.09563505713308
 30
0.0
 11
31.9094235
 21
4.358979999999999
 31
0.0
  0
LINE
  5
BD
330
1E
100
AcDbEntity
  8
0
100
AcDbLine
 10
43.0292235
 20
5.0273022453865
 30
0.0
 11
43.0292235
 21
4.35888
 31
0.0
  0
LINE
  5
BE
330
1E
100
AcDbEntity
  8
0
100
AcDbLine
 10
40.8075235
 20
5.559461343646049
 30
0.0
 11
40.8075235
 21
4.85902
 31
0.0
  0
LINE
  5
BF
330
1E
100
AcDbEntity
  8
0
100
AcDbLine
 10
40.8075235
 20
4.85902
 30
0.0
 11
42.80742349999999
 21
4.858999999999999
 31
0.0
  0
LINE
  5
C0
330
1E
100
AcDbEntity
  8
0
100
AcDbLine
 10
40.8075235
 20
4.85902
 30
0.0
 11
40.8075235
 21
5.559461343646049
 31
0.0
  0
LINE
  5
C1
330
1E
100
AcDbEntity
  8
0
100
AcDbLine
 10
40.8075235
 20
4.85902
 30
0.0
 11
40.8075235
 21
5.859239999999999
 31
0.0
  0
LINE
  5
C2
330
1E
100
AcDbEntity
  8
0
100
AcDbLine
 10
31.6854235
 20
4.858959999999999
 30
0.0
 11
31.6854235
 21
5.71457132341444
 31
0.0
  0
LINE
  5
C3
330
1E
100
AcDbEntity
  8
0
100
AcDbLine
 10
29.68452349999999
 20
4.858489999999999
 30
0.0
 11
31.6854235
 21
4.858959999999999
 31
0.0
  0
LINE
  5
C4
330
1E
100
AcDbEntity
  8
0
100
AcDbLine
 10
29.68452349999999
 20
4.858489999999999
 30
0.0
 11
29.6845718594366
 21
5.82565938724415
 31
0.0
  0
LINE
  5
C5
330
1E
100
AcDbEntity
  8
0
100
AcDbLine
 10
24.2653235
 20
4.813914597415029
 30
0.0
 11
24.2653235
 21
4.358929999999999
 31
0.0
  0
LINE
  5
C6
330
1E
100
AcDbEntity
  8
0
100
AcDbLine
 10
26.9973235
 20
4.716360801205699
 30
0.0
 11
31.22262349999999
 21
4.565484499916069
 31
0.0
  0
LINE
  5
C7
330
1E
100
AcDbEntity
  8
0
100
AcDbLine
 10
56.1188235
 20
2.841099999999999
 30
0.0
 11
56.5433235
 21
2.841099999999999
 31
0.0
  0
LINE
  5
C8
330
1E
100
AcDbEntity
  8
0
100
AcDbLine
 10
55.8633235
 20
2.841099999999999
 30
0.0
 11
56.1188235
 21
2.841099999999999
 31
0.0
  0
LINE
  5
C9
330
1E
100
AcDbEntity
  8
0
100
AcDbLine
 10
55.7748235
 20
2.841099999999999
 30
0.0
 11
55.8633235
 21
2.841099999999999
 31
0.0
  0
LINE
  5
CA
330
1E
100
AcDbEntity
  8
0
100
AcDbLine
 10
55.5263194213636
 20
3.358929609040779
 30
0.0
 11
55.7748235
 21
2.841099999999999
 31
0.0
  0
LINE
  5
CB
330
1E
100
AcDbEntity
  8
0
100
AcDbLine
 10
57.6555235
 20
2.841099999999999
 30
0.0
 11
58.3354235
 21
2.841099999999999
 31
0.0
  0
LINE
  5
CC
330
1E
100
AcDbEntity
  8
0
100
AcDbLine
 10
57.05522349999999
 20
2.841099999999999
 30
0.0
 11
57.6555235
 21
2.841099999999999
 31
0.0
  0
LINE
  5
CD
330
1E
100
AcDbEntity
  8
0
100
AcDbLine
 10
56.5433235
 20
2.841099999999999
 30
0.0
 11
57.05522349999999
 21
2.841099999999999
 31
0.0
  0
LINE
  5
CE
330
1E
100
AcDbEntity
  8
0
100
AcDbLine
 10
58.3354235
 20
2.841099999999999
 30
0.0
 11
59.01542349999999
 21
2.841099999999999
 31
0.0
  0
LINE
  5
CF
330
1E
100
AcDbEntity
  8
0
100
AcDbLine
 10
59.01542349999999
 20
2.841099999999999
 30
0.0
 11
59.6149235
 21
2.841099999999999
 31
0.0
  0
LINE
  5
D0
330
1E
100
AcDbEntity
  8
0
100
AcDbLine
 10
59.6149235
 20
2.841099999999999
 30
0.0
 11
60.1269235
 21
2.841099999999999
 31
0.0
  0
LINE
  5
D1
330
1E
100
AcDbEntity
  8
0
100
AcDbLine
 10
60.1269235
 20
2.841099999999999
 30
0.0
 11
60.5512235
 21
2.841099999999999
 31
0.0
  0
LINE
  5
D2
330
1E
100
AcDbEntity
  8
0
100
AcDbLine
 10
60.5512235
 20
2.841099999999999
 30
0.0
 11
60.8068235
 21
2.841099999999999
 31
0.0
  0
LINE
  5
D3
330
1E
100
AcDbEntity
  8
0
100
AcDbLine
 10
60.8952235
 20
2.841099999999999
 30
0.0
 11
61.3839499851721
 21
3.85924623810272
 31
0.0
  0
LINE
  5
D4
330
1E
100
AcDbEntity
  8
0
100
AcDbLine
 10
60.8068235
 20
2.841099999999999
 30
0.0
 11
60.8952235
 21
2.841099999999999
 31
0.0
  0
LINE
  5
D5
330
1E
100
AcDbEntity
  8
0
100
AcDbLine
 10
56.48722349999999
 20
3.358919999999999
 30
0.0
 11
56.48722349999999
 21
3.85903167358368
 31
0.0
  0
LINE
  5
D6
330
1E
100
AcDbEntity
  8
0
100
AcDbLine
 10
55.2655235
 20
3.859049999999999
 30
0.0
 11
57.26542349999999
 21
3.859019999999999
 31
0.0
  0
LINE
  5
D7
330
1E
100
AcDbEntity
  8
0
100
AcDbLine
 10
55.2655235
 20
3.859049999999999
 30
0.0
 11
55.2655235
 21
4.358534986499999
 31
0.0
  0
LINE
  5
D8
330
1E
100
AcDbEntity
  8
0
100
AcDbLine
 10
57.26542349999999
 20
3.859019999999999
 30
0.0
 11
57.26542349999999
 21
4.381348008744589
 31
0.0
  0
LINE
  5
D9
330
1E
100
AcDbEntity
  8
0
100
AcDbLine
 10
56.48722349999999
 20
3.85903167358368
 30
0.0
 11
56.48722349999999
 21
3.358919999999999
 31
0.0
  0
LINE
  5
DA
330
1E
100
AcDbEntity
  8
0
100
AcDbLine
 10
54.4872235
 20
3.35894
 30
0.0
 11
55.5263194213636
 21
3.358929609040779
 31
0.0
  0
LINE
  5
DB
330
1E
100
AcDbEntity
  8
0
100
AcDbLine
 10
54.4872235
 20
3.35894
 30
0.0
 11
54.4872485246532
 21
3.85942305438195
 31
0.0
  0
LINE
  5
DC
330
1E
100
AcDbEntity
  8
0
100
AcDbLine
 10
54.4872235
 20
3.35894
 30
0.0
 11
54.4872485246532
 21
3.85942305438195
 31
0.0
  0
LINE
  5
DD
330
1E
100
AcDbEntity
  8
0
100
AcDbLine
 10
54.4872235
 20
3.35894
 30
0.0
 11
56.48722349999999
 21
3.358919999999999
 31
0.0
  0
LINE
  5
DE
330
1E
100
AcDbEntity
  8
0
100
AcDbLine
 10
54.4872235
 20
3.35894
 30
0.0
 11
54.48726250114739
 21
4.138947347418209
 31
0.0
  0
LINE
  5
DF
330
1E
100
AcDbEntity
  8
0
100
AcDbLine
 10
62.47192349999999
 20
3.341099999999999
 30
0.0
 11
62.6879235
 21
3.341099999999999
 31
0.0
  0
LINE
  5
E0
330
1E
100
AcDbEntity
  8
0
100
AcDbLine
 10
62.47192349999999
 20
3.341099999999999
 30
0.0
 11
62.47192349999999
 21
3.85920028138922
 31
0.0
  0
LINE
  5
E1
330
1E
100
AcDbEntity
  8
0
100
AcDbLine
 10
62.6879235
 20
3.341099999999999
 30
0.0
 11
63.26392349999999
 21
3.341099999999999
 31
0.0
  0
LINE
  5
E2
330
1E
100
AcDbEntity
  8
0
100
AcDbLine
 10
63.26392349999999
 20
3.341099999999999
 30
0.0
 11
64.22392349999999
 21
3.341099999999999
 31
0.0
  0
LINE
  5
E3
330
1E
100
AcDbEntity
  8
0
100
AcDbLine
 10
64.22392349999999
 20
3.341099999999999
 30
0.0
 11
65.49592350000001
 21
3.341099999999999
 31
0.0
  0
LINE
  5
E4
330
1E
100
AcDbEntity
  8
0
100
AcDbLine
 10
65.49592350000001
 20
3.341099999999999
 30
0.0
 11
66.9359235
 21
3.341099999999999
 31
0.0
  0
LINE
  5
E5
330
1E
100
AcDbEntity
  8
0
100
AcDbLine
 10
66.9359235
 20
3.341099999999999
 30
0.0
 11
68.4719235
 21
3.341099999999999
 31
0.0
  0
LINE
  5
E6
330
1E
100
AcDbEntity
  8
0
100
AcDbLine
 10
70.9856235
 20
2.841099999999999
 30
0.0
 11
71.09682349999999
 21
2.841099999999999
 31
0.0
  0
LINE
  5
E7
330
1E
100
AcDbEntity
  8
0
100
AcDbLine
 10
70.9856235
 20
2.841099999999999
 30
0.0
 11
71.0637235
 21
2.841099999999999
 31
0.0
  0
LINE
  5
E8
330
1E
100
AcDbEntity
  8
0
100
AcDbLine
 10
71.0637235
 20
2.841099999999999
 30
0.0
 11
71.3275235
 21
2.841099999999999
 31
0.0
  0
LINE
  5
E9
330
1E
100
AcDbEntity
  8
0
100
AcDbLine
 10
71.05512349999999
 20
2.841099999999999
 30
0.0
 11
71.31882349999999
 21
2.841099999999999
 31
0.0
  0
LINE
  5
EA
330
1E
100
AcDbEntity
  8
0
100
AcDbLine
 10
70.9770235
 20
2.841099999999999
 30
0.0
 11
71.0881235
 21
2.841099999999999
 31
0.0
  0
LINE
  5
EB
330
1E
100
AcDbEntity
  8
0
100
AcDbLine
 10
70.9770235
 20
2.841099999999999
 30
0.0
 11
71.05512349999999
 21
2.841099999999999
 31
0.0
  0
LINE
  5
EC
330
1E
100
AcDbEntity
  8
0
100
AcDbLine
 10
71.09682349999999
 20
2.841099999999999
 30
0.0
 11
71.3281235
 21
2.841099999999999
 31
0.0
  0
LINE
  5
ED
330
1E
100
AcDbEntity
  8
0
100
AcDbLine
 10
71.3281235
 20
2.841099999999999
 30
0.0
 11
71.7199235
 21
2.841099999999999
 31
0.0
  0
LINE
  5
EE
330
1E
100
AcDbEntity
  8
0
100
AcDbLine
 10
71.3275235
 20
2.841099999999999
 30
0.0
 11
71.7437235
 21
2.841099999999999
 31
0.0
  0
LINE
  5
EF
330
1E
100
AcDbEntity
  8
0
100
AcDbLine
 10
71.31882349999999
 20
2.841099999999999
 30
0.0
 11
71.73502349999999
 21
2.841099999999999
 31
0.0
  0
LINE
  5
F0
330
1E
100
AcDbEntity
  8
0
100
AcDbLine
 10
71.0881235
 20
2.841099999999999
 30
0.0
 11
71.3194235
 21
2.841099999999999
 31
0.0
  0
LINE
  5
F1
330
1E
100
AcDbEntity
  8
0
100
AcDbLine
 10
71.3194235
 20
2.841099999999999
 30
0.0
 11
71.7112235
 21
2.841099999999999
 31
0.0
  0
LINE
  5
F2
330
1E
100
AcDbEntity
  8
0
100
AcDbLine
 10
71.7199235
 20
2.841099999999999
 30
0.0
 11
72.2646235
 21
2.841099999999999
 31
0.0
  0
LINE
  5
F3
330
1E
100
AcDbEntity
  8
0
100
AcDbLine
 10
71.7437235
 20
2.841099999999999
 30
0.0
 11
72.2655235
 21
2.841099999999999
 31
0.0
  0
LINE
  5
F4
330
1E
100
AcDbEntity
  8
0
100
AcDbLine
 10
72.25592349999999
 20
2.841099999999999
 30
0.0
 11
72.88902349999999
 21
2.841099999999999
 31
0.0
  0
LINE
  5
F5
330
1E
100
AcDbEntity
  8
0
100
AcDbLine
 10
71.73502349999999
 20
2.841099999999999
 30
0.0
 11
72.25682349999999
 21
2.841099999999999
 31
0.0
  0
LINE
  5
F6
330
1E
100
AcDbEntity
  8
0
100
AcDbLine
 10
72.2655235
 20
2.841099999999999
 30
0.0
 11
72.8887235
 21
2.841099999999999
 31
0.0
  0
LINE
  5
F7
330
1E
100
AcDbEntity
  8
0
100
AcDbLine
 10
72.8887235
 20
2.841099999999999
 30
0.0
 11
73.5443235
 21
2.841099999999999
 31
0.0
  0
LINE
  5
F8
330
1E
100
AcDbEntity
  8
0
100
AcDbLine
 10
72.89772349999999
 20
2.841099999999999
 30
0.0
 11
73.5451235
 21
2.841099999999999
 31
0.0
  0
LINE
  5
F9
330
1E
100
AcDbEntity
  8
0
100
AcDbLine
 10
72.2646235
 20
2.841099999999999
 30
0.0
 11
72.89772349999999
 21
2.841099999999999
 31
0.0
  0
LINE
  5
FA
330
1E
100
AcDbEntity
  8
0
100
AcDbLine
 10
72.88902349999999
 20
2.841099999999999
 30
0.0
 11
73.5364235
 21
2.841099999999999
 31
0.0
  0
LINE
  5
FB
330
1E
100
AcDbEntity
  8
0
100
AcDbLine
 10
72.25682349999999
 20
2.841099999999999
 30
0.0
 11
72.88002349999999
 21
2.841099999999999
 31
0.0
  0
LINE
  5
FC
330
1E
100
AcDbEntity
  8
0
100
AcDbLine
 10
72.88002349999999
 20
2.841099999999999
 30
0.0
 11
73.5356235
 21
2.841099999999999
 31
0.0
  0
LINE
  5
FD
330
1E
100
AcDbEntity
  8
0
100
AcDbLine
 10
73.5443235
 20
2.841099999999999
 30
0.0
 11
74.19162349999999
 21
2.841099999999999
 31
0.0
  0
LINE
  5
FE
330
1E
100
AcDbEntity
  8
0
100
AcDbLine
 10
74.19162349999999
 20
2.841099999999999
 30
0.0
 11
74.82482349999999
 21
2.841099999999999
 31
0.0
  0
LINE
  5
FF
330
1E
100
AcDbEntity
  8
0
100
AcDbLine
 10
73.5451235
 20
2.841099999999999
 30
0.0
 11
74.20072349999999
 21
2.841099999999999
 31
0.0
  0
LINE
  5
100
330
1E
100
AcDbEntity
  8
0
100
AcDbLine
 10
74.82482349999999
 20
2.841099999999999
 30
0.0
 11
75.3694235
 21
2.841099999999999
 31
0.0
  0
LINE
  5
101
330
1E
100
AcDbEntity
  8
0
100
AcDbLine
 10
74.8238235
 20
2.841099999999999
 30
0.0
 11
75.3452235
 21
2.841099999999999
 31
0.0
  0
LINE
  5
102
330
1E
100
AcDbEntity
  8
0
100
AcDbLine
 10
74.20072349999999
 20
2.841099999999999
 30
0.0
 11
74.8238235
 21
2.841099999999999
 31
0.0
  0
LINE
  5
103
330
1E
100
AcDbEntity
  8
0
100
AcDbLine
 10
75.3452235
 20
2.841099999999999
 30
0.0
 11
75.7615235
 21
2.841099999999999
 31
0.0
  0
LINE
  5
104
330
1E
100
AcDbEntity
  8
0
100
AcDbLine
 10
75.3366235
 20
2.841099999999999
 30
0.0
 11
75.75282350000001
 21
2.841099999999999
 31
0.0
  0
LINE
  5
105
330
1E
100
AcDbEntity
  8
0
100
AcDbLine
 10
74.8152235
 20
2.841099999999999
 30
0.0
 11
75.3366235
 21
2.841099999999999
 31
0.0
  0
LINE
  5
106
330
1E
100
AcDbEntity
  8
0
100
AcDbLine
 10
74.1920235
 20
2.841099999999999
 30
0.0
 11
74.8152235
 21
2.841099999999999
 31
0.0
  0
LINE
  5
107
330
1E
100
AcDbEntity
  8
0
100
AcDbLine
 10
73.5364235
 20
2.841099999999999
 30
0.0
 11
74.1920235
 21
2.841099999999999
 31
0.0
  0
LINE
  5
108
330
1E
100
AcDbEntity
  8
0
100
AcDbLine
 10
75.7615235
 20
2.841099999999999
 30
0.0
 11
76.02512349999999
 21
2.841099999999999
 31
0.0
  0
LINE
  5
109
330
1E
100
AcDbEntity
  8
0
100
AcDbLine
 10
75.9925235
 20
2.841099999999999
 30
0.0
 11
76.10362349999999
 21
2.841099999999999
 31
0.0
  0
LINE
  5
10A
330
1E
100
AcDbEntity
  8
0
100
AcDbLine
 10
75.7613235
 20
2.841099999999999
 30
0.0
 11
75.9925235
 21
2.841099999999999
 31
0.0
  0
LINE
  5
10B
330
1E
100
AcDbEntity
  8
0
100
AcDbLine
 10
75.3694235
 20
2.841099999999999
 30
0.0
 11
75.7613235
 21
2.841099999999999
 31
0.0
  0
LINE
  5
10C
330
1E
100
AcDbEntity
  8
0
100
AcDbLine
 10
75.75282350000001
 20
2.841099999999999
 30
0.0
 11
76.01652350000001
 21
2.841099999999999
 31
0.0
  0
LINE
  5
10D
330
1E
100
AcDbEntity
  8
0
100
AcDbLine
 10
76.02512349999999
 20
2.841099999999999
 30
0.0
 11
76.10362349999999
 21
2.841099999999999
 31
0.0
  0
LINE
  5
10E
330
1E
100
AcDbEntity
  8
0
100
AcDbLine
 10
76.01652350000001
 20
2.841099999999999
 30
0.0
 11
76.09502349999999
 21
2.841099999999999
 31
0.0
  0
LINE
  5
10F
330
1E
100
AcDbEntity
  8
0
100
AcDbLine
 10
75.9838235
 20
2.841099999999999
 30
0.0
 11
76.09502349999999
 21
2.841099999999999
 31
0.0
  0
LINE
  5
110
330
1E
100
AcDbEntity
  8
0
100
AcDbLine
 10
76.10362349999999
 20
2.841099999999999
 30
0.0
 11
76.5856061079524
 21
3.85935614417392
 31
0.0
  0
LINE
  5
111
330
1E
100
AcDbEntity
  8
0
100
AcDbLine
 10
76.09502349999999
 20
2.841099999999999
 30
0.0
 11
76.57700614865959
 21
3.859356230173509
 31
0.0
  0
LINE
  5
112
330
1E
100
AcDbEntity
  8
0
100
AcDbLine
 10
75.7526235
 20
2.841099999999999
 30
0.0
 11
75.9838235
 21
2.841099999999999
 31
0.0
  0
LINE
  5
113
330
1E
100
AcDbEntity
  8
0
100
AcDbLine
 10
75.3608235
 20
2.841099999999999
 30
0.0
 11
75.7526235
 21
2.841099999999999
 31
0.0
  0
LINE
  5
114
330
1E
100
AcDbEntity
  8
0
100
AcDbLine
 10
74.8161235
 20
2.841099999999999
 30
0.0
 11
75.3608235
 21
2.841099999999999
 31
0.0
  0
LINE
  5
115
330
1E
100
AcDbEntity
  8
0
100
AcDbLine
 10
73.5356235
 20
2.841099999999999
 30
0.0
 11
74.18302350000001
 21
2.841099999999999
 31
0.0
  0
LINE
  5
116
330
1E
100
AcDbEntity
  8
0
100
AcDbLine
 10
74.18302350000001
 20
2.841099999999999
 30
0.0
 11
74.8161235
 21
2.841099999999999
 31
0.0
  0
LINE
  5
117
330
1E
100
AcDbEntity
  8
0
100
AcDbLine
 10
71.7112235
 20
2.841099999999999
 30
0.0
 11
72.25592349999999
 21
2.841099999999999
 31
0.0
  0
LINE
  5
118
330
1E
100
AcDbEntity
  8
0
100
AcDbLine
 10
70.00792350000001
 20
3.341099999999999
 30
0.0
 11
70.7403220195532
 21
3.341099999999999
 31
0.0
  0
LINE
  5
119
330
1E
100
AcDbEntity
  8
0
100
AcDbLine
 10
68.4719235
 20
3.341099999999999
 30
0.0
 11
70.00792350000001
 21
3.341099999999999
 31
0.0
  0
LINE
  5
11A
330
1E
100
AcDbEntity
  8
0
100
AcDbLine
 10
67.50002349999999
 20
3.358209999999999
 30
0.0
 11
69.49992349999999
 21
3.35819
 31
0.0
  0
LINE
  5
11B
330
1E
100
AcDbEntity
  8
0
100
AcDbLine
 10
67.4995235
 20
3.859069999999999
 30
0.0
 11
67.4995235
 21
4.85907746164929
 31
0.0
  0
LINE
  5
11C
330
1E
100
AcDbEntity
  8
0
100
AcDbLine
 10
67.4995235
 20
3.859069999999999
 30
0.0
 11
69.49942349999999
 21
3.85904
 31
0.0
  0
LINE
  5
11D
330
1E
100
AcDbEntity
  8
0
100
AcDbLine
 10
79.73492349999999
 20
3.85873
 30
0.0
 11
79.73492349999999
 21
4.38139043420624
 31
0.0
  0
LINE
  5
11E
330
1E
100
AcDbEntity
  8
0
100
AcDbLine
 10
79.73492349999999
 20
3.85873
 30
0.0
 11
81.7349235
 21
3.858699999999999
 31
0.0
  0
LINE
  5
11F
330
1E
100
AcDbEntity
  8
0
100
AcDbLine
 10
79.73492349999999
 20
3.85873
 30
0.0
 11
80.51312349999999
 21
3.858718327
 31
0.0
  0
LINE
  5
120
330
1E
100
AcDbEntity
  8
0
100
AcDbLine
 10
69.49942349999999
 20
3.85904
 30
0.0
 11
69.4994485000001
 21
4.359030001125
 31
0.0
  0
LINE
  5
121
330
1E
100
AcDbEntity
  8
0
100
AcDbLine
 10
67.4998983369441
 20
3.85906999437716
 30
0.0
 11
67.50002349999999
 21
3.358209999999999
 31
0.0
  0
LINE
  5
122
330
1E
100
AcDbEntity
  8
0
100
AcDbLine
 10
80.51312349999999
 20
3.858718327
 30
0.0
 11
80.51312349999999
 21
3.358849999999999
 31
0.0
  0
LINE
  5
123
330
1E
100
AcDbEntity
  8
0
100
AcDbLine
 10
81.7349235
 20
3.858699999999999
 30
0.0
 11
81.7349235
 21
4.359190008500419
 31
0.0
  0
LINE
  5
124
330
1E
100
AcDbEntity
  8
0
100
AcDbLine
 10
82.51312349999999
 20
3.35883
 30
0.0
 11
82.51312349999999
 21
4.1389172257837
 31
0.0
  0
LINE
  5
125
330
1E
100
AcDbEntity
  8
0
100
AcDbLine
 10
80.51312349999999
 20
3.358849999999999
 30
0.0
 11
80.51312349999999
 21
3.858718327
 31
0.0
  0
LINE
  5
126
330
1E
100
AcDbEntity
  8
0
100
AcDbLine
 10
80.51312349999999
 20
3.358849999999999
 30
0.0
 11
82.51312349999999
 21
3.35883
 31
0.0
  0
LINE
  5
127
330
1E
100
AcDbEntity
  8
0
100
AcDbLine
 10
70.49508947123141
 20
3.859120731975989
 30
0.0
 11
70.9770235
 21
2.841099999999999
 31
0.0
  0
LINE
  5
128
330
1E
100
AcDbEntity
  8
0
100
AcDbLine
 10
79.09962349999999
 20
3.859119999999999
 30
0.0
 11
79.73492349999999
 21
3.859148233986999
 31
0.0
  0
LINE
  5
129
330
1E
100
AcDbEntity
  8
0
100
AcDbLine
 10
70.79962349999999
 20
3.85913
 30
0.0
 11
73.0002235
 21
3.8595
 31
0.0
  0
LINE
  5
12A
330
1E
100
AcDbEntity
  8
0
100
AcDbLine
 10
69.49982336096851
 20
3.85909044258522
 30
0.0
 11
70.79962349999999
 21
3.85913
 31
0.0
  0
LINE
  5
12B
330
1E
100
AcDbEntity
  8
0
100
AcDbLine
 10
90.21722350000001
 20
3.3589
 30
0.0
 11
91.9492235
 21
3.358919999999999
 31
0.0
  0
LINE
  5
12C
330
1E
100
AcDbEntity
  8
0
100
AcDbLine
 10
130.3978235
 20
1.649899999999999
 30
0.0
 11
132.3998234999999
 21
0.4585999999999931
 31
0.0
  0
LINE
  5
12D
330
1E
100
AcDbEntity
  8
0
100
AcDbLine
 10
132.3998234999999
 20
0.4585999999999931
 30
0.0
 11
133.2998235
 21
0.158899999999995
 31
0.0
  0
LINE
  5
12E
330
1E
100
AcDbEntity
  8
0
100
AcDbLine
 10
130.3418235
 20
1.683699999999989
 30
0.0
 11
132.3998234999999
 21
0.4585999999999931
 31
0.0
  0
LINE
  5
12F
330
1E
100
AcDbEntity
  8
0
100
AcDbLine
 10
94.7032235
 20
3.3589
 30
0.0
 11
94.7032235
 21
4.180711654831819
 31
0.0
  0
LINE
  5
130
330
1E
100
AcDbEntity
  8
0
100
AcDbLine
 10
92.9711235
 20
3.35888
 30
0.0
 11
92.97114851183158
 21
3.85910662645614
 31
0.0
  0
LINE
  5
131
330
1E
100
AcDbEntity
  8
0
100
AcDbLine
 10
92.9711235
 20
3.35888
 30
0.0
 11
94.7032235
 21
3.3589
 31
0.0
  0
LINE
  5
132
330
1E
100
AcDbEntity
  8
0
100
AcDbLine
 10
91.97122349999999
 20
3.35889
 30
0.0
 11
91.97122349999999
 21
4.082126424855689
 31
0.0
  0
LINE
  5
133
330
1E
100
AcDbEntity
  8
0
100
AcDbLine
 10
91.97122349999999
 20
3.35889
 30
0.0
 11
92.9711235
 21
3.35888
 31
0.0
  0
LINE
  5
134
330
1E
100
AcDbEntity
  8
0
100
AcDbLine
 10
91.9492235
 20
3.358919999999999
 30
0.0
 11
91.9492235
 21
4.20016815942148
 31
0.0
  0
LINE
  5
135
330
1E
100
AcDbEntity
  8
0
100
AcDbLine
 10
90.9492235
 20
3.35893
 30
0.0
 11
91.9492235
 21
3.358919999999999
 31
0.0
  0
LINE
  5
136
330
1E
100
AcDbEntity
  8
0
100
AcDbLine
 10
90.9492235
 20
3.35893
 30
0.0
 11
90.94926527959179
 21
4.194505124641029
 31
0.0
  0
LINE
  5
137
330
1E
100
AcDbEntity
  8
0
100
AcDbLine
 10
90.9492235
 20
3.35893
 30
0.0
 11
90.94926527959179
 21
4.194505124641029
 31
0.0
  0
LINE
  5
138
330
1E
100
AcDbEntity
  8
0
100
AcDbLine
 10
94.0795235
 20
3.85909
 30
0.0
 11
94.07954848841841
 21
4.358848373625169
 31
0.0
  0
LINE
  5
139
330
1E
100
AcDbEntity
  8
0
100
AcDbLine
 10
92.0796235
 20
3.859119999999999
 30
0.0
 11
92.0796235
 21
4.61815396491228
 31
0.0
  0
LINE
  5
13A
330
1E
100
AcDbEntity
  8
0
100
AcDbLine
 10
92.0796235
 20
3.859119999999999
 30
0.0
 11
94.0795235
 21
3.85909
 31
0.0
  0
LINE
  5
13B
330
1E
100
AcDbEntity
  8
0
100
AcDbLine
 10
92.0796235
 20
3.859119999999999
 30
0.0
 11
92.0796235
 21
4.462962094492139
 31
0.0
  0
LINE
  5
13C
330
1E
100
AcDbEntity
  8
0
100
AcDbLine
 10
104.1288234999999
 20
3.85881
 30
0.0
 11
105.8608235
 21
3.85884
 31
0.0
  0
LINE
  5
13D
330
1E
100
AcDbEntity
  8
0
100
AcDbLine
 10
102.3418235
 20
3.85904
 30
0.0
 11
102.3418235
 21
4.629644501652889
 31
0.0
  0
LINE
  5
13E
330
1E
100
AcDbEntity
  8
0
100
AcDbLine
 10
100.6098235
 20
3.85901999999999
 30
0.0
 11
102.3418235
 21
3.85904
 31
0.0
  0
LINE
  5
13F
330
1E
100
AcDbEntity
  8
0
100
AcDbLine
 10
101.3418235
 20
3.859049999999999
 30
0.0
 11
102.3418235
 21
3.85904
 31
0.0
  0
LINE
  5
140
330
1E
100
AcDbEntity
  8
0
100
AcDbLine
 10
101.3418235
 20
3.859049999999999
 30
0.0
 11
101.3418235
 21
4.602115961623679
 31
0.0
  0
LINE
  5
141
330
1E
100
AcDbEntity
  8
0
100
AcDbLine
 10
105.8608235
 20
3.85884
 30
0.0
 11
105.8608235
 21
4.568404139024599
 31
0.0
  0
LINE
  5
142
330
1E
100
AcDbEntity
  8
0
100
AcDbLine
 10
103.1288234999999
 20
3.85883
 30
0.0
 11
104.1288234999999
 21
3.85881
 31
0.0
  0
LINE
  5
143
330
1E
100
AcDbEntity
  8
0
100
AcDbLine
 10
99.60942350000001
 20
3.85903
 30
0.0
 11
99.6094478098017
 21
4.34521630997206
 31
0.0
  0
LINE
  5
144
330
1E
100
AcDbEntity
  8
0
100
AcDbLine
 10
99.60942350000001
 20
3.85903
 30
0.0
 11
100.6098235
 21
3.85901999999999
 31
0.0
  0
LINE
  5
145
330
1E
100
AcDbEntity
  8
0
100
AcDbLine
 10
99.60942350000001
 20
3.85903
 30
0.0
 11
99.6094478098017
 21
4.34521630997206
 31
0.0
  0
LINE
  5
146
330
1E
100
AcDbEntity
  8
0
100
AcDbLine
 10
99.60942350000001
 20
3.85903
 30
0.0
 11
99.60945725768048
 21
4.534170106617
 31
0.0
  0
LINE
  5
147
330
1E
100
AcDbEntity
  8
0
100
AcDbLine
 10
99.60942350000001
 20
3.85903
 30
0.0
 11
101.3418235
 21
3.859049999999999
 31
0.0
  0
LINE
  5
148
330
1E
100
AcDbEntity
  8
0
100
AcDbLine
 10
89.21722350000001
 20
3.358909999999999
 30
0.0
 11
89.21722350000001
 21
3.974191099254309
 31
0.0
  0
LINE
  5
149
330
1E
100
AcDbEntity
  8
0
100
AcDbLine
 10
89.21722350000001
 20
3.358909999999999
 30
0.0
 11
90.21722350000001
 21
3.3589
 31
0.0
  0
LINE
  5
14A
330
1E
100
AcDbEntity
  8
0
100
AcDbLine
 10
89.21722350000001
 20
3.358909999999999
 30
0.0
 11
89.21722350000001
 21
4.12657199552158
 31
0.0
  0
LINE
  5
14B
330
1E
100
AcDbEntity
  8
0
100
AcDbLine
 10
89.21722350000001
 20
3.358909999999999
 30
0.0
 11
90.9492235
 21
3.35893
 31
0.0
  0
LINE
  5
14C
330
1E
100
AcDbEntity
  8
0
100
AcDbLine
 10
84.5995235
 20
3.859049999999999
 30
0.0
 11
85.39962350000001
 21
3.85914
 31
0.0
  0
LINE
  5
14D
330
1E
100
AcDbEntity
  8
0
100
AcDbLine
 10
62.47192349999999
 20
3.85920028138922
 30
0.0
 11
62.47192349999999
 21
3.341099999999999
 31
0.0
  0
LINE
  5
14E
330
1E
100
AcDbEntity
  8
0
100
AcDbLine
 10
104.0458235
 20
3.85919
 30
0.0
 11
104.0458235
 21
4.358755675
 31
0.0
  0
LINE
  5
14F
330
1E
100
AcDbEntity
  8
0
100
AcDbLine
 10
104.0458235
 20
3.85919
 30
0.0
 11
105.7778235
 21
3.85921
 31
0.0
  0
LINE
  5
150
330
1E
100
AcDbEntity
  8
0
100
AcDbLine
 10
105.7778235
 20
3.85921
 30
0.0
 11
105.7778235
 21
4.61365613469529
 31
0.0
  0
LINE
  5
151
330
1E
100
AcDbEntity
  8
0
100
AcDbLine
 10
103.0458235
 20
3.859199999999999
 30
0.0
 11
103.0458235
 21
4.51250205435515
 31
0.0
  0
LINE
  5
152
330
1E
100
AcDbEntity
  8
0
100
AcDbLine
 10
103.0458235
 20
3.859199999999999
 30
0.0
 11
104.0458235
 21
3.85919
 31
0.0
  0
LINE
  5
153
330
1E
100
AcDbEntity
  8
0
100
AcDbLine
 10
82.51312349999999
 20
3.85918697792477
 30
0.0
 11
83.69982349999999
 21
3.859259999999999
 31
0.0
  0
LINE
  5
154
330
1E
100
AcDbEntity
  8
0
100
AcDbLine
 10
85.39962350000001
 20
3.85914
 30
0.0
 11
85.8001235
 21
3.85944
 31
0.0
  0
LINE
  5
155
330
1E
100
AcDbEntity
  8
0
100
AcDbLine
 10
61.79982349999999
 20
3.85924
 30
0.0
 11
62.47192349999999
 21
3.85920028138922
 31
0.0
  0
LINE
  5
156
330
1E
100
AcDbEntity
  8
0
100
AcDbLine
 10
61.79982349999999
 20
3.85924
 30
0.0
 11
63.9996235
 21
3.859109999999999
 31
0.0
  0
LINE
  5
157
330
1E
100
AcDbEntity
  8
0
100
AcDbLine
 10
69.49978946914929
 20
4.02861901673499
 30
0.0
 11
69.49992349999999
 21
3.35819
 31
0.0
  0
LINE
  5
158
330
1E
100
AcDbEntity
  8
0
100
AcDbLine
 10
69.49978946914929
 20
4.02861901673499
 30
0.0
 11
69.49992349999999
 21
3.35819
 31
0.0
  0
LINE
  5
159
330
1E
100
AcDbEntity
  8
0
100
AcDbLine
 10
57.9002235
 20
3.85949
 30
0.0
 11
59.7998235
 21
3.859269999999999
 31
0.0
  0
LINE
  5
15A
330
1E
100
AcDbEntity
  8
0
100
AcDbLine
 10
66.20022349999999
 20
3.85949
 30
0.0
 11
67.4995235
 21
3.85924701343887
 31
0.0
  0
LINE
  5
15B
330
1E
100
AcDbEntity
  8
0
100
AcDbLine
 10
89.21722350000001
 20
3.974191099254309
 30
0.0
 11
89.21722350000001
 21
3.358909999999999
 31
0.0
  0
LINE
  5
15C
330
1E
100
AcDbEntity
  8
0
100
AcDbLine
 10
86.0000235
 20
3.85933
 30
0.0
 11
89.21722350000001
 21
3.974191099254309
 31
0.0
  0
LINE
  5
15D
330
1E
100
AcDbEntity
  8
0
100
AcDbLine
 10
89.21722350000001
 20
4.12657199552158
 30
0.0
 11
89.21722350000001
 21
3.358909999999999
 31
0.0
  0
LINE
  5
15E
330
1E
100
AcDbEntity
  8
0
100
AcDbLine
 10
82.51312349999999
 20
4.1389172257837
 30
0.0
 11
82.51312349999999
 21
3.35883
 31
0.0
  0
LINE
  5
15F
330
1E
100
AcDbEntity
  8
0
100
AcDbLine
 10
91.97122349999999
 20
4.082126424855689
 30
0.0
 11
91.97122349999999
 21
3.35889
 31
0.0
  0
LINE
  5
160
330
1E
100
AcDbEntity
  8
0
100
AcDbLine
 10
91.9492235
 20
4.20016815942148
 30
0.0
 11
91.9492235
 21
3.358919999999999
 31
0.0
  0
LINE
  5
161
330
1E
100
AcDbEntity
  8
0
100
AcDbLine
 10
69.4995235
 20
4.35903
 30
0.0
 11
69.4995235
 21
4.85902
 31
0.0
  0
LINE
  5
162
330
1E
100
AcDbEntity
  8
0
100
AcDbLine
 10
67.4995235
 20
4.359059999999999
 30
0.0
 11
67.4995235
 21
4.97669041553919
 31
0.0
  0
LINE
  5
163
330
1E
100
AcDbEntity
  8
0
100
AcDbLine
 10
67.4995235
 20
4.359059999999999
 30
0.0
 11
69.4995235
 21
4.35903
 31
0.0
  0
LINE
  5
164
330
1E
100
AcDbEntity
  8
0
100
AcDbLine
 10
93.9711235
 20
4.35885
 30
0.0
 11
93.97115691625108
 21
5.02715831443078
 31
0.0
  0
LINE
  5
165
330
1E
100
AcDbEntity
  8
0
100
AcDbLine
 10
93.9711235
 20
4.35885
 30
0.0
 11
95.97112350000001
 21
4.358819999999999
 31
0.0
  0
LINE
  5
166
330
1E
100
AcDbEntity
  8
0
100
AcDbLine
 10
81.7349235
 20
4.359190008500419
 30
0.0
 11
81.7349235
 21
3.858699999999999
 31
0.0
  0
LINE
  5
167
330
1E
100
AcDbEntity
  8
0
100
AcDbLine
 10
82.7357235
 20
4.35918
 30
0.0
 11
82.7357235
 21
4.859042217999999
 31
0.0
  0
LINE
  5
168
330
1E
100
AcDbEntity
  8
0
100
AcDbLine
 10
80.7358235
 20
4.3592
 30
0.0
 11
80.7358235
 21
4.99667587239717
 31
0.0
  0
LINE
  5
169
330
1E
100
AcDbEntity
  8
0
100
AcDbLine
 10
80.7358235
 20
4.3592
 30
0.0
 11
82.7357235
 21
4.35918
 31
0.0
  0
LINE
  5
16A
330
1E
100
AcDbEntity
  8
0
100
AcDbLine
 10
92.0796235
 20
4.462962094492139
 30
0.0
 11
92.0796235
 21
3.859119999999999
 31
0.0
  0
LINE
  5
16B
330
1E
100
AcDbEntity
  8
0
100
AcDbLine
 10
92.0796235
 20
4.61815396491228
 30
0.0
 11
92.0796235
 21
3.859119999999999
 31
0.0
  0
LINE
  5
16C
330
1E
100
AcDbEntity
  8
0
100
AcDbLine
 10
79.73492349999999
 20
4.38139043420624
 30
0.0
 11
79.73492349999999
 21
3.85873
 31
0.0
  0
LINE
  5
16D
330
1E
100
AcDbEntity
  8
0
100
AcDbLine
 10
57.26542349999999
 20
4.381348008744589
 30
0.0
 11
57.26542349999999
 21
3.859019999999999
 31
0.0
  0
LINE
  5
16E
330
1E
100
AcDbEntity
  8
0
100
AcDbLine
 10
55.2655235
 20
4.358534986499999
 30
0.0
 11
55.2655235
 21
3.859049999999999
 31
0.0
  0
LINE
  5
16F
330
1E
100
AcDbEntity
  8
0
100
AcDbLine
 10
56.2646235
 20
4.358519999999999
 30
0.0
 11
56.2646235
 21
4.99648527868936
 31
0.0
  0
LINE
  5
170
330
1E
100
AcDbEntity
  8
0
100
AcDbLine
 10
54.2646235
 20
4.35855
 30
0.0
 11
56.2646235
 21
4.358519999999999
 31
0.0
  0
LINE
  5
171
330
1E
100
AcDbEntity
  8
0
100
AcDbLine
 10
54.2646235
 20
4.35855
 30
0.0
 11
54.2646235
 21
4.858666673
 31
0.0
  0
LINE
  5
172
330
1E
100
AcDbEntity
  8
0
100
AcDbLine
 10
94.7032235
 20
4.180711654831819
 30
0.0
 11
94.7032235
 21
3.3589
 31
0.0
  0
LINE
  5
173
330
1E
100
AcDbEntity
  8
0
100
AcDbLine
 10
101.3418235
 20
4.602115961623679
 30
0.0
 11
101.3418235
 21
3.859049999999999
 31
0.0
  0
LINE
  5
174
330
1E
100
AcDbEntity
  8
0
100
AcDbLine
 10
102.3418235
 20
4.629644501652889
 30
0.0
 11
102.3418235
 21
3.85904
 31
0.0
  0
LINE
  5
175
330
1E
100
AcDbEntity
  8
0
100
AcDbLine
 10
95.97112350000001
 20
4.358819999999999
 30
0.0
 11
95.97112350000001
 21
4.858683326999999
 31
0.0
  0
LINE
  5
176
330
1E
100
AcDbEntity
  8
0
100
AcDbLine
 10
94.7032235
 20
4.1700533367618
 30
0.0
 11
99.6094478098017
 21
4.34521630997206
 31
0.0
  0
LINE
  5
177
330
1E
100
AcDbEntity
  8
0
100
AcDbLine
 10
103.0908235
 20
4.358769999999999
 30
0.0
 11
103.0908235
 21
5.045167039026929
 31
0.0
  0
LINE
  5
178
330
1E
100
AcDbEntity
  8
0
100
AcDbLine
 10
103.0908235
 20
4.358769999999999
 30
0.0
 11
105.0908235
 21
4.35874
 31
0.0
  0
LINE
  5
179
330
1E
100
AcDbEntity
  8
0
100
AcDbLine
 10
103.0908235
 20
4.358769999999999
 30
0.0
 11
103.0908235
 21
4.99035528894736
 31
0.0
  0
LINE
  5
17A
330
1E
100
AcDbEntity
  8
0
100
AcDbLine
 10
105.0908235
 20
4.35874
 30
0.0
 11
105.0908235
 21
5.095554236315789
 31
0.0
  0
LINE
  5
17B
330
1E
100
AcDbEntity
  8
0
100
AcDbLine
 10
104.0458235
 20
4.358755675
 30
0.0
 11
104.0458235
 21
3.85919
 31
0.0
  0
LINE
  5
17C
330
1E
100
AcDbEntity
  8
0
100
AcDbLine
 10
103.0458235
 20
4.51250205435515
 30
0.0
 11
103.0458235
 21
3.859199999999999
 31
0.0
  0
LINE
  5
17D
330
1E
100
AcDbEntity
  8
0
100
AcDbLine
 10
112.7338235
 20
4.35863999999999
 30
0.0
 11
112.7338235
 21
5.152132704242419
 31
0.0
  0
LINE
  5
17E
330
1E
100
AcDbEntity
  8
0
100
AcDbLine
 10
111.0018235
 20
4.35861999999999
 30
0.0
 11
112.7338235
 21
4.35863999999999
 31
0.0
  0
LINE
  5
17F
330
1E
100
AcDbEntity
  8
0
100
AcDbLine
 10
111.7338235
 20
4.35865999999999
 30
0.0
 11
112.7338235
 21
4.35863999999999
 31
0.0
  0
LINE
  5
180
330
1E
100
AcDbEntity
  8
0
100
AcDbLine
 10
111.7338235
 20
4.35865999999999
 30
0.0
 11
111.7338235
 21
5.0915611890909
 31
0.0
  0
LINE
  5
181
330
1E
100
AcDbEntity
  8
0
100
AcDbLine
 10
110.0018235
 20
4.35863
 30
0.0
 11
110.0018235
 21
4.716246925302129
 31
0.0
  0
LINE
  5
182
330
1E
100
AcDbEntity
  8
0
100
AcDbLine
 10
110.0018235
 20
4.35863
 30
0.0
 11
111.0018235
 21
4.35861999999999
 31
0.0
  0
LINE
  5
183
330
1E
100
AcDbEntity
  8
0
100
AcDbLine
 10
110.0018235
 20
4.35863
 30
0.0
 11
110.0018235
 21
4.986651324848479
 31
0.0
  0
LINE
  5
184
330
1E
100
AcDbEntity
  8
0
100
AcDbLine
 10
110.0018235
 20
4.35863
 30
0.0
 11
111.7338235
 21
4.35865999999999
 31
0.0
  0
LINE
  5
185
330
1E
100
AcDbEntity
  8
0
100
AcDbLine
 10
105.7778235
 20
4.61365613469529
 30
0.0
 11
105.7778235
 21
3.85921
 31
0.0
  0
LINE
  5
186
330
1E
100
AcDbEntity
  8
0
100
AcDbLine
 10
105.8608235
 20
4.568404139024599
 30
0.0
 11
105.8608235
 21
3.85884
 31
0.0
  0
LINE
  5
187
330
1E
100
AcDbEntity
  8
0
100
AcDbLine
 10
110.0018235
 20
4.716246925302129
 30
0.0
 11
110.0018235
 21
4.35863
 31
0.0
  0
LINE
  5
188
330
1E
100
AcDbEntity
  8
0
100
AcDbLine
 10
105.7778235
 20
4.565440856904079
 30
0.0
 11
110.0018235
 21
4.716246925302129
 31
0.0
  0
LINE
  5
189
330
1E
100
AcDbEntity
  8
0
100
AcDbLine
 10
102.3418235
 20
4.44276811755378
 30
0.0
 11
103.0458235
 21
4.467902462286789
 31
0.0
  0
LINE
  5
18A
330
1E
100
AcDbEntity
  8
0
100
AcDbLine
 10
69.4995235
 20
4.85902
 30
0.0
 11
69.4995235
 21
5.859043331417731
 31
0.0
  0
LINE
  5
18B
330
1E
100
AcDbEntity
  8
0
100
AcDbLine
 10
69.4995235
 20
4.85902
 30
0.0
 11
69.4995235
 21
4.35903
 31
0.0
  0
LINE
  5
18C
330
1E
100
AcDbEntity
  8
0
100
AcDbLine
 10
67.4995235
 20
4.85907746164929
 30
0.0
 11
67.4995235
 21
3.859069999999999
 31
0.0
  0
LINE
  5
18D
330
1E
100
AcDbEntity
  8
0
100
AcDbLine
 10
67.4995235
 20
4.97669041553919
 30
0.0
 11
67.4995235
 21
4.359059999999999
 31
0.0
  0
LINE
  5
18E
330
1E
100
AcDbEntity
  8
0
100
AcDbLine
 10
67.4995235
 20
4.859049999999999
 30
0.0
 11
67.4995235
 21
5.85903413904087
 31
0.0
  0
LINE
  5
18F
330
1E
100
AcDbEntity
  8
0
100
AcDbLine
 10
67.4995235
 20
4.859049999999999
 30
0.0
 11
69.4995235
 21
4.85902
 31
0.0
  0
LINE
  5
190
330
1E
100
AcDbEntity
  8
0
100
AcDbLine
 10
95.97112350000001
 20
4.858683326999999
 30
0.0
 11
95.97112350000001
 21
4.358819999999999
 31
0.0
  0
LINE
  5
191
330
1E
100
AcDbEntity
  8
0
100
AcDbLine
 10
107.3148235
 20
4.858709999999999
 30
0.0
 11
107.3148235
 21
5.825921273716969
 31
0.0
  0
LINE
  5
192
330
1E
100
AcDbEntity
  8
0
100
AcDbLine
 10
105.3148235
 20
4.85874
 30
0.0
 11
105.3148235
 21
5.71482783989187
 31
0.0
  0
LINE
  5
193
330
1E
100
AcDbEntity
  8
0
100
AcDbLine
 10
105.3148235
 20
4.85874
 30
0.0
 11
107.3148235
 21
4.858709999999999
 31
0.0
  0
LINE
  5
194
330
1E
100
AcDbEntity
  8
0
100
AcDbLine
 10
105.3148235
 20
4.85874
 30
0.0
 11
105.3148235
 21
5.65195386445453
 31
0.0
  0
LINE
  5
195
330
1E
100
AcDbEntity
  8
0
100
AcDbLine
 10
96.1929235
 20
4.85868
 30
0.0
 11
96.1929235
 21
5.859282426857099
 31
0.0
  0
LINE
  5
196
330
1E
100
AcDbEntity
  8
0
100
AcDbLine
 10
94.19292349999999
 20
4.858709999999999
 30
0.0
 11
94.19292349999999
 21
5.85928024340909
 31
0.0
  0
LINE
  5
197
330
1E
100
AcDbEntity
  8
0
100
AcDbLine
 10
94.19292349999999
 20
4.858709999999999
 30
0.0
 11
96.1929235
 21
4.85868
 31
0.0
  0
LINE
  5
198
330
1E
100
AcDbEntity
  8
0
100
AcDbLine
 10
94.19292349999999
 20
4.858709999999999
 30
0.0
 11
94.19292349999999
 21
5.423385224826869
 31
0.0
  0
LINE
  5
199
330
1E
100
AcDbEntity
  8
0
100
AcDbLine
 10
110.0018235
 20
4.986651324848479
 30
0.0
 11
110.0018235
 21
4.35863
 31
0.0
  0
LINE
  5
19A
330
1E
100
AcDbEntity
  8
0
100
AcDbLine
 10
103.0908235
 20
4.99035528894736
 30
0.0
 11
103.0908235
 21
4.358769999999999
 31
0.0
  0
LINE
  5
19B
330
1E
100
AcDbEntity
  8
0
100
AcDbLine
 10
82.7357235
 20
4.859042217999999
 30
0.0
 11
82.7357235
 21
4.35918
 31
0.0
  0
LINE
  5
19C
330
1E
100
AcDbEntity
  8
0
100
AcDbLine
 10
82.95752349999998
 20
4.85904
 30
0.0
 11
82.95752349999998
 21
5.74130262031424
 31
0.0
  0
LINE
  5
19D
330
1E
100
AcDbEntity
  8
0
100
AcDbLine
 10
80.95752349999999
 20
4.859059999999999
 30
0.0
 11
80.95757351300029
 21
5.8593
 31
0.0
  0
LINE
  5
19E
330
1E
100
AcDbEntity
  8
0
100
AcDbLine
 10
80.95752349999999
 20
4.859059999999999
 30
0.0
 11
82.95752349999998
 21
4.85904
 31
0.0
  0
LINE
  5
19F
330
1E
100
AcDbEntity
  8
0
100
AcDbLine
 10
80.95752349999999
 20
4.859059999999999
 30
0.0
 11
80.95755730585528
 21
5.535163583385269
 31
0.0
  0
LINE
  5
1A0
330
1E
100
AcDbEntity
  8
0
100
AcDbLine
 10
111.7338235
 20
5.0915611890909
 30
0.0
 11
111.7338235
 21
4.35865999999999
 31
0.0
  0
LINE
  5
1A1
330
1E
100
AcDbEntity
  8
0
100
AcDbLine
 10
103.0908235
 20
5.04516703902694
 30
0.0
 11
103.0908235
 21
4.358769999999999
 31
0.0
  0
LINE
  5
1A2
330
1E
100
AcDbEntity
  8
0
100
AcDbLine
 10
112.7338235
 20
5.152132704242419
 30
0.0
 11
112.7338235
 21
4.35863999999999
 31
0.0
  0
LINE
  5
1A3
330
1E
100
AcDbEntity
  8
0
100
AcDbLine
 10
105.0908235
 20
5.095554236315789
 30
0.0
 11
105.0908235
 21
4.35874
 31
0.0
  0
LINE
  5
1A4
330
1E
100
AcDbEntity
  8
0
100
AcDbLine
 10
80.7358235
 20
4.99667587239717
 30
0.0
 11
80.7358235
 21
4.3592
 31
0.0
  0
LINE
  5
1A5
330
1E
100
AcDbEntity
  8
0
100
AcDbLine
 10
56.2646235
 20
4.99648527868936
 30
0.0
 11
56.2646235
 21
4.358519999999999
 31
0.0
  0
LINE
  5
1A6
330
1E
100
AcDbEntity
  8
0
100
AcDbLine
 10
54.2646235
 20
4.858666673
 30
0.0
 11
54.2646235
 21
4.35855
 31
0.0
  0
LINE
  5
1A7
330
1E
100
AcDbEntity
  8
0
100
AcDbLine
 10
56.0428235
 20
4.85864
 30
0.0
 11
56.0428235
 21
5.859224526626509
 31
0.0
  0
LINE
  5
1A8
330
1E
100
AcDbEntity
  8
0
100
AcDbLine
 10
54.04282349999999
 20
4.85867
 30
0.0
 11
56.0428235
 21
4.85864
 31
0.0
  0
LINE
  5
1A9
330
1E
100
AcDbEntity
  8
0
100
AcDbLine
 10
54.04282349999999
 20
4.85867
 30
0.0
 11
54.0428676266485
 21
5.741180906302719
 31
0.0
  0
LINE
  5
1AA
330
1E
100
AcDbEntity
  8
0
100
AcDbLine
 10
54.04282349999999
 20
4.85867
 30
0.0
 11
54.0428676266485
 21
5.741180906302719
 31
0.0
  0
LINE
  5
1AB
330
1E
100
AcDbEntity
  8
0
100
AcDbLine
 10
112.7338235
 20
4.813785319919429
 30
0.0
 11
114.0008235
 21
4.85902
 31
0.0
  0
LINE
  5
1AC
330
1E
100
AcDbEntity
  8
0
100
AcDbLine
 10
117.0558235
 20
4.358749999999999
 30
0.0
 11
117.0558235
 21
5.11325096393442
 31
0.0
  0
LINE
  5
1AD
330
1E
100
AcDbEntity
  8
0
100
AcDbLine
 10
115.3238235
 20
4.35873
 30
0.0
 11
115.3238235
 21
4.85882834499999
 31
0.0
  0
LINE
  5
1AE
330
1E
100
AcDbEntity
  8
0
100
AcDbLine
 10
115.3238235
 20
4.35873
 30
0.0
 11
117.0558235
 21
4.358749999999999
 31
0.0
  0
LINE
  5
1AF
330
1E
100
AcDbEntity
  8
0
100
AcDbLine
 10
114.3238235
 20
4.35874
 30
0.0
 11
114.3238235
 21
4.96397030382513
 31
0.0
  0
LINE
  5
1B0
330
1E
100
AcDbEntity
  8
0
100
AcDbLine
 10
114.3238235
 20
4.35874
 30
0.0
 11
115.3238235
 21
4.35873
 31
0.0
  0
LINE
  5
1B1
330
1E
100
AcDbEntity
  8
0
100
AcDbLine
 10
117.0558235
 20
4.35885119999999
 30
0.0
 11
117.1158235
 21
4.35885
 31
0.0
  0
LINE
  5
1B2
330
1E
100
AcDbEntity
  8
0
100
AcDbLine
 10
118.8478235
 20
4.35888
 30
0.0
 11
118.8478235
 21
5.133199831273389
 31
0.0
  0
LINE
  5
1B3
330
1E
100
AcDbEntity
  8
0
100
AcDbLine
 10
117.1158235
 20
4.35885
 30
0.0
 11
117.1158235
 21
5.050239188316839
 31
0.0
  0
LINE
  5
1B4
330
1E
100
AcDbEntity
  8
0
100
AcDbLine
 10
117.1158235
 20
4.35885
 30
0.0
 11
118.8478235
 21
4.35888
 31
0.0
  0
LINE
  5
1B5
330
1E
100
AcDbEntity
  8
0
100
AcDbLine
 10
116.5468235
 20
4.85880999999999
 30
0.0
 11
116.5468235
 21
5.85896179482758
 31
0.0
  0
LINE
  5
1B6
330
1E
100
AcDbEntity
  8
0
100
AcDbLine
 10
114.5468235
 20
4.85883999999999
 30
0.0
 11
114.5468235
 21
5.59293485947368
 31
0.0
  0
LINE
  5
1B7
330
1E
100
AcDbEntity
  8
0
100
AcDbLine
 10
114.5468235
 20
4.85883999999999
 30
0.0
 11
116.5468235
 21
4.85880999999999
 31
0.0
  0
LINE
  5
1B8
330
1E
100
AcDbEntity
  8
0
100
AcDbLine
 10
115.3238235
 20
4.85882834499999
 30
0.0
 11
115.3238235
 21
4.35873
 31
0.0
  0
LINE
  5
1B9
330
1E
100
AcDbEntity
  8
0
100
AcDbLine
 10
114.3238235
 20
4.96397030382513
 30
0.0
 11
114.3238235
 21
4.35874
 31
0.0
  0
LINE
  5
1BA
330
1E
100
AcDbEntity
  8
0
100
AcDbLine
 10
117.0558235
 20
5.11325096393442
 30
0.0
 11
117.0558235
 21
4.358749999999999
 31
0.0
  0
LINE
  5
1BB
330
1E
100
AcDbEntity
  8
0
100
AcDbLine
 10
117.1158235
 20
5.050239188316839
 30
0.0
 11
117.1158235
 21
4.35885
 31
0.0
  0
LINE
  5
1BC
330
1E
100
AcDbEntity
  8
0
100
AcDbLine
 10
120.3938235
 20
4.85867
 30
0.0
 11
120.3938235
 21
5.19545419074688
 31
0.0
  0
LINE
  5
1BD
330
1E
100
AcDbEntity
  8
0
100
AcDbLine
 10
120.3938235
 20
4.85867
 30
0.0
 11
120.3938235
 21
5.65751788542713
 31
0.0
  0
LINE
  5
1BE
330
1E
100
AcDbEntity
  8
0
100
AcDbLine
 10
120.3938235
 20
4.85867
 30
0.0
 11
122.1268235
 21
4.8586
 31
0.0
  0
LINE
  5
1BF
330
1E
100
AcDbEntity
  8
0
100
AcDbLine
 10
127.7868235
 20
4.85865999999999
 30
0.0
 11
127.7868235
 21
5.84673982341848
 31
0.0
  0
LINE
  5
1C0
330
1E
100
AcDbEntity
  8
0
100
AcDbLine
 10
126.0548235
 20
4.85863999999999
 30
0.0
 11
126.0548235
 21
5.74777857534716
 31
0.0
  0
LINE
  5
1C1
330
1E
100
AcDbEntity
  8
0
100
AcDbLine
 10
126.0548235
 20
4.85863999999999
 30
0.0
 11
127.7868235
 21
4.85865999999999
 31
0.0
  0
LINE
  5
1C2
330
1E
100
AcDbEntity
  8
0
100
AcDbLine
 10
129.0418235
 20
4.85864999999999
 30
0.0
 11
129.0418235
 21
5.690790222
 31
0.0
  0
LINE
  5
1C3
330
1E
100
AcDbEntity
  8
0
100
AcDbLine
 10
129.0418235
 20
4.85864999999999
 30
0.0
 11
130.7738235
 21
4.85866999999999
 31
0.0
  0
LINE
  5
1C4
330
1E
100
AcDbEntity
  8
0
100
AcDbLine
 10
125.0548235
 20
4.858659999999999
 30
0.0
 11
125.0548235
 21
5.690641596091199
 31
0.0
  0
LINE
  5
1C5
330
1E
100
AcDbEntity
  8
0
100
AcDbLine
 10
125.0548235
 20
4.858659999999999
 30
0.0
 11
126.0548235
 21
4.85863999999999
 31
0.0
  0
LINE
  5
1C6
330
1E
100
AcDbEntity
  8
0
100
AcDbLine
 10
130.7738235
 20
4.85866999999999
 30
0.0
 11
130.7738235
 21
5.77737463399999
 31
0.0
  0
LINE
  5
1C7
330
1E
100
AcDbEntity
  8
0
100
AcDbLine
 10
128.0418235
 20
4.85865999999999
 30
0.0
 11
128.0418235
 21
5.640799221999989
 31
0.0
  0
LINE
  5
1C8
330
1E
100
AcDbEntity
  8
0
100
AcDbLine
 10
128.0418235
 20
4.85865999999999
 30
0.0
 11
129.0418235
 21
4.85864999999999
 31
0.0
  0
LINE
  5
1C9
330
1E
100
AcDbEntity
  8
0
100
AcDbLine
 10
122.1268235
 20
4.8586
 30
0.0
 11
123.1268235
 21
4.85859
 31
0.0
  0
LINE
  5
1CA
330
1E
100
AcDbEntity
  8
0
100
AcDbLine
 10
122.1268235
 20
4.8586
 30
0.0
 11
122.1268235
 21
5.744575445226129
 31
0.0
  0
LINE
  5
1CB
330
1E
100
AcDbEntity
  8
0
100
AcDbLine
 10
118.8478235
 20
5.133199831273389
 30
0.0
 11
118.8478235
 21
4.35888
 31
0.0
  0
LINE
  5
1CC
330
1E
100
AcDbEntity
  8
0
100
AcDbLine
 10
120.3938235
 20
5.19545419074688
 30
0.0
 11
120.3938235
 21
4.85867
 31
0.0
  0
LINE
  5
1CD
330
1E
100
AcDbEntity
  8
0
100
AcDbLine
 10
118.8478235
 20
5.114095320280009
 30
0.0
 11
120.3938235
 21
5.19545419074688
 31
0.0
  0
LINE
  5
1CE
330
1E
100
AcDbEntity
  8
0
100
AcDbLine
 10
114.0008235
 20
4.85902
 30
0.0
 11
114.3238235
 21
4.87601800463182
 31
0.0
  0
LINE
  5
1CF
330
1E
100
AcDbEntity
  8
0
100
AcDbLine
 10
124.118369195727
 20
5.3914599027822
 30
0.0
 11
130.3978235
 21
1.649899999999999
 31
0.0
  0
LINE
  5
1D1
330
1E
100
AcDbEntity
  8
0
100
AcDbLine
 10
114.5468235
 20
5.59293485947368
 30
0.0
 11
114.5468235
 21
4.85883999999999
 31
0.0
  0
LINE
  5
1D2
330
1E
100
AcDbEntity
  8
0
100
AcDbLine
 10
94.19292349999999
 20
5.423385224826869
 30
0.0
 11
94.19292349999999
 21
4.858709999999999
 31
0.0
  0
LINE
  5
1D3
330
1E
100
AcDbEntity
  8
0
100
AcDbLine
 10
105.3148235
 20
5.65195386445453
 30
0.0
 11
105.3148235
 21
4.85874
 31
0.0
  0
LINE
  5
1D4
330
1E
100
AcDbEntity
  8
0
100
AcDbLine
 10
120.3938235
 20
5.65751788542713
 30
0.0
 11
120.3938235
 21
4.85867
 31
0.0
  0
LINE
  5
1D5
330
1E
100
AcDbEntity
  8
0
100
AcDbLine
 10
105.3148235
 20
5.71482783989187
 30
0.0
 11
105.3148235
 21
4.85874
 31
0.0
  0
LINE
  5
1D6
330
1E
100
AcDbEntity
  8
0
100
AcDbLine
 10
123.126361991977
 20
5.78162450697189
 30
0.0
 11
123.1268235
 21
4.85859
 31
0.0
  0
LINE
  5
1D7
330
1E
100
AcDbEntity
  8
0
100
AcDbLine
 10
122.1268235
 20
5.744575445226129
 30
0.0
 11
122.1268235
 21
4.8586
 31
0.0
  0
LINE
  5
1D8
330
1E
100
AcDbEntity
  8
0
100
AcDbLine
 10
123.126361991977
 20
5.78162450697189
 30
0.0
 11
123.1268235
 21
4.85859
 31
0.0
  0
LINE
  5
1D9
330
1E
100
AcDbEntity
  8
0
100
AcDbLine
 10
107.3148235
 20
5.825921273716969
 30
0.0
 11
107.3148235
 21
4.858709999999999
 31
0.0
  0
LINE
  5
1DA
330
1E
100
AcDbEntity
  8
0
100
AcDbLine
 10
82.95752349999998
 20
5.74130262031424
 30
0.0
 11
82.95752349999998
 21
4.85904
 31
0.0
  0
LINE
  5
1DB
330
1E
100
AcDbEntity
  8
0
100
AcDbLine
 10
126.0548235
 20
5.74777857534716
 30
0.0
 11
126.0548235
 21
4.85863999999999
 31
0.0
  0
LINE
  5
1DC
330
1E
100
AcDbEntity
  8
0
100
AcDbLine
 10
125.0548235
 20
5.690641596091199
 30
0.0
 11
125.0548235
 21
4.858659999999999
 31
0.0
  0
LINE
  5
1DD
330
1E
100
AcDbEntity
  8
0
100
AcDbLine
 10
127.7868235
 20
5.84673982341848
 30
0.0
 11
127.7868235
 21
4.85865999999999
 31
0.0
  0
LINE
  5
1DE
330
1E
100
AcDbEntity
  8
0
100
AcDbLine
 10
129.0418235
 20
5.690790222
 30
0.0
 11
129.0418235
 21
4.85864999999999
 31
0.0
  0
LINE
  5
1DF
330
1E
100
AcDbEntity
  8
0
100
AcDbLine
 10
128.0418235
 20
5.640799221999989
 30
0.0
 11
128.0418235
 21
4.85865999999999
 31
0.0
  0
LINE
  5
1E0
330
1E
100
AcDbEntity
  8
0
100
AcDbLine
 10
130.7738235
 20
5.77737463399999
 30
0.0
 11
130.7738235
 21
4.85866999999999
 31
0.0
  0
LINE
  5
1E1
330
1E
100
AcDbEntity
  8
0
100
AcDbLine
 10
123.126583166424
 20
5.33926676494978
 30
0.0
 11
124.118515991675
 21
5.391467627977848
 31
0.0
  0
LINE
  5
1E2
330
1E
100
AcDbEntity
  8
0
100
AcDbLine
 10
51.6002235
 20
3.859469999999999
 30
0.0
 11
52.3995235
 21
3.859059999999999
 31
0.0
  0
LINE
  5
1E3
330
1E
100
AcDbEntity
  8
0
100
AcDbLine
 10
50.9999235
 20
3.85928
 30
0.0
 11
51.1997235
 21
3.85918
 31
0.0
  0
LINE
  5
1E4
330
1E
100
AcDbEntity
  8
0
100
AcDbLine
 10
47.7822542915693
 20
3.97417599056672
 30
0.0
 11
50.9999235
 21
3.85928
 31
0.0
  0
LINE
  5
1E5
330
1E
100
AcDbEntity
  8
0
100
AcDbLine
 10
132.3998234999999
 20
5.85864999999999
 30
0.0
 11
132.9998235
 21
5.85885
 31
0.0
  0
LINE
  5
1E6
330
1E
100
AcDbEntity
  8
0
100
AcDbLine
 10
124.3998235
 20
5.85875999999999
 30
0.0
 11
125.0548235
 21
5.85878729166666
 31
0.0
  0
LINE
  5
1E7
330
1E
100
AcDbEntity
  8
0
100
AcDbLine
 10
124.3998235
 20
5.85875999999999
 30
0.0
 11
127.649681856941
 21
5.85889541076487
 31
0.0
  0
LINE
  5
1E8
330
1E
100
AcDbEntity
  8
0
100
AcDbLine
 10
119.5998235
 20
5.858719999999999
 30
0.0
 11
124.3998235
 21
5.85875999999999
 31
0.0
  0
LINE
  5
1E9
330
1E
100
AcDbEntity
  8
0
100
AcDbLine
 10
119.5998235
 20
5.858719999999999
 30
0.0
 11
124.3998235
 21
5.85875999999999
 31
0.0
  0
LINE
  5
1EA
330
1E
100
AcDbEntity
  8
0
100
AcDbLine
 10
124.3998235
 20
5.85875999999999
 30
0.0
 11
127.6496818569429
 21
5.85889541076487
 31
0.0
  0
LINE
  5
1EB
330
1E
100
AcDbEntity
  8
0
100
AcDbLine
 10
84.09952350000001
 20
5.859009999999999
 30
0.0
 11
84.6600296763985
 21
5.859034286712009
 31
0.0
  0
LINE
  5
1EC
330
1E
100
AcDbEntity
  8
0
100
AcDbLine
 10
84.09952350000001
 20
5.859009999999999
 30
0.0
 11
90.52859492858749
 21
5.85928857142857
 31
0.0
  0
LINE
  5
1ED
330
1E
100
AcDbEntity
  8
0
100
AcDbLine
 10
109.4998235
 20
5.85899
 30
0.0
 11
116.1998235
 21
5.858959999999999
 31
0.0
  0
LINE
  5
1EE
330
1E
100
AcDbEntity
  8
0
100
AcDbLine
 10
52.8995235
 20
5.859009999999999
 30
0.0
 11
59.9997235
 21
5.859119999999999
 31
0.0
  0
LINE
  5
1EF
330
1E
100
AcDbEntity
  8
0
100
AcDbLine
 10
67.4995235
 20
5.85903413904087
 30
0.0
 11
67.4995235
 21
4.859049999999999
 31
0.0
  0
LINE
  5
1F0
330
1E
100
AcDbEntity
  8
0
100
AcDbLine
 10
27.4995235
 20
5.85903
 30
0.0
 11
34.8999235
 21
5.859239999999999
 31
0.0
  0
LINE
  5
1F1
330
1E
100
AcDbEntity
  8
0
100
AcDbLine
 10
84.09952350000001
 20
5.85902
 30
0.0
 11
90.46437744410921
 21
5.8592887173774
 31
0.0
  0
LINE
  5
1F2
330
1E
100
AcDbEntity
  8
0
100
AcDbLine
 10
68.49952349999999
 20
5.859009999999999
 30
0.0
 11
77.2000235
 21
5.8593
 31
0.0
  0
LINE
  5
1F3
330
1E
100
AcDbEntity
  8
0
100
AcDbLine
 10
116.5468235
 20
5.85896179482758
 30
0.0
 11
116.5468235
 21
4.85880999999999
 31
0.0
  0
LINE
  5
1F4
330
1E
100
AcDbEntity
  8
0
100
AcDbLine
 10
115.9511932355739
 20
5.858961113269839
 30
0.0
 11
119.5998235
 21
5.858719999999999
 31
0.0
  0
LINE
  5
1F5
330
1E
100
AcDbEntity
  8
0
100
AcDbLine
 10
116.1998235
 20
5.858959999999999
 30
0.0
 11
121.9998235
 21
5.85899
 31
0.0
  0
LINE
  5
1F6
330
1E
100
AcDbEntity
  8
0
100
AcDbLine
 10
121.9998235
 20
5.85899
 30
0.0
 11
126.9998235
 21
5.858919999999999
 31
0.0
  0
LINE
  5
1F7
330
1E
100
AcDbEntity
  8
0
100
AcDbLine
 10
126.9998235
 20
5.858919999999999
 30
0.0
 11
130.6998235
 21
5.85878
 31
0.0
  0
LINE
  5
1F8
330
1E
100
AcDbEntity
  8
0
100
AcDbLine
 10
132.3998234999999
 20
5.85865999999999
 30
0.0
 11
132.9998235
 21
5.85884999999999
 31
0.0
  0
LINE
  5
1F9
330
1E
100
AcDbEntity
  8
0
100
AcDbLine
 10
130.6998235
 20
5.85878
 30
0.0
 11
133.6008235
 21
5.85903999999999
 31
0.0
  0
LINE
  5
1FA
330
1E
100
AcDbEntity
  8
0
100
AcDbLine
 10
130.6998235
 20
5.85878
 30
0.0
 11
132.3998234999999
 21
5.85864999999999
 31
0.0
  0
LINE
  5
1FB
330
1E
100
AcDbEntity
  8
0
100
AcDbLine
 10
130.6998235
 20
5.85878
 30
0.0
 11
132.3998234999999
 21
5.85865999999999
 31
0.0
  0
LINE
  5
1FC
330
1E
100
AcDbEntity
  8
0
100
AcDbLine
 10
132.9998235
 20
5.85884999999999
 30
0.0
 11
134.7998235
 21
2.65889999999999
 31
0.0
  0
LINE
  5
1FD
330
1E
100
AcDbEntity
  8
0
100
AcDbLine
 10
134.7998235
 20
2.65889999999999
 30
0.0
 11
134.9998235
 21
1.658799999999989
 31
0.0
  0
LINE
  5
1FE
330
1E
100
AcDbEntity
  8
0
100
AcDbLine
 10
134.7998235
 20
0.7588999999999928
 30
0.0
 11
134.9998235
 21
1.658799999999989
 31
0.0
  0
LINE
  5
1FF
330
1E
100
AcDbEntity
  8
0
100
AcDbLine
 10
134.2998235
 20
0.258899999999994
 30
0.0
 11
134.7998235
 21
0.7588999999999928
 31
0.0
  0
LINE
  5
200
330
1E
100
AcDbEntity
  8
0
100
AcDbLine
 10
133.2998235
 20
0.158899999999995
 30
0.0
 11
134.2998235
 21
0.258899999999994
 31
0.0
  0
LINE
  5
201
330
1E
100
AcDbEntity
  8
0
100
AcDbLine
 10
69.4995235
 20
5.859043331417731
 30
0.0
 11
69.4995235
 21
4.85902
 31
0.0
  0
LINE
  5
202
330
1E
100
AcDbEntity
  8
0
100
AcDbLine
 10
82.95752349999998
 20
5.859072735762679
 30
0.0
 11
84.09952350000001
 21
5.859009999999999
 31
0.0
  0
LINE
  5
203
330
1E
100
AcDbEntity
  8
0
100
AcDbLine
 10
133.6008235
 20
5.85903999999999
 30
0.0
 11
135.2998235
 21
5.858919999999999
 31
0.0
  0
LINE
  5
204
330
1E
100
AcDbEntity
  8
0
100
AcDbLine
 10
135.9998235
 20
5.85880999999999
 30
0.0
 11
136.9998235
 21
6.85876999999999
 31
0.0
  0
LINE
  5
205
330
1E
100
AcDbEntity
  8
0
100
AcDbLine
 10
135.2998235
 20
5.858919999999999
 30
0.0
 11
135.9998235
 21
5.85880999999999
 31
0.0
  0
LINE
  5
206
330
1E
100
AcDbEntity
  8
0
100
AcDbLine
 10
43.89972349999999
 20
5.859119999999999
 30
0.0
 11
52.8995235
 21
5.859009999999999
 31
0.0
  0
LINE
  5
207
330
1E
100
AcDbEntity
  8
0
100
AcDbLine
 10
43.89972349999999
 20
5.859119999999999
 30
0.0
 11
52.8995235
 21
5.859009999999999
 31
0.0
  0
LINE
  5
208
330
1E
100
AcDbEntity
  8
0
100
AcDbLine
 10
59.9997235
 20
5.859119999999999
 30
0.0
 11
68.49952349999999
 21
5.859009999999999
 31
0.0
  0
LINE
  5
209
330
1E
100
AcDbEntity
  8
0
100
AcDbLine
 10
82.95752349999998
 20
5.85908273576268
 30
0.0
 11
84.09952350000001
 21
5.85902
 31
0.0
  0
LINE
  5
20A
330
1E
100
AcDbEntity
  8
0
100
AcDbLine
 10
22.99962349999999
 20
5.85909
 30
0.0
 11
24.2653235
 21
5.859094018031459
 31
0.0
  0
LINE
  5
20B
330
1E
100
AcDbEntity
  8
0
100
AcDbLine
 10
22.99962349999999
 20
5.85909
 30
0.0
 11
25.1438407908295
 21
5.85909680693097
 31
0.0
  0
LINE
  5
20C
330
1E
100
AcDbEntity
  8
0
100
AcDbLine
 10
22.99962349999999
 20
5.85909
 30
0.0
 11
25.1438407908406
 21
5.85909680693097
 31
0.0
  0
LINE
  5
20D
330
1E
100
AcDbEntity
  8
0
100
AcDbLine
 10
31.5440016189545
 20
5.85914476952665
 30
0.0
 11
36.39992349999999
 21
5.859219999999999
 31
0.0
  0
LINE
  5
20E
330
1E
100
AcDbEntity
  8
0
100
AcDbLine
 10
31.6854235
 20
5.859146960508149
 30
0.0
 11
31.9094235
 21
5.85915043083294
 31
0.0
  0
LINE
  5
20F
330
1E
100
AcDbEntity
  8
0
100
AcDbLine
 10
31.544001619009
 20
5.85914476952665
 30
0.0
 11
36.39992349999999
 21
5.859219999999999
 31
0.0
  0
LINE
  5
210
330
1E
100
AcDbEntity
  8
0
100
AcDbLine
 10
33.90932349999999
 20
5.85918141432636
 30
0.0
 11
36.39992349999999
 21
5.859219999999999
 31
0.0
  0
LINE
  5
211
330
1E
100
AcDbEntity
  8
0
100
AcDbLine
 10
31.6854235
 20
5.85914696050816
 30
0.0
 11
31.9094235
 21
5.85915043083294
 31
0.0
  0
LINE
  5
212
330
1E
100
AcDbEntity
  8
0
100
AcDbLine
 10
33.90932349999999
 20
5.85918141432636
 30
0.0
 11
36.39992349999999
 21
5.859219999999999
 31
0.0
  0
LINE
  5
213
330
1E
100
AcDbEntity
  8
0
100
AcDbLine
 10
43.0292235
 20
5.85913160697619
 30
0.0
 11
43.89972349999999
 21
5.859119999999999
 31
0.0
  0
LINE
  5
214
330
1E
100
AcDbEntity
  8
0
100
AcDbLine
 10
22.67619848883919
 20
5.85916678902504
 30
0.0
 11
24.2653235
 21
5.85912172159532
 31
0.0
  0
LINE
  5
215
330
1E
100
AcDbEntity
  8
0
100
AcDbLine
 10
9.999923499999999
 20
5.859259999999999
 30
0.0
 11
14.99982349999999
 21
5.859189999999999
 31
0.0
  0
LINE
  5
216
330
1E
100
AcDbEntity
  8
0
100
AcDbLine
 10
20.79992349999999
 20
5.859219999999999
 30
0.0
 11
27.4995235
 21
5.85903
 31
0.0
  0
LINE
  5
217
330
1E
100
AcDbEntity
  8
0
100
AcDbLine
 10
42.80742349999999
 20
5.859239877840909
 30
0.0
 11
42.80742349999999
 21
4.858999999999999
 31
0.0
  0
LINE
  5
218
330
1E
100
AcDbEntity
  8
0
100
AcDbLine
 10
40.8075235
 20
5.859239999999999
 30
0.0
 11
40.8075235
 21
4.85902
 31
0.0
  0
LINE
  5
219
330
1E
100
AcDbEntity
  8
0
100
AcDbLine
 10
42.69992349999999
 20
5.859239999999999
 30
0.0
 11
51.4999235
 21
5.85923
 31
0.0
  0
LINE
  5
21A
330
1E
100
AcDbEntity
  8
0
100
AcDbLine
 10
56.0428235
 20
5.859224526626509
 30
0.0
 11
56.0428235
 21
4.85864
 31
0.0
  0
LINE
  5
21B
330
1E
100
AcDbEntity
  8
0
100
AcDbLine
 10
51.4999235
 20
5.85923
 30
0.0
 11
59.79992349999999
 21
5.859219999999999
 31
0.0
  0
LINE
  5
21C
330
1E
100
AcDbEntity
  8
0
100
AcDbLine
 10
36.39992349999999
 20
5.859219999999999
 30
0.0
 11
40.8075235
 21
5.85916123043281
 31
0.0
  0
LINE
  5
21D
330
1E
100
AcDbEntity
  8
0
100
AcDbLine
 10
36.39992349999999
 20
5.859219999999999
 30
0.0
 11
43.89972349999999
 21
5.859119999999999
 31
0.0
  0
LINE
  5
21E
330
1E
100
AcDbEntity
  8
0
100
AcDbLine
 10
36.39992349999999
 20
5.859219999999999
 30
0.0
 11
43.89972349999999
 21
5.859119999999999
 31
0.0
  0
LINE
  5
21F
330
1E
100
AcDbEntity
  8
0
100
AcDbLine
 10
34.8999235
 20
5.859239999999999
 30
0.0
 11
40.8075235
 21
5.859239999999999
 31
0.0
  0
LINE
  5
220
330
1E
100
AcDbEntity
  8
0
100
AcDbLine
 10
34.8999235
 20
5.859239999999999
 30
0.0
 11
42.69992349999999
 21
5.859239999999999
 31
0.0
  0
LINE
  5
221
330
1E
100
AcDbEntity
  8
0
100
AcDbLine
 10
59.79992349999999
 20
5.859219999999999
 30
0.0
 11
67.4995235
 21
5.85903413904087
 31
0.0
  0
LINE
  5
222
330
1E
100
AcDbEntity
  8
0
100
AcDbLine
 10
59.79992349999999
 20
5.859219999999999
 30
0.0
 11
68.49952349999999
 21
5.859009999999999
 31
0.0
  0
LINE
  5
223
330
1E
100
AcDbEntity
  8
0
100
AcDbLine
 10
4.599543499999999
 20
5.85902
 30
0.0
 11
6.108938510234239
 21
5.85935726522441
 31
0.0
  0
LINE
  5
224
330
1E
100
AcDbEntity
  8
0
100
AcDbLine
 10
4.599543499999999
 20
5.85902
 30
0.0
 11
6.300193499999999
 21
5.859399999999999
 31
0.0
  0
LINE
  5
225
330
1E
100
AcDbEntity
  8
0
100
AcDbLine
 10
8.999963499999999
 20
5.859269999999999
 30
0.0
 11
9.35012192768621
 21
5.85928458888085
 31
0.0
  0
LINE
  5
226
330
1E
100
AcDbEntity
  8
0
100
AcDbLine
 10
6.300193500000009
 20
5.859399999999999
 30
0.0
 11
8.999963499999999
 21
5.859269999999999
 31
0.0
  0
LINE
  5
227
330
1E
100
AcDbEntity
  8
0
100
AcDbLine
 10
8.999963499999999
 20
5.859269999999999
 30
0.0
 11
9.350121927673288
 21
5.85928458888085
 31
0.0
  0
LINE
  5
228
330
1E
100
AcDbEntity
  8
0
100
AcDbLine
 10
6.300193499999999
 20
5.859399999999999
 30
0.0
 11
9.999923499999999
 21
5.859259999999999
 31
0.0
  0
LINE
  5
229
330
1E
100
AcDbEntity
  8
0
100
AcDbLine
 10
6.300193499999999
 20
5.859399999999999
 30
0.0
 11
8.999963499999999
 21
5.859269999999999
 31
0.0
  0
LINE
  5
22A
330
1E
100
AcDbEntity
  8
0
100
AcDbLine
 10
14.1997235
 20
6.85908
 30
0.0
 11
20.10012349999999
 21
6.85931
 31
0.0
  0
LINE
  5
22B
330
1E
100
AcDbEntity
  8
0
100
AcDbLine
 10
9.199803499999999
 20
6.859139999999999
 30
0.0
 11
14.1997235
 21
6.85908
 31
0.0
  0
LINE
  5
22C
330
1E
100
AcDbEntity
  8
0
100
AcDbLine
 10
5.3002335
 20
6.859389999999999
 30
0.0
 11
9.199803499999999
 21
6.859139999999999
 31
0.0
  0
LINE
  5
22D
330
1E
100
AcDbEntity
  8
0
100
AcDbLine
 10
2.500123499999999
 20
6.859329999999999
 30
0.0
 11
5.3002335
 21
6.859389999999999
 31
0.0
  0
LINE
  5
22E
330
1E
100
AcDbEntity
  8
0
100
AcDbLine
 10
14.1999235
 20
27.8586
 30
0.0
 11
20.10032349999999
 21
27.8588
 31
0.0
  0
LINE
  5
22F
330
1E
100
AcDbEntity
  8
0
100
AcDbLine
 10
9.200063499999998
 20
27.8587
 30
0.0
 11
14.1999235
 21
27.8586
 31
0.0
  0
LINE
  5
230
330
1E
100
AcDbEntity
  8
0
100
AcDbLine
 10
20.10012349999999
 20
6.85931
 30
0.0
 11
26.90012349999999
 21
6.859319999999999
 31
0.0
  0
LINE
  5
231
330
1E
100
AcDbEntity
  8
0
100
AcDbLine
 10
26.90012349999999
 20
6.859319999999999
 30
0.0
 11
34.3999235
 21
6.859219999999999
 31
0.0
  0
LINE
  5
232
330
1E
100
AcDbEntity
  8
0
100
AcDbLine
 10
2.500383500000009
 20
27.8589
 30
0.0
 11
5.3005035
 21
27.8589
 31
0.0
  0
LINE
  5
233
330
1E
100
AcDbEntity
  8
0
100
AcDbLine
 10
5.3005035
 20
27.8589
 30
0.0
 11
9.200063499999998
 21
27.8587
 31
0.0
  0
LINE
  5
234
330
1E
100
AcDbEntity
  8
0
100
AcDbLine
 10
15.00012349999999
 20
28.8587
 30
0.0
 11
20.8001235
 21
28.8587
 31
0.0
  0
LINE
  5
235
330
1E
100
AcDbEntity
  8
0
100
AcDbLine
 10
3.400033499999999
 20
28.8586
 30
0.0
 11
6.300493500000009
 21
28.85889999999999
 31
0.0
  0
LINE
  5
236
330
1E
100
AcDbEntity
  8
0
100
AcDbLine
 10
20.10032349999999
 20
27.8588
 30
0.0
 11
26.9003235
 21
27.8589
 31
0.0
  0
LINE
  5
237
330
1E
100
AcDbEntity
  8
0
100
AcDbLine
 10
26.9003235
 20
27.8589
 30
0.0
 11
34.40022349999999
 21
27.8588
 31
0.0
  0
LINE
  5
238
330
1E
100
AcDbEntity
  8
0
100
AcDbLine
 10
10.0002235
 20
28.8588
 30
0.0
 11
15.00012349999999
 21
28.8587
 31
0.0
  0
LINE
  5
239
330
1E
100
AcDbEntity
  8
0
100
AcDbLine
 10
6.300493500000009
 20
28.85889999999999
 30
0.0
 11
10.0002235
 21
28.8588
 31
0.0
  0
LINE
  5
23A
330
1E
100
AcDbEntity
  8
0
100
AcDbLine
 10
1.7002435
 20
28.8588
 30
0.0
 11
3.400033499999999
 21
28.8586
 31
0.0
  0
LINE
  5
23B
330
1E
100
AcDbEntity
  8
0
100
AcDbLine
 10
1.000433500000009
 20
28.85889999999999
 30
0.0
 11
28.49982349999999
 21
29.67354114333479
 31
0.0
  0
LINE
  5
23C
330
1E
100
AcDbEntity
  8
0
100
AcDbLine
 10
20.8001235
 20
28.8587
 30
0.0
 11
27.49982349999999
 21
28.85849999999999
 31
0.0
  0
LINE
  5
23D
330
1E
100
AcDbEntity
  8
0
100
AcDbLine
 10
77.2000235
 20
5.8593
 30
0.0
 11
85.50002349999999
 21
5.8593
 31
0.0
  0
LINE
  5
23E
330
1E
100
AcDbEntity
  8
0
100
AcDbLine
 10
77.29952349999999
 20
6.858979999999999
 30
0.0
 11
86.19982349999999
 21
6.859169999999999
 31
0.0
  0
LINE
  5
23F
330
1E
100
AcDbEntity
  8
0
100
AcDbLine
 10
34.3999235
 20
6.859219999999999
 30
0.0
 11
42.3003235
 21
6.85942
 31
0.0
  0
LINE
  5
240
330
1E
100
AcDbEntity
  8
0
100
AcDbLine
 10
42.3003235
 20
6.85942
 30
0.0
 11
50.8001235
 21
6.859319999999999
 31
0.0
  0
LINE
  5
241
330
1E
100
AcDbEntity
  8
0
100
AcDbLine
 10
50.8001235
 20
6.859319999999999
 30
0.0
 11
59.69952349999999
 21
6.858999999999999
 31
0.0
  0
LINE
  5
242
330
1E
100
AcDbEntity
  8
0
100
AcDbLine
 10
59.69952349999999
 20
6.858999999999999
 30
0.0
 11
68.49952349999999
 21
6.858989999999999
 31
0.0
  0
LINE
  5
243
330
1E
100
AcDbEntity
  8
0
100
AcDbLine
 10
59.6998235
 20
27.85849999999999
 30
0.0
 11
68.49982350000001
 21
27.85849999999999
 31
0.0
  0
LINE
  5
244
330
1E
100
AcDbEntity
  8
0
100
AcDbLine
 10
68.49952349999999
 20
6.858989999999999
 30
0.0
 11
77.29952349999999
 21
6.858979999999999
 31
0.0
  0
LINE
  5
245
330
1E
100
AcDbEntity
  8
0
100
AcDbLine
 10
77.2998235
 20
27.85849999999999
 30
0.0
 11
86.20012350000001
 21
27.8587
 31
0.0
  0
LINE
  5
246
330
1E
100
AcDbEntity
  8
0
100
AcDbLine
 10
34.40022349999999
 20
27.8588
 30
0.0
 11
42.3005235
 21
27.859
 31
0.0
  0
LINE
  5
247
330
1E
100
AcDbEntity
  8
0
100
AcDbLine
 10
42.3005235
 20
27.859
 30
0.0
 11
50.80032349999999
 21
27.8589
 31
0.0
  0
LINE
  5
248
330
1E
100
AcDbEntity
  8
0
100
AcDbLine
 10
50.80032349999999
 20
27.8589
 30
0.0
 11
59.6998235
 21
27.85849999999999
 31
0.0
  0
LINE
  5
249
330
1E
100
AcDbEntity
  8
0
100
AcDbLine
 10
68.49982350000001
 20
27.85849999999999
 30
0.0
 11
77.2998235
 21
27.85849999999999
 31
0.0
  0
LINE
  5
24A
330
1E
100
AcDbEntity
  8
0
100
AcDbLine
 10
94.19292349999999
 20
5.85928024340909
 30
0.0
 11
94.19292349999999
 21
4.858709999999999
 31
0.0
  0
LINE
  5
24B
330
1E
100
AcDbEntity
  8
0
100
AcDbLine
 10
96.1929235
 20
5.859282426857099
 30
0.0
 11
96.1929235
 21
4.85868
 31
0.0
  0
LINE
  5
24C
330
1E
100
AcDbEntity
  8
0
100
AcDbLine
 10
102.0998234999999
 20
5.85929
 30
0.0
 11
109.4998235
 21
5.85899
 31
0.0
  0
LINE
  5
24D
330
1E
100
AcDbEntity
  8
0
100
AcDbLine
 10
94.3000235
 20
5.85928
 30
0.0
 11
102.0998234999999
 21
5.85929
 31
0.0
  0
LINE
  5
24E
330
1E
100
AcDbEntity
  8
0
100
AcDbLine
 10
85.50002349999999
 20
5.8593
 30
0.0
 11
94.3000235
 21
5.85928
 31
0.0
  0
LINE
  5
24F
330
1E
100
AcDbEntity
  8
0
100
AcDbLine
 10
116.8998235
 20
6.85883
 30
0.0
 11
122.8008235
 21
6.85904999999999
 31
0.0
  0
LINE
  5
250
330
1E
100
AcDbEntity
  8
0
100
AcDbLine
 10
110.0998235
 20
6.85916
 30
0.0
 11
116.8998235
 21
6.85883
 31
0.0
  0
LINE
  5
251
330
1E
100
AcDbEntity
  8
0
100
AcDbLine
 10
102.5998235
 20
6.85926
 30
0.0
 11
110.0998235
 21
6.85916
 31
0.0
  0
LINE
  5
252
330
1E
100
AcDbEntity
  8
0
100
AcDbLine
 10
94.69962350000001
 20
6.85906
 30
0.0
 11
102.5998235
 21
6.85926
 31
0.0
  0
LINE
  5
253
330
1E
100
AcDbEntity
  8
0
100
AcDbLine
 10
86.19982349999999
 20
6.859169999999999
 30
0.0
 11
94.69962350000001
 21
6.85906
 31
0.0
  0
LINE
  5
254
330
1E
100
AcDbEntity
  8
0
100
AcDbLine
 10
122.8008235
 20
6.85904999999999
 30
0.0
 11
127.8008235
 21
6.85898999999999
 31
0.0
  0
LINE
  5
255
330
1E
100
AcDbEntity
  8
0
100
AcDbLine
 10
127.8008235
 20
6.85898999999999
 30
0.0
 11
131.6998235
 21
6.85873999999999
 31
0.0
  0
LINE
  5
256
330
1E
100
AcDbEntity
  8
0
100
AcDbLine
 10
131.6998235
 20
6.85873999999999
 30
0.0
 11
134.4998235
 21
6.85880999999999
 31
0.0
  0
LINE
  5
257
330
1E
100
AcDbEntity
  8
0
100
AcDbLine
 10
134.4998235
 20
6.85880999999999
 30
0.0
 11
136.2998235
 21
6.85887999999999
 31
0.0
  0
LINE
  5
258
330
1E
100
AcDbEntity
  8
0
100
AcDbLine
 10
110.0998235
 20
27.8587
 30
0.0
 11
116.8998235
 21
27.8587
 31
0.0
  0
LINE
  5
259
330
1E
100
AcDbEntity
  8
0
100
AcDbLine
 10
94.6999235
 20
27.8586
 30
0.0
 11
102.5998235
 21
27.8588
 31
0.0
  0
LINE
  5
25A
330
1E
100
AcDbEntity
  8
0
100
AcDbLine
 10
102.5998235
 20
27.8588
 30
0.0
 11
110.0998235
 21
27.8587
 31
0.0
  0
LINE
  5
25B
330
1E
100
AcDbEntity
  8
0
100
AcDbLine
 10
86.20012350000001
 20
27.8587
 30
0.0
 11
94.6999235
 21
27.8586
 31
0.0
  0
LINE
  5
25C
330
1E
100
AcDbEntity
  8
0
100
AcDbLine
 10
116.8998235
 20
27.8587
 30
0.0
 11
122.8008235
 21
27.8589
 31
0.0
  0
LINE
  5
25D
330
1E
100
AcDbEntity
  8
0
100
AcDbLine
 10
122.8008235
 20
27.8589
 30
0.0
 11
127.8008235
 21
27.8589
 31
0.0
  0
LINE
  5
25E
330
1E
100
AcDbEntity
  8
0
100
AcDbLine
 10
127.8008235
 20
27.8589
 30
0.0
 11
131.6998235
 21
27.8586
 31
0.0
  0
LINE
  5
25F
330
1E
100
AcDbEntity
  8
0
100
AcDbLine
 10
131.6998235
 20
27.8586
 30
0.0
 11
134.4998235
 21
27.8587
 31
0.0
  0
LINE
  5
260
330
1E
100
AcDbEntity
  8
0
100
AcDbLine
 10
136.2998235
 20
6.85887999999999
 30
0.0
 11
136.9998235
 21
6.85876999999999
 31
0.0
  0
LINE
  5
261
330
1E
100
AcDbEntity
  8
0
100
AcDbLine
 10
136.9998235
 20
6.85876999999999
 30
0.0
 11
136.9998235
 21
27.8587
 31
0.0
  0
LINE
  5
262
330
1E
100
AcDbEntity
  8
0
100
AcDbLine
 10
136.2998235
 20
27.8588
 30
0.0
 11
136.9998235
 21
27.8587
 31
0.0
  0
LINE
  5
263
330
1E
100
AcDbEntity
  8
0
100
AcDbLine
 10
136.9998235
 20
27.8587
 30
0.0
 11
136.9998235
 21
6.85876999999999
 31
0.0
  0
LINE
  5
264
330
1E
100
AcDbEntity
  8
0
100
AcDbLine
 10
134.4998235
 20
27.8587
 30
0.0
 11
136.2998235
 21
27.8588
 31
0.0
  0
LINE
  5
265
330
1E
100
AcDbEntity
  8
0
100
AcDbLine
 10
79.00259016667959
 20
5.8593
 30
0.0
 11
80.7358235
 21
5.85920478483794
 31
0.0
  0
LINE
  5
266
330
1E
100
AcDbEntity
  8
0
100
AcDbLine
 10
79.00259016667959
 20
5.8593
 30
0.0
 11
84.09952350000001
 21
5.85902
 31
0.0
  0
LINE
  5
267
330
1E
100
AcDbEntity
  8
0
100
AcDbLine
 10
78.82055683332949
 20
5.8593
 30
0.0
 11
79.00259016667959
 21
5.8593
 31
0.0
  0
LINE
  5
268
330
1E
100
AcDbEntity
  8
0
100
AcDbLine
 10
78.82055683332949
 20
5.8593
 30
0.0
 11
80.7358235
 21
5.85919478483794
 31
0.0
  0
LINE
  5
269
330
1E
100
AcDbEntity
  8
0
100
AcDbLine
 10
78.82055683332949
 20
5.8593
 30
0.0
 11
84.09952350000001
 21
5.859009999999999
 31
0.0
  0
LINE
  5
26A
330
1E
100
AcDbEntity
  8
0
100
AcDbLine
 10
34.90022349999999
 20
28.8587
 30
0.0
 11
42.7002235
 21
28.8587
 31
0.0
  0
LINE
  5
26B
330
1E
100
AcDbEntity
  8
0
100
AcDbLine
 10
42.7002235
 20
28.8587
 30
0.0
 11
51.5002235
 21
28.8587
 31
0.0
  0
LINE
  5
26C
330
1E
100
AcDbEntity
  8
0
100
AcDbLine
 10
51.5002235
 20
28.8587
 30
0.0
 11
59.8002235
 21
28.8587
 31
0.0
  0
LINE
  5
26D
330
1E
100
AcDbEntity
  8
0
100
AcDbLine
 10
29.93142349999999
 20
32.8411
 30
0.0
 11
31.6156235
 21
32.8411
 31
0.0
  0
LINE
  5
26E
330
1E
100
AcDbEntity
  8
0
100
AcDbLine
 10
28.9209235
 20
32.8411
 30
0.0
 11
29.93142349999999
 21
32.8411
 31
0.0
  0
LINE
  5
26F
330
1E
100
AcDbEntity
  8
0
100
AcDbLine
 10
28.49982349999999
 20
29.66106732153109
 30
0.0
 11
28.49982349999999
 21
32.8411
 31
0.0
  0
LINE
  5
270
330
1E
100
AcDbEntity
  8
0
100
AcDbLine
 10
40.2472235
 20
32.8411
 30
0.0
 11
44.1630235
 21
32.8411
 31
0.0
  0
LINE
  5
271
330
1E
100
AcDbEntity
  8
0
100
AcDbLine
 10
44.1630235
 20
32.8411
 30
0.0
 11
48.5840235
 21
32.8411
 31
0.0
  0
LINE
  5
272
330
1E
100
AcDbEntity
  8
0
100
AcDbLine
 10
48.5840235
 20
32.8411
 30
0.0
 11
53.2156235
 21
32.8411
 31
0.0
  0
LINE
  5
273
330
1E
100
AcDbEntity
  8
0
100
AcDbLine
 10
53.2156235
 20
32.8411
 30
0.0
 11
58.1840235
 21
32.8411
 31
0.0
  0
LINE
  5
274
330
1E
100
AcDbEntity
  8
0
100
AcDbLine
 10
36.8366235
 20
32.8411
 30
0.0
 11
40.2472235
 21
32.8411
 31
0.0
  0
LINE
  5
275
330
1E
100
AcDbEntity
  8
0
100
AcDbLine
 10
33.8472235
 20
32.8411
 30
0.0
 11
36.8366235
 21
32.8411
 31
0.0
  0
LINE
  5
276
330
1E
100
AcDbEntity
  8
0
100
AcDbLine
 10
31.6156235
 20
32.8411
 30
0.0
 11
33.8472235
 21
32.8411
 31
0.0
  0
LINE
  5
277
330
1E
100
AcDbEntity
  8
0
100
AcDbLine
 10
28.49982349999999
 20
32.8411
 30
0.0
 11
28.49982349999999
 21
29.66106732153109
 31
0.0
  0
LINE
  5
278
330
1E
100
AcDbEntity
  8
0
100
AcDbLine
 10
28.49982349999999
 20
32.8411
 30
0.0
 11
28.9209235
 21
32.8411
 31
0.0
  0
LINE
  5
279
330
1E
100
AcDbEntity
  8
0
100
AcDbLine
 10
53.59332349999999
 20
33.3387
 30
0.0
 11
54.10832349999999
 21
32.8411
 31
0.0
  0
LINE
  5
27A
330
1E
100
AcDbEntity
  8
0
100
AcDbLine
 10
53.59332349999999
 20
33.3387
 30
0.0
 11
53.59332349999999
 21
42.7
 31
0.0
  0
LINE
  5
27B
330
1E
100
AcDbEntity
  8
0
100
AcDbLine
 10
53.59332349999999
 20
33.3387
 30
0.0
 11
53.6463235
 21
33.3387
 31
0.0
  0
LINE
  5
27C
330
1E
100
AcDbEntity
  8
0
100
AcDbLine
 10
53.4926235
 20
44.08619999999999
 30
0.0
 11
53.5456235
 21
44.08619999999999
 31
0.0
  0
LINE
  5
27D
330
1E
100
AcDbEntity
  8
0
100
AcDbLine
 10
53.4926235
 20
44.08619999999999
 30
0.0
 11
53.4926235
 21
51.8481
 31
0.0
  0
LINE
  5
27E
330
1E
100
AcDbEntity
  8
0
100
AcDbLine
 10
53.6463235
 20
33.3387
 30
0.0
 11
53.84762349999999
 21
33.3387
 31
0.0
  0
LINE
  5
27F
330
1E
100
AcDbEntity
  8
0
100
AcDbLine
 10
53.59332349999999
 20
42.7
 30
0.0
 11
53.59332349999999
 21
33.3387
 31
0.0
  0
LINE
  5
280
330
1E
100
AcDbEntity
  8
0
100
AcDbLine
 10
53.59332349999999
 20
42.7
 30
0.0
 11
54.0080235
 21
43.3896
 31
0.0
  0
LINE
  5
281
330
1E
100
AcDbEntity
  8
0
100
AcDbLine
 10
53.5456235
 20
51.8481
 30
0.0
 11
54.1718235
 21
51.9821
 31
0.0
  0
LINE
  5
282
330
1E
100
AcDbEntity
  8
0
100
AcDbLine
 10
53.5456235
 20
51.8481
 30
0.0
 11
53.74802349999999
 21
51.8481
 31
0.0
  0
LINE
  5
283
330
1E
100
AcDbEntity
  8
0
100
AcDbLine
 10
53.5456235
 20
51.8481
 30
0.0
 11
54.01372349999999
 21
51.9821
 31
0.0
  0
LINE
  5
284
330
1E
100
AcDbEntity
  8
0
100
AcDbLine
 10
53.74802349999999
 20
51.8481
 30
0.0
 11
54.09332349999999
 21
51.8481
 31
0.0
  0
LINE
  5
285
330
1E
100
AcDbEntity
  8
0
100
AcDbLine
 10
53.56162349999999
 20
51.8671
 30
0.0
 11
54.0080235
 21
51.9821
 31
0.0
  0
LINE
  5
286
330
1E
100
AcDbEntity
  8
0
100
AcDbLine
 10
53.56162349999999
 20
51.8671
 30
0.0
 11
54.01372349999999
 21
51.9821
 31
0.0
  0
LINE
  5
287
330
1E
100
AcDbEntity
  8
0
100
AcDbLine
 10
53.4926235
 20
51.8481
 30
0.0
 11
53.4926235
 21
44.08619999999999
 31
0.0
  0
LINE
  5
288
330
1E
100
AcDbEntity
  8
0
100
AcDbLine
 10
53.4926235
 20
51.8481
 30
0.0
 11
53.56162349999999
 21
51.8671
 31
0.0
  0
LINE
  5
289
330
1E
100
AcDbEntity
  8
0
100
AcDbLine
 10
53.4926235
 20
51.8481
 30
0.0
 11
53.5456235
 21
51.8481
 31
0.0
  0
LINE
  5
28A
330
1E
100
AcDbEntity
  8
0
100
AcDbLine
 10
53.5456235
 20
44.08619999999999
 30
0.0
 11
53.74802349999999
 21
44.08619999999999
 31
0.0
  0
LINE
  5
28B
330
1E
100
AcDbEntity
  8
0
100
AcDbLine
 10
53.84762349999999
 20
33.3387
 30
0.0
 11
54.18992349999999
 21
33.3387
 31
0.0
  0
LINE
  5
28C
330
1E
100
AcDbEntity
  8
0
100
AcDbLine
 10
54.0080235
 20
43.3896
 30
0.0
 11
54.0080235
 21
44.08619999999999
 31
0.0
  0
LINE
  5
28D
330
1E
100
AcDbEntity
  8
0
100
AcDbLine
 10
53.8556235
 20
44.08619999999999
 30
0.0
 11
54.01372349999999
 21
44.08619999999999
 31
0.0
  0
LINE
  5
28E
330
1E
100
AcDbEntity
  8
0
100
AcDbLine
 10
53.8556235
 20
44.08619999999999
 30
0.0
 11
54.0080235
 21
44.08619999999999
 31
0.0
  0
LINE
  5
28F
330
1E
100
AcDbEntity
  8
0
100
AcDbLine
 10
54.0080235
 20
44.08619999999999
 30
0.0
 11
54.0080235
 21
43.3896
 31
0.0
  0
LINE
  5
290
330
1E
100
AcDbEntity
  8
0
100
AcDbLine
 10
54.18992349999999
 20
33.3387
 30
0.0
 11
54.6692235
 21
33.3387
 31
0.0
  0
LINE
  5
291
330
1E
100
AcDbEntity
  8
0
100
AcDbLine
 10
54.92592349999999
 20
44.08619999999999
 30
0.0
 11
55.5138235
 21
44.08619999999999
 31
0.0
  0
LINE
  5
292
330
1E
100
AcDbEntity
  8
0
100
AcDbLine
 10
54.5765235
 20
44.08619999999999
 30
0.0
 11
55.1937235
 21
44.08619999999999
 31
0.0
  0
LINE
  5
293
330
1E
100
AcDbEntity
  8
0
100
AcDbLine
 10
54.4769235
 20
44.08619999999999
 30
0.0
 11
54.92592349999999
 21
44.08619999999999
 31
0.0
  0
LINE
  5
294
330
1E
100
AcDbEntity
  8
0
100
AcDbLine
 10
54.6692235
 20
33.3387
 30
0.0
 11
55.28232349999999
 21
33.3387
 31
0.0
  0
LINE
  5
295
330
1E
100
AcDbEntity
  8
0
100
AcDbLine
 10
54.1718235
 20
44.08619999999999
 30
0.0
 11
54.4769235
 21
44.08619999999999
 31
0.0
  0
LINE
  5
296
330
1E
100
AcDbEntity
  8
0
100
AcDbLine
 10
54.09332349999999
 20
44.08619999999999
 30
0.0
 11
54.5765235
 21
44.08619999999999
 31
0.0
  0
LINE
  5
297
330
1E
100
AcDbEntity
  8
0
100
AcDbLine
 10
54.01372349999999
 20
44.08619999999999
 30
0.0
 11
54.1718235
 21
44.08619999999999
 31
0.0
  0
LINE
  5
298
330
1E
100
AcDbEntity
  8
0
100
AcDbLine
 10
54.09332349999999
 20
51.8481
 30
0.0
 11
54.5765235
 21
51.8481
 31
0.0
  0
LINE
  5
299
330
1E
100
AcDbEntity
  8
0
100
AcDbLine
 10
54.1718235
 20
51.9821
 30
0.0
 11
54.4769235
 21
51.9821
 31
0.0
  0
LINE
  5
29A
330
1E
100
AcDbEntity
  8
0
100
AcDbLine
 10
54.4769235
 20
51.9821
 30
0.0
 11
54.92592349999999
 21
51.9821
 31
0.0
  0
LINE
  5
29B
330
1E
100
AcDbEntity
  8
0
100
AcDbLine
 10
54.92592349999999
 20
51.9821
 30
0.0
 11
55.5148235
 21
51.9821
 31
0.0
  0
LINE
  5
29C
330
1E
100
AcDbEntity
  8
0
100
AcDbLine
 10
55.1937235
 20
51.8481
 30
0.0
 11
55.9387235
 21
51.8481
 31
0.0
  0
LINE
  5
29D
330
1E
100
AcDbEntity
  8
0
100
AcDbLine
 10
54.5765235
 20
51.8481
 30
0.0
 11
55.1937235
 21
51.8481
 31
0.0
  0
LINE
  5
29E
330
1E
100
AcDbEntity
  8
0
100
AcDbLine
 10
55.1937235
 20
44.08619999999999
 30
0.0
 11
55.9387235
 21
44.08619999999999
 31
0.0
  0
LINE
  5
29F
330
1E
100
AcDbEntity
  8
0
100
AcDbLine
 10
56.8045235
 20
44.08619999999999
 30
0.0
 11
57.7831235
 21
44.08619999999999
 31
0.0
  0
LINE
  5
2A0
330
1E
100
AcDbEntity
  8
0
100
AcDbLine
 10
56.23572349999999
 20
44.08619999999999
 30
0.0
 11
57.08242349999999
 21
44.08619999999999
 31
0.0
  0
LINE
  5
2A1
330
1E
100
AcDbEntity
  8
0
100
AcDbLine
 10
55.9387235
 20
44.08619999999999
 30
0.0
 11
56.8045235
 21
44.08619999999999
 31
0.0
  0
LINE
  5
2A2
330
1E
100
AcDbEntity
  8
0
100
AcDbLine
 10
56.0233235
 20
33.3387
 30
0.0
 11
56.8831235
 21
33.3387
 31
0.0
  0
LINE
  5
2A3
330
1E
100
AcDbEntity
  8
0
100
AcDbLine
 10
56.8831235
 20
33.3387
 30
0.0
 11
57.8556235
 21
33.3387
 31
0.0
  0
LINE
  5
2A4
330
1E
100
AcDbEntity
  8
0
100
AcDbLine
 10
56.8045235
 20
51.8481
 30
0.0
 11
57.7831235
 21
51.8481
 31
0.0
  0
LINE
  5
2A5
330
1E
100
AcDbEntity
  8
0
100
AcDbLine
 10
55.9387235
 20
51.8481
 30
0.0
 11
56.8045235
 21
51.8481
 31
0.0
  0
LINE
  5
2A6
330
1E
100
AcDbEntity
  8
0
100
AcDbLine
 10
56.23572349999999
 20
51.9821
 30
0.0
 11
57.08242349999999
 21
51.9821
 31
0.0
  0
LINE
  5
2A7
330
1E
100
AcDbEntity
  8
0
100
AcDbLine
 10
55.5148235
 20
51.9821
 30
0.0
 11
56.23572349999999
 21
51.9821
 31
0.0
  0
LINE
  5
2A8
330
1E
100
AcDbEntity
  8
0
100
AcDbLine
 10
55.5138235
 20
44.08619999999999
 30
0.0
 11
56.23572349999999
 21
44.08619999999999
 31
0.0
  0
LINE
  5
2A9
330
1E
100
AcDbEntity
  8
0
100
AcDbLine
 10
55.28232349999999
 20
33.3387
 30
0.0
 11
56.0233235
 21
33.3387
 31
0.0
  0
LINE
  5
2AA
330
1E
100
AcDbEntity
  8
0
100
AcDbLine
 10
54.01372349999999
 20
52.7441
 30
0.0
 11
54.1718235
 21
52.7441
 31
0.0
  0
LINE
  5
2AB
330
1E
100
AcDbEntity
  8
0
100
AcDbLine
 10
54.4769235
 20
52.7441
 30
0.0
 11
54.92592349999999
 21
52.7441
 31
0.0
  0
LINE
  5
2AC
330
1E
100
AcDbEntity
  8
0
100
AcDbLine
 10
54.92592349999999
 20
52.7441
 30
0.0
 11
55.5138235
 21
52.7441
 31
0.0
  0
LINE
  5
2AD
330
1E
100
AcDbEntity
  8
0
100
AcDbLine
 10
54.1718235
 20
52.7441
 30
0.0
 11
54.4769235
 21
52.7441
 31
0.0
  0
LINE
  5
2AE
330
1E
100
AcDbEntity
  8
0
100
AcDbLine
 10
56.23572349999999
 20
52.7441
 30
0.0
 11
57.08242349999999
 21
52.7441
 31
0.0
  0
LINE
  5
2AF
330
1E
100
AcDbEntity
  8
0
100
AcDbLine
 10
55.5138235
 20
52.7441
 30
0.0
 11
56.23572349999999
 21
52.7441
 31
0.0
  0
LINE
  5
2B0
330
1E
100
AcDbEntity
  8
0
100
AcDbLine
 10
54.01372349999999
 20
51.9821
 30
0.0
 11
54.1718235
 21
51.9821
 31
0.0
  0
LINE
  5
2B1
330
1E
100
AcDbEntity
  8
0
100
AcDbLine
 10
54.0080235
 20
51.9821
 30
0.0
 11
54.0080235
 21
52.7441
 31
0.0
  0
LINE
  5
2B2
330
1E
100
AcDbEntity
  8
0
100
AcDbLine
 10
54.9631235
 20
53.24110000000001
 30
0.0
 11
55.3971235
 21
53.24110000000001
 31
0.0
  0
LINE
  5
2B3
330
1E
100
AcDbEntity
  8
0
100
AcDbLine
 10
55.3971235
 20
53.24110000000001
 30
0.0
 11
55.9649235
 21
53.24110000000001
 31
0.0
  0
LINE
  5
2B4
330
1E
100
AcDbEntity
  8
0
100
AcDbLine
 10
54.6692235
 20
53.24110000000001
 30
0.0
 11
54.9631235
 21
53.24110000000001
 31
0.0
  0
LINE
  5
2B5
330
1E
100
AcDbEntity
  8
0
100
AcDbLine
 10
54.5161235
 20
53.24110000000001
 30
0.0
 11
54.6692235
 21
53.24110000000001
 31
0.0
  0
LINE
  5
2B6
330
1E
100
AcDbEntity
  8
0
100
AcDbLine
 10
55.9649235
 20
53.24110000000001
 30
0.0
 11
56.6616235
 21
53.24110000000001
 31
0.0
  0
LINE
  5
2B7
330
1E
100
AcDbEntity
  8
0
100
AcDbLine
 10
56.6616235
 20
53.24110000000001
 30
0.0
 11
57.4791235
 21
53.24110000000001
 31
0.0
  0
LINE
  5
2B8
330
1E
100
AcDbEntity
  8
0
100
AcDbLine
 10
54.0080235
 20
52.7441
 30
0.0
 11
54.5110235
 21
53.24110000000001
 31
0.0
  0
LINE
  5
2B9
330
1E
100
AcDbEntity
  8
0
100
AcDbLine
 10
54.0080235
 20
52.7441
 30
0.0
 11
54.0080235
 21
51.9821
 31
0.0
  0
LINE
  5
2BA
330
1E
100
AcDbEntity
  8
0
100
AcDbLine
 10
57.7831235
 20
44.08619999999999
 30
0.0
 11
58.8654235
 21
44.08619999999999
 31
0.0
  0
LINE
  5
2BB
330
1E
100
AcDbEntity
  8
0
100
AcDbLine
 10
57.7831235
 20
51.8481
 30
0.0
 11
58.8654235
 21
51.8481
 31
0.0
  0
LINE
  5
2BC
330
1E
100
AcDbEntity
  8
0
100
AcDbLine
 10
57.08242349999999
 20
44.08619999999999
 30
0.0
 11
58.04692349999999
 21
44.08619999999999
 31
0.0
  0
LINE
  5
2BD
330
1E
100
AcDbEntity
  8
0
100
AcDbLine
 10
57.08242349999999
 20
52.7441
 30
0.0
 11
58.04692349999999
 21
52.7441
 31
0.0
  0
LINE
  5
2BE
330
1E
100
AcDbEntity
  8
0
100
AcDbLine
 10
57.08242349999999
 20
51.9821
 30
0.0
 11
58.04692349999999
 21
51.9821
 31
0.0
  0
LINE
  5
2BF
330
1E
100
AcDbEntity
  8
0
100
AcDbLine
 10
58.04692349999999
 20
44.08619999999999
 30
0.0
 11
59.11812349999999
 21
44.08619999999999
 31
0.0
  0
LINE
  5
2C0
330
1E
100
AcDbEntity
  8
0
100
AcDbLine
 10
58.1840235
 20
32.8411
 30
0.0
 11
63.27872349999999
 21
32.8411
 31
0.0
  0
LINE
  5
2C1
330
1E
100
AcDbEntity
  8
0
100
AcDbLine
 10
58.04692349999999
 20
51.9821
 30
0.0
 11
59.11812349999999
 21
51.9821
 31
0.0
  0
LINE
  5
2C2
330
1E
100
AcDbEntity
  8
0
100
AcDbLine
 10
58.04692349999999
 20
52.7441
 30
0.0
 11
59.11812349999999
 21
52.7441
 31
0.0
  0
LINE
  5
2C3
330
1E
100
AcDbEntity
  8
0
100
AcDbLine
 10
57.8556235
 20
33.3387
 30
0.0
 11
58.9298235
 21
33.3387
 31
0.0
  0
LINE
  5
2C4
330
1E
100
AcDbEntity
  8
0
100
AcDbLine
 10
57.4791235
 20
53.24110000000001
 30
0.0
 11
58.4093235
 21
53.24110000000001
 31
0.0
  0
LINE
  5
2C5
330
1E
100
AcDbEntity
  8
0
100
AcDbLine
 10
58.4093235
 20
53.24110000000001
 30
0.0
 11
59.44332349999999
 21
53.24110000000001
 31
0.0
  0
LINE
  5
2C6
330
1E
100
AcDbEntity
  8
0
100
AcDbLine
 10
57.74612349999999
 20
53.4411
 30
0.0
 11
58.6915235
 21
54.77109999999999
 31
0.0
  0
LINE
  5
2C7
330
1E
100
AcDbEntity
  8
0
100
AcDbLine
 10
57.64039534466021
 20
53.24110000000001
 30
0.0
 11
57.74612349999999
 21
53.4411
 31
0.0
  0
LINE
  5
2C8
330
1E
100
AcDbEntity
  8
0
100
AcDbLine
 10
59.11812349999999
 20
44.08619999999999
 30
0.0
 11
60.2850235
 21
44.08619999999999
 31
0.0
  0
LINE
  5
2C9
330
1E
100
AcDbEntity
  8
0
100
AcDbLine
 10
58.8654235
 20
44.08619999999999
 30
0.0
 11
60.0393235
 21
44.08619999999999
 31
0.0
  0
LINE
  5
2CA
330
1E
100
AcDbEntity
  8
0
100
AcDbLine
 10
58.9298235
 20
33.3387
 30
0.0
 11
60.09672349999999
 21
33.3387
 31
0.0
  0
LINE
  5
2CB
330
1E
100
AcDbEntity
  8
0
100
AcDbLine
 10
61.5364235
 20
44.08619999999999
 30
0.0
 11
62.8593235
 21
44.08619999999999
 31
0.0
  0
LINE
  5
2CC
330
1E
100
AcDbEntity
  8
0
100
AcDbLine
 10
62.6207235
 20
44.08619999999999
 30
0.0
 11
64.00202349999999
 21
44.08619999999999
 31
0.0
  0
LINE
  5
2CD
330
1E
100
AcDbEntity
  8
0
100
AcDbLine
 10
61.29582349999999
 20
44.08619999999999
 30
0.0
 11
62.6207235
 21
44.08619999999999
 31
0.0
  0
LINE
  5
2CE
330
1E
100
AcDbEntity
  8
0
100
AcDbLine
 10
61.3431235
 20
33.3387
 30
0.0
 11
62.6600235
 21
33.3387
 31
0.0
  0
LINE
  5
2D0
330
1E
100
AcDbEntity
  8
0
100
AcDbLine
 10
64.0322235
 20
33.3387
 30
0.0
 11
65.4467235
 21
33.3387
 31
0.0
  0
LINE
  5
2D1
330
1E
100
AcDbEntity
  8
0
100
AcDbLine
 10
62.8593235
 20
44.08619999999999
 30
0.0
 11
64.24062349999999
 21
44.08619999999999
 31
0.0
  0
LINE
  5
2D2
330
1E
100
AcDbEntity
  8
0
100
AcDbLine
 10
64.00202349999999
 20
44.08619999999999
 30
0.0
 11
65.4266235
 21
44.08619999999999
 31
0.0
  0
LINE
  5
2D3
330
1E
100
AcDbEntity
  8
0
100
AcDbLine
 10
64.24062349999999
 20
44.08619999999999
 30
0.0
 11
65.6642235
 21
44.08619999999999
 31
0.0
  0
LINE
  5
2D4
330
1E
100
AcDbEntity
  8
0
100
AcDbLine
 10
65.4266235
 20
44.08619999999999
 30
0.0
 11
66.88042349999999
 21
44.08619999999999
 31
0.0
  0
LINE
  5
2D6
330
1E
100
AcDbEntity
  8
0
100
AcDbLine
 10
65.4467235
 20
33.3387
 30
0.0
 11
66.8915235
 21
33.3387
 31
0.0
  0
LINE
  5
2D7
330
1E
100
AcDbEntity
  8
0
100
AcDbLine
 10
62.6600235
 20
33.3387
 30
0.0
 11
64.0322235
 21
33.3387
 31
0.0
  0
LINE
  5
2D8
330
1E
100
AcDbEntity
  8
0
100
AcDbLine
 10
60.2850235
 20
44.08619999999999
 30
0.0
 11
61.5364235
 21
44.08619999999999
 31
0.0
  0
LINE
  5
2D9
330
1E
100
AcDbEntity
  8
0
100
AcDbLine
 10
60.09672349999999
 20
33.3387
 30
0.0
 11
61.3431235
 21
33.3387
 31
0.0
  0
LINE
  5
2DA
330
1E
100
AcDbEntity
  8
0
100
AcDbLine
 10
60.0393235
 20
44.08619999999999
 30
0.0
 11
61.29582349999999
 21
44.08619999999999
 31
0.0
  0
LINE
  5
2E8
330
1E
100
AcDbEntity
  8
0
100
AcDbLine
 10
66.8915235
 20
33.3387
 30
0.0
 11
68.35132349999999
 21
33.3387
 31
0.0
  0
LINE
  5
30D
330
1E
100
AcDbEntity
  8
0
100
AcDbLine
 10
65.6642235
 20
44.08619999999999
 30
0.0
 11
66.88042349999999
 21
44.08619999999999
 31
0.0
  0
LINE
  5
30E
330
1E
100
AcDbEntity
  8
0
100
AcDbLine
 10
65.6642235
 20
44.08619999999999
 30
0.0
 11
67.1170235
 21
44.08619999999999
 31
0.0
  0
LINE
  5
30F
330
1E
100
AcDbEntity
  8
0
100
AcDbLine
 10
59.11812349999999
 20
52.7441
 30
0.0
 11
60.2850235
 21
52.7441
 31
0.0
  0
LINE
  5
310
330
1E
100
AcDbEntity
  8
0
100
AcDbLine
 10
59.11812349999999
 20
51.9821
 30
0.0
 11
60.2850235
 21
51.9821
 31
0.0
  0
LINE
  5
311
330
1E
100
AcDbEntity
  8
0
100
AcDbLine
 10
58.8654235
 20
51.8481
 30
0.0
 11
60.0393235
 21
51.8481
 31
0.0
  0
LINE
  5
312
330
1E
100
AcDbEntity
  8
0
100
AcDbLine
 10
59.44332349999999
 20
53.24110000000001
 30
0.0
 11
60.5699235
 21
53.24110000000001
 31
0.0
  0
LINE
  5
315
330
1E
100
AcDbEntity
  8
0
100
AcDbLine
 10
59.8049235
 20
55.9691
 30
0.0
 11
59.8578235
 21
56.02409999999999
 31
0.0
  0
LINE
  5
316
330
1E
100
AcDbEntity
  8
0
100
AcDbLine
 10
59.8578235
 20
56.02409999999999
 30
0.0
 11
60.0152235
 21
56.1661
 31
0.0
  0
LINE
  5
318
330
1E
100
AcDbEntity
  8
0
100
AcDbLine
 10
60.2850235
 20
52.7441
 30
0.0
 11
61.5364235
 21
52.7441
 31
0.0
  0
LINE
  5
319
330
1E
100
AcDbEntity
  8
0
100
AcDbLine
 10
60.2850235
 20
51.9821
 30
0.0
 11
61.5364235
 21
51.9821
 31
0.0
  0
LINE
  5
31A
330
1E
100
AcDbEntity
  8
0
100
AcDbLine
 10
60.0393235
 20
51.8481
 30
0.0
 11
61.29582349999999
 21
51.8481
 31
0.0
  0
LINE
  5
31B
330
1E
100
AcDbEntity
  8
0
100
AcDbLine
 10
62.6207235
 20
51.8481
 30
0.0
 11
64.00202349999999
 21
51.8481
 31
0.0
  0
LINE
  5
31C
330
1E
100
AcDbEntity
  8
0
100
AcDbLine
 10
61.5364235
 20
51.9821
 30
0.0
 11
62.8593235
 21
51.9821
 31
0.0
  0
LINE
  5
31D
330
1E
100
AcDbEntity
  8
0
100
AcDbLine
 10
61.5364235
 20
52.7441
 30
0.0
 11
62.8593235
 21
52.7441
 31
0.0
  0
LINE
  5
31E
330
1E
100
AcDbEntity
  8
0
100
AcDbLine
 10
62.8593235
 20
51.9821
 30
0.0
 11
64.24062349999999
 21
51.9821
 31
0.0
  0
LINE
  5
31F
330
1E
100
AcDbEntity
  8
0
100
AcDbLine
 10
62.8593235
 20
52.7441
 30
0.0
 11
64.24062349999999
 21
52.7441
 31
0.0
  0
LINE
  5
320
330
1E
100
AcDbEntity
  8
0
100
AcDbLine
 10
61.29582349999999
 20
51.8481
 30
0.0
 11
62.6207235
 21
51.8481
 31
0.0
  0
LINE
  5
321
330
1E
100
AcDbEntity
  8
0
100
AcDbLine
 10
64.24062349999999
 20
51.9821
 30
0.0
 11
65.6642235
 21
51.9821
 31
0.0
  0
LINE
  5
322
330
1E
100
AcDbEntity
  8
0
100
AcDbLine
 10
64.00202349999999
 20
51.8481
 30
0.0
 11
65.4266235
 21
51.8481
 31
0.0
  0
LINE
  5
323
330
1E
100
AcDbEntity
  8
0
100
AcDbLine
 10
64.24062349999999
 20
52.7441
 30
0.0
 11
65.6642235
 21
52.7441
 31
0.0
  0
LINE
  5
324
330
1E
100
AcDbEntity
  8
0
100
AcDbLine
 10
65.4266235
 20
51.8481
 30
0.0
 11
66.88042349999999
 21
51.8481
 31
0.0
  0
LINE
  5
325
330
1E
100
AcDbEntity
  8
0
100
AcDbLine
 10
66.88042349999999
 20
51.8481
 30
0.0
 11
68.3503235
 21
51.8481
 31
0.0
  0
LINE
  5
329
330
1E
100
AcDbEntity
  8
0
100
AcDbLine
 10
65.6642235
 20
51.9821
 30
0.0
 11
69.59484205360211
 21
51.98142120847296
 31
0.0
  0
LINE
  5
32A
330
1E
100
AcDbEntity
  8
0
100
AcDbLine
 10
65.6642235
 20
52.7441
 30
0.0
 11
69.59625971755892
 21
52.74342054589321
 31
0.0
  0
LINE
  5
34F
330
1E
100
AcDbEntity
  8
0
100
AcDbLine
 10
65.7618235
 20
53.24110000000001
 30
0.0
 11
69.54923213813026
 21
53.24044639710528
 31
0.0
  0
LINE
  5
350
330
1E
100
AcDbEntity
  8
0
100
AcDbLine
 10
64.38762350000001
 20
53.24110000000001
 30
0.0
 11
65.7618235
 21
53.24110000000001
 31
0.0
  0
LINE
  5
351
330
1E
100
AcDbEntity
  8
0
100
AcDbLine
 10
63.05462349999999
 20
53.24110000000001
 30
0.0
 11
64.38762350000001
 21
53.24110000000001
 31
0.0
  0
LINE
  5
352
330
1E
100
AcDbEntity
  8
0
100
AcDbLine
 10
60.5699235
 20
53.24110000000001
 30
0.0
 11
61.7780235
 21
53.24110000000001
 31
0.0
  0
LINE
  5
35F
330
1E
100
AcDbEntity
  8
0
100
AcDbLine
 10
61.7780235
 20
53.24110000000001
 30
0.0
 11
63.05462349999999
 21
53.24110000000001
 31
0.0
  0
LINE
  5
360
330
1E
100
AcDbEntity
  8
0
100
AcDbLine
 10
60.0152235
 20
56.1661
 30
0.0
 11
60.2638235
 21
56.4901
 31
0.0
  0
LINE
  5
362
330
1E
100
AcDbEntity
  8
0
100
AcDbLine
 10
66.88042349999999
 20
44.08619999999999
 30
0.0
 11
68.3503235
 21
44.08619999999999
 31
0.0
  0
LINE
  5
363
330
1E
100
AcDbEntity
  8
0
100
AcDbLine
 10
58.6915235
 20
54.77109999999999
 30
0.0
 11
59.8049235
 21
55.9691
 31
0.0
  0
LINE
  5
364
330
1E
100
AcDbEntity
  8
0
100
AcDbLine
 10
60.0644235
 20
57.60609999999999
 30
0.0
 11
60.1442235
 21
57.47209999999999
 31
0.0
  0
LINE
  5
365
330
1E
100
AcDbEntity
  8
0
100
AcDbLine
 10
60.1442235
 20
57.47209999999999
 30
0.0
 11
60.2819235
 21
57.2721
 31
0.0
  0
LINE
  5
366
330
1E
100
AcDbEntity
  8
0
100
AcDbLine
 10
60.1442235
 20
57.47209999999999
 30
0.0
 11
60.2652290513966
 21
57.3032157691604
 31
0.0
  0
LINE
  5
368
330
1E
100
AcDbEntity
  8
0
100
AcDbLine
 10
57.7118615125494
 20
59.9271968264283
 30
0.0
 11
58.7191235
 21
58.9231
 31
0.0
  0
LINE
  5
36D
330
1E
100
AcDbEntity
  8
0
100
AcDbLine
 10
57.2103235
 20
60.41409999999999
 30
0.0
 11
60.0644235
 21
57.60609999999999
 31
0.0
  0
LINE
  5
38A
330
1E
100
AcDbEntity
  8
0
100
AcDbLine
 10
60.2819235
 20
57.2721
 30
0.0
 11
60.3544235
 21
56.8791
 31
0.0
  0
LINE
  5
38B
330
1E
100
AcDbEntity
  8
0
100
AcDbLine
 10
60.2638235
 20
56.4901
 30
0.0
 11
60.3544235
 21
56.8791
 31
0.0
  0
LINE
  5
38C
330
1E
100
AcDbEntity
  8
0
100
AcDbLine
 10
56.9928235
 20
60.7361
 30
0.0
 11
57.2103235
 21
60.41409999999999
 31
0.0
  0
LINE
  5
38D
330
1E
100
AcDbEntity
  8
0
100
AcDbLine
 10
56.9284235
 20
73.84109999999999
 30
0.0
 11
57.1267235
 21
73.84109999999999
 31
0.0
  0
LINE
  5
38E
330
1E
100
AcDbEntity
  8
0
100
AcDbLine
 10
58.1506235
 20
73.84109999999999
 30
0.0
 11
58.9570235
 21
73.84109999999999
 31
0.0
  0
LINE
  5
38F
330
1E
100
AcDbEntity
  8
0
100
AcDbLine
 10
57.5365235
 20
73.84109999999999
 30
0.0
 11
58.1506235
 21
73.84109999999999
 31
0.0
  0
LINE
  5
390
330
1E
100
AcDbEntity
  8
0
100
AcDbLine
 10
57.1267235
 20
73.84109999999999
 30
0.0
 11
57.5365235
 21
73.84109999999999
 31
0.0
  0
LINE
  5
398
330
1E
100
AcDbEntity
  8
0
100
AcDbLine
 10
61.0834235
 20
73.84109999999999
 30
0.0
 11
62.3650235
 21
73.84109999999999
 31
0.0
  0
LINE
  5
399
330
1E
100
AcDbEntity
  8
0
100
AcDbLine
 10
63.7604235
 20
73.84109999999999
 30
0.0
 11
65.24342349999999
 21
73.84109999999999
 31
0.0
  0
LINE
  5
39A
330
1E
100
AcDbEntity
  8
0
100
AcDbLine
 10
66.78682349999999
 20
73.84109999999999
 30
0.0
 11
68.3624235
 21
73.84109999999999
 31
0.0
  0
LINE
  5
39B
330
1E
100
AcDbEntity
  8
0
100
AcDbLine
 10
65.24342349999999
 20
73.84109999999999
 30
0.0
 11
66.78682349999999
 21
73.84109999999999
 31
0.0
  0
LINE
  5
39C
330
1E
100
AcDbEntity
  8
0
100
AcDbLine
 10
62.3650235
 20
73.84109999999999
 30
0.0
 11
63.7604235
 21
73.84109999999999
 31
0.0
  0
LINE
  5
3B0
330
1E
100
AcDbEntity
  8
0
100
AcDbLine
 10
59.94072349999999
 20
73.84109999999999
 30
0.0
 11
61.0834235
 21
73.84109999999999
 31
0.0
  0
LINE
  5
3B4
330
1E
100
AcDbEntity
  8
0
100
AcDbLine
 10
58.9570235
 20
73.84109999999999
 30
0.0
 11
59.94072349999999
 21
73.84109999999999
 31
0.0
  0
LINE
  5
3B5
330
1E
100
AcDbEntity
  8
0
100
AcDbLine
 10
56.91232349999999
 20
61.1171
 30
0.0
 11
56.9284235
 21
73.84109999999999
 31
0.0
  0
LINE
  5
3B6
330
1E
100
AcDbEntity
  8
0
100
AcDbLine
 10
56.91232349999999
 20
61.1171
 30
0.0
 11
56.9928235
 21
60.7361
 31
0.0
  0
LINE
  5
3B7
330
1E
100
AcDbEntity
  8
0
100
AcDbLine
 10
53.74802349999999
 20
44.08619999999999
 30
0.0
 11
54.0080235
 21
44.08619999999999
 31
0.0
  0
LINE
  5
3B8
330
1E
100
AcDbEntity
  8
0
100
AcDbLine
 10
53.74802349999999
 20
44.08619999999999
 30
0.0
 11
54.09332349999999
 21
44.08619999999999
 31
0.0
  0
LINE
  5
3B9
330
1E
100
AcDbEntity
  8
0
100
AcDbLine
 10
59.8002235
 20
28.8587
 30
0.0
 11
68.49982350000001
 21
28.85849999999999
 31
0.0
  0
LINE
  5
3BA
330
1E
100
AcDbEntity
  8
0
100
AcDbLine
 10
102.0998234999999
 20
28.8588
 30
0.0
 11
109.4998235
 21
28.85849999999999
 31
0.0
  0
LINE
  5
3BB
330
1E
100
AcDbEntity
  8
0
100
AcDbLine
 10
94.30032350000001
 20
28.8588
 30
0.0
 11
102.0998234999999
 21
28.8588
 31
0.0
  0
LINE
  5
422
330
1E
100
AcDbEntity
  8
0
100
AcDbLine
 10
85.5003235
 20
28.8588
 30
0.0
 11
94.30032350000001
 21
28.8588
 31
0.0
  0
LINE
  5
423
330
1E
100
AcDbEntity
  8
0
100
AcDbLine
 10
77.2003235
 20
28.8588
 30
0.0
 11
85.5003235
 21
28.8588
 31
0.0
  0
LINE
  5
424
330
1E
100
AcDbEntity
  8
0
100
AcDbLine
 10
68.49982350000001
 20
28.85849999999999
 30
0.0
 11
77.2003235
 21
28.8588
 31
0.0
  0
LINE
  5
425
330
1E
100
AcDbEntity
  8
0
100
AcDbLine
 10
130.6998235
 20
28.8586
 30
0.0
 11
133.6008235
 21
28.85889999999999
 31
0.0
  0
LINE
  5
426
330
1E
100
AcDbEntity
  8
0
100
AcDbLine
 10
116.2008235
 20
28.8588
 30
0.0
 11
122.0008235
 21
28.8588
 31
0.0
  0
LINE
  5
427
330
1E
100
AcDbEntity
  8
0
100
AcDbLine
 10
122.0008235
 20
28.8588
 30
0.0
 11
126.9998235
 21
28.8588
 31
0.0
  0
LINE
  5
428
330
1E
100
AcDbEntity
  8
0
100
AcDbLine
 10
126.9998235
 20
28.8588
 30
0.0
 11
130.6998235
 21
28.8586
 31
0.0
  0
LINE
  5
429
330
1E
100
AcDbEntity
  8
0
100
AcDbLine
 10
133.6008235
 20
28.85889999999999
 30
0.0
 11
135.2998235
 21
28.8588
 31
0.0
  0
LINE
  5
42A
330
1E
100
AcDbEntity
  8
0
100
AcDbLine
 10
135.2998235
 20
28.8588
 30
0.0
 11
135.9998235
 21
28.8586
 31
0.0
  0
LINE
  5
42B
330
1E
100
AcDbEntity
  8
0
100
AcDbLine
 10
135.9998235
 20
28.8586
 30
0.0
 11
136.9998235
 21
27.8587
 31
0.0
  0
LINE
  5
42D
330
1E
100
AcDbEntity
  8
0
100
AcDbLine
 10
109.4998235
 20
28.85849999999999
 30
0.0
 11
116.2008235
 21
28.8588
 31
0.0
  0
LINE
  5
42E
330
1E
100
AcDbEntity
  8
0
100
AcDbLine
 10
27.49982349999999
 20
28.85849999999999
 30
0.0
 11
34.90022349999999
 21
28.8587
 31
0.0
  0
LINE
  5
42F
330
1E
100
AcDbEntity
  8
0
100
AcDbLine
 10
1.699953499999999
 20
5.859259999999999
 30
0.0
 11
3.399743499999999
 21
5.85914
 31
0.0
  0
LINE
  5
430
330
1E
100
AcDbEntity
  8
0
100
AcDbLine
 10
1.000433499999999
 20
28.85889999999999
 30
0.0
 11
1.7002435
 21
28.8588
 31
0.0
  0
LINE
  5
431
330
1E
100
AcDbEntity
  8
0
100
AcDbLine
 10
1.000433499999999
 20
28.85889999999999
 30
0.0
 11
28.49982349999999
 21
29.67354114333479
 31
0.0
  0
LINE
  5
436
330
1E
100
AcDbEntity
  8
0
100
AcDbLine
 10
83.11445235793156
 20
42.69190950337947
 30
0.0
 11
83.10932128312137
 21
33.33061090959072
 31
0.0
  0
LINE
  5
437
330
1E
100
AcDbEntity
  8
0
100
AcDbLine
 10
83.10932128312137
 20
33.33061090959072
 30
0.0
 11
83.11445235793156
 21
42.69190950337947
 31
0.0
  0
LINE
  5
438
330
1E
100
AcDbEntity
  8
0
100
AcDbLine
 10
79.81952177729993
 20
33.33241410037731
 30
0.0
 11
78.84702192338441
 21
33.33294714282364
 31
0.0
  0
LINE
  5
439
330
1E
100
AcDbEntity
  8
0
100
AcDbLine
 10
83.48674848404952
 20
32.83280396106592
 30
0.0
 11
78.51834923037961
 21
32.8355272187424
 31
0.0
  0
LINE
  5
43A
330
1E
100
AcDbEntity
  8
0
100
AcDbLine
 10
88.11834778831196
 20
32.8302653087323
 30
0.0
 11
83.48674848404952
 21
32.83280396106592
 31
0.0
  0
LINE
  5
43B
330
1E
100
AcDbEntity
  8
0
100
AcDbLine
 10
82.03342144473811
 20
33.33120062719279
 30
0.0
 11
81.42032153683516
 21
33.33153667688312
 31
0.0
  0
LINE
  5
43C
330
1E
100
AcDbEntity
  8
0
100
AcDbLine
 10
83.05632129108278
 20
33.3306399597189
 30
0.0
 11
82.85502132132114
 21
33.33075029539442
 31
0.0
  0
LINE
  5
43D
330
1E
100
AcDbEntity
  8
0
100
AcDbLine
 10
83.10932128312137
 20
33.33061090959072
 30
0.0
 11
82.59404861814678
 21
32.8332932638853
 31
0.0
  0
LINE
  5
43E
330
1E
100
AcDbEntity
  8
0
100
AcDbLine
 10
83.10932128312137
 20
33.33061090959072
 30
0.0
 11
83.05632129108278
 21
33.3306399597189
 31
0.0
  0
LINE
  5
43F
330
1E
100
AcDbEntity
  8
0
100
AcDbLine
 10
82.51272137273987
 20
33.33093791537322
 30
0.0
 11
82.03342144473811
 21
33.33120062719279
 31
0.0
  0
LINE
  5
440
330
1E
100
AcDbEntity
  8
0
100
AcDbLine
 10
82.85502132132114
 20
33.33075029539442
 30
0.0
 11
82.51272137273987
 21
33.33093791537322
 31
0.0
  0
LINE
  5
441
330
1E
100
AcDbEntity
  8
0
100
AcDbLine
 10
80.67932164814477
 20
33.33194283056203
 30
0.0
 11
79.81952177729993
 21
33.33241410037731
 31
0.0
  0
LINE
  5
442
330
1E
100
AcDbEntity
  8
0
100
AcDbLine
 10
81.42032153683516
 20
33.33153667688312
 30
0.0
 11
80.67932164814477
 21
33.33194283056203
 31
0.0
  0
LINE
  5
443
330
1E
100
AcDbEntity
  8
0
100
AcDbLine
 10
74.04262264507917
 20
33.33558050953745
 30
0.0
 11
72.67042285120472
 21
33.33633263379952
 31
0.0
  0
LINE
  5
444
330
1E
100
AcDbEntity
  8
0
100
AcDbLine
 10
78.51834923037961
 20
32.8355272187424
 30
0.0
 11
73.42364999568191
 21
32.83831970342245
 31
0.0
  0
LINE
  5
445
330
1E
100
AcDbEntity
  8
0
100
AcDbLine
 10
76.60592226003209
 20
33.33417552475319
 30
0.0
 11
75.35952244726053
 21
33.3348586960695
 31
0.0
  0
LINE
  5
446
330
1E
100
AcDbEntity
  8
0
100
AcDbLine
 10
77.77282208474577
 20
33.33353592862914
 30
0.0
 11
76.60592226003209
 21
33.33417552475319
 31
0.0
  0
LINE
  5
447
330
1E
100
AcDbEntity
  8
0
100
AcDbLine
 10
78.84702192338441
 20
33.33294714282364
 30
0.0
 11
77.77282208474577
 21
33.33353592862914
 31
0.0
  0
LINE
  5
448
330
1E
100
AcDbEntity
  8
0
100
AcDbLine
 10
75.35952244726053
 20
33.3348586960695
 30
0.0
 11
74.04262264507917
 21
33.33558050953745
 31
0.0
  0
LINE
  5
449
330
1E
100
AcDbEntity
  8
0
100
AcDbLine
 10
71.25592306368438
 20
33.33710794335257
 30
0.0
 11
69.81112328071557
 21
33.33789986080909
 31
0.0
  0
LINE
  5
44A
330
1E
100
AcDbEntity
  8
0
100
AcDbLine
 10
72.67042285120472
 20
33.33633263379952
 30
0.0
 11
71.25592306368438
 21
33.33710794335257
 31
0.0
  0
LINE
  5
44B
330
1E
100
AcDbEntity
  8
0
100
AcDbLine
 10
69.81112328071557
 20
33.33789986080909
 30
0.0
 11
68.35132349999999
 21
33.3387
 31
0.0
  0
LINE
  5
44C
330
1E
100
AcDbEntity
  8
0
100
AcDbLine
 10
79.50716227627203
 20
60.40798937666862
 30
0.0
 11
76.65152359632381
 21
57.60155417528173
 31
0.0
  0
LINE
  5
44D
330
1E
100
AcDbEntity
  8
0
100
AcDbLine
 10
83.22016655936355
 20
51.8399529339506
 30
0.0
 11
83.21591214068568
 21
44.07805409990736
 31
0.0
  0
LINE
  5
44E
330
1E
100
AcDbEntity
  8
0
100
AcDbLine
 10
83.21591214068568
 20
44.07805409990736
 30
0.0
 11
83.22016655936355
 21
51.8399529339506
 31
0.0
  0
LINE
  5
44F
330
1E
100
AcDbEntity
  8
0
100
AcDbLine
 10
79.62611267992887
 20
44.08002172538176
 30
0.0
 11
78.66161282481161
 21
44.08055038290309
 31
0.0
  0
LINE
  5
450
330
1E
100
AcDbEntity
  8
0
100
AcDbLine
 10
78.92541278518478
 20
44.08040579000093
 30
0.0
 11
77.84311294776291
 21
44.08099901554301
 31
0.0
  0
LINE
  5
451
330
1E
100
AcDbEntity
  8
0
100
AcDbLine
 10
82.13201230350414
 20
44.07864820243443
 30
0.0
 11
81.51481239621707
 21
44.07898649939883
 31
0.0
  0
LINE
  5
452
330
1E
100
AcDbEntity
  8
0
100
AcDbLine
 10
81.7826123559894
 20
44.07883971403418
 30
0.0
 11
81.19471244430101
 21
44.07916195121074
 31
0.0
  0
LINE
  5
453
330
1E
100
AcDbEntity
  8
0
100
AcDbLine
 10
82.96051217905072
 20
44.07819408863825
 30
0.0
 11
82.61521223092007
 21
44.07838335296393
 31
0.0
  0
LINE
  5
454
330
1E
100
AcDbEntity
  8
0
100
AcDbLine
 10
82.96051217905072
 20
44.07819408863825
 30
0.0
 11
82.70051221810669
 21
44.07833659870102
 31
0.0
  0
LINE
  5
455
330
1E
100
AcDbEntity
  8
0
100
AcDbLine
 10
83.11445235793156
 20
42.69190950337947
 30
0.0
 11
82.70013040076159
 21
43.38173670334106
 31
0.0
  0
LINE
  5
456
330
1E
100
AcDbEntity
  8
0
100
AcDbLine
 10
83.1629121486471
 20
44.07808315003554
 30
0.0
 11
82.96051217905072
 21
44.07819408863825
 31
0.0
  0
LINE
  5
457
330
1E
100
AcDbEntity
  8
0
100
AcDbLine
 10
83.21591214068568
 20
44.07805409990736
 30
0.0
 11
83.1629121486471
 21
44.07808315003554
 31
0.0
  0
LINE
  5
458
330
1E
100
AcDbEntity
  8
0
100
AcDbLine
 10
82.69481221896294
 20
44.0783397229601
 30
0.0
 11
82.53671224271199
 21
44.07842638004058
 31
0.0
  0
LINE
  5
459
330
1E
100
AcDbEntity
  8
0
100
AcDbLine
 10
82.61521223092007
 20
44.07838335296393
 30
0.0
 11
82.13201230350414
 21
44.07864820243443
 31
0.0
  0
LINE
  5
45A
330
1E
100
AcDbEntity
  8
0
100
AcDbLine
 10
82.53671224271199
 20
44.07842638004058
 30
0.0
 11
82.23161228854269
 21
44.07859361011808
 31
0.0
  0
LINE
  5
45B
330
1E
100
AcDbEntity
  8
0
100
AcDbLine
 10
82.23161228854269
 20
44.07859361011808
 30
0.0
 11
81.7826123559894
 21
44.07883971403418
 31
0.0
  0
LINE
  5
45C
330
1E
100
AcDbEntity
  8
0
100
AcDbLine
 10
82.70051221810669
 20
44.07833659870102
 30
0.0
 11
82.70013040076159
 21
43.38173670334106
 31
0.0
  0
LINE
  5
45D
330
1E
100
AcDbEntity
  8
0
100
AcDbLine
 10
82.85291219521388
 20
44.07825306587962
 30
0.0
 11
82.70051221810669
 21
44.07833659870102
 31
0.0
  0
LINE
  5
45E
330
1E
100
AcDbEntity
  8
0
100
AcDbLine
 10
82.85291219521388
 20
44.07825306587962
 30
0.0
 11
82.69481221896294
 21
44.0783397229601
 31
0.0
  0
LINE
  5
45F
330
1E
100
AcDbEntity
  8
0
100
AcDbLine
 10
82.70013040076159
 20
43.38173670334106
 30
0.0
 11
82.70051221810669
 21
44.07833659870102
 31
0.0
  0
LINE
  5
460
330
1E
100
AcDbEntity
  8
0
100
AcDbLine
 10
80.76981250812753
 20
44.07939484554025
 30
0.0
 11
79.90401263818402
 21
44.07986940404928
 31
0.0
  0
LINE
  5
461
330
1E
100
AcDbEntity
  8
0
100
AcDbLine
 10
80.47281255274151
 20
44.07955763588119
 30
0.0
 11
79.62611267992887
 21
44.08002172538176
 31
0.0
  0
LINE
  5
462
330
1E
100
AcDbEntity
  8
0
100
AcDbLine
 10
81.19471244430101
 20
44.07916195121074
 30
0.0
 11
80.47281255274151
 21
44.07955763588119
 31
0.0
  0
LINE
  5
463
330
1E
100
AcDbEntity
  8
0
100
AcDbLine
 10
81.51481239621707
 20
44.07898649939883
 30
0.0
 11
80.76981250812753
 21
44.07939484554025
 31
0.0
  0
LINE
  5
464
330
1E
100
AcDbEntity
  8
0
100
AcDbLine
 10
79.90401263818402
 20
44.07986940404928
 30
0.0
 11
78.92541278518478
 21
44.08040579000093
 31
0.0
  0
LINE
  5
465
330
1E
100
AcDbEntity
  8
0
100
AcDbLine
 10
73.8492135477081
 20
44.0831881345419
 30
0.0
 11
72.46791375520061
 21
44.08394524665617
 31
0.0
  0
LINE
  5
466
330
1E
100
AcDbEntity
  8
0
100
AcDbLine
 10
74.08781351186672
 20
44.08305735415352
 30
0.0
 11
72.70651371935922
 21
44.08381446626779
 31
0.0
  0
LINE
  5
467
330
1E
100
AcDbEntity
  8
0
100
AcDbLine
 10
76.66921312410074
 20
44.08164244847643
 30
0.0
 11
75.41271331284637
 21
44.08233115576058
 31
0.0
  0
LINE
  5
468
330
1E
100
AcDbEntity
  8
0
100
AcDbLine
 10
76.42351316100866
 20
44.08177712048575
 30
0.0
 11
75.17211334898817
 21
44.0824630323802
 31
0.0
  0
LINE
  5
469
330
1E
100
AcDbEntity
  8
0
100
AcDbLine
 10
77.84311294776291
 20
44.08099901554301
 30
0.0
 11
76.66921312410074
 21
44.08164244847643
 31
0.0
  0
LINE
  5
46A
330
1E
100
AcDbEntity
  8
0
100
AcDbLine
 10
77.59041298572232
 20
44.08113752436172
 30
0.0
 11
76.42351316100866
 21
44.08177712048575
 31
0.0
  0
LINE
  5
46B
330
1E
100
AcDbEntity
  8
0
100
AcDbLine
 10
78.66161282481161
 20
44.08055038290309
 30
0.0
 11
77.59041298572232
 21
44.08113752436172
 31
0.0
  0
LINE
  5
46C
330
1E
100
AcDbEntity
  8
0
100
AcDbLine
 10
75.41271331284637
 20
44.08233115576058
 30
0.0
 11
74.08781351186672
 21
44.08305735415352
 31
0.0
  0
LINE
  5
46D
330
1E
100
AcDbEntity
  8
0
100
AcDbLine
 10
75.17211334898817
 20
44.0824630323802
 30
0.0
 11
73.8492135477081
 21
44.0831881345419
 31
0.0
  0
LINE
  5
46E
330
1E
100
AcDbEntity
  8
0
100
AcDbLine
 10
71.04431396904722
 20
44.08472554406142
 30
0.0
 11
69.59151418728012
 21
44.08552184644295
 31
0.0
  0
LINE
  5
46F
330
1E
100
AcDbEntity
  8
0
100
AcDbLine
 10
71.04431396904722
 20
44.08472554406142
 30
0.0
 11
69.82811415173919
 21
44.08539216228582
 31
0.0
  0
LINE
  5
470
330
1E
100
AcDbEntity
  8
0
100
AcDbLine
 10
71.28191393335605
 20
44.08459531178867
 30
0.0
 11
69.82811415173919
 21
44.08539216228582
 31
0.0
  0
LINE
  5
471
330
1E
100
AcDbEntity
  8
0
100
AcDbLine
 10
72.46791375520061
 20
44.08394524665617
 30
0.0
 11
71.04431396904722
 21
44.08472554406142
 31
0.0
  0
LINE
  5
472
330
1E
100
AcDbEntity
  8
0
100
AcDbLine
 10
72.70651371935922
 20
44.08381446626779
 30
0.0
 11
71.28191393335605
 21
44.08459531178867
 31
0.0
  0
LINE
  5
473
330
1E
100
AcDbEntity
  8
0
100
AcDbLine
 10
69.82811415173919
 20
44.08539216228582
 30
0.0
 11
68.35821437254075
 21
44.08619783744456
 31
0.0
  0
LINE
  5
474
330
1E
100
AcDbEntity
  8
0
100
AcDbLine
 10
79.00535745982356
 20
59.921361177059
 30
0.0
 11
77.99754526251857
 21
58.91781659749634
 31
0.0
  0
LINE
  5
475
330
1E
100
AcDbEntity
  8
0
100
AcDbLine
 10
78.96754034649697
 20
53.43528410447291
 30
0.0
 11
78.02286948229326
 21
54.76580209319932
 31
0.0
  0
LINE
  5
476
330
1E
100
AcDbEntity
  8
0
100
AcDbLine
 10
79.23443068326426
 20
53.23513778764382
 30
0.0
 11
78.30423082299461
 21
53.23564764479918
 31
0.0
  0
LINE
  5
477
330
1E
100
AcDbEntity
  8
0
100
AcDbLine
 10
79.63044054610063
 20
51.97592053929614
 30
0.0
 11
78.66594069098335
 21
51.97644919681747
 31
0.0
  0
LINE
  5
478
330
1E
100
AcDbEntity
  8
0
100
AcDbLine
 10
79.63085821020768
 20
52.73792042483202
 30
0.0
 11
78.66635835509041
 21
52.73844908235335
 31
0.0
  0
LINE
  5
479
330
1E
100
AcDbEntity
  8
0
100
AcDbLine
 10
78.92966720386263
 20
51.84230462404418
 30
0.0
 11
77.84736736644075
 21
51.84289784958625
 31
0.0
  0
LINE
  5
47A
330
1E
100
AcDbEntity
  8
0
100
AcDbLine
 10
81.75043030532235
 20
53.23375872872868
 30
0.0
 11
81.31643037051583
 21
53.23399661091039
 31
0.0
  0
LINE
  5
47B
330
1E
100
AcDbEntity
  8
0
100
AcDbLine
 10
81.78735788626822
 20
52.73673841348443
 30
0.0
 11
81.19945797457981
 21
52.73706065066099
 31
0.0
  0
LINE
  5
47C
330
1E
100
AcDbEntity
  8
0
100
AcDbLine
 10
82.136266722182
 20
51.84054703647767
 30
0.0
 11
81.51906681489494
 21
51.84088533344207
 31
0.0
  0
LINE
  5
47D
330
1E
100
AcDbEntity
  8
0
100
AcDbLine
 10
81.78694022216115
 20
51.97473852794856
 30
0.0
 11
81.19804031062299
 21
51.97506131324074
 31
0.0
  0
LINE
  5
47E
330
1E
100
AcDbEntity
  8
0
100
AcDbLine
 10
82.70525774838551
 20
52.73623529815129
 30
0.0
 11
82.20253023740998
 21
53.23351092565414
 31
0.0
  0
LINE
  5
47F
330
1E
100
AcDbEntity
  8
0
100
AcDbLine
 10
83.15117698392532
 20
51.85899075107471
 30
0.0
 11
82.69914008513467
 21
51.97423853687447
 31
0.0
  0
LINE
  5
480
330
1E
100
AcDbEntity
  8
0
100
AcDbLine
 10
83.15117698392532
 20
51.85899075107471
 30
0.0
 11
82.70484008427846
 21
51.97423541261541
 31
0.0
  0
LINE
  5
481
330
1E
100
AcDbEntity
  8
0
100
AcDbLine
 10
82.96476659772855
 20
51.84009292268149
 30
0.0
 11
82.61946664959793
 21
51.84028218700717
 31
0.0
  0
LINE
  5
482
330
1E
100
AcDbEntity
  8
0
100
AcDbLine
 10
83.16716656732497
 20
51.83998198407877
 30
0.0
 11
82.69914008513467
 21
51.97423853687447
 31
0.0
  0
LINE
  5
483
330
1E
100
AcDbEntity
  8
0
100
AcDbLine
 10
83.16716656732497
 20
51.83998198407877
 30
0.0
 11
82.54104010888372
 21
51.97432519395495
 31
0.0
  0
LINE
  5
484
330
1E
100
AcDbEntity
  8
0
100
AcDbLine
 10
83.22016655936355
 20
51.8399529339506
 30
0.0
 11
83.16716656732497
 21
51.83998198407877
 31
0.0
  0
LINE
  5
485
330
1E
100
AcDbEntity
  8
0
100
AcDbLine
 10
83.22016655936355
 20
51.8399529339506
 30
0.0
 11
83.15117698392532
 21
51.85899075107471
 31
0.0
  0
LINE
  5
486
330
1E
100
AcDbEntity
  8
0
100
AcDbLine
 10
83.16716656732497
 20
51.83998198407877
 30
0.0
 11
82.96476659772855
 21
51.84009292268149
 31
0.0
  0
LINE
  5
487
330
1E
100
AcDbEntity
  8
0
100
AcDbLine
 10
82.70525774838551
 20
52.73623529815129
 30
0.0
 11
82.70484008427846
 21
51.97423541261541
 31
0.0
  0
LINE
  5
488
330
1E
100
AcDbEntity
  8
0
100
AcDbLine
 10
82.70484008427846
 20
51.97423541261541
 30
0.0
 11
82.70525774838551
 21
52.73623529815129
 31
0.0
  0
LINE
  5
489
330
1E
100
AcDbEntity
  8
0
100
AcDbLine
 10
82.69914008513467
 20
51.97423853687447
 30
0.0
 11
82.54104010888372
 21
51.97432519395495
 31
0.0
  0
LINE
  5
48A
330
1E
100
AcDbEntity
  8
0
100
AcDbLine
 10
82.54145777299077
 20
52.73632507949083
 30
0.0
 11
82.23635781882149
 21
52.73649230956834
 31
0.0
  0
LINE
  5
48B
330
1E
100
AcDbEntity
  8
0
100
AcDbLine
 10
82.23635781882149
 20
52.73649230956834
 30
0.0
 11
81.78735788626822
 21
52.73673841348443
 31
0.0
  0
LINE
  5
48C
330
1E
100
AcDbEntity
  8
0
100
AcDbLine
 10
82.69955774924174
 20
52.73623842241035
 30
0.0
 11
82.54145777299077
 21
52.73632507949083
 31
0.0
  0
LINE
  5
48D
330
1E
100
AcDbEntity
  8
0
100
AcDbLine
 10
82.23594015471444
 20
51.97449242403246
 30
0.0
 11
81.78694022216115
 21
51.97473852794856
 31
0.0
  0
LINE
  5
48E
330
1E
100
AcDbEntity
  8
0
100
AcDbLine
 10
82.54104010888372
 20
51.97432519395495
 30
0.0
 11
82.23594015471444
 21
51.97449242403246
 31
0.0
  0
LINE
  5
48F
330
1E
100
AcDbEntity
  8
0
100
AcDbLine
 10
82.61946664959793
 20
51.84028218700717
 30
0.0
 11
82.136266722182
 21
51.84054703647767
 31
0.0
  0
LINE
  5
490
330
1E
100
AcDbEntity
  8
0
100
AcDbLine
 10
82.19743023817608
 20
53.23351372104383
 30
0.0
 11
82.04433026117404
 21
53.23359763754619
 31
0.0
  0
LINE
  5
491
330
1E
100
AcDbEntity
  8
0
100
AcDbLine
 10
82.04433026117404
 20
53.23359763754619
 30
0.0
 11
81.75043030532235
 21
53.23375872872868
 31
0.0
  0
LINE
  5
492
330
1E
100
AcDbEntity
  8
0
100
AcDbLine
 10
80.47755808302031
 20
52.73745633533144
 30
0.0
 11
79.63085821020768
 21
52.73792042483202
 31
0.0
  0
LINE
  5
493
330
1E
100
AcDbEntity
  8
0
100
AcDbLine
 10
80.47714041891325
 20
51.97545644979556
 30
0.0
 11
79.63044054610063
 21
51.97592053929614
 31
0.0
  0
LINE
  5
494
330
1E
100
AcDbEntity
  8
0
100
AcDbLine
 10
80.7740669268054
 20
51.84129367958348
 30
0.0
 11
79.90826705686187
 21
51.84176823809252
 31
0.0
  0
LINE
  5
495
330
1E
100
AcDbEntity
  8
0
100
AcDbLine
 10
81.19945797457981
 20
52.73706065066099
 30
0.0
 11
80.47755808302031
 21
52.73745633533144
 31
0.0
  0
LINE
  5
496
330
1E
100
AcDbEntity
  8
0
100
AcDbLine
 10
81.19804031062299
 20
51.97506131324074
 30
0.0
 11
80.47714041891325
 21
51.97545644979556
 31
0.0
  0
LINE
  5
497
330
1E
100
AcDbEntity
  8
0
100
AcDbLine
 10
81.51906681489494
 20
51.84088533344207
 30
0.0
 11
80.7740669268054
 21
51.84129367958348
 31
0.0
  0
LINE
  5
498
330
1E
100
AcDbEntity
  8
0
100
AcDbLine
 10
79.90826705686187
 20
51.84176823809252
 30
0.0
 11
78.92966720386263
 21
51.84230462404418
 31
0.0
  0
LINE
  5
499
330
1E
100
AcDbEntity
  8
0
100
AcDbLine
 10
80.74863045580812
 20
53.23430783096286
 30
0.0
 11
80.05193056046318
 21
53.23468970311953
 31
0.0
  0
LINE
  5
49A
330
1E
100
AcDbEntity
  8
0
100
AcDbLine
 10
81.31643037051583
 20
53.23399661091039
 30
0.0
 11
80.74863045580812
 21
53.23430783096286
 31
0.0
  0
LINE
  5
49B
330
1E
100
AcDbEntity
  8
0
100
AcDbLine
 10
79.07315886282956
 20
53.23522618326193
 30
0.0
 11
78.96754034649697
 21
53.43528410447291
 31
0.0
  0
LINE
  5
49C
330
1E
100
AcDbEntity
  8
0
100
AcDbLine
 10
80.05193056046318
 20
53.23468970311953
 30
0.0
 11
79.23443068326426
 21
53.23513778764382
 31
0.0
  0
LINE
  5
49D
330
1E
100
AcDbEntity
  8
0
100
AcDbLine
 10
73.6589315207901
 20
53.23819380631689
 30
0.0
 11
72.32593172102721
 21
53.23892444444641
 31
0.0
  0
LINE
  5
49E
330
1E
100
AcDbEntity
  8
0
100
AcDbLine
 10
73.8539590779869
 20
52.74108683399216
 30
0.0
 11
72.47265928547941
 21
52.74184394610643
 31
0.0
  0
LINE
  5
49F
330
1E
100
AcDbEntity
  8
0
100
AcDbLine
 10
73.85354141387985
 20
51.97908694845629
 30
0.0
 11
72.47224162137236
 21
51.97984406057056
 31
0.0
  0
LINE
  5
4A0
330
1E
100
AcDbEntity
  8
0
100
AcDbLine
 10
74.09206793054457
 20
51.84495618819677
 30
0.0
 11
72.71076813803708
 21
51.84571330031103
 31
0.0
  0
LINE
  5
4A1
330
1E
100
AcDbEntity
  8
0
100
AcDbLine
 10
76.67346754277858
 20
51.84354128251968
 30
0.0
 11
75.41696773152421
 21
51.84422998980381
 31
0.0
  0
LINE
  5
4A2
330
1E
100
AcDbEntity
  8
0
100
AcDbLine
 10
76.42784102718039
 20
51.97767593440014
 30
0.0
 11
75.17644121515992
 21
51.97836184629458
 31
0.0
  0
LINE
  5
4A3
330
1E
100
AcDbEntity
  8
0
100
AcDbLine
 10
76.42825869128746
 20
52.73967581993602
 30
0.0
 11
75.17685887926697
 21
52.74036173183046
 31
0.0
  0
LINE
  5
4A4
330
1E
100
AcDbEntity
  8
0
100
AcDbLine
 10
77.2702309783173
 20
53.23621439635652
 30
0.0
 11
76.14363114754995
 21
53.23683190342084
 31
0.0
  0
LINE
  5
4A5
330
1E
100
AcDbEntity
  8
0
100
AcDbLine
 10
77.84736736644075
 20
51.84289784958625
 30
0.0
 11
76.67346754277858
 21
51.84354128251968
 31
0.0
  0
LINE
  5
4A6
330
1E
100
AcDbEntity
  8
0
100
AcDbLine
 10
77.59474085189407
 20
51.9770363382761
 30
0.0
 11
76.42784102718039
 21
51.97767593440014
 31
0.0
  0
LINE
  5
4A7
330
1E
100
AcDbEntity
  8
0
100
AcDbLine
 10
77.59515851600113
 20
52.73903622381197
 30
0.0
 11
76.42825869128746
 21
52.73967581993602
 31
0.0
  0
LINE
  5
4A8
330
1E
100
AcDbEntity
  8
0
100
AcDbLine
 10
78.66635835509041
 20
52.73844908235335
 30
0.0
 11
77.59515851600113
 21
52.73903622381197
 31
0.0
  0
LINE
  5
4A9
330
1E
100
AcDbEntity
  8
0
100
AcDbLine
 10
78.66594069098335
 20
51.97644919681747
 30
0.0
 11
77.59474085189407
 21
51.9770363382761
 31
0.0
  0
LINE
  5
4AA
330
1E
100
AcDbEntity
  8
0
100
AcDbLine
 10
78.30423082299461
 20
53.23564764479918
 30
0.0
 11
77.2702309783173
 21
53.23621439635652
 31
0.0
  0
LINE
  5
4AB
330
1E
100
AcDbEntity
  8
0
100
AcDbLine
 10
75.41696773152421
 20
51.84422998980381
 30
0.0
 11
74.09206793054457
 21
51.84495618819677
 31
0.0
  0
LINE
  5
4AC
330
1E
100
AcDbEntity
  8
0
100
AcDbLine
 10
75.17685887926697
 20
52.74036173183046
 30
0.0
 11
73.8539590779869
 21
52.74108683399216
 31
0.0
  0
LINE
  5
4AD
330
1E
100
AcDbEntity
  8
0
100
AcDbLine
 10
75.17644121515992
 20
51.97836184629458
 30
0.0
 11
73.85354141387985
 21
51.97908694845629
 31
0.0
  0
LINE
  5
4AE
330
1E
100
AcDbEntity
  8
0
100
AcDbLine
 10
74.93553132902516
 20
53.23749408190867
 30
0.0
 11
73.6589315207901
 21
53.23819380631689
 31
0.0
  0
LINE
  5
4AF
330
1E
100
AcDbEntity
  8
0
100
AcDbLine
 10
76.14363114754995
 20
53.23683190342084
 30
0.0
 11
74.93553132902516
 21
53.23749408190867
 31
0.0
  0
LINE
  5
4B0
330
1E
100
AcDbEntity
  8
0
100
AcDbLine
 10
70.95173192745318
 20
53.23967766493974
 30
0.0
 11
69.54923213813026
 21
53.24044639710528
 31
0.0
  0
LINE
  5
4B1
330
1E
100
AcDbEntity
  8
0
100
AcDbLine
 10
71.04905949932602
 20
52.74262424351167
 30
0.0
 11
69.59625971755892
 21
52.74342054589321
 31
0.0
  0
LINE
  5
4B2
330
1E
100
AcDbEntity
  8
0
100
AcDbLine
 10
71.04864183521897
 20
51.9806243579758
 30
0.0
 11
69.59484205360211
 21
51.98142120847296
 31
0.0
  0
LINE
  5
4B3
330
1E
100
AcDbEntity
  8
0
100
AcDbLine
 10
71.28616835203391
 20
51.84649414583191
 30
0.0
 11
69.83236857041704
 21
51.84729099632907
 31
0.0
  0
LINE
  5
4B4
330
1E
100
AcDbEntity
  8
0
100
AcDbLine
 10
72.47265928547941
 20
52.74184394610643
 30
0.0
 11
71.04905949932602
 21
52.74262424351167
 31
0.0
  0
LINE
  5
4B5
330
1E
100
AcDbEntity
  8
0
100
AcDbLine
 10
72.71076813803708
 20
51.84571330031103
 30
0.0
 11
71.28616835203391
 21
51.84649414583191
 31
0.0
  0
LINE
  5
4B6
330
1E
100
AcDbEntity
  8
0
100
AcDbLine
 10
72.47224162137236
 20
51.97984406057056
 30
0.0
 11
71.04864183521897
 21
51.9806243579758
 31
0.0
  0
LINE
  5
4B7
330
1E
100
AcDbEntity
  8
0
100
AcDbLine
 10
72.32593172102721
 20
53.23892444444641
 30
0.0
 11
70.95173192745318
 21
53.23967766493974
 31
0.0
  0
LINE
  5
4B8
330
1E
100
AcDbEntity
  8
0
100
AcDbLine
 10
69.83236857041704
 20
51.84729099632907
 30
0.0
 11
68.36246879121862
 21
51.8480966714878
 31
0.0
  0
LINE
  5
4B9
330
1E
100
AcDbEntity
  8
0
100
AcDbLine
 10
76.43384055837654
 20
57.26767344060234
 30
0.0
 11
76.36112515982611
 21
56.87471323801986
 31
0.0
  0
LINE
  5
4BA
330
1E
100
AcDbEntity
  8
0
100
AcDbLine
 10
78.02286948229326
 20
54.76580209319932
 30
0.0
 11
76.91012629206307
 21
55.96441218517934
 31
0.0
  0
LINE
  5
4BB
330
1E
100
AcDbEntity
  8
0
100
AcDbLine
 10
76.85725644636889
 20
56.01944117223411
 30
0.0
 11
76.6999343024317
 21
56.16152742430307
 31
0.0
  0
LINE
  5
4BC
330
1E
100
AcDbEntity
  8
0
100
AcDbLine
 10
76.45151192923808
 20
56.48566363717792
 30
0.0
 11
76.36112515982611
 21
56.87471323801986
 31
0.0
  0
LINE
  5
4BD
330
1E
100
AcDbEntity
  8
0
100
AcDbLine
 10
76.6999343024317
 20
56.16152742430307
 30
0.0
 11
76.45151192923808
 21
56.48566363717792
 31
0.0
  0
LINE
  5
4BE
330
1E
100
AcDbEntity
  8
0
100
AcDbLine
 10
76.91012629206307
 20
55.96441218517934
 30
0.0
 11
76.85725644636889
 21
56.01944117223411
 31
0.0
  0
LINE
  5
4BF
330
1E
100
AcDbEntity
  8
0
100
AcDbLine
 10
76.57165016081711
 20
57.46759793503754
 30
0.0
 11
76.45055205951146
 21
57.29878005460051
 31
0.0
  0
LINE
  5
4C0
330
1E
100
AcDbEntity
  8
0
100
AcDbLine
 10
76.57165016081711
 20
57.46759793503754
 30
0.0
 11
76.43384055837654
 21
57.26767344060234
 31
0.0
  0
LINE
  5
4C1
330
1E
100
AcDbEntity
  8
0
100
AcDbLine
 10
76.65152359632381
 20
57.60155417528173
 30
0.0
 11
76.57165016081711
 21
57.46759793503754
 31
0.0
  0
LINE
  5
4C2
330
1E
100
AcDbEntity
  8
0
100
AcDbLine
 10
79.80554755679296
 20
61.11082593261064
 30
0.0
 11
79.79642178243733
 21
73.83483284593172
 31
0.0
  0
LINE
  5
4C3
330
1E
100
AcDbEntity
  8
0
100
AcDbLine
 10
79.80554755679296
 20
61.11082593261064
 30
0.0
 11
79.72483873683178
 21
60.7298701131506
 31
0.0
  0
LINE
  5
4C4
330
1E
100
AcDbEntity
  8
0
100
AcDbLine
 10
79.72483873683178
 20
60.7298701131506
 30
0.0
 11
79.50716227627203
 21
60.40798937666862
 31
0.0
  0
LINE
  5
4C5
330
1E
100
AcDbEntity
  8
0
100
AcDbLine
 10
79.18832187378331
 20
73.8351661550439
 30
0.0
 11
78.57422196603057
 21
73.83550275284986
 31
0.0
  0
LINE
  5
4C6
330
1E
100
AcDbEntity
  8
0
100
AcDbLine
 10
79.59812181222504
 20
73.83494153726037
 30
0.0
 11
79.18832187378331
 21
73.8351661550439
 31
0.0
  0
LINE
  5
4C7
330
1E
100
AcDbEntity
  8
0
100
AcDbLine
 10
79.79642178243733
 20
73.83483284593172
 30
0.0
 11
79.59812181222504
 21
73.83494153726037
 31
0.0
  0
LINE
  5
4C8
330
1E
100
AcDbEntity
  8
0
100
AcDbLine
 10
74.35982259909827
 20
73.83781273134431
 30
0.0
 11
72.96442280870881
 21
73.83857757188889
 31
0.0
  0
LINE
  5
4C9
330
1E
100
AcDbEntity
  8
0
100
AcDbLine
 10
76.78412223493111
 20
73.83648393463207
 30
0.0
 11
75.64142240658224
 21
73.83711026635797
 31
0.0
  0
LINE
  5
4CA
330
1E
100
AcDbEntity
  8
0
100
AcDbLine
 10
77.76782208716426
 20
73.83594475329073
 30
0.0
 11
76.78412223493111
 21
73.83648393463207
 31
0.0
  0
LINE
  5
4CB
330
1E
100
AcDbEntity
  8
0
100
AcDbLine
 10
78.57422196603057
 20
73.83550275284986
 30
0.0
 11
77.76782208716426
 21
73.83594475329073
 31
0.0
  0
LINE
  5
4CC
330
1E
100
AcDbEntity
  8
0
100
AcDbLine
 10
75.64142240658224
 20
73.83711026635797
 30
0.0
 11
74.35982259909827
 21
73.83781273134431
 31
0.0
  0
LINE
  5
4CD
330
1E
100
AcDbEntity
  8
0
100
AcDbLine
 10
71.48142303147825
 20
73.83939042736233
 30
0.0
 11
69.93802326332065
 21
73.84023638901959
 31
0.0
  0
LINE
  5
4CE
330
1E
100
AcDbEntity
  8
0
100
AcDbLine
 10
72.96442280870881
 20
73.83857757188889
 30
0.0
 11
71.48142303147825
 21
73.83939042736233
 31
0.0
  0
LINE
  5
4CF
330
1E
100
AcDbEntity
  8
0
100
AcDbLine
 10
69.93802326332065
 20
73.84023638901959
 30
0.0
 11
68.3624235
 21
73.84109999999998
 31
0.0
  0
LINE
  5
4D0
330
1E
100
AcDbEntity
  8
0
100
AcDbLine
 10
135.7022134999999
 20
28.85889999999999
 30
0.0
 11
108.2028234999999
 21
29.67354114333479
 31
0.0
  0
LINE
  5
4D1
330
1E
100
AcDbEntity
  8
0
100
AcDbLine
 10
135.7022134999999
 20
28.85889999999999
 30
0.0
 11
108.2028234999999
 21
29.67354114333479
 31
0.0
  0
LINE
  5
4D2
330
1E
100
AcDbEntity
  8
0
100
AcDbLine
 10
102.8554234999999
 20
32.8411
 30
0.0
 11
99.86602349999998
 21
32.8411
 31
0.0
  0
LINE
  5
4D3
330
1E
100
AcDbEntity
  8
0
100
AcDbLine
 10
108.2028234999999
 20
32.8411
 30
0.0
 11
108.2028234999999
 21
29.66106732153109
 31
0.0
  0
LINE
  5
4D4
330
1E
100
AcDbEntity
  8
0
100
AcDbLine
 10
108.2028234999999
 20
29.66106732153109
 30
0.0
 11
108.2028234999999
 21
32.8411
 31
0.0
  0
LINE
  5
4D5
330
1E
100
AcDbEntity
  8
0
100
AcDbLine
 10
106.7712234999999
 20
32.8411
 30
0.0
 11
105.0870234999999
 21
32.8411
 31
0.0
  0
LINE
  5
4D6
330
1E
100
AcDbEntity
  8
0
100
AcDbLine
 10
107.7817234999999
 20
32.8411
 30
0.0
 11
106.7712234999999
 21
32.8411
 31
0.0
  0
LINE
  5
4D7
330
1E
100
AcDbEntity
  8
0
100
AcDbLine
 10
108.2028234999999
 20
32.8411
 30
0.0
 11
107.7817234999999
 21
32.8411
 31
0.0
  0
LINE
  5
4D8
330
1E
100
AcDbEntity
  8
0
100
AcDbLine
 10
105.0870234999999
 20
32.8411
 30
0.0
 11
102.8554234999999
 21
32.8411
 31
0.0
  0
LINE
  5
4D9
330
1E
100
AcDbEntity
  8
0
100
AcDbLine
 10
96.45542349999999
 20
32.8411
 30
0.0
 11
63.27872349999999
 21
32.8411
 31
0.0
  0
LINE
  5
4DA
330
1E
100
AcDbEntity
  8
0
100
AcDbLine
 10
99.86602349999998
 20
32.8411
 30
0.0
 11
96.45542349999999
 21
32.8411
 31
0.0
  0
ENDSEC
  0
SECTION
  2
OBJECTS
  0
DICTIONARY
  5
C
330
0
100
AcDbDictionary
281
     1
  3
ACAD_GROUP
350
D
  3
ACAD_LAYOUT
350
19
  3
ACAD_MLINESTYLE
350
16
  3
ACAD_PLOTSETTINGS
350
18
  3
ACAD_PLOTSTYLENAME
350
E
  3
AcDbVariableDictionary
350
4DC
  0
DICTIONARY
  5
D
102
{ACAD_REACTORS
330
C
102
}
330
C
100
AcDbDictionary
281
     1
  0
DICTIONARY
  5
19
102
{ACAD_REACTORS
330
C
102
}
330
C
100
AcDbDictionary
281
     1
  3
Layout1
350
1D
  3
Model
350
21
  0
DICTIONARY
  5
16
102
{ACAD_REACTORS
330
C
102
}
330
C
100
AcDbDictionary
281
     1
  3
Standard
350
17
  0
DICTIONARY
  5
18
102
{ACAD_REACTORS
330
C
102
}
330
C
100
AcDbDictionary
281
     1
  0
ACDBDICTIONARYWDFLT
  5
E
102
{ACAD_REACTORS
330
C
102
}
330
C
100
AcDbDictionary
281
     1
  3
Normal
350
F
100
AcDbDictionaryWithDefault
340
F
  0
DICTIONARY
  5
4DC
102
{ACAD_REACTORS
330
C
102
}
330
C
100
AcDbDictionary
281
     1
  3
DIMASSOC
350
4DD
  0
LAYOUT
  5
1D
102
{ACAD_REACTORS
330
19
102
}
330
19
100
AcDbPlotSettings
  1

  2
C:\Programme\AutoCAD LT 2002 Deu\plotters\DWF ePlot (optimized for plotting).pc3
  4

  6

 40
0.0
 41
0.0
 42
0.0
 43
0.0
 44
0.0
 45
0.0
 46
0.0
 47
0.0
 48
0.0
 49
0.0
140
0.0
141
0.0
142
1.0
143
1.0
 70
   688
 72
     0
 73
     0
 74
     5
  7

 75
    16
147
1.0
148
0.0
149
0.0
100
AcDbLayout
  1
Layout1
 70
     1
 71
     1
 10
0.0
 20
0.0
 11
12.0
 21
9.0
 12
0.0
 22
0.0
 32
0.0
 14
1.000000000000000E+20
 24
1.000000000000000E+20
 34
1.000000000000000E+20
 15
-1.000000000000000E+20
 25
-1.000000000000000E+20
 35
-1.000000000000000E+20
146
0.0
 13
0.0
 23
0.0
 33
0.0
 16
1.0
 26
0.0
 36
0.0
 17
0.0
 27
1.0
 37
0.0
 76
     0
330
1A
  0
LAYOUT
  5
21
102
{ACAD_REACTORS
330
19
102
}
330
19
100
AcDbPlotSettings
  1

  2
C:\Programme\AutoCAD LT 2002 Deu\plotters\DWF ePlot (optimized for plotting).pc3
  4

  6

 40
0.0
 41
0.0
 42
0.0
 43
0.0
 44
0.0
 45
0.0
 46
0.0
 47
0.0
 48
0.0
 49
0.0
140
0.0
141
0.0
142
1.0
143
1.0
 70
  1712
 72
     0
 73
     0
 74
     0
  7

 75
     0
147
1.0
148
0.0
149
0.0
100
AcDbLayout
  1
Model
 70
     1
 71
     0
 10
0.0
 20
0.0
 11
12.0
 21
9.0
 12
0.0
 22
0.0
 32
0.0
 14
0.0
 24
0.0
 34
0.0
 15
0.0
 25
0.0
 35
0.0
146
0.0
 13
0.0
 23
0.0
 33
0.0
 16
1.0
 26
0.0
 36
0.0
 17
0.0
 27
1.0
 37
0.0
 76
     0
330
1E
  0
MLINESTYLE
  5
17
102
{ACAD_REACTORS
330
16
102
}
330
16
100
AcDbMlineStyle
  2
STANDARD
 70
     0
  3

 62
   256
 51
90.0
 52
90.0
 71
     2
 49
0.5
 62
   256
  6
BYLAYER
 49
-0.5
 62
   256
  6
BYLAYER
  0
ACDBPLACEHOLDER
  5
F
102
{ACAD_REACTORS
330
E
102
}
330
E
  0
DICTIONARYVAR
  5
4DD
102
{ACAD_REACTORS
330
4DC
102
}
330
4DC
100
DictionaryVariables
280
     0
  1
1
  0
ENDSEC
  0
EOF
