  0
SECTION
  2
HEADER
  9
$ACADVER
  1
AC1015
  9
$ACADMAINTVER
 70
    13
  9
$DWGCODEPAGE
  3
ANSI_1252
  9
$INSBASE
 10
0.0
 20
0.0
 30
0.0
  9
$EXTMIN
 10
0.0
 20
0.158899999999995
 30
0.0
  9
$EXTMAX
 10
137.0
 20
73.84109999999999
 30
0.0
  9
$LIMMIN
 10
0.0
 20
0.0
  9
$LIMMAX
 10
12.0
 20
9.0
  9
$ORTHOMODE
 70
     0
  9
$REGENMODE
 70
     1
  9
$FILLMODE
 70
     1
  9
$QTEXTMODE
 70
     0
  9
$MIRRTEXT
 70
     1
  9
$LTSCALE
 40
1.0
  9
$ATTMODE
 70
     1
  9
$TEXTSIZE
 40
0.2
  9
$TRACEWID
 40
0.05
  9
$TEXTSTYLE
  7
Standard
  9
$CLAYER
  8
0
  9
$CELTYPE
  6
Continuous
  9
$CECOLOR
 62
   256
  9
$CELTSCALE
 40
1.0
  9
$DISPSILH
 70
     0
  9
$DIMSCALE
 40
1.0
  9
$DIMASZ
 40
0.18
  9
$DIMEXO
 40
0.0625
  9
$DIMDLI
 40
0.38
  9
$DIMRND
 40
0.0
  9
$DIMDLE
 40
0.0
  9
$DIMEXE
 40
0.18
  9
$DIMTP
 40
0.0
  9
$DIMTM
 40
0.0
  9
$DIMTXT
 40
0.18
  9
$DIMCEN
 40
0.09
  9
$DIMTSZ
 40
0.0
  9
$DIMTOL
 70
     0
  9
$DIMLIM
 70
     0
  9
$DIMTIH
 70
     1
  9
$DIMTOH
 70
     1
  9
$DIMSE1
 70
     0
  9
$DIMSE2
 70
     0
  9
$DIMTAD
 70
     0
  9
$DIMZIN
 70
     0
  9
$DIMBLK
  1

  9
$DIMASO
 70
     1
  9
$DIMSHO
 70
     1
  9
$DIMPOST
  1

  9
$DIMAPOST
  1

  9
$DIMALT
 70
     0
  9
$DIMALTD
 70
     2
  9
$DIMALTF
 40
25.4
  9
$DIMLFAC
 40
1.0
  9
$DIMTOFL
 70
     0
  9
$DIMTVP
 40
0.0
  9
$DIMTIX
 70
     0
  9
$DIMSOXD
 70
     0
  9
$DIMSAH
 70
     0
  9
$DIMBLK1
  1

  9
$DIMBLK2
  1

  9
$DIMSTYLE
  2
Standard
  9
$DIMCLRD
 70
     0
  9
$DIMCLRE
 70
     0
  9
$DIMCLRT
 70
     0
  9
$DIMTFAC
 40
1.0
  9
$DIMGAP
 40
0.09
  9
$DIMJUST
 70
     0
  9
$DIMSD1
 70
     0
  9
$DIMSD2
 70
     0
  9
$DIMTOLJ
 70
     1
  9
$DIMTZIN
 70
     0
  9
$DIMALTZ
 70
     0
  9
$DIMALTTZ
 70
     0
  9
$DIMUPT
 70
     0
  9
$DIMDEC
 70
     4
  9
$DIMTDEC
 70
     4
  9
$DIMALTU
 70
     2
  9
$DIMALTTD
 70
     2
  9
$DIMTXSTY
  7
Standard
  9
$DIMAUNIT
 70
     0
  9
$DIMADEC
 70
     0
  9
$DIMALTRND
 40
0.0
  9
$DIMAZIN
 70
     0
  9
$DIMDSEP
 70
    46
  9
$DIMATFIT
 70
     3
  9
$DIMFRAC
 70
     0
  9
$DIMLDRBLK
  1

  9
$DIMLUNIT
 70
     2
  9
$DIMLWD
 70
    -2
  9
$DIMLWE
 70
    -2
  9
$DIMTMOVE
 70
     0
  9
$LUNITS
 70
     2
  9
$LUPREC
 70
     4
  9
$SKETCHINC
 40
0.1
  9
$FILLETRAD
 40
0.0
  9
$AUNITS
 70
     0
  9
$AUPREC
 70
     0
  9
$MENU
  1
.
  9
$ELEVATION
 40
0.0
  9
$PELEVATION
 40
0.0
  9
$THICKNESS
 40
0.0
  9
$LIMCHECK
 70
     0
  9
$CHAMFERA
 40
0.0
  9
$CHAMFERB
 40
0.0
  9
$CHAMFERC
 40
0.0
  9
$CHAMFERD
 40
0.0
  9
$SKPOLY
 70
     0
  9
$TDCREATE
 40
2455650.990293321
  9
$TDUCREATE
 40
2455650.906959988
  9
$TDUPDATE
 40
2455650.992985567
  9
$TDUUPDATE
 40
2455650.909652233
  9
$TDINDWG
 40
0.0026924190
  9
$TDUSRTIMER
 40
0.0026924190
  9
$USRTIMER
 70
     1
  9
$ANGBASE
 50
0.0
  9
$ANGDIR
 70
     0
  9
$PDMODE
 70
     0
  9
$PDSIZE
 40
0.0
  9
$PLINEWID
 40
0.0
  9
$SPLFRAME
 70
     0
  9
$SPLINETYPE
 70
     6
  9
$SPLINESEGS
 70
     8
  9
$HANDSEED
  5
4CC
  9
$SURFTAB1
 70
     6
  9
$SURFTAB2
 70
     6
  9
$SURFTYPE
 70
     6
  9
$SURFU
 70
     6
  9
$SURFV
 70
     6
  9
$UCSBASE
  2

  9
$UCSNAME
  2

  9
$UCSORG
 10
0.0
 20
0.0
 30
0.0
  9
$UCSXDIR
 10
1.0
 20
0.0
 30
0.0
  9
$UCSYDIR
 10
0.0
 20
1.0
 30
0.0
  9
$UCSORTHOREF
  2

  9
$UCSORTHOVIEW
 70
     1
  9
$UCSORGTOP
 10
0.0
 20
0.0
 30
0.0
  9
$UCSORGBOTTOM
 10
0.0
 20
0.0
 30
0.0
  9
$UCSORGLEFT
 10
0.0
 20
0.0
 30
0.0
  9
$UCSORGRIGHT
 10
0.0
 20
0.0
 30
0.0
  9
$UCSORGFRONT
 10
0.0
 20
0.0
 30
0.0
  9
$UCSORGBACK
 10
0.0
 20
0.0
 30
0.0
  9
$PUCSBASE
  2

  9
$PUCSNAME
  2

  9
$PUCSORG
 10
0.0
 20
0.0
 30
0.0
  9
$PUCSXDIR
 10
1.0
 20
0.0
 30
0.0
  9
$PUCSYDIR
 10
0.0
 20
1.0
 30
0.0
  9
$PUCSORTHOREF
  2

  9
$PUCSORTHOVIEW
 70
     0
  9
$PUCSORGTOP
 10
0.0
 20
0.0
 30
0.0
  9
$PUCSORGBOTTOM
 10
0.0
 20
0.0
 30
0.0
  9
$PUCSORGLEFT
 10
0.0
 20
0.0
 30
0.0
  9
$PUCSORGRIGHT
 10
0.0
 20
0.0
 30
0.0
  9
$PUCSORGFRONT
 10
0.0
 20
0.0
 30
0.0
  9
$PUCSORGBACK
 10
0.0
 20
0.0
 30
0.0
  9
$USERI1
 70
     0
  9
$USERI2
 70
     0
  9
$USERI3
 70
     0
  9
$USERI4
 70
     0
  9
$USERI5
 70
     0
  9
$USERR1
 40
0.0
  9
$USERR2
 40
0.0
  9
$USERR3
 40
0.0
  9
$USERR4
 40
0.0
  9
$USERR5
 40
0.0
  9
$WORLDVIEW
 70
     1
  9
$SHADEDGE
 70
     3
  9
$SHADEDIF
 70
    70
  9
$TILEMODE
 70
     1
  9
$MAXACTVP
 70
    64
  9
$PINSBASE
 10
0.0
 20
0.0
 30
0.0
  9
$PLIMCHECK
 70
     0
  9
$PEXTMIN
 10
1.000000000000000E+20
 20
1.000000000000000E+20
 30
1.000000000000000E+20
  9
$PEXTMAX
 10
-1.000000000000000E+20
 20
-1.000000000000000E+20
 30
-1.000000000000000E+20
  9
$PLIMMIN
 10
0.0
 20
0.0
  9
$PLIMMAX
 10
12.0
 20
9.0
  9
$UNITMODE
 70
     0
  9
$VISRETAIN
 70
     1
  9
$PLINEGEN
 70
     0
  9
$PSLTSCALE
 70
     1
  9
$TREEDEPTH
 70
  3020
  9
$CMLSTYLE
  2
Standard
  9
$CMLJUST
 70
     0
  9
$CMLSCALE
 40
1.0
  9
$PROXYGRAPHICS
 70
     1
  9
$MEASUREMENT
 70
     0
  9
$CELWEIGHT
370
    -1
  9
$ENDCAPS
280
     0
  9
$JOINSTYLE
280
     0
  9
$LWDISPLAY
290
     0
  9
$INSUNITS
 70
     0
  9
$HYPERLINKBASE
  1

  9
$STYLESHEET
  1

  9
$XEDIT
290
     1
  9
$CEPSNTYPE
380
     0
  9
$PSTYLEMODE
290
     1
  9
$FINGERPRINTGUID
  2
{ECCB42B7-A6EB-4E88-A124-A268D2D614B4}
  9
$VERSIONGUID
  2
{B10D48E1-07ED-4053-A606-84FB19D407EC}
  9
$EXTNAMES
290
     1
  9
$PSVPSCALE
 40
0.0
  9
$OLESTARTUP
290
     0
  0
ENDSEC
  0
SECTION
  2
CLASSES
  0
CLASS
  1
ACDBDICTIONARYWDFLT
  2
AcDbDictionaryWithDefault
  3
AutoCAD 2000
 90
        0
280
     0
281
     0
  0
CLASS
  1
ACDBPLACEHOLDER
  2
AcDbPlaceHolder
  3
AutoCAD 2000
 90
        0
280
     0
281
     0
  0
CLASS
  1
LAYOUT
  2
AcDbLayout
  3
AutoCAD 2000
 90
        0
280
     0
281
     0
  0
CLASS
  1
DICTIONARYVAR
  2
AcDbDictionaryVar
  3
AutoCAD 2000
 90
        0
280
     0
281
     0
  0
ENDSEC
  0
SECTION
  2
TABLES
  0
TABLE
  2
VPORT
  5
8
330
0
100
AcDbSymbolTable
 70
     3
  0
VPORT
  5
4CB
330
8
100
AcDbSymbolTableRecord
100
AcDbViewportTableRecord
  2
*Active
 70
     0
 10
0.0
 20
0.0
 11
1.0
 21
1.0
 12
68.5
 22
37.0
 13
0.0
 23
0.0
 14
1.0
 24
1.0
 15
0.0
 25
0.0
 16
0.0
 26
0.0
 36
1.0
 17
0.0
 27
0.0
 37
0.0
 40
74.18061397970689
 41
2.073363431151241
 42
50.0
 43
0.0
 44
0.0
 50
0.0
 51
0.0
 71
     0
 72
   100
 73
     1
 74
     3
 75
     0
 76
     0
 77
     0
 78
     0
281
     0
 65
     1
110
0.0
120
0.0
130
0.0
111
1.0
121
0.0
131
0.0
112
0.0
122
1.0
132
0.0
 79
     1
146
0.0
  0
ENDTAB
  0
TABLE
  2
LTYPE
  5
5
330
0
100
AcDbSymbolTable
 70
     1
  0
LTYPE
  5
13
330
5
100
AcDbSymbolTableRecord
100
AcDbLinetypeTableRecord
  2
ByBlock
 70
     0
  3

 72
    65
 73
     0
 40
0.0
  0
LTYPE
  5
14
330
5
100
AcDbSymbolTableRecord
100
AcDbLinetypeTableRecord
  2
ByLayer
 70
     0
  3

 72
    65
 73
     0
 40
0.0
  0
LTYPE
  5
15
330
5
100
AcDbSymbolTableRecord
100
AcDbLinetypeTableRecord
  2
Continuous
 70
     0
  3
Solid line
 72
    65
 73
     0
 40
0.0
  0
ENDTAB
  0
TABLE
  2
LAYER
  5
2
330
0
100
AcDbSymbolTable
 70
     1
  0
LAYER
  5
10
330
2
100
AcDbSymbolTableRecord
100
AcDbLayerTableRecord
  2
0
 70
     0
 62
     7
  6
Continuous
370
    -3
390
F
  0
ENDTAB
  0
TABLE
  2
STYLE
  5
3
330
0
100
AcDbSymbolTable
 70
     1
  0
STYLE
  5
11
330
3
100
AcDbSymbolTableRecord
100
AcDbTextStyleTableRecord
  2
Standard
 70
     0
 40
0.0
 41
1.0
 50
0.0
 71
     0
 42
0.2
  3
txt
  4

  0
ENDTAB
  0
TABLE
  2
VIEW
  5
6
330
0
100
AcDbSymbolTable
 70
     0
  0
ENDTAB
  0
TABLE
  2
UCS
  5
7
330
0
100
AcDbSymbolTable
 70
     0
  0
ENDTAB
  0
TABLE
  2
APPID
  5
9
330
0
100
AcDbSymbolTable
 70
     1
  0
APPID
  5
12
330
9
100
AcDbSymbolTableRecord
100
AcDbRegAppTableRecord
  2
ACAD
 70
     0
  0
ENDTAB
  0
TABLE
  2
DIMSTYLE
  5
A
330
0
100
AcDbSymbolTable
 70
     1
100
AcDbDimStyleTable
 71
     0
  0
DIMSTYLE
105
4C3
330
A
100
AcDbSymbolTableRecord
100
AcDbDimStyleTableRecord
  2
Standard
 70
     0
340
11
  0
ENDTAB
  0
TABLE
  2
BLOCK_RECORD
  5
1
330
0
100
AcDbSymbolTable
 70
     0
  0
BLOCK_RECORD
  5
1E
330
1
100
AcDbSymbolTableRecord
100
AcDbBlockTableRecord
  2
*Model_Space
340
21
  0
BLOCK_RECORD
  5
1A
330
1
100
AcDbSymbolTableRecord
100
AcDbBlockTableRecord
  2
*Paper_Space
340
1D
  0
ENDTAB
  0
ENDSEC
  0
SECTION
  2
BLOCKS
  0
BLOCK
  5
1F
330
1E
100
AcDbEntity
  8
0
100
AcDbBlockBegin
  2
*Model_Space
 70
     0
 10
0.0
 20
0.0
 30
0.0
  3
*Model_Space
  1

  0
ENDBLK
  5
20
330
1E
100
AcDbEntity
  8
0
100
AcDbBlockEnd
  0
BLOCK
  5
1B
330
1A
100
AcDbEntity
 67
     1
  8
0
100
AcDbBlockBegin
  2
*Paper_Space
 70
     0
 10
0.0
 20
0.0
 30
0.0
  3
*Paper_Space
  1

  0
ENDBLK
  5
1C
330
1A
100
AcDbEntity
 67
     1
  8
0
100
AcDbBlockEnd
  0
ENDSEC
  0
SECTION
  2
ENTITIES
  0
LINE
  5
22
330
1E
100
AcDbEntity
  8
0
100
AcDbLine
 10
6.0
 20
4.859049999999999
 30
0.0
 11
6.0
 21
5.756476666666669
 31
0.0
  0
LINE
  5
23
330
1E
100
AcDbEntity
  8
0
100
AcDbLine
 10
6.0
 20
4.859049999999999
 30
0.0
 11
7.88917
 21
4.859049999999999
 31
0.0
  0
LINE
  5
24
330
1E
100
AcDbEntity
  8
0
100
AcDbLine
 10
6.0
 20
5.756476666666669
 30
0.0
 11
6.0
 21
4.85902
 31
0.0
  0
LINE
  5
25
330
1E
100
AcDbEntity
  8
0
100
AcDbLine
 10
6.0
 20
5.756476666666669
 30
0.0
 11
6.0
 21
4.859049999999999
 31
0.0
  0
LINE
  5
26
330
1E
100
AcDbEntity
  8
0
100
AcDbLine
 10
7.88917
 20
5.77219355606011
 30
0.0
 11
7.88917
 21
4.85867
 31
0.0
  0
LINE
  5
27
330
1E
100
AcDbEntity
  8
0
100
AcDbLine
 10
7.88917
 20
5.77219355606011
 30
0.0
 11
7.88917
 21
4.85864
 31
0.0
  0
LINE
  5
28
330
1E
100
AcDbEntity
  8
0
100
AcDbLine
 10
9.889179999999999
 20
5.66293290046995
 30
0.0
 11
9.889179999999999
 21
4.85867
 31
0.0
  0
LINE
  5
29
330
1E
100
AcDbEntity
  8
0
100
AcDbLine
 10
9.889179999999999
 20
4.85867
 30
0.0
 11
9.889179999999999
 21
5.66293290046995
 31
0.0
  0
LINE
  5
2A
330
1E
100
AcDbEntity
  8
0
100
AcDbLine
 10
7.88917
 20
4.85867
 30
0.0
 11
9.889179999999999
 21
4.85867
 31
0.0
  0
LINE
  5
2B
330
1E
100
AcDbEntity
  8
0
100
AcDbLine
 10
7.88917
 20
4.85867
 30
0.0
 11
7.88917
 21
5.77219355606011
 31
0.0
  0
LINE
  5
2C
330
1E
100
AcDbEntity
  8
0
100
AcDbLine
 10
7.88917
 20
4.85864
 30
0.0
 11
7.88917
 21
5.77219355606011
 31
0.0
  0
LINE
  5
2D
330
1E
100
AcDbEntity
  8
0
100
AcDbLine
 10
7.88917
 20
4.85864
 30
0.0
 11
9.889179999999999
 21
4.85864
 31
0.0
  0
LINE
  5
2E
330
1E
100
AcDbEntity
  8
0
100
AcDbLine
 10
6.0
 20
4.85902
 30
0.0
 11
7.88917
 21
4.85902
 31
0.0
  0
LINE
  5
2F
330
1E
100
AcDbEntity
  8
0
100
AcDbLine
 10
6.0
 20
4.85902
 30
0.0
 11
6.0
 21
5.756476666666669
 31
0.0
  0
LINE
  5
30
330
1E
100
AcDbEntity
  8
0
100
AcDbLine
 10
4.0
 20
5.859009999999999
 30
0.0
 11
6.0
 21
5.75374894736842
 31
0.0
  0
LINE
  5
31
330
1E
100
AcDbEntity
  8
0
100
AcDbLine
 10
12.44539999999999
 20
4.858709999999999
 30
0.0
 11
12.44539999999999
 21
5.41452415305263
 31
0.0
  0
LINE
  5
32
330
1E
100
AcDbEntity
  8
0
100
AcDbLine
 10
12.44539999999999
 20
4.858709999999999
 30
0.0
 11
14.44539999999999
 21
4.858709999999999
 31
0.0
  0
LINE
  5
33
330
1E
100
AcDbEntity
  8
0
100
AcDbLine
 10
12.44539999999999
 20
4.85868
 30
0.0
 11
14.44539999999999
 21
4.85868
 31
0.0
  0
LINE
  5
34
330
1E
100
AcDbEntity
  8
0
100
AcDbLine
 10
12.44539999999999
 20
4.85868
 30
0.0
 11
12.44539999999999
 21
5.41452415305263
 31
0.0
  0
LINE
  5
35
330
1E
100
AcDbEntity
  8
0
100
AcDbLine
 10
14.44539999999999
 20
4.85902
 30
0.0
 11
14.44539999999999
 21
5.747399944242419
 31
0.0
  0
LINE
  5
36
330
1E
100
AcDbEntity
  8
0
100
AcDbLine
 10
12.44539999999999
 20
4.85902
 30
0.0
 11
14.44539999999999
 21
4.85902
 31
0.0
  0
LINE
  5
37
330
1E
100
AcDbEntity
  8
0
100
AcDbLine
 10
12.44539999999999
 20
4.85902
 30
0.0
 11
12.44539999999999
 21
5.68775848855721
 31
0.0
  0
LINE
  5
38
330
1E
100
AcDbEntity
  8
0
100
AcDbLine
 10
12.44539999999999
 20
4.858999999999999
 30
0.0
 11
12.44539999999999
 21
5.68775848855721
 31
0.0
  0
LINE
  5
39
330
1E
100
AcDbEntity
  8
0
100
AcDbLine
 10
12.44539999999999
 20
4.858999999999999
 30
0.0
 11
14.44539999999999
 21
4.858999999999999
 31
0.0
  0
LINE
  5
3A
330
1E
100
AcDbEntity
  8
0
100
AcDbLine
 10
14.44539999999999
 20
5.309263100421049
 30
0.0
 11
18.0
 21
5.12218263157895
 31
0.0
  0
LINE
  5
3B
330
1E
100
AcDbEntity
  8
0
100
AcDbLine
 10
12.44539999999999
 20
5.41452415305263
 30
0.0
 11
12.44539999999999
 21
4.85868
 31
0.0
  0
LINE
  5
3C
330
1E
100
AcDbEntity
  8
0
100
AcDbLine
 10
12.44539999999999
 20
5.41452415305263
 30
0.0
 11
12.44539999999999
 21
4.858709999999999
 31
0.0
  0
LINE
  5
3D
330
1E
100
AcDbEntity
  8
0
100
AcDbLine
 10
14.44539999999999
 20
5.747399944242419
 30
0.0
 11
14.44539999999999
 21
4.85902
 31
0.0
  0
LINE
  5
3E
330
1E
100
AcDbEntity
  8
0
100
AcDbLine
 10
12.44539999999999
 20
5.68775848855721
 30
0.0
 11
12.44539999999999
 21
4.85902
 31
0.0
  0
LINE
  5
3F
330
1E
100
AcDbEntity
  8
0
100
AcDbLine
 10
12.44539999999999
 20
5.68775848855721
 30
0.0
 11
12.44539999999999
 21
4.858999999999999
 31
0.0
  0
LINE
  5
40
330
1E
100
AcDbEntity
  8
0
100
AcDbLine
 10
9.889179999999999
 20
5.54905935703158
 30
0.0
 11
12.44539999999999
 21
5.41452415305263
 31
0.0
  0
LINE
  5
41
330
1E
100
AcDbEntity
  8
0
100
AcDbLine
 10
14.44539999999999
 20
5.309263100421049
 30
0.0
 11
18.0
 21
5.12218263157895
 31
0.0
  0
LINE
  5
42
330
1E
100
AcDbEntity
  8
0
100
AcDbLine
 10
9.889179999999999
 20
5.54905935703158
 30
0.0
 11
12.44539999999999
 21
5.41452415305263
 31
0.0
  0
LINE
  5
43
330
1E
100
AcDbEntity
  8
0
100
AcDbLine
 10
9.0
 20
5.859119999999999
 30
0.0
 11
11.3216560509658
 21
5.85918449044586
 31
0.0
  0
LINE
  5
44
330
1E
100
AcDbEntity
  8
0
100
AcDbLine
 10
9.0
 20
5.859119999999999
 30
0.0
 11
11.3216560509605
 21
5.85918449044586
 31
0.0
  0
LINE
  5
45
330
1E
100
AcDbEntity
  8
0
100
AcDbLine
 10
6.299999999999999
 20
5.859009999999999
 30
0.0
 11
9.0
 21
5.859119999999999
 31
0.0
  0
LINE
  5
46
330
1E
100
AcDbEntity
  8
0
100
AcDbLine
 10
6.299999999999999
 20
5.859009999999999
 30
0.0
 11
9.0
 21
5.859119999999999
 31
0.0
  0
LINE
  5
47
330
1E
100
AcDbEntity
  8
0
100
AcDbLine
 10
4.599999999999999
 20
5.859119999999999
 30
0.0
 11
6.299999999999999
 21
5.859009999999999
 31
0.0
  0
LINE
  5
48
330
1E
100
AcDbEntity
  8
0
100
AcDbLine
 10
4.0
 20
5.859009999999999
 30
0.0
 11
4.599999999999999
 21
5.859119999999999
 31
0.0
  0
LINE
  5
49
330
1E
100
AcDbEntity
  8
0
100
AcDbLine
 10
4.0
 20
5.859009999999999
 30
0.0
 11
4.33483535528891
 21
5.85923322357019
 31
0.0
  0
LINE
  5
4A
330
1E
100
AcDbEntity
  8
0
100
AcDbLine
 10
4.0
 20
5.859009999999999
 30
0.0
 11
6.0
 21
5.75374894736842
 31
0.0
  0
LINE
  5
4B
330
1E
100
AcDbEntity
  8
0
100
AcDbLine
 10
4.0
 20
5.859009999999999
 30
0.0
 11
4.343466666670759
 21
5.85923325333333
 31
0.0
  0
LINE
  5
4C
330
1E
100
AcDbEntity
  8
0
100
AcDbLine
 10
20.1114
 20
4.35855
 30
0.0
 11
22.11139999999999
 21
4.35855
 31
0.0
  0
LINE
  5
4D
330
1E
100
AcDbEntity
  8
0
100
AcDbLine
 10
20.1114
 20
4.35855
 30
0.0
 11
20.1114
 21
4.858489999999999
 31
0.0
  0
LINE
  5
4E
330
1E
100
AcDbEntity
  8
0
100
AcDbLine
 10
20.1114
 20
4.358519999999999
 30
0.0
 11
20.1114
 21
4.858489999999999
 31
0.0
  0
LINE
  5
4F
330
1E
100
AcDbEntity
  8
0
100
AcDbLine
 10
20.1114
 20
4.358519999999999
 30
0.0
 11
22.11139999999999
 21
4.358519999999999
 31
0.0
  0
LINE
  5
50
330
1E
100
AcDbEntity
  8
0
100
AcDbLine
 10
18.0
 20
5.14127666666666
 30
0.0
 11
18.0
 21
4.359059999999999
 31
0.0
  0
LINE
  5
51
330
1E
100
AcDbEntity
  8
0
100
AcDbLine
 10
18.0
 20
4.359059999999999
 30
0.0
 11
18.0
 21
5.14127666666666
 31
0.0
  0
LINE
  5
52
330
1E
100
AcDbEntity
  8
0
100
AcDbLine
 10
18.0
 20
4.359059999999999
 30
0.0
 11
20.0
 21
4.359059999999999
 31
0.0
  0
LINE
  5
53
330
1E
100
AcDbEntity
  8
0
100
AcDbLine
 10
19.00199999999999
 20
5.753057599999999
 30
0.0
 11
19.00199999999999
 21
4.858959999999999
 31
0.0
  0
LINE
  5
54
330
1E
100
AcDbEntity
  8
0
100
AcDbLine
 10
19.00199999999999
 20
4.858959999999999
 30
0.0
 11
19.00199999999999
 21
5.753057599999999
 31
0.0
  0
LINE
  5
55
330
1E
100
AcDbEntity
  8
0
100
AcDbLine
 10
19.00199999999999
 20
5.774805171578949
 30
0.0
 11
19.00199999999999
 21
4.858489999999999
 31
0.0
  0
LINE
  5
56
330
1E
100
AcDbEntity
  8
0
100
AcDbLine
 10
19.00199999999999
 20
4.858489999999999
 30
0.0
 11
21.002
 21
4.858489999999999
 31
0.0
  0
LINE
  5
57
330
1E
100
AcDbEntity
  8
0
100
AcDbLine
 10
19.00199999999999
 20
4.858489999999999
 30
0.0
 11
19.00199999999999
 21
5.774805171578949
 31
0.0
  0
LINE
  5
58
330
1E
100
AcDbEntity
  8
0
100
AcDbLine
 10
20.1114
 20
4.3592
 30
0.0
 11
20.1114
 21
4.858489999999999
 31
0.0
  0
LINE
  5
59
330
1E
100
AcDbEntity
  8
0
100
AcDbLine
 10
20.1114
 20
4.35918
 30
0.0
 11
20.1114
 21
4.858489999999999
 31
0.0
  0
LINE
  5
5A
330
1E
100
AcDbEntity
  8
0
100
AcDbLine
 10
20.1114
 20
4.858489999999999
 30
0.0
 11
20.1114
 21
4.35855
 31
0.0
  0
LINE
  5
5B
330
1E
100
AcDbEntity
  8
0
100
AcDbLine
 10
20.1114
 20
4.858489999999999
 30
0.0
 11
20.1114
 21
4.358519999999999
 31
0.0
  0
LINE
  5
5C
330
1E
100
AcDbEntity
  8
0
100
AcDbLine
 10
20.1114
 20
4.858489999999999
 30
0.0
 11
20.1114
 21
4.35918
 31
0.0
  0
LINE
  5
5D
330
1E
100
AcDbEntity
  8
0
100
AcDbLine
 10
20.1114
 20
4.858489999999999
 30
0.0
 11
20.1114
 21
4.3592
 31
0.0
  0
LINE
  5
5E
330
1E
100
AcDbEntity
  8
0
100
AcDbLine
 10
20.0
 20
4.858489999999999
 30
0.0
 11
20.0
 21
4.359059999999999
 31
0.0
  0
LINE
  5
5F
330
1E
100
AcDbEntity
  8
0
100
AcDbLine
 10
20.0
 20
4.359059999999999
 30
0.0
 11
20.0
 21
4.858489999999999
 31
0.0
  0
LINE
  5
60
330
1E
100
AcDbEntity
  8
0
100
AcDbLine
 10
18.0
 20
5.12218263157895
 30
0.0
 11
18.0
 21
4.35903
 31
0.0
  0
LINE
  5
61
330
1E
100
AcDbEntity
  8
0
100
AcDbLine
 10
18.0
 20
4.35903
 30
0.0
 11
20.0
 21
4.35903
 31
0.0
  0
LINE
  5
62
330
1E
100
AcDbEntity
  8
0
100
AcDbLine
 10
18.0
 20
4.35903
 30
0.0
 11
18.0
 21
5.12218263157895
 31
0.0
  0
LINE
  5
63
330
1E
100
AcDbEntity
  8
0
100
AcDbLine
 10
17.4379661016625
 20
5.85910986440678
 30
0.0
 11
23.0
 21
5.85909
 31
0.0
  0
LINE
  5
64
330
1E
100
AcDbEntity
  8
0
100
AcDbLine
 10
17.43796610169059
 20
5.85910986440678
 30
0.0
 11
23.0
 21
5.85909
 31
0.0
  0
LINE
  5
65
330
1E
100
AcDbEntity
  8
0
100
AcDbLine
 10
15.0
 20
5.85903
 30
0.0
 11
20.8
 21
5.859219999999999
 31
0.0
  0
LINE
  5
66
330
1E
100
AcDbEntity
  8
0
100
AcDbLine
 10
5.312282229951629
 20
5.859236594076659
 30
0.0
 11
6.0
 21
5.85907882352941
 31
0.0
  0
LINE
  5
67
330
1E
100
AcDbEntity
  8
0
100
AcDbLine
 10
5.355226480825939
 20
5.85923674216028
 30
0.0
 11
6.0
 21
5.85908882352941
 31
0.0
  0
LINE
  5
68
330
1E
100
AcDbEntity
  8
0
100
AcDbLine
 10
10.0
 20
5.859239999999999
 30
0.0
 11
15.0
 21
5.85903
 31
0.0
  0
LINE
  5
69
330
1E
100
AcDbEntity
  8
0
100
AcDbLine
 10
6.299999999999999
 20
5.859239999999999
 30
0.0
 11
10.0
 21
5.859239999999999
 31
0.0
  0
LINE
  5
6A
330
1E
100
AcDbEntity
  8
0
100
AcDbLine
 10
3.399999999999999
 20
5.85923
 30
0.0
 11
6.299999999999999
 21
5.859239999999999
 31
0.0
  0
LINE
  5
6B
330
1E
100
AcDbEntity
  8
0
100
AcDbLine
 10
1.7
 20
5.859219999999999
 30
0.0
 11
3.399999999999999
 21
5.85923
 31
0.0
  0
LINE
  5
6C
330
1E
100
AcDbEntity
  8
0
100
AcDbLine
 10
1.0
 20
5.859009999999999
 30
0.0
 11
1.7
 21
5.859219999999999
 31
0.0
  0
LINE
  5
6D
330
1E
100
AcDbEntity
  8
0
100
AcDbLine
 10
0.7
 20
6.858999999999999
 30
0.0
 11
2.5
 21
6.859319999999999
 31
0.0
  0
LINE
  5
6E
330
1E
100
AcDbEntity
  8
0
100
AcDbLine
 10
0.0
 20
6.858989999999999
 30
0.0
 11
0.7
 21
6.858999999999999
 31
0.0
  0
LINE
  5
6F
330
1E
100
AcDbEntity
  8
0
100
AcDbLine
 10
0.0
 20
6.858989999999999
 30
0.0
 11
1.0
 21
5.859009999999999
 31
0.0
  0
LINE
  5
70
330
1E
100
AcDbEntity
  8
0
100
AcDbLine
 10
0.0
 20
6.858989999999999
 30
0.0
 11
0.0
 21
27.85849999999999
 31
0.0
  0
LINE
  5
71
330
1E
100
AcDbEntity
  8
0
100
AcDbLine
 10
21.002
 20
4.858489999999999
 30
0.0
 11
21.002
 21
5.66955569789474
 31
0.0
  0
LINE
  5
72
330
1E
100
AcDbEntity
  8
0
100
AcDbLine
 10
22.11139999999999
 20
4.35855
 30
0.0
 11
22.11139999999999
 21
5.076619659900989
 31
0.0
  0
LINE
  5
73
330
1E
100
AcDbEntity
  8
0
100
AcDbLine
 10
21.002
 20
5.66955569789474
 30
0.0
 11
21.002
 21
4.858489999999999
 31
0.0
  0
LINE
  5
74
330
1E
100
AcDbEntity
  8
0
100
AcDbLine
 10
22.11139999999999
 20
5.076619659900989
 30
0.0
 11
22.11139999999999
 21
4.35855
 31
0.0
  0
LINE
  5
75
330
1E
100
AcDbEntity
  8
0
100
AcDbLine
 10
22.11139999999999
 20
4.905797485684209
 30
0.0
 11
23.0
 21
4.85903
 31
0.0
  0
LINE
  5
76
330
1E
100
AcDbEntity
  8
0
100
AcDbLine
 10
26.2235
 20
4.35885
 30
0.0
 11
26.2235
 21
4.743908453749999
 31
0.0
  0
LINE
  5
77
330
1E
100
AcDbEntity
  8
0
100
AcDbLine
 10
26.2235
 20
4.35885
 30
0.0
 11
28.2235
 21
4.35885
 31
0.0
  0
LINE
  5
78
330
1E
100
AcDbEntity
  8
0
100
AcDbLine
 10
26.2235
 20
4.358819999999999
 30
0.0
 11
28.2235
 21
4.358819999999999
 31
0.0
  0
LINE
  5
79
330
1E
100
AcDbEntity
  8
0
100
AcDbLine
 10
26.2235
 20
4.358819999999999
 30
0.0
 11
26.2235
 21
4.743908453749999
 31
0.0
  0
LINE
  5
7A
330
1E
100
AcDbEntity
  8
0
100
AcDbLine
 10
26.2235
 20
4.743908453749999
 30
0.0
 11
26.2235
 21
4.358819999999999
 31
0.0
  0
LINE
  5
7B
330
1E
100
AcDbEntity
  8
0
100
AcDbLine
 10
26.2235
 20
4.743908453749999
 30
0.0
 11
26.2235
 21
4.35885
 31
0.0
  0
LINE
  5
7C
330
1E
100
AcDbEntity
  8
0
100
AcDbLine
 10
26.2235
 20
4.358909999999999
 30
0.0
 11
28.2235
 21
4.358909999999999
 31
0.0
  0
LINE
  5
7D
330
1E
100
AcDbEntity
  8
0
100
AcDbLine
 10
26.2235
 20
4.358909999999999
 30
0.0
 11
26.2235
 21
5.174806851507539
 31
0.0
  0
LINE
  5
7E
330
1E
100
AcDbEntity
  8
0
100
AcDbLine
 10
26.2235
 20
4.35888
 30
0.0
 11
26.2235
 21
5.03371846666667
 31
0.0
  0
LINE
  5
7F
330
1E
100
AcDbEntity
  8
0
100
AcDbLine
 10
26.2235
 20
4.35888
 30
0.0
 11
28.2235
 21
4.35888
 31
0.0
  0
LINE
  5
80
330
1E
100
AcDbEntity
  8
0
100
AcDbLine
 10
26.2235
 20
5.03371846666667
 30
0.0
 11
26.2235
 21
4.35888
 31
0.0
  0
LINE
  5
81
330
1E
100
AcDbEntity
  8
0
100
AcDbLine
 10
26.2235
 20
5.174806851507539
 30
0.0
 11
26.2235
 21
4.358909999999999
 31
0.0
  0
LINE
  5
82
330
1E
100
AcDbEntity
  8
0
100
AcDbLine
 10
23.0
 20
4.85903
 30
0.0
 11
26.2235
 21
4.743908453749999
 31
0.0
  0
LINE
  5
83
330
1E
100
AcDbEntity
  8
0
100
AcDbLine
 10
23.0
 20
4.85903
 30
0.0
 11
26.2235
 21
4.743908453749999
 31
0.0
  0
LINE
  5
84
330
1E
100
AcDbEntity
  8
0
100
AcDbLine
 10
22.11139999999999
 20
4.905797485684209
 30
0.0
 11
23.0
 21
4.85903
 31
0.0
  0
LINE
  5
85
330
1E
100
AcDbEntity
  8
0
100
AcDbLine
 10
22.11139999999999
 20
5.85914077714285
 30
0.0
 11
22.999999999885
 21
5.85909
 31
0.0
  0
LINE
  5
86
330
1E
100
AcDbEntity
  8
0
100
AcDbLine
 10
22.11139999999999
 20
5.859142363928571
 30
0.0
 11
22.9999999998887
 21
5.85909
 31
0.0
  0
LINE
  5
87
330
1E
100
AcDbEntity
  8
0
100
AcDbLine
 10
23.0
 20
5.85909
 30
0.0
 11
24.90086206896239
 21
5.85920163793104
 31
0.0
  0
LINE
  5
88
330
1E
100
AcDbEntity
  8
0
100
AcDbLine
 10
23.0
 20
5.85909
 30
0.0
 11
24.9008620689722
 21
5.85920163793104
 31
0.0
  0
LINE
  5
89
330
1E
100
AcDbEntity
  8
0
100
AcDbLine
 10
20.8
 20
5.859219999999999
 30
0.0
 11
27.5
 21
5.859189999999999
 31
0.0
  0
LINE
  5
8A
330
1E
100
AcDbEntity
  8
0
100
AcDbLine
 10
9.199999999999999
 20
6.859219999999999
 30
0.0
 11
14.19999999999999
 21
6.859319999999999
 31
0.0
  0
LINE
  5
8B
330
1E
100
AcDbEntity
  8
0
100
AcDbLine
 10
14.19999999999999
 20
6.859319999999999
 30
0.0
 11
20.1
 21
6.85931
 31
0.0
  0
LINE
  5
8C
330
1E
100
AcDbEntity
  8
0
100
AcDbLine
 10
5.299999999999999
 20
6.85942
 30
0.0
 11
9.199999999999999
 21
6.859219999999999
 31
0.0
  0
LINE
  5
8D
330
1E
100
AcDbEntity
  8
0
100
AcDbLine
 10
2.5
 20
6.859319999999999
 30
0.0
 11
5.299999999999999
 21
6.85942
 31
0.0
  0
LINE
  5
8E
330
1E
100
AcDbEntity
  8
0
100
AcDbLine
 10
0.7
 20
27.85849999999999
 30
0.0
 11
2.5
 21
27.8589
 31
0.0
  0
LINE
  5
8F
330
1E
100
AcDbEntity
  8
0
100
AcDbLine
 10
0.0
 20
27.85849999999999
 30
0.0
 11
0.7
 21
27.85849999999999
 31
0.0
  0
LINE
  5
90
330
1E
100
AcDbEntity
  8
0
100
AcDbLine
 10
0.0
 20
27.85849999999999
 30
0.0
 11
1.0
 21
28.85849999999999
 31
0.0
  0
LINE
  5
91
330
1E
100
AcDbEntity
  8
0
100
AcDbLine
 10
0.0
 20
27.85849999999999
 30
0.0
 11
0.0
 21
6.858989999999999
 31
0.0
  0
LINE
  5
92
330
1E
100
AcDbEntity
  8
0
100
AcDbLine
 10
20.1
 20
6.85931
 30
0.0
 11
26.89999999999999
 21
6.85908
 31
0.0
  0
LINE
  5
93
330
1E
100
AcDbEntity
  8
0
100
AcDbLine
 10
26.89999999999999
 20
6.85908
 30
0.0
 11
34.39999999999999
 21
6.859139999999999
 31
0.0
  0
LINE
  5
94
330
1E
100
AcDbEntity
  8
0
100
AcDbLine
 10
28.2235
 20
4.358909999999999
 30
0.0
 11
28.2235
 21
4.85904
 31
0.0
  0
LINE
  5
95
330
1E
100
AcDbEntity
  8
0
100
AcDbLine
 10
30.0
 20
4.62469519855595
 30
0.0
 11
30.0
 21
3.859069999999999
 31
0.0
  0
LINE
  5
96
330
1E
100
AcDbEntity
  8
0
100
AcDbLine
 10
30.0
 20
3.859069999999999
 30
0.0
 11
30.0
 21
4.62469519855595
 31
0.0
  0
LINE
  5
97
330
1E
100
AcDbEntity
  8
0
100
AcDbLine
 10
30.0
 20
3.859069999999999
 30
0.0
 11
32.0
 21
3.859069999999999
 31
0.0
  0
LINE
  5
98
330
1E
100
AcDbEntity
  8
0
100
AcDbLine
 10
32.0
 20
4.55250602888086
 30
0.0
 11
32.0
 21
3.859069999999999
 31
0.0
  0
LINE
  5
99
330
1E
100
AcDbEntity
  8
0
100
AcDbLine
 10
32.0
 20
3.859069999999999
 30
0.0
 11
32.0
 21
4.55250602888086
 31
0.0
  0
LINE
  5
9A
330
1E
100
AcDbEntity
  8
0
100
AcDbLine
 10
30.0
 20
4.610917234042549
 30
0.0
 11
30.0
 21
3.85904
 31
0.0
  0
LINE
  5
9B
330
1E
100
AcDbEntity
  8
0
100
AcDbLine
 10
30.0
 20
3.85904
 30
0.0
 11
32.0
 21
3.85904
 31
0.0
  0
LINE
  5
9C
330
1E
100
AcDbEntity
  8
0
100
AcDbLine
 10
30.0
 20
3.85904
 30
0.0
 11
30.0
 21
4.610917234042549
 31
0.0
  0
LINE
  5
9D
330
1E
100
AcDbEntity
  8
0
100
AcDbLine
 10
32.0
 20
4.537611071428569
 30
0.0
 11
33.0005
 21
4.50188000053571
 31
0.0
  0
LINE
  5
9E
330
1E
100
AcDbEntity
  8
0
100
AcDbLine
 10
27.78109999999999
 20
5.590596316853929
 30
0.0
 11
27.78109999999999
 21
4.85904
 31
0.0
  0
LINE
  5
9F
330
1E
100
AcDbEntity
  8
0
100
AcDbLine
 10
27.78109999999999
 20
4.859059999999999
 30
0.0
 11
29.7811
 21
4.859059999999999
 31
0.0
  0
LINE
  5
A0
330
1E
100
AcDbEntity
  8
0
100
AcDbLine
 10
27.78109999999999
 20
4.859059999999999
 30
0.0
 11
27.78109999999999
 21
5.85919265905406
 31
0.0
  0
LINE
  5
A1
330
1E
100
AcDbEntity
  8
0
100
AcDbLine
 10
27.78109999999999
 20
4.85904
 30
0.0
 11
27.78109999999999
 21
5.590596316853929
 31
0.0
  0
LINE
  5
A2
330
1E
100
AcDbEntity
  8
0
100
AcDbLine
 10
27.78109999999999
 20
4.85904
 30
0.0
 11
29.7811
 21
4.85904
 31
0.0
  0
LINE
  5
A3
330
1E
100
AcDbEntity
  8
0
100
AcDbLine
 10
29.7811
 20
5.81762647243478
 30
0.0
 11
29.7811
 21
4.859059999999999
 31
0.0
  0
LINE
  5
A4
330
1E
100
AcDbEntity
  8
0
100
AcDbLine
 10
29.7811
 20
4.859059999999999
 30
0.0
 11
29.7811
 21
5.81762647243478
 31
0.0
  0
LINE
  5
A5
330
1E
100
AcDbEntity
  8
0
100
AcDbLine
 10
28.2235
 20
4.85904
 30
0.0
 11
28.2235
 21
4.358909999999999
 31
0.0
  0
LINE
  5
A6
330
1E
100
AcDbEntity
  8
0
100
AcDbLine
 10
28.2235
 20
4.672482025178569
 30
0.0
 11
30.0
 21
4.6090375
 31
0.0
  0
LINE
  5
A7
330
1E
100
AcDbEntity
  8
0
100
AcDbLine
 10
28.2235
 20
4.672482025178569
 30
0.0
 11
30.0
 21
4.6090375
 31
0.0
  0
LINE
  5
A8
330
1E
100
AcDbEntity
  8
0
100
AcDbLine
 10
33.0005
 20
3.85873
 30
0.0
 11
33.0005
 21
4.50188000053571
 31
0.0
  0
LINE
  5
A9
330
1E
100
AcDbEntity
  8
0
100
AcDbLine
 10
33.0005
 20
3.85873
 30
0.0
 11
35.0005
 21
3.85873
 31
0.0
  0
LINE
  5
AA
330
1E
100
AcDbEntity
  8
0
100
AcDbLine
 10
33.0005
 20
3.858699999999999
 30
0.0
 11
35.0005
 21
3.858699999999999
 31
0.0
  0
LINE
  5
AB
330
1E
100
AcDbEntity
  8
0
100
AcDbLine
 10
33.0005
 20
3.858699999999999
 30
0.0
 11
33.0005
 21
4.50188000053571
 31
0.0
  0
LINE
  5
AC
330
1E
100
AcDbEntity
  8
0
100
AcDbLine
 10
33.0005
 20
4.50188000053571
 30
0.0
 11
33.0005
 21
3.858699999999999
 31
0.0
  0
LINE
  5
AD
330
1E
100
AcDbEntity
  8
0
100
AcDbLine
 10
33.0005
 20
4.50188000053571
 30
0.0
 11
33.0005
 21
3.85873
 31
0.0
  0
LINE
  5
AE
330
1E
100
AcDbEntity
  8
0
100
AcDbLine
 10
33.0005
 20
4.557091653956829
 30
0.0
 11
33.0005
 21
3.859019999999999
 31
0.0
  0
LINE
  5
AF
330
1E
100
AcDbEntity
  8
0
100
AcDbLine
 10
33.0005
 20
4.608420227413129
 30
0.0
 11
33.0005
 21
3.859049999999999
 31
0.0
  0
LINE
  5
B0
330
1E
100
AcDbEntity
  8
0
100
AcDbLine
 10
33.55789999999999
 20
5.07130520037313
 30
0.0
 11
33.55789999999999
 21
4.358979999999999
 31
0.0
  0
LINE
  5
B1
330
1E
100
AcDbEntity
  8
0
100
AcDbLine
 10
33.55789999999999
 20
5.07130520037313
 30
0.0
 11
33.55789999999999
 21
4.35895
 31
0.0
  0
LINE
  5
B2
330
1E
100
AcDbEntity
  8
0
100
AcDbLine
 10
33.55789999999999
 20
4.358979999999999
 30
0.0
 11
35.5579
 21
4.358979999999999
 31
0.0
  0
LINE
  5
B3
330
1E
100
AcDbEntity
  8
0
100
AcDbLine
 10
33.55789999999999
 20
4.358979999999999
 30
0.0
 11
33.55789999999999
 21
5.071305200373139
 31
0.0
  0
LINE
  5
B4
330
1E
100
AcDbEntity
  8
0
100
AcDbLine
 10
33.55789999999999
 20
4.35895
 30
0.0
 11
33.55789999999999
 21
5.071305200373139
 31
0.0
  0
LINE
  5
B5
330
1E
100
AcDbEntity
  8
0
100
AcDbLine
 10
33.55789999999999
 20
4.35895
 30
0.0
 11
35.5579
 21
4.35895
 31
0.0
  0
LINE
  5
B6
330
1E
100
AcDbEntity
  8
0
100
AcDbLine
 10
33.0005
 20
3.859049999999999
 30
0.0
 11
35.0005
 21
3.859049999999999
 31
0.0
  0
LINE
  5
B7
330
1E
100
AcDbEntity
  8
0
100
AcDbLine
 10
33.0005
 20
3.859049999999999
 30
0.0
 11
33.0005
 21
4.608420227413129
 31
0.0
  0
LINE
  5
B8
330
1E
100
AcDbEntity
  8
0
100
AcDbLine
 10
33.0005
 20
3.859019999999999
 30
0.0
 11
33.0005
 21
4.557091653956829
 31
0.0
  0
LINE
  5
B9
330
1E
100
AcDbEntity
  8
0
100
AcDbLine
 10
33.0005
 20
3.859019999999999
 30
0.0
 11
35.0005
 21
3.859019999999999
 31
0.0
  0
LINE
  5
BA
330
1E
100
AcDbEntity
  8
0
100
AcDbLine
 10
32.0
 20
4.537611071428569
 30
0.0
 11
33.0005
 21
4.50188000053571
 31
0.0
  0
LINE
  5
BB
330
1E
100
AcDbEntity
  8
0
100
AcDbLine
 10
27.78109999999999
 20
5.85919265905406
 30
0.0
 11
27.78109999999999
 21
4.859059999999999
 31
0.0
  0
LINE
  5
BC
330
1E
100
AcDbEntity
  8
0
100
AcDbLine
 10
27.5
 20
5.859189999999999
 30
0.0
 11
34.9
 21
5.859259999999999
 31
0.0
  0
LINE
  5
BD
330
1E
100
AcDbEntity
  8
0
100
AcDbLine
 10
35.0005
 20
4.35874
 30
0.0
 11
35.5579
 21
4.35874
 31
0.0
  0
LINE
  5
BE
330
1E
100
AcDbEntity
  8
0
100
AcDbLine
 10
35.0005
 20
4.358769999999999
 30
0.0
 11
35.5579
 21
4.358769999999999
 31
0.0
  0
LINE
  5
BF
330
1E
100
AcDbEntity
  8
0
100
AcDbLine
 10
35.0005
 20
4.35895
 30
0.0
 11
35.0005
 21
3.859049999999999
 31
0.0
  0
LINE
  5
C0
330
1E
100
AcDbEntity
  8
0
100
AcDbLine
 10
35.5579
 20
5.1538722
 30
0.0
 11
35.5579
 21
4.358979999999999
 31
0.0
  0
LINE
  5
C1
330
1E
100
AcDbEntity
  8
0
100
AcDbLine
 10
35.5579
 20
4.358979999999999
 30
0.0
 11
35.5579
 21
5.1538722
 31
0.0
  0
LINE
  5
C2
330
1E
100
AcDbEntity
  8
0
100
AcDbLine
 10
35.0005
 20
3.859049999999999
 30
0.0
 11
35.0005
 21
4.35895
 31
0.0
  0
LINE
  5
C3
330
1E
100
AcDbEntity
  8
0
100
AcDbLine
 10
39.11599999999999
 20
5.674593428571429
 30
0.0
 11
39.11599999999999
 21
4.85881
 31
0.0
  0
LINE
  5
C4
330
1E
100
AcDbEntity
  8
0
100
AcDbLine
 10
38.116
 20
4.858789999999999
 30
0.0
 11
39.11599999999999
 21
4.85881
 31
0.0
  0
LINE
  5
C5
330
1E
100
AcDbEntity
  8
0
100
AcDbLine
 10
38.116
 20
4.858789999999999
 30
0.0
 11
38.116
 21
5.742644448979589
 31
0.0
  0
LINE
  5
C6
330
1E
100
AcDbEntity
  8
0
100
AcDbLine
 10
40.2238
 20
4.243912739785709
 30
0.0
 11
40.2238
 21
3.859119999999999
 31
0.0
  0
LINE
  5
C7
330
1E
100
AcDbEntity
  8
0
100
AcDbLine
 10
40.2238
 20
3.859119999999999
 30
0.0
 11
40.2238
 21
4.243912739785709
 31
0.0
  0
LINE
  5
C8
330
1E
100
AcDbEntity
  8
0
100
AcDbLine
 10
40.2238
 20
4.243912739785709
 30
0.0
 11
40.2238
 21
3.85909
 31
0.0
  0
LINE
  5
C9
330
1E
100
AcDbEntity
  8
0
100
AcDbLine
 10
40.2238
 20
3.85909
 30
0.0
 11
40.2238
 21
4.243912739785709
 31
0.0
  0
LINE
  5
CA
330
1E
100
AcDbEntity
  8
0
100
AcDbLine
 10
40.2238
 20
4.53218415661017
 30
0.0
 11
40.2238
 21
3.85863
 31
0.0
  0
LINE
  5
CB
330
1E
100
AcDbEntity
  8
0
100
AcDbLine
 10
40.2238
 20
4.66517147441624
 30
0.0
 11
40.2238
 21
3.85866
 31
0.0
  0
LINE
  5
CC
330
1E
100
AcDbEntity
  8
0
100
AcDbLine
 10
40.2238
 20
3.85866
 30
0.0
 11
42.2238
 21
3.85866
 31
0.0
  0
LINE
  5
CD
330
1E
100
AcDbEntity
  8
0
100
AcDbLine
 10
40.2238
 20
3.85866
 30
0.0
 11
40.2238
 21
4.66517147441624
 31
0.0
  0
LINE
  5
CE
330
1E
100
AcDbEntity
  8
0
100
AcDbLine
 10
40.2238
 20
3.85863
 30
0.0
 11
40.2238
 21
4.53218415661017
 31
0.0
  0
LINE
  5
CF
330
1E
100
AcDbEntity
  8
0
100
AcDbLine
 10
40.2238
 20
3.85863
 30
0.0
 11
42.2238
 21
3.85863
 31
0.0
  0
LINE
  5
D0
330
1E
100
AcDbEntity
  8
0
100
AcDbLine
 10
39.11599999999999
 20
4.85881
 30
0.0
 11
39.11599999999999
 21
5.674593428571429
 31
0.0
  0
LINE
  5
D1
330
1E
100
AcDbEntity
  8
0
100
AcDbLine
 10
38.116
 20
5.742644448979589
 30
0.0
 11
38.116
 21
4.858789999999999
 31
0.0
  0
LINE
  5
D2
330
1E
100
AcDbEntity
  8
0
100
AcDbLine
 10
36.384
 20
4.858769999999999
 30
0.0
 11
36.384
 21
5.85928663589744
 31
0.0
  0
LINE
  5
D3
330
1E
100
AcDbEntity
  8
0
100
AcDbLine
 10
36.384
 20
4.858769999999999
 30
0.0
 11
38.116
 21
4.858789999999999
 31
0.0
  0
LINE
  5
D4
330
1E
100
AcDbEntity
  8
0
100
AcDbLine
 10
42.0
 20
3.358209999999999
 30
0.0
 11
42.0
 21
3.85863
 31
0.0
  0
LINE
  5
D5
330
1E
100
AcDbEntity
  8
0
100
AcDbLine
 10
42.0
 20
3.358209999999999
 30
0.0
 11
44.0
 21
3.358209999999999
 31
0.0
  0
LINE
  5
D6
330
1E
100
AcDbEntity
  8
0
100
AcDbLine
 10
42.2238
 20
4.563665890659899
 30
0.0
 11
42.2238
 21
3.85866
 31
0.0
  0
LINE
  5
D7
330
1E
100
AcDbEntity
  8
0
100
AcDbLine
 10
42.2238
 20
3.85866
 30
0.0
 11
42.2238
 21
4.563665890659899
 31
0.0
  0
LINE
  5
D8
330
1E
100
AcDbEntity
  8
0
100
AcDbLine
 10
42.0
 20
3.85863
 30
0.0
 11
42.0
 21
3.35819
 31
0.0
  0
LINE
  5
D9
330
1E
100
AcDbEntity
  8
0
100
AcDbLine
 10
42.0
 20
3.85863
 30
0.0
 11
42.0
 21
3.358209999999999
 31
0.0
  0
LINE
  5
DA
330
1E
100
AcDbEntity
  8
0
100
AcDbLine
 10
42.0
 20
3.35819
 30
0.0
 11
44.0
 21
3.35819
 31
0.0
  0
LINE
  5
DB
330
1E
100
AcDbEntity
  8
0
100
AcDbLine
 10
42.0
 20
3.35819
 30
0.0
 11
42.0
 21
3.85863
 31
0.0
  0
LINE
  5
DC
330
1E
100
AcDbEntity
  8
0
100
AcDbLine
 10
35.5579
 20
4.410547026321429
 30
0.0
 11
40.2238
 21
4.243912739785709
 31
0.0
  0
LINE
  5
DD
330
1E
100
AcDbEntity
  8
0
100
AcDbLine
 10
36.384
 20
5.85928663589744
 30
0.0
 11
36.384
 21
4.858769999999999
 31
0.0
  0
LINE
  5
DE
330
1E
100
AcDbEntity
  8
0
100
AcDbLine
 10
39.9067567567115
 20
5.85934986486487
 30
0.0
 11
43.89999999999999
 21
5.859269999999999
 31
0.0
  0
LINE
  5
DF
330
1E
100
AcDbEntity
  8
0
100
AcDbLine
 10
39.9067567567386
 20
5.85934986486487
 30
0.0
 11
43.89999999999999
 21
5.859269999999999
 31
0.0
  0
LINE
  5
E0
330
1E
100
AcDbEntity
  8
0
100
AcDbLine
 10
34.9
 20
5.859259999999999
 30
0.0
 11
42.7
 21
5.859399999999999
 31
0.0
  0
LINE
  5
E1
330
1E
100
AcDbEntity
  8
0
100
AcDbLine
 10
34.39999999999999
 20
6.859139999999999
 30
0.0
 11
42.29999999999999
 21
6.859389999999999
 31
0.0
  0
LINE
  5
E2
330
1E
100
AcDbEntity
  8
0
100
AcDbLine
 10
42.29999999999999
 20
6.859389999999999
 30
0.0
 11
50.8
 21
6.859329999999999
 31
0.0
  0
LINE
  5
E3
330
1E
100
AcDbEntity
  8
0
100
AcDbLine
 10
26.89999999999999
 20
27.8586
 30
0.0
 11
34.39999999999999
 21
27.8587
 31
0.0
  0
LINE
  5
E4
330
1E
100
AcDbEntity
  8
0
100
AcDbLine
 10
9.199999999999999
 20
27.8588
 30
0.0
 11
14.19999999999999
 21
27.8589
 31
0.0
  0
LINE
  5
E5
330
1E
100
AcDbEntity
  8
0
100
AcDbLine
 10
14.19999999999999
 20
27.8589
 30
0.0
 11
20.1
 21
27.8588
 31
0.0
  0
LINE
  5
E6
330
1E
100
AcDbEntity
  8
0
100
AcDbLine
 10
2.5
 20
27.8589
 30
0.0
 11
5.299999999999999
 21
27.859
 31
0.0
  0
LINE
  5
E7
330
1E
100
AcDbEntity
  8
0
100
AcDbLine
 10
20.1
 20
27.8588
 30
0.0
 11
26.89999999999999
 21
27.8586
 31
0.0
  0
LINE
  5
E8
330
1E
100
AcDbEntity
  8
0
100
AcDbLine
 10
34.39999999999999
 20
27.8587
 30
0.0
 11
42.29999999999999
 21
27.8589
 31
0.0
  0
LINE
  5
E9
330
1E
100
AcDbEntity
  8
0
100
AcDbLine
 10
42.38399999999999
 20
5.06631584969697
 30
0.0
 11
42.38399999999999
 21
4.358919999999999
 31
0.0
  0
LINE
  5
EA
330
1E
100
AcDbEntity
  8
0
100
AcDbLine
 10
42.38399999999999
 20
4.358919999999999
 30
0.0
 11
42.38399999999999
 21
5.06631584969697
 31
0.0
  0
LINE
  5
EB
330
1E
100
AcDbEntity
  8
0
100
AcDbLine
 10
42.38399999999999
 20
4.358919999999999
 30
0.0
 11
44.116
 21
4.358929999999999
 31
0.0
  0
LINE
  5
EC
330
1E
100
AcDbEntity
  8
0
100
AcDbLine
 10
43.89999999999999
 20
5.859269999999999
 30
0.0
 11
46.04925373136989
 21
5.85930104477612
 31
0.0
  0
LINE
  5
ED
330
1E
100
AcDbEntity
  8
0
100
AcDbLine
 10
46.33399999999999
 20
3.358849999999999
 30
0.0
 11
46.33399999999999
 21
4.02569785785714
 31
0.0
  0
LINE
  5
EE
330
1E
100
AcDbEntity
  8
0
100
AcDbLine
 10
46.33399999999999
 20
3.358849999999999
 30
0.0
 11
48.334
 21
3.358849999999999
 31
0.0
  0
LINE
  5
EF
330
1E
100
AcDbEntity
  8
0
100
AcDbLine
 10
46.33399999999999
 20
3.35883
 30
0.0
 11
48.334
 21
3.35883
 31
0.0
  0
LINE
  5
F0
330
1E
100
AcDbEntity
  8
0
100
AcDbLine
 10
46.33399999999999
 20
3.35883
 30
0.0
 11
46.33399999999999
 21
4.02569785785714
 31
0.0
  0
LINE
  5
F1
330
1E
100
AcDbEntity
  8
0
100
AcDbLine
 10
46.33399999999999
 20
4.02569785785714
 30
0.0
 11
46.33399999999999
 21
3.35883
 31
0.0
  0
LINE
  5
F2
330
1E
100
AcDbEntity
  8
0
100
AcDbLine
 10
46.33399999999999
 20
4.02569785785714
 30
0.0
 11
46.33399999999999
 21
3.358849999999999
 31
0.0
  0
LINE
  5
F3
330
1E
100
AcDbEntity
  8
0
100
AcDbLine
 10
48.334
 20
4.10519828941176
 30
0.0
 11
48.334
 21
3.35894
 31
0.0
  0
LINE
  5
F4
330
1E
100
AcDbEntity
  8
0
100
AcDbLine
 10
48.334
 20
3.35894
 30
0.0
 11
48.334
 21
4.10519828941176
 31
0.0
  0
LINE
  5
F5
330
1E
100
AcDbEntity
  8
0
100
AcDbLine
 10
46.33399999999999
 20
3.35894
 30
0.0
 11
48.334
 21
3.35894
 31
0.0
  0
LINE
  5
F6
330
1E
100
AcDbEntity
  8
0
100
AcDbLine
 10
46.33399999999999
 20
3.35894
 30
0.0
 11
46.33399999999999
 21
4.18362417176471
 31
0.0
  0
LINE
  5
F7
330
1E
100
AcDbEntity
  8
0
100
AcDbLine
 10
46.33399999999999
 20
3.358919999999999
 30
0.0
 11
46.33399999999999
 21
4.147164417355369
 31
0.0
  0
LINE
  5
F8
330
1E
100
AcDbEntity
  8
0
100
AcDbLine
 10
46.33399999999999
 20
3.358919999999999
 30
0.0
 11
48.334
 21
3.358919999999999
 31
0.0
  0
LINE
  5
F9
330
1E
100
AcDbEntity
  8
0
100
AcDbLine
 10
44.0
 20
3.358209999999999
 30
0.0
 11
44.0
 21
4.119371010830319
 31
0.0
  0
LINE
  5
FA
330
1E
100
AcDbEntity
  8
0
100
AcDbLine
 10
44.0
 20
4.109052499999999
 30
0.0
 11
46.33399999999999
 21
4.02569785785714
 31
0.0
  0
LINE
  5
FB
330
1E
100
AcDbEntity
  8
0
100
AcDbLine
 10
48.384
 20
3.85819
 30
0.0
 11
48.384
 21
4.67468887428571
 31
0.0
  0
LINE
  5
FC
330
1E
100
AcDbEntity
  8
0
100
AcDbLine
 10
48.384
 20
3.85819
 30
0.0
 11
50.11600000000001
 21
3.858209999999999
 31
0.0
  0
LINE
  5
FD
330
1E
100
AcDbEntity
  8
0
100
AcDbLine
 10
50.11600000000001
 20
3.858209999999999
 30
0.0
 11
51.11600000000001
 21
3.85823
 31
0.0
  0
LINE
  5
FE
330
1E
100
AcDbEntity
  8
0
100
AcDbLine
 10
50.11600000000001
 20
3.858209999999999
 30
0.0
 11
50.11600000000001
 21
4.589441445
 31
0.0
  0
LINE
  5
FF
330
1E
100
AcDbEntity
  8
0
100
AcDbLine
 10
51.11600000000001
 20
3.85823
 30
0.0
 11
51.11600000000001
 21
4.526930195
 31
0.0
  0
LINE
  5
100
330
1E
100
AcDbEntity
  8
0
100
AcDbLine
 10
48.384
 20
3.859049999999999
 30
0.0
 11
48.384
 21
3.95248576857143
 31
0.0
  0
LINE
  5
101
330
1E
100
AcDbEntity
  8
0
100
AcDbLine
 10
48.384
 20
3.95248576857143
 30
0.0
 11
48.384
 21
3.859049999999999
 31
0.0
  0
LINE
  5
102
330
1E
100
AcDbEntity
  8
0
100
AcDbLine
 10
51.2
 20
3.85949
 30
0.0
 11
51.6
 21
3.859109999999999
 31
0.0
  0
LINE
  5
103
330
1E
100
AcDbEntity
  8
0
100
AcDbLine
 10
48.334
 20
3.954271429285709
 30
0.0
 11
48.384
 21
3.95248576857143
 31
0.0
  0
LINE
  5
104
330
1E
100
AcDbEntity
  8
0
100
AcDbLine
 10
48.334
 20
3.954271429285709
 30
0.0
 11
48.384
 21
3.95248576857143
 31
0.0
  0
LINE
  5
105
330
1E
100
AcDbEntity
  8
0
100
AcDbLine
 10
46.33399999999999
 20
4.147164417355369
 30
0.0
 11
46.33399999999999
 21
3.358919999999999
 31
0.0
  0
LINE
  5
106
330
1E
100
AcDbEntity
  8
0
100
AcDbLine
 10
46.33399999999999
 20
4.18362417176471
 30
0.0
 11
46.33399999999999
 21
3.35894
 31
0.0
  0
LINE
  5
107
330
1E
100
AcDbEntity
  8
0
100
AcDbLine
 10
44.116
 20
4.358929999999999
 30
0.0
 11
45.116
 21
4.35895
 31
0.0
  0
LINE
  5
108
330
1E
100
AcDbEntity
  8
0
100
AcDbLine
 10
44.116
 20
4.358929999999999
 30
0.0
 11
44.116
 21
5.038421182978719
 31
0.0
  0
LINE
  5
109
330
1E
100
AcDbEntity
  8
0
100
AcDbLine
 10
45.116
 20
4.35895
 30
0.0
 11
45.116
 21
4.93201905531915
 31
0.0
  0
LINE
  5
10A
330
1E
100
AcDbEntity
  8
0
100
AcDbLine
 10
51.11600000000001
 20
4.526930195
 30
0.0
 11
51.11600000000001
 21
3.85823
 31
0.0
  0
LINE
  5
10B
330
1E
100
AcDbEntity
  8
0
100
AcDbLine
 10
45.116
 20
4.93201905531915
 30
0.0
 11
45.116
 21
4.35895
 31
0.0
  0
LINE
  5
10C
330
1E
100
AcDbEntity
  8
0
100
AcDbLine
 10
44.116
 20
5.038421182978719
 30
0.0
 11
44.116
 21
4.358929999999999
 31
0.0
  0
LINE
  5
10D
330
1E
100
AcDbEntity
  8
0
100
AcDbLine
 10
50.7154
 20
4.85869
 30
0.0
 11
51.7154
 21
4.858709999999999
 31
0.0
  0
LINE
  5
10E
330
1E
100
AcDbEntity
  8
0
100
AcDbLine
 10
50.7154
 20
4.85869
 30
0.0
 11
50.7154
 21
5.85916318136364
 31
0.0
  0
LINE
  5
10F
330
1E
100
AcDbEntity
  8
0
100
AcDbLine
 10
48.9833
 20
5.859214357045459
 30
0.0
 11
48.9833
 21
4.85867
 31
0.0
  0
LINE
  5
110
330
1E
100
AcDbEntity
  8
0
100
AcDbLine
 10
50.7154
 20
5.85916318136364
 30
0.0
 11
50.7154
 21
4.85869
 31
0.0
  0
LINE
  5
111
330
1E
100
AcDbEntity
  8
0
100
AcDbLine
 10
48.9833
 20
4.85867
 30
0.0
 11
48.9833
 21
5.859214357045459
 31
0.0
  0
LINE
  5
112
330
1E
100
AcDbEntity
  8
0
100
AcDbLine
 10
48.9833
 20
4.85867
 30
0.0
 11
50.7154
 21
4.85869
 31
0.0
  0
LINE
  5
113
330
1E
100
AcDbEntity
  8
0
100
AcDbLine
 10
48.384
 20
4.67468887428571
 30
0.0
 11
48.384
 21
3.85819
 31
0.0
  0
LINE
  5
114
330
1E
100
AcDbEntity
  8
0
100
AcDbLine
 10
50.11600000000001
 20
4.589441445
 30
0.0
 11
50.11600000000001
 21
3.858209999999999
 31
0.0
  0
LINE
  5
115
330
1E
100
AcDbEntity
  8
0
100
AcDbLine
 10
44.0
 20
4.119371010830319
 30
0.0
 11
44.0
 21
3.358209999999999
 31
0.0
  0
LINE
  5
116
330
1E
100
AcDbEntity
  8
0
100
AcDbLine
 10
44.0
 20
4.109052499999999
 30
0.0
 11
46.33399999999999
 21
4.02569785785714
 31
0.0
  0
LINE
  5
117
330
1E
100
AcDbEntity
  8
0
100
AcDbLine
 10
43.89999999999999
 20
5.859269999999999
 30
0.0
 11
46.0492537313522
 21
5.85930104477612
 31
0.0
  0
LINE
  5
118
330
1E
100
AcDbEntity
  8
0
100
AcDbLine
 10
42.7
 20
5.859399999999999
 30
0.0
 11
51.5
 21
5.85914
 31
0.0
  0
LINE
  5
119
330
1E
100
AcDbEntity
  8
0
100
AcDbLine
 10
57.1644
 20
2.841099999999999
 30
0.0
 11
57.2431
 21
2.841099999999999
 31
0.0
  0
LINE
  5
11A
330
1E
100
AcDbEntity
  8
0
100
AcDbLine
 10
57.1644
 20
2.841099999999999
 30
0.0
 11
57.276
 21
2.841099999999999
 31
0.0
  0
LINE
  5
11B
330
1E
100
AcDbEntity
  8
0
100
AcDbLine
 10
57.8993
 20
2.841099999999999
 30
0.0
 11
58.44409999999999
 21
2.841099999999999
 31
0.0
  0
LINE
  5
11C
330
1E
100
AcDbEntity
  8
0
100
AcDbLine
 10
57.5074
 20
2.841099999999999
 30
0.0
 11
57.8993
 21
2.841099999999999
 31
0.0
  0
LINE
  5
11D
330
1E
100
AcDbEntity
  8
0
100
AcDbLine
 10
57.276
 20
2.841099999999999
 30
0.0
 11
57.5074
 21
2.841099999999999
 31
0.0
  0
LINE
  5
11E
330
1E
100
AcDbEntity
  8
0
100
AcDbLine
 10
57.2431
 20
2.841099999999999
 30
0.0
 11
57.5065
 21
2.841099999999999
 31
0.0
  0
LINE
  5
11F
330
1E
100
AcDbEntity
  8
0
100
AcDbLine
 10
56.9196814205664
 20
3.35836607362841
 30
0.0
 11
57.1644
 21
2.841099999999999
 31
0.0
  0
LINE
  5
120
330
1E
100
AcDbEntity
  8
0
100
AcDbLine
 10
57.5065
 20
2.841099999999999
 30
0.0
 11
57.9231
 21
2.841099999999999
 31
0.0
  0
LINE
  5
121
330
1E
100
AcDbEntity
  8
0
100
AcDbLine
 10
56.11600000000001
 20
3.35835
 30
0.0
 11
57.116
 21
3.358369999999999
 31
0.0
  0
LINE
  5
122
330
1E
100
AcDbEntity
  8
0
100
AcDbLine
 10
56.11600000000001
 20
3.35835
 30
0.0
 11
56.11600000000001
 21
4.214373945
 31
0.0
  0
LINE
  5
123
330
1E
100
AcDbEntity
  8
0
100
AcDbLine
 10
57.116
 20
3.358369999999999
 30
0.0
 11
57.116
 21
4.151862695
 31
0.0
  0
LINE
  5
124
330
1E
100
AcDbEntity
  8
0
100
AcDbLine
 10
54.38399999999999
 20
3.35834
 30
0.0
 11
54.38399999999999
 21
4.14444253894737
 31
0.0
  0
LINE
  5
125
330
1E
100
AcDbEntity
  8
0
100
AcDbLine
 10
54.38399999999999
 20
3.35834
 30
0.0
 11
56.11600000000001
 21
3.35835
 31
0.0
  0
LINE
  5
126
330
1E
100
AcDbEntity
  8
0
100
AcDbLine
 10
54.38399999999999
 20
3.859158215384609
 30
0.0
 11
54.38399999999999
 21
3.35893
 31
0.0
  0
LINE
  5
127
330
1E
100
AcDbEntity
  8
0
100
AcDbLine
 10
54.38399999999999
 20
3.35893
 30
0.0
 11
54.38399999999999
 21
3.859158215384609
 31
0.0
  0
LINE
  5
128
330
1E
100
AcDbEntity
  8
0
100
AcDbLine
 10
53.5311111111083
 20
3.859309111111109
 30
0.0
 11
54.38399999999999
 21
3.859158215384609
 31
0.0
  0
LINE
  5
129
330
1E
100
AcDbEntity
  8
0
100
AcDbLine
 10
51.7154
 20
5.85914311421687
 30
0.0
 11
51.7154
 21
4.858709999999999
 31
0.0
  0
LINE
  5
12A
330
1E
100
AcDbEntity
  8
0
100
AcDbLine
 10
51.7154
 20
4.858709999999999
 30
0.0
 11
51.7154
 21
5.85914311421687
 31
0.0
  0
LINE
  5
12B
330
1E
100
AcDbEntity
  8
0
100
AcDbLine
 10
54.9018
 20
5.006434343875969
 30
0.0
 11
54.9018
 21
4.35868
 31
0.0
  0
LINE
  5
12C
330
1E
100
AcDbEntity
  8
0
100
AcDbLine
 10
54.9018
 20
4.35868
 30
0.0
 11
54.9018
 21
5.006434343875969
 31
0.0
  0
LINE
  5
12D
330
1E
100
AcDbEntity
  8
0
100
AcDbLine
 10
54.9018
 20
4.35868
 30
0.0
 11
56.63389999999999
 21
4.35869
 31
0.0
  0
LINE
  5
12E
330
1E
100
AcDbEntity
  8
0
100
AcDbLine
 10
54.38399999999999
 20
4.14444253894737
 30
0.0
 11
54.38399999999999
 21
3.35834
 31
0.0
  0
LINE
  5
12F
330
1E
100
AcDbEntity
  8
0
100
AcDbLine
 10
56.63389999999999
 20
4.35869
 30
0.0
 11
57.6339
 21
4.358719999999999
 31
0.0
  0
LINE
  5
130
330
1E
100
AcDbEntity
  8
0
100
AcDbLine
 10
56.63389999999999
 20
4.35869
 30
0.0
 11
56.63389999999999
 21
4.901884428461539
 31
0.0
  0
LINE
  5
131
330
1E
100
AcDbEntity
  8
0
100
AcDbLine
 10
57.6339
 20
4.85926412034483
 30
0.0
 11
57.6339
 21
4.358719999999999
 31
0.0
  0
LINE
  5
132
330
1E
100
AcDbEntity
  8
0
100
AcDbLine
 10
57.6339
 20
4.358719999999999
 30
0.0
 11
57.6339
 21
4.85926412034483
 31
0.0
  0
LINE
  5
133
330
1E
100
AcDbEntity
  8
0
100
AcDbLine
 10
56.63389999999999
 20
4.901884428461539
 30
0.0
 11
56.63389999999999
 21
4.35869
 31
0.0
  0
LINE
  5
134
330
1E
100
AcDbEntity
  8
0
100
AcDbLine
 10
57.116
 20
4.151862695
 30
0.0
 11
57.116
 21
3.358369999999999
 31
0.0
  0
LINE
  5
135
330
1E
100
AcDbEntity
  8
0
100
AcDbLine
 10
56.11600000000001
 20
4.214373945
 30
0.0
 11
56.11600000000001
 21
3.35835
 31
0.0
  0
LINE
  5
136
330
1E
100
AcDbEntity
  8
0
100
AcDbLine
 10
58.44409999999999
 20
2.841099999999999
 30
0.0
 11
59.0769
 21
2.841099999999999
 31
0.0
  0
LINE
  5
137
330
1E
100
AcDbEntity
  8
0
100
AcDbLine
 10
59.0769
 20
2.841099999999999
 30
0.0
 11
59.72409999999999
 21
2.841099999999999
 31
0.0
  0
LINE
  5
138
330
1E
100
AcDbEntity
  8
0
100
AcDbLine
 10
59.068
 20
2.841099999999999
 30
0.0
 11
59.7233
 21
2.841099999999999
 31
0.0
  0
LINE
  5
139
330
1E
100
AcDbEntity
  8
0
100
AcDbLine
 10
58.4444
 20
2.841099999999999
 30
0.0
 11
59.068
 21
2.841099999999999
 31
0.0
  0
LINE
  5
13A
330
1E
100
AcDbEntity
  8
0
100
AcDbLine
 10
57.9231
 20
2.841099999999999
 30
0.0
 11
58.4444
 21
2.841099999999999
 31
0.0
  0
LINE
  5
13B
330
1E
100
AcDbEntity
  8
0
100
AcDbLine
 10
57.9
 20
3.85943
 30
0.0
 11
59.8
 21
3.85935
 31
0.0
  0
LINE
  5
13C
330
1E
100
AcDbEntity
  8
0
100
AcDbLine
 10
56.4269595606539
 20
5.85921123315028
 30
0.0
 11
60.0
 21
5.85902
 31
0.0
  0
LINE
  5
13D
330
1E
100
AcDbEntity
  8
0
100
AcDbLine
 10
51.5
 20
5.85914
 30
0.0
 11
59.8
 21
5.859259999999999
 31
0.0
  0
LINE
  5
13E
330
1E
100
AcDbEntity
  8
0
100
AcDbLine
 10
50.8
 20
6.859329999999999
 30
0.0
 11
59.7
 21
6.85925
 31
0.0
  0
LINE
  5
13F
330
1E
100
AcDbEntity
  8
0
100
AcDbLine
 10
59.7
 20
6.85925
 30
0.0
 11
68.5
 21
6.85936
 31
0.0
  0
LINE
  5
140
330
1E
100
AcDbEntity
  8
0
100
AcDbLine
 10
42.29999999999999
 20
27.8589
 30
0.0
 11
50.8
 21
27.8589
 31
0.0
  0
LINE
  5
141
330
1E
100
AcDbEntity
  8
0
100
AcDbLine
 10
5.299999999999999
 20
27.859
 30
0.0
 11
9.199999999999999
 21
27.8588
 31
0.0
  0
LINE
  5
142
330
1E
100
AcDbEntity
  8
0
100
AcDbLine
 10
15.0
 20
28.85849999999999
 30
0.0
 11
20.8
 21
28.8587
 31
0.0
  0
LINE
  5
143
330
1E
100
AcDbEntity
  8
0
100
AcDbLine
 10
1.0
 20
28.85849999999999
 30
0.0
 11
1.7
 21
28.8587
 31
0.0
  0
LINE
  5
144
330
1E
100
AcDbEntity
  8
0
100
AcDbLine
 10
1.0
 20
28.85849999999999
 30
0.0
 11
28.5
 21
29.6733148148148
 31
0.0
  0
LINE
  5
145
330
1E
100
AcDbEntity
  8
0
100
AcDbLine
 10
0.9999999999999989
 20
28.85849999999999
 30
0.0
 11
28.5
 21
29.6733148148148
 31
0.0
  0
LINE
  5
146
330
1E
100
AcDbEntity
  8
0
100
AcDbLine
 10
50.8
 20
27.8589
 30
0.0
 11
59.7
 21
27.8588
 31
0.0
  0
LINE
  5
147
330
1E
100
AcDbEntity
  8
0
100
AcDbLine
 10
59.72409999999999
 20
2.841099999999999
 30
0.0
 11
60.3795
 21
2.841099999999999
 31
0.0
  0
LINE
  5
148
330
1E
100
AcDbEntity
  8
0
100
AcDbLine
 10
59.7233
 20
2.841099999999999
 30
0.0
 11
60.3712
 21
2.841099999999999
 31
0.0
  0
LINE
  5
149
330
1E
100
AcDbEntity
  8
0
100
AcDbLine
 10
59.8
 20
3.85935
 30
0.0
 11
60.4794
 21
3.859251486999999
 31
0.0
  0
LINE
  5
14A
330
1E
100
AcDbEntity
  8
0
100
AcDbLine
 10
59.8
 20
5.859259999999999
 30
0.0
 11
68.5
 21
5.859369999999999
 31
0.0
  0
LINE
  5
14B
330
1E
100
AcDbEntity
  8
0
100
AcDbLine
 10
59.7
 20
27.8588
 30
0.0
 11
68.5
 21
27.8589
 31
0.0
  0
LINE
  5
14C
330
1E
100
AcDbEntity
  8
0
100
AcDbLine
 10
10.0
 20
28.8587
 30
0.0
 11
15.0
 21
28.85849999999999
 31
0.0
  0
LINE
  5
14D
330
1E
100
AcDbEntity
  8
0
100
AcDbLine
 10
6.299999999999999
 20
28.8587
 30
0.0
 11
10.0
 21
28.8587
 31
0.0
  0
LINE
  5
14E
330
1E
100
AcDbEntity
  8
0
100
AcDbLine
 10
3.399999999999999
 20
28.8587
 30
0.0
 11
6.299999999999999
 21
28.8587
 31
0.0
  0
LINE
  5
14F
330
1E
100
AcDbEntity
  8
0
100
AcDbLine
 10
1.7
 20
28.8587
 30
0.0
 11
3.399999999999999
 21
28.8587
 31
0.0
  0
LINE
  5
150
330
1E
100
AcDbEntity
  8
0
100
AcDbLine
 10
20.8
 20
28.8587
 30
0.0
 11
27.5
 21
28.8587
 31
0.0
  0
LINE
  5
151
330
1E
100
AcDbEntity
  8
0
100
AcDbLine
 10
27.5
 20
28.8587
 30
0.0
 11
34.9
 21
28.8588
 31
0.0
  0
LINE
  5
152
330
1E
100
AcDbEntity
  8
0
100
AcDbLine
 10
28.5
 20
32.8411
 30
0.0
 11
28.9211
 21
32.8411
 31
0.0
  0
LINE
  5
153
330
1E
100
AcDbEntity
  8
0
100
AcDbLine
 10
28.5
 20
32.8411
 30
0.0
 11
28.5
 21
29.6610149700599
 31
0.0
  0
LINE
  5
154
330
1E
100
AcDbEntity
  8
0
100
AcDbLine
 10
40.2474
 20
32.8411
 30
0.0
 11
44.1632
 21
32.8411
 31
0.0
  0
LINE
  5
155
330
1E
100
AcDbEntity
  8
0
100
AcDbLine
 10
36.83679999999999
 20
32.8411
 30
0.0
 11
40.2474
 21
32.8411
 31
0.0
  0
LINE
  5
156
330
1E
100
AcDbEntity
  8
0
100
AcDbLine
 10
33.8474
 20
32.8411
 30
0.0
 11
36.83679999999999
 21
32.8411
 31
0.0
  0
LINE
  5
157
330
1E
100
AcDbEntity
  8
0
100
AcDbLine
 10
31.6158
 20
32.8411
 30
0.0
 11
33.8474
 21
32.8411
 31
0.0
  0
LINE
  5
158
330
1E
100
AcDbEntity
  8
0
100
AcDbLine
 10
29.93159999999999
 20
32.8411
 30
0.0
 11
31.6158
 21
32.8411
 31
0.0
  0
LINE
  5
159
330
1E
100
AcDbEntity
  8
0
100
AcDbLine
 10
28.9211
 20
32.8411
 30
0.0
 11
29.93159999999999
 21
32.8411
 31
0.0
  0
LINE
  5
15A
330
1E
100
AcDbEntity
  8
0
100
AcDbLine
 10
28.5
 20
29.6610149700599
 30
0.0
 11
28.5
 21
32.8411
 31
0.0
  0
LINE
  5
15B
330
1E
100
AcDbEntity
  8
0
100
AcDbLine
 10
34.9
 20
28.8588
 30
0.0
 11
42.7
 21
28.85889999999999
 31
0.0
  0
LINE
  5
15C
330
1E
100
AcDbEntity
  8
0
100
AcDbLine
 10
44.1632
 20
32.8411
 30
0.0
 11
48.5842
 21
32.8411
 31
0.0
  0
LINE
  5
15D
330
1E
100
AcDbEntity
  8
0
100
AcDbLine
 10
48.5842
 20
32.8411
 30
0.0
 11
53.2158
 21
32.8411
 31
0.0
  0
LINE
  5
15E
330
1E
100
AcDbEntity
  8
0
100
AcDbLine
 10
53.2158
 20
32.8411
 30
0.0
 11
58.18419999999999
 21
32.8411
 31
0.0
  0
LINE
  5
15F
330
1E
100
AcDbEntity
  8
0
100
AcDbLine
 10
53.5546
 20
33.3387
 30
0.0
 11
53.5546
 21
42.7
 31
0.0
  0
LINE
  5
160
330
1E
100
AcDbEntity
  8
0
100
AcDbLine
 10
53.5546
 20
33.3387
 30
0.0
 11
53.6391
 21
33.3387
 31
0.0
  0
LINE
  5
161
330
1E
100
AcDbEntity
  8
0
100
AcDbLine
 10
53.5546
 20
33.3387
 30
0.0
 11
53.8482
 21
33.0479
 31
0.0
  0
LINE
  5
163
330
1E
100
AcDbEntity
  8
0
100
AcDbLine
 10
53.8482
 20
33.0479
 30
0.0
 11
54.0612
 21
32.8411
 31
0.0
  0
LINE
  5
164
330
1E
100
AcDbEntity
  8
0
100
AcDbLine
 10
54.23519999999999
 20
33.3387
 30
0.0
 11
54.7406
 21
33.3387
 31
0.0
  0
LINE
  5
165
330
1E
100
AcDbEntity
  8
0
100
AcDbLine
 10
53.8667
 20
33.3387
 30
0.0
 11
54.23519999999999
 21
33.3387
 31
0.0
  0
LINE
  5
166
330
1E
100
AcDbEntity
  8
0
100
AcDbLine
 10
53.6391
 20
33.3387
 30
0.0
 11
53.8667
 21
33.3387
 31
0.0
  0
LINE
  5
16A
330
1E
100
AcDbEntity
  8
0
100
AcDbLine
 10
53.5395
 20
44.08619999999999
 30
0.0
 11
53.768
 21
44.08619999999999
 31
0.0
  0
LINE
  5
16B
330
1E
100
AcDbEntity
  8
0
100
AcDbLine
 10
53.4539
 20
44.08619999999999
 30
0.0
 11
53.4539
 21
51.8481
 31
0.0
  0
LINE
  5
16C
330
1E
100
AcDbEntity
  8
0
100
AcDbLine
 10
53.4539
 20
44.08619999999999
 30
0.0
 11
53.5395
 21
44.08619999999999
 31
0.0
  0
LINE
  5
16D
330
1E
100
AcDbEntity
  8
0
100
AcDbLine
 10
53.4539
 20
44.08619999999999
 30
0.0
 11
53.5395
 21
44.08619999999999
 31
0.0
  0
LINE
  5
16E
330
1E
100
AcDbEntity
  8
0
100
AcDbLine
 10
53.5395
 20
44.08619999999999
 30
0.0
 11
53.768
 21
44.08619999999999
 31
0.0
  0
LINE
  5
170
330
1E
100
AcDbEntity
  8
0
100
AcDbLine
 10
53.56
 20
42.7
 30
0.0
 11
53.7883
 21
43.1013
 31
0.0
  0
LINE
  5
173
330
1E
100
AcDbEntity
  8
0
100
AcDbLine
 10
53.7883
 20
43.1013
 30
0.0
 11
53.9606
 21
43.3896
 31
0.0
  0
LINE
  5
174
330
1E
100
AcDbEntity
  8
0
100
AcDbLine
 10
53.768
 20
44.08619999999999
 30
0.0
 11
53.9606
 21
44.08619999999999
 31
0.0
  0
LINE
  5
175
330
1E
100
AcDbEntity
  8
0
100
AcDbLine
 10
53.768
 20
44.08619999999999
 30
0.0
 11
54.13949999999999
 21
44.08619999999999
 31
0.0
  0
LINE
  5
176
330
1E
100
AcDbEntity
  8
0
100
AcDbLine
 10
54.13949999999999
 20
44.08619999999999
 30
0.0
 11
54.6479
 21
44.08619999999999
 31
0.0
  0
LINE
  5
177
330
1E
100
AcDbEntity
  8
0
100
AcDbLine
 10
54.5926
 20
44.08619999999999
 30
0.0
 11
55.0929
 21
44.08619999999999
 31
0.0
  0
LINE
  5
178
330
1E
100
AcDbEntity
  8
0
100
AcDbLine
 10
54.2331
 20
44.08619999999999
 30
0.0
 11
54.5926
 21
44.08619999999999
 31
0.0
  0
LINE
  5
179
330
1E
100
AcDbEntity
  8
0
100
AcDbLine
 10
54.0207
 20
44.08619999999999
 30
0.0
 11
54.2331
 21
44.08619999999999
 31
0.0
  0
LINE
  5
17A
330
1E
100
AcDbEntity
  8
0
100
AcDbLine
 10
53.9606
 20
44.08619999999999
 30
0.0
 11
54.0207
 21
44.08619999999999
 31
0.0
  0
LINE
  5
17B
330
1E
100
AcDbEntity
  8
0
100
AcDbLine
 10
53.9606
 20
44.08619999999999
 30
0.0
 11
53.9606
 21
43.3896
 31
0.0
  0
LINE
  5
17C
330
1E
100
AcDbEntity
  8
0
100
AcDbLine
 10
53.9606
 20
43.3896
 30
0.0
 11
53.9606
 21
44.08619999999999
 31
0.0
  0
LINE
  5
17E
330
1E
100
AcDbEntity
  8
0
100
AcDbLine
 10
55.28929999999999
 20
44.08619999999999
 30
0.0
 11
56.0574
 21
44.08619999999999
 31
0.0
  0
LINE
  5
17F
330
1E
100
AcDbEntity
  8
0
100
AcDbLine
 10
55.0929
 20
44.08619999999999
 30
0.0
 11
55.7312
 21
44.08619999999999
 31
0.0
  0
LINE
  5
180
330
1E
100
AcDbEntity
  8
0
100
AcDbLine
 10
54.6479
 20
44.08619999999999
 30
0.0
 11
55.28929999999999
 21
44.08619999999999
 31
0.0
  0
LINE
  5
181
330
1E
100
AcDbEntity
  8
0
100
AcDbLine
 10
53.5546
 20
42.7
 30
0.0
 11
53.5546
 21
33.3387
 31
0.0
  0
LINE
  5
182
330
1E
100
AcDbEntity
  8
0
100
AcDbLine
 10
53.5546
 20
42.7
 30
0.0
 11
53.7883
 21
43.1013
 31
0.0
  0
LINE
  5
183
330
1E
100
AcDbEntity
  8
0
100
AcDbLine
 10
54.7406
 20
33.3387
 30
0.0
 11
55.3779
 21
33.3387
 31
0.0
  0
LINE
  5
184
330
1E
100
AcDbEntity
  8
0
100
AcDbLine
 10
58.18419999999999
 20
32.8411
 30
0.0
 11
63.2789
 21
32.8411
 31
0.0
  0
LINE
  5
185
330
1E
100
AcDbEntity
  8
0
100
AcDbLine
 10
59.107
 20
33.3387
 30
0.0
 11
60.2889
 21
33.3387
 31
0.0
  0
LINE
  5
186
330
1E
100
AcDbEntity
  8
0
100
AcDbLine
 10
58.0146
 20
33.3387
 30
0.0
 11
59.107
 21
33.3387
 31
0.0
  0
LINE
  5
187
330
1E
100
AcDbEntity
  8
0
100
AcDbLine
 10
57.0219
 20
33.3387
 30
0.0
 11
58.0146
 21
33.3387
 31
0.0
  0
LINE
  5
188
330
1E
100
AcDbEntity
  8
0
100
AcDbLine
 10
56.94539999999999
 20
44.08619999999999
 30
0.0
 11
57.9441
 21
44.08619999999999
 31
0.0
  0
LINE
  5
189
330
1E
100
AcDbEntity
  8
0
100
AcDbLine
 10
56.0574
 20
44.08619999999999
 30
0.0
 11
56.94539999999999
 21
44.08619999999999
 31
0.0
  0
LINE
  5
18A
330
1E
100
AcDbEntity
  8
0
100
AcDbLine
 10
59.0435
 20
44.08619999999999
 30
0.0
 11
60.2335
 21
44.08619999999999
 31
0.0
  0
LINE
  5
18B
330
1E
100
AcDbEntity
  8
0
100
AcDbLine
 10
57.9441
 20
44.08619999999999
 30
0.0
 11
59.0435
 21
44.08619999999999
 31
0.0
  0
LINE
  5
18C
330
1E
100
AcDbEntity
  8
0
100
AcDbLine
 10
58.3952
 20
44.08619999999999
 30
0.0
 11
59.50359999999999
 21
44.08619999999999
 31
0.0
  0
LINE
  5
18D
330
1E
100
AcDbEntity
  8
0
100
AcDbLine
 10
57.3904
 20
44.08619999999999
 30
0.0
 11
58.3952
 21
44.08619999999999
 31
0.0
  0
LINE
  5
18E
330
1E
100
AcDbEntity
  8
0
100
AcDbLine
 10
56.4994
 20
44.08619999999999
 30
0.0
 11
57.3904
 21
44.08619999999999
 31
0.0
  0
LINE
  5
18F
330
1E
100
AcDbEntity
  8
0
100
AcDbLine
 10
55.7312
 20
44.08619999999999
 30
0.0
 11
56.4994
 21
44.08619999999999
 31
0.0
  0
LINE
  5
190
330
1E
100
AcDbEntity
  8
0
100
AcDbLine
 10
56.141
 20
33.3387
 30
0.0
 11
57.0219
 21
33.3387
 31
0.0
  0
LINE
  5
191
330
1E
100
AcDbEntity
  8
0
100
AcDbLine
 10
55.3779
 20
33.3387
 30
0.0
 11
56.141
 21
33.3387
 31
0.0
  0
LINE
  5
192
330
1E
100
AcDbEntity
  8
0
100
AcDbLine
 10
53.4593
 20
51.8481
 30
0.0
 11
53.7477
 21
51.9261
 31
0.0
  0
LINE
  5
194
330
1E
100
AcDbEntity
  8
0
100
AcDbLine
 10
53.769
 20
51.8481
 30
0.0
 11
54.13949999999999
 21
51.8481
 31
0.0
  0
LINE
  5
195
330
1E
100
AcDbEntity
  8
0
100
AcDbLine
 10
53.5395
 20
51.8481
 30
0.0
 11
53.769
 21
51.8481
 31
0.0
  0
LINE
  5
196
330
1E
100
AcDbEntity
  8
0
100
AcDbLine
 10
53.7477
 20
51.9261
 30
0.0
 11
54.0217
 21
51.9821
 31
0.0
  0
LINE
  5
197
330
1E
100
AcDbEntity
  8
0
100
AcDbLine
 10
53.7477
 20
51.9261
 30
0.0
 11
53.9616
 21
51.9821
 31
0.0
  0
LINE
  5
198
330
1E
100
AcDbEntity
  8
0
100
AcDbLine
 10
53.4539
 20
51.8481
 30
0.0
 11
53.4539
 21
44.08619999999999
 31
0.0
  0
LINE
  5
199
330
1E
100
AcDbEntity
  8
0
100
AcDbLine
 10
53.4539
 20
51.8481
 30
0.0
 11
53.5395
 21
51.8481
 31
0.0
  0
LINE
  5
19A
330
1E
100
AcDbEntity
  8
0
100
AcDbLine
 10
53.4539
 20
51.8481
 30
0.0
 11
53.7477
 21
51.9261
 31
0.0
  0
LINE
  5
19B
330
1E
100
AcDbEntity
  8
0
100
AcDbLine
 10
54.13949999999999
 20
51.8481
 30
0.0
 11
54.6479
 21
51.8481
 31
0.0
  0
LINE
  5
19C
330
1E
100
AcDbEntity
  8
0
100
AcDbLine
 10
54.0217
 20
51.9821
 30
0.0
 11
54.2342
 21
51.9821
 31
0.0
  0
LINE
  5
19D
330
1E
100
AcDbEntity
  8
0
100
AcDbLine
 10
53.9616
 20
51.9821
 30
0.0
 11
54.0217
 21
51.9821
 31
0.0
  0
LINE
  5
19E
330
1E
100
AcDbEntity
  8
0
100
AcDbLine
 10
53.9606
 20
52.7441
 30
0.0
 11
54.4638
 21
53.24110000000001
 31
0.0
  0
LINE
  5
19F
330
1E
100
AcDbEntity
  8
0
100
AcDbLine
 10
53.9606
 20
52.7441
 30
0.0
 11
54.0207
 21
52.7441
 31
0.0
  0
LINE
  5
1A0
330
1E
100
AcDbEntity
  8
0
100
AcDbLine
 10
53.9606
 20
52.7441
 30
0.0
 11
53.9616
 21
51.9821
 31
0.0
  0
LINE
  5
1A1
330
1E
100
AcDbEntity
  8
0
100
AcDbLine
 10
54.0207
 20
52.7441
 30
0.0
 11
54.2331
 21
52.7441
 31
0.0
  0
LINE
  5
1A2
330
1E
100
AcDbEntity
  8
0
100
AcDbLine
 10
54.6479
 20
51.8481
 30
0.0
 11
55.28929999999999
 21
51.8481
 31
0.0
  0
LINE
  5
1A3
330
1E
100
AcDbEntity
  8
0
100
AcDbLine
 10
55.0929
 20
51.9821
 30
0.0
 11
55.7312
 21
51.9821
 31
0.0
  0
LINE
  5
1A4
330
1E
100
AcDbEntity
  8
0
100
AcDbLine
 10
54.5926
 20
51.9821
 30
0.0
 11
55.0929
 21
51.9821
 31
0.0
  0
LINE
  5
1A5
330
1E
100
AcDbEntity
  8
0
100
AcDbLine
 10
54.2342
 20
51.9821
 30
0.0
 11
54.5926
 21
51.9821
 31
0.0
  0
LINE
  5
1A6
330
1E
100
AcDbEntity
  8
0
100
AcDbLine
 10
54.2331
 20
52.7441
 30
0.0
 11
54.5926
 21
52.7441
 31
0.0
  0
LINE
  5
1A7
330
1E
100
AcDbEntity
  8
0
100
AcDbLine
 10
54.5926
 20
52.7441
 30
0.0
 11
55.0929
 21
52.7441
 31
0.0
  0
LINE
  5
1A8
330
1E
100
AcDbEntity
  8
0
100
AcDbLine
 10
56.0574
 20
51.8481
 30
0.0
 11
56.94539999999999
 21
51.8481
 31
0.0
  0
LINE
  5
1A9
330
1E
100
AcDbEntity
  8
0
100
AcDbLine
 10
55.28929999999999
 20
51.8481
 30
0.0
 11
56.0574
 21
51.8481
 31
0.0
  0
LINE
  5
1AA
330
1E
100
AcDbEntity
  8
0
100
AcDbLine
 10
56.4994
 20
51.9821
 30
0.0
 11
57.3904
 21
51.9821
 31
0.0
  0
LINE
  5
1AB
330
1E
100
AcDbEntity
  8
0
100
AcDbLine
 10
55.7312
 20
51.9821
 30
0.0
 11
56.4994
 21
51.9821
 31
0.0
  0
LINE
  5
1AC
330
1E
100
AcDbEntity
  8
0
100
AcDbLine
 10
55.0929
 20
52.7441
 30
0.0
 11
55.7312
 21
52.7441
 31
0.0
  0
LINE
  5
1AD
330
1E
100
AcDbEntity
  8
0
100
AcDbLine
 10
55.7312
 20
52.7441
 30
0.0
 11
56.4994
 21
52.7441
 31
0.0
  0
LINE
  5
1AE
330
1E
100
AcDbEntity
  8
0
100
AcDbLine
 10
57.9441
 20
51.8481
 30
0.0
 11
59.0435
 21
51.8481
 31
0.0
  0
LINE
  5
1AF
330
1E
100
AcDbEntity
  8
0
100
AcDbLine
 10
56.94539999999999
 20
51.8481
 30
0.0
 11
57.9441
 21
51.8481
 31
0.0
  0
LINE
  5
1B0
330
1E
100
AcDbEntity
  8
0
100
AcDbLine
 10
58.3952
 20
51.9821
 30
0.0
 11
59.50359999999999
 21
51.9821
 31
0.0
  0
LINE
  5
1B1
330
1E
100
AcDbEntity
  8
0
100
AcDbLine
 10
57.3904
 20
51.9821
 30
0.0
 11
58.3952
 21
51.9821
 31
0.0
  0
LINE
  5
1B2
330
1E
100
AcDbEntity
  8
0
100
AcDbLine
 10
56.4994
 20
52.7441
 30
0.0
 11
57.3904
 21
52.7441
 31
0.0
  0
LINE
  5
1B3
330
1E
100
AcDbEntity
  8
0
100
AcDbLine
 10
54.4638
 20
53.24110000000001
 30
0.0
 11
54.5221
 21
53.24110000000001
 31
0.0
  0
LINE
  5
1B4
330
1E
100
AcDbEntity
  8
0
100
AcDbLine
 10
54.5221
 20
53.24110000000001
 30
0.0
 11
54.7275
 21
53.24110000000001
 31
0.0
  0
LINE
  5
1B5
330
1E
100
AcDbEntity
  8
0
100
AcDbLine
 10
54.7275
 20
53.24110000000001
 30
0.0
 11
55.0738
 21
53.24110000000001
 31
0.0
  0
LINE
  5
1B6
330
1E
100
AcDbEntity
  8
0
100
AcDbLine
 10
55.0738
 20
53.24110000000001
 30
0.0
 11
55.5571
 21
53.24110000000001
 31
0.0
  0
LINE
  5
1B7
330
1E
100
AcDbEntity
  8
0
100
AcDbLine
 10
55.5571
 20
53.24110000000001
 30
0.0
 11
56.1732
 21
53.24110000000001
 31
0.0
  0
LINE
  5
1B8
330
1E
100
AcDbEntity
  8
0
100
AcDbLine
 10
56.1732
 20
53.24110000000001
 30
0.0
 11
56.9142
 21
53.24110000000001
 31
0.0
  0
LINE
  5
1B9
330
1E
100
AcDbEntity
  8
0
100
AcDbLine
 10
56.9142
 20
53.24110000000001
 30
0.0
 11
57.77499999999999
 21
53.24110000000001
 31
0.0
  0
LINE
  5
1BA
330
1E
100
AcDbEntity
  8
0
100
AcDbLine
 10
57.77499999999999
 20
53.24110000000001
 30
0.0
 11
58.7445
 21
53.24110000000001
 31
0.0
  0
LINE
  5
1BB
330
1E
100
AcDbEntity
  8
0
100
AcDbLine
 10
57.3904
 20
52.7441
 30
0.0
 11
58.3952
 21
52.7441
 31
0.0
  0
LINE
  5
1BC
330
1E
100
AcDbEntity
  8
0
100
AcDbLine
 10
58.3952
 20
52.7441
 30
0.0
 11
59.50359999999999
 21
52.7441
 31
0.0
  0
LINE
  5
1BD
330
1E
100
AcDbEntity
  8
0
100
AcDbLine
 10
57.590029037037
 20
53.24110000000001
 30
0.0
 11
58.4694
 21
54.5391
 31
0.0
  0
LINE
  5
1BE
330
1E
100
AcDbEntity
  8
0
100
AcDbLine
 10
59.0435
 20
51.8481
 30
0.0
 11
60.2335
 21
51.8481
 31
0.0
  0
LINE
  5
1BF
330
1E
100
AcDbEntity
  8
0
100
AcDbLine
 10
58.7964
 20
62.8831
 30
0.0
 11
59.53289999999999
 21
62.6881
 31
0.0
  0
LINE
  5
1C0
330
1E
100
AcDbEntity
  8
0
100
AcDbLine
 10
58.7445
 20
53.24110000000001
 30
0.0
 11
59.8137
 21
53.24110000000001
 31
0.0
  0
LINE
  5
1C1
330
1E
100
AcDbEntity
  8
0
100
AcDbLine
 10
58.4694
 20
54.5391
 30
0.0
 11
59.5542
 21
55.76109999999999
 31
0.0
  0
LINE
  5
1C2
330
1E
100
AcDbEntity
  8
0
100
AcDbLine
 10
57.8437
 20
63.1361
 30
0.0
 11
58.7964
 21
62.8831
 31
0.0
  0
LINE
  5
1C5
330
1E
100
AcDbEntity
  8
0
100
AcDbLine
 10
56.8829
 20
63.3901
 30
0.0
 11
57.8437
 21
63.1361
 31
0.0
  0
LINE
  5
1C6
330
1E
100
AcDbEntity
  8
0
100
AcDbLine
 10
56.87689999999999
 20
73.84109999999999
 30
0.0
 11
57.0018
 21
73.84109999999999
 31
0.0
  0
LINE
  5
1C7
330
1E
100
AcDbEntity
  8
0
100
AcDbLine
 10
56.87689999999999
 20
73.84109999999999
 30
0.0
 11
56.87689999999999
 21
63.3921
 31
0.0
  0
LINE
  5
1C9
330
1E
100
AcDbEntity
  8
0
100
AcDbLine
 10
56.87689999999999
 20
63.3921
 30
0.0
 11
56.87689999999999
 21
73.84109999999999
 31
0.0
  0
LINE
  5
1CA
330
1E
100
AcDbEntity
  8
0
100
AcDbLine
 10
57.8847
 20
73.84109999999999
 30
0.0
 11
58.6267
 21
73.84109999999999
 31
0.0
  0
LINE
  5
1CB
330
1E
100
AcDbEntity
  8
0
100
AcDbLine
 10
57.3401
 20
73.84109999999999
 30
0.0
 11
57.8847
 21
73.84109999999999
 31
0.0
  0
LINE
  5
1CC
330
1E
100
AcDbEntity
  8
0
100
AcDbLine
 10
57.0018
 20
73.84109999999999
 30
0.0
 11
57.3401
 21
73.84109999999999
 31
0.0
  0
LINE
  5
1CE
330
1E
100
AcDbEntity
  8
0
100
AcDbLine
 10
58.6267
 20
73.84109999999999
 30
0.0
 11
59.552
 21
73.84109999999999
 31
0.0
  0
LINE
  5
1D1
330
1E
100
AcDbEntity
  8
0
100
AcDbLine
 10
59.50359999999999
 20
51.9821
 30
0.0
 11
60.7027
 21
51.9821
 31
0.0
  0
LINE
  5
1D2
330
1E
100
AcDbEntity
  8
0
100
AcDbLine
 10
59.5542
 20
55.76109999999999
 30
0.0
 11
59.9861
 21
56.1661
 31
0.0
  0
LINE
  5
1D3
330
1E
100
AcDbEntity
  8
0
100
AcDbLine
 10
59.53289999999999
 20
62.6881
 30
0.0
 11
59.8958
 21
62.5921
 31
0.0
  0
LINE
  5
1D4
330
1E
100
AcDbEntity
  8
0
100
AcDbLine
 10
59.50359999999999
 20
52.7441
 30
0.0
 11
60.7027
 21
52.7441
 31
0.0
  0
LINE
  5
1D5
330
1E
100
AcDbEntity
  8
0
100
AcDbLine
 10
59.552
 20
73.84109999999999
 30
0.0
 11
60.6433
 21
73.84109999999999
 31
0.0
  0
LINE
  5
1D7
330
1E
100
AcDbEntity
  8
0
100
AcDbLine
 10
59.50359999999999
 20
44.08619999999999
 30
0.0
 11
60.7027
 21
44.08619999999999
 31
0.0
  0
LINE
  5
1D8
330
1E
100
AcDbEntity
  8
0
100
AcDbLine
 10
42.7
 20
28.85889999999999
 30
0.0
 11
51.5
 21
28.8586
 31
0.0
  0
LINE
  5
1D9
330
1E
100
AcDbEntity
  8
0
100
AcDbLine
 10
51.5
 20
28.8586
 30
0.0
 11
59.8
 21
28.8588
 31
0.0
  0
LINE
  5
1DA
330
1E
100
AcDbEntity
  8
0
100
AcDbLine
 10
60.3795
 20
2.841099999999999
 30
0.0
 11
61.003
 21
2.841099999999999
 31
0.0
  0
LINE
  5
1DB
330
1E
100
AcDbEntity
  8
0
100
AcDbLine
 10
60.3712
 20
2.841099999999999
 30
0.0
 11
61.004
 21
2.841099999999999
 31
0.0
  0
LINE
  5
1DC
330
1E
100
AcDbEntity
  8
0
100
AcDbLine
 10
60.4794
 20
4.4678214112766
 30
0.0
 11
60.4794
 21
3.8589
 31
0.0
  0
LINE
  5
1DD
330
1E
100
AcDbEntity
  8
0
100
AcDbLine
 10
61.003
 20
2.841099999999999
 30
0.0
 11
61.52429999999999
 21
2.841099999999999
 31
0.0
  0
LINE
  5
1DE
330
1E
100
AcDbEntity
  8
0
100
AcDbLine
 10
61.52429999999999
 20
2.841099999999999
 30
0.0
 11
61.9409
 21
2.841099999999999
 31
0.0
  0
LINE
  5
1DF
330
1E
100
AcDbEntity
  8
0
100
AcDbLine
 10
61.004
 20
2.841099999999999
 30
0.0
 11
61.5488
 21
2.841099999999999
 31
0.0
  0
LINE
  5
1E0
330
1E
100
AcDbEntity
  8
0
100
AcDbLine
 10
61.5488
 20
2.841099999999999
 30
0.0
 11
61.9401
 21
2.841099999999999
 31
0.0
  0
LINE
  5
1E1
330
1E
100
AcDbEntity
  8
0
100
AcDbLine
 10
61.9401
 20
2.841099999999999
 30
0.0
 11
62.1715
 21
2.841099999999999
 31
0.0
  0
LINE
  5
1E2
330
1E
100
AcDbEntity
  8
0
100
AcDbLine
 10
62.1715
 20
2.841099999999999
 30
0.0
 11
62.2829
 21
2.841099999999999
 31
0.0
  0
LINE
  5
1E3
330
1E
100
AcDbEntity
  8
0
100
AcDbLine
 10
62.2043
 20
2.841099999999999
 30
0.0
 11
62.2829
 21
2.841099999999999
 31
0.0
  0
LINE
  5
1E4
330
1E
100
AcDbEntity
  8
0
100
AcDbLine
 10
61.9409
 20
2.841099999999999
 30
0.0
 11
62.2043
 21
2.841099999999999
 31
0.0
  0
LINE
  5
1E5
330
1E
100
AcDbEntity
  8
0
100
AcDbLine
 10
62.2829
 20
2.841099999999999
 30
0.0
 11
62.5195554211726
 21
3.341099999999999
 31
0.0
  0
LINE
  5
1E6
330
1E
100
AcDbEntity
  8
0
100
AcDbLine
 10
62.2829
 20
2.841099999999999
 30
0.0
 11
62.5195554211726
 21
3.341099999999999
 31
0.0
  0
LINE
  5
1E7
330
1E
100
AcDbEntity
  8
0
100
AcDbLine
 10
63.292
 20
3.341099999999999
 30
0.0
 11
64.252
 21
3.341099999999999
 31
0.0
  0
LINE
  5
1E8
330
1E
100
AcDbEntity
  8
0
100
AcDbLine
 10
62.716
 20
3.341099999999999
 30
0.0
 11
63.292
 21
3.341099999999999
 31
0.0
  0
LINE
  5
1E9
330
1E
100
AcDbEntity
  8
0
100
AcDbLine
 10
62.5
 20
3.858915769999999
 30
0.0
 11
62.5
 21
3.341099999999999
 31
0.0
  0
LINE
  5
1EA
330
1E
100
AcDbEntity
  8
0
100
AcDbLine
 10
62.5
 20
3.341099999999999
 30
0.0
 11
62.716
 21
3.341099999999999
 31
0.0
  0
LINE
  5
1EB
330
1E
100
AcDbEntity
  8
0
100
AcDbLine
 10
62.5
 20
3.341099999999999
 30
0.0
 11
62.5
 21
3.858915769999999
 31
0.0
  0
LINE
  5
1EC
330
1E
100
AcDbEntity
  8
0
100
AcDbLine
 10
62.2115
 20
3.858909999999999
 30
0.0
 11
63.2115
 21
3.85893
 31
0.0
  0
LINE
  5
1ED
330
1E
100
AcDbEntity
  8
0
100
AcDbLine
 10
62.2115
 20
3.858909999999999
 30
0.0
 11
62.2115
 21
4.859122056896549
 31
0.0
  0
LINE
  5
1EE
330
1E
100
AcDbEntity
  8
0
100
AcDbLine
 10
63.2115
 20
4.689260779166669
 30
0.0
 11
63.2115
 21
3.85893
 31
0.0
  0
LINE
  5
1EF
330
1E
100
AcDbEntity
  8
0
100
AcDbLine
 10
63.2115
 20
3.85893
 30
0.0
 11
63.2115
 21
4.689260779166669
 31
0.0
  0
LINE
  5
1F0
330
1E
100
AcDbEntity
  8
0
100
AcDbLine
 10
60.4794
 20
3.8589
 30
0.0
 11
60.4794
 21
4.4678214112766
 31
0.0
  0
LINE
  5
1F1
330
1E
100
AcDbEntity
  8
0
100
AcDbLine
 10
60.4794
 20
3.8589
 30
0.0
 11
62.2115
 21
3.858909999999999
 31
0.0
  0
LINE
  5
1F2
330
1E
100
AcDbEntity
  8
0
100
AcDbLine
 10
62.2115
 20
4.859122056896549
 30
0.0
 11
62.2115
 21
3.858909999999999
 31
0.0
  0
LINE
  5
1F3
330
1E
100
AcDbEntity
  8
0
100
AcDbLine
 10
62.72359999999999
 20
4.85868
 30
0.0
 11
62.72359999999999
 21
5.859296965057469
 31
0.0
  0
LINE
  5
1F4
330
1E
100
AcDbEntity
  8
0
100
AcDbLine
 10
62.72359999999999
 20
4.85868
 30
0.0
 11
64.4556
 21
4.858699999999999
 31
0.0
  0
LINE
  5
1F5
330
1E
100
AcDbEntity
  8
0
100
AcDbLine
 10
67.5
 20
0.7588999999999928
 30
0.0
 11
67.5
 21
0.258899999999994
 31
0.0
  0
LINE
  5
1F6
330
1E
100
AcDbEntity
  8
0
100
AcDbLine
 10
67.5
 20
0.7588999999999928
 30
0.0
 11
67.5
 21
1.658799999999989
 31
0.0
  0
LINE
  5
1F7
330
1E
100
AcDbEntity
  8
0
100
AcDbLine
 10
67.5
 20
0.258899999999994
 30
0.0
 11
67.5
 21
0.158899999999995
 31
0.0
  0
LINE
  5
1F8
330
1E
100
AcDbEntity
  8
0
100
AcDbLine
 10
67.5
 20
0.258899999999994
 30
0.0
 11
67.5
 21
0.7588999999999928
 31
0.0
  0
LINE
  5
1F9
330
1E
100
AcDbEntity
  8
0
100
AcDbLine
 10
67.5
 20
0.158899999999995
 30
0.0
 11
67.5
 21
0.4585999999999931
 31
0.0
  0
LINE
  5
1FA
330
1E
100
AcDbEntity
  8
0
100
AcDbLine
 10
67.5
 20
0.158899999999995
 30
0.0
 11
67.5
 21
0.258899999999994
 31
0.0
  0
LINE
  5
1FB
330
1E
100
AcDbEntity
  8
0
100
AcDbLine
 10
67.5
 20
0.158899999999995
 30
0.0
 11
69.5
 21
0.158899999999995
 31
0.0
  0
LINE
  5
1FC
330
1E
100
AcDbEntity
  8
0
100
AcDbLine
 10
69.5
 20
0.158899999999995
 30
0.0
 11
69.5
 21
0.4585999999999931
 31
0.0
  0
LINE
  5
1FD
330
1E
100
AcDbEntity
  8
0
100
AcDbLine
 10
67.5
 20
0.4585999999999931
 30
0.0
 11
67.5
 21
1.649899999999999
 31
0.0
  0
LINE
  5
1FE
330
1E
100
AcDbEntity
  8
0
100
AcDbLine
 10
67.5
 20
0.4585999999999931
 30
0.0
 11
67.5
 21
0.158899999999995
 31
0.0
  0
LINE
  5
1FF
330
1E
100
AcDbEntity
  8
0
100
AcDbLine
 10
67.5
 20
1.658799999999989
 30
0.0
 11
67.5
 21
0.7588999999999928
 31
0.0
  0
LINE
  5
200
330
1E
100
AcDbEntity
  8
0
100
AcDbLine
 10
67.5
 20
1.658799999999989
 30
0.0
 11
67.5
 21
2.65889999999999
 31
0.0
  0
LINE
  5
201
330
1E
100
AcDbEntity
  8
0
100
AcDbLine
 10
67.5
 20
1.649899999999999
 30
0.0
 11
67.5
 21
2.841099999999999
 31
0.0
  0
LINE
  5
202
330
1E
100
AcDbEntity
  8
0
100
AcDbLine
 10
67.5
 20
1.649899999999999
 30
0.0
 11
67.5
 21
0.4585999999999931
 31
0.0
  0
LINE
  5
203
330
1E
100
AcDbEntity
  8
0
100
AcDbLine
 10
69.5
 20
0.4585999999999931
 30
0.0
 11
69.5
 21
0.158899999999995
 31
0.0
  0
LINE
  5
204
330
1E
100
AcDbEntity
  8
0
100
AcDbLine
 10
69.5
 20
0.4585999999999931
 30
0.0
 11
69.5
 21
1.683699999999989
 31
0.0
  0
LINE
  5
205
330
1E
100
AcDbEntity
  8
0
100
AcDbLine
 10
65.935
 20
2.841099999999999
 30
0.0
 11
66.0231
 21
2.841099999999999
 31
0.0
  0
LINE
  5
206
330
1E
100
AcDbEntity
  8
0
100
AcDbLine
 10
66.0231
 20
2.841099999999999
 30
0.0
 11
66.279
 21
2.841099999999999
 31
0.0
  0
LINE
  5
207
330
1E
100
AcDbEntity
  8
0
100
AcDbLine
 10
66.0231
 20
2.841099999999999
 30
0.0
 11
66.27909999999999
 21
2.841099999999999
 31
0.0
  0
LINE
  5
208
330
1E
100
AcDbEntity
  8
0
100
AcDbLine
 10
66.27909999999999
 20
2.841099999999999
 30
0.0
 11
66.70300000000001
 21
2.841099999999999
 31
0.0
  0
LINE
  5
209
330
1E
100
AcDbEntity
  8
0
100
AcDbLine
 10
66.279
 20
2.841099999999999
 30
0.0
 11
66.70300000000001
 21
2.841099999999999
 31
0.0
  0
LINE
  5
20A
330
1E
100
AcDbEntity
  8
0
100
AcDbLine
 10
66.70300000000001
 20
2.841099999999999
 30
0.0
 11
67.215
 21
2.841099999999999
 31
0.0
  0
LINE
  5
20B
330
1E
100
AcDbEntity
  8
0
100
AcDbLine
 10
67.215
 20
2.841099999999999
 30
0.0
 11
67.815
 21
2.841099999999999
 31
0.0
  0
LINE
  5
20C
330
1E
100
AcDbEntity
  8
0
100
AcDbLine
 10
67.215
 20
2.841099999999999
 30
0.0
 11
67.8151
 21
2.841099999999999
 31
0.0
  0
LINE
  5
20D
330
1E
100
AcDbEntity
  8
0
100
AcDbLine
 10
65.524
 20
3.341099999999999
 30
0.0
 11
65.6949759975998
 21
3.341099999999999
 31
0.0
  0
LINE
  5
20E
330
1E
100
AcDbEntity
  8
0
100
AcDbLine
 10
64.252
 20
3.341099999999999
 30
0.0
 11
65.524
 21
3.341099999999999
 31
0.0
  0
LINE
  5
20F
330
1E
100
AcDbEntity
  8
0
100
AcDbLine
 10
67.5
 20
2.841099999999999
 30
0.0
 11
67.5
 21
2.65889999999999
 31
0.0
  0
LINE
  5
210
330
1E
100
AcDbEntity
  8
0
100
AcDbLine
 10
67.5
 20
2.841099999999999
 30
0.0
 11
67.5
 21
1.649899999999999
 31
0.0
  0
LINE
  5
211
330
1E
100
AcDbEntity
  8
0
100
AcDbLine
 10
69.175
 20
2.841099999999999
 30
0.0
 11
69.775
 21
2.841099999999999
 31
0.0
  0
LINE
  5
212
330
1E
100
AcDbEntity
  8
0
100
AcDbLine
 10
68.495
 20
2.841099999999999
 30
0.0
 11
69.175
 21
2.841099999999999
 31
0.0
  0
LINE
  5
213
330
1E
100
AcDbEntity
  8
0
100
AcDbLine
 10
67.8151
 20
2.841099999999999
 30
0.0
 11
68.495
 21
2.841099999999999
 31
0.0
  0
LINE
  5
214
330
1E
100
AcDbEntity
  8
0
100
AcDbLine
 10
67.815
 20
2.841099999999999
 30
0.0
 11
68.495
 21
2.841099999999999
 31
0.0
  0
LINE
  5
215
330
1E
100
AcDbEntity
  8
0
100
AcDbLine
 10
67.5
 20
2.65889999999999
 30
0.0
 11
67.5
 21
1.658799999999989
 31
0.0
  0
LINE
  5
216
330
1E
100
AcDbEntity
  8
0
100
AcDbLine
 10
69.5
 20
1.683699999999989
 30
0.0
 11
69.5
 21
0.4585999999999931
 31
0.0
  0
LINE
  5
217
330
1E
100
AcDbEntity
  8
0
100
AcDbLine
 10
69.5
 20
1.683699999999989
 30
0.0
 11
69.5
 21
2.841099999999999
 31
0.0
  0
LINE
  5
218
330
1E
100
AcDbEntity
  8
0
100
AcDbLine
 10
70.96689999999999
 20
2.841099999999999
 30
0.0
 11
71.0549
 21
2.841099999999999
 31
0.0
  0
LINE
  5
219
330
1E
100
AcDbEntity
  8
0
100
AcDbLine
 10
71.0549
 20
2.841099999999999
 30
0.0
 11
71.5437082765464
 21
3.859278034272819
 31
0.0
  0
LINE
  5
21A
330
1E
100
AcDbEntity
  8
0
100
AcDbLine
 10
71.0549
 20
2.841099999999999
 30
0.0
 11
71.5437082765464
 21
3.859278034272819
 31
0.0
  0
LINE
  5
21B
330
1E
100
AcDbEntity
  8
0
100
AcDbLine
 10
70.711
 20
2.841099999999999
 30
0.0
 11
70.96689999999999
 21
2.841099999999999
 31
0.0
  0
LINE
  5
21C
330
1E
100
AcDbEntity
  8
0
100
AcDbLine
 10
70.28699999999999
 20
2.841099999999999
 30
0.0
 11
70.711
 21
2.841099999999999
 31
0.0
  0
LINE
  5
21D
330
1E
100
AcDbEntity
  8
0
100
AcDbLine
 10
69.775
 20
2.841099999999999
 30
0.0
 11
70.28699999999999
 21
2.841099999999999
 31
0.0
  0
LINE
  5
21E
330
1E
100
AcDbEntity
  8
0
100
AcDbLine
 10
71.2949406707337
 20
3.341099999999999
 30
0.0
 11
71.476
 21
3.341099999999999
 31
0.0
  0
LINE
  5
21F
330
1E
100
AcDbEntity
  8
0
100
AcDbLine
 10
71.476
 20
3.341099999999999
 30
0.0
 11
72.748
 21
3.341099999999999
 31
0.0
  0
LINE
  5
220
330
1E
100
AcDbEntity
  8
0
100
AcDbLine
 10
72.748
 20
3.341099999999999
 30
0.0
 11
73.708
 21
3.341099999999999
 31
0.0
  0
LINE
  5
221
330
1E
100
AcDbEntity
  8
0
100
AcDbLine
 10
74.8335
 20
2.841099999999999
 30
0.0
 11
75.06489999999999
 21
2.841099999999999
 31
0.0
  0
LINE
  5
222
330
1E
100
AcDbEntity
  8
0
100
AcDbLine
 10
74.7221
 20
2.841099999999999
 30
0.0
 11
74.80070000000001
 21
2.841099999999999
 31
0.0
  0
LINE
  5
223
330
1E
100
AcDbEntity
  8
0
100
AcDbLine
 10
74.7221
 20
2.841099999999999
 30
0.0
 11
74.8335
 21
2.841099999999999
 31
0.0
  0
LINE
  5
224
330
1E
100
AcDbEntity
  8
0
100
AcDbLine
 10
74.4854445788273
 20
3.341099999999999
 30
0.0
 11
74.7221
 21
2.841099999999999
 31
0.0
  0
LINE
  5
225
330
1E
100
AcDbEntity
  8
0
100
AcDbLine
 10
74.4854445788273
 20
3.341099999999999
 30
0.0
 11
74.7221
 21
2.841099999999999
 31
0.0
  0
LINE
  5
226
330
1E
100
AcDbEntity
  8
0
100
AcDbLine
 10
74.80070000000001
 20
2.841099999999999
 30
0.0
 11
75.0642
 21
2.841099999999999
 31
0.0
  0
LINE
  5
227
330
1E
100
AcDbEntity
  8
0
100
AcDbLine
 10
75.4561
 20
2.841099999999999
 30
0.0
 11
76.00100000000001
 21
2.841099999999999
 31
0.0
  0
LINE
  5
228
330
1E
100
AcDbEntity
  8
0
100
AcDbLine
 10
75.06489999999999
 20
2.841099999999999
 30
0.0
 11
75.4561
 21
2.841099999999999
 31
0.0
  0
LINE
  5
229
330
1E
100
AcDbEntity
  8
0
100
AcDbLine
 10
76.00100000000001
 20
2.841099999999999
 30
0.0
 11
76.6338
 21
2.841099999999999
 31
0.0
  0
LINE
  5
22A
330
1E
100
AcDbEntity
  8
0
100
AcDbLine
 10
76.6338
 20
2.841099999999999
 30
0.0
 11
77.2817
 21
2.841099999999999
 31
0.0
  0
LINE
  5
22B
330
1E
100
AcDbEntity
  8
0
100
AcDbLine
 10
77.2817
 20
2.841099999999999
 30
0.0
 11
77.937
 21
2.841099999999999
 31
0.0
  0
LINE
  5
22C
330
1E
100
AcDbEntity
  8
0
100
AcDbLine
 10
77.937
 20
2.841099999999999
 30
0.0
 11
78.56059999999999
 21
2.841099999999999
 31
0.0
  0
LINE
  5
22D
330
1E
100
AcDbEntity
  8
0
100
AcDbLine
 10
78.56059999999999
 20
2.841099999999999
 30
0.0
 11
79.08190000000001
 21
2.841099999999999
 31
0.0
  0
LINE
  5
22E
330
1E
100
AcDbEntity
  8
0
100
AcDbLine
 10
79.08190000000001
 20
2.841099999999999
 30
0.0
 11
79.49850000000001
 21
2.841099999999999
 31
0.0
  0
LINE
  5
22F
330
1E
100
AcDbEntity
  8
0
100
AcDbLine
 10
78.5609
 20
2.841099999999999
 30
0.0
 11
79.10569999999999
 21
2.841099999999999
 31
0.0
  0
LINE
  5
230
330
1E
100
AcDbEntity
  8
0
100
AcDbLine
 10
79.10569999999999
 20
2.841099999999999
 30
0.0
 11
79.49760000000001
 21
2.841099999999999
 31
0.0
  0
LINE
  5
231
330
1E
100
AcDbEntity
  8
0
100
AcDbLine
 10
79.49760000000001
 20
2.841099999999999
 30
0.0
 11
79.729
 21
2.841099999999999
 31
0.0
  0
LINE
  5
232
330
1E
100
AcDbEntity
  8
0
100
AcDbLine
 10
79.729
 20
2.841099999999999
 30
0.0
 11
79.84059999999999
 21
2.841099999999999
 31
0.0
  0
LINE
  5
233
330
1E
100
AcDbEntity
  8
0
100
AcDbLine
 10
79.84059999999999
 20
2.841099999999999
 30
0.0
 11
80.08531853212408
 21
3.358365973629359
 31
0.0
  0
LINE
  5
234
330
1E
100
AcDbEntity
  8
0
100
AcDbLine
 10
79.76179999999999
 20
2.841099999999999
 30
0.0
 11
79.84059999999999
 21
2.841099999999999
 31
0.0
  0
LINE
  5
235
330
1E
100
AcDbEntity
  8
0
100
AcDbLine
 10
79.49850000000001
 20
2.841099999999999
 30
0.0
 11
79.76179999999999
 21
2.841099999999999
 31
0.0
  0
LINE
  5
236
330
1E
100
AcDbEntity
  8
0
100
AcDbLine
 10
77.9281
 20
2.841099999999999
 30
0.0
 11
78.5609
 21
2.841099999999999
 31
0.0
  0
LINE
  5
237
330
1E
100
AcDbEntity
  8
0
100
AcDbLine
 10
77.2809
 20
2.841099999999999
 30
0.0
 11
77.9281
 21
2.841099999999999
 31
0.0
  0
LINE
  5
238
330
1E
100
AcDbEntity
  8
0
100
AcDbLine
 10
76.6255
 20
2.841099999999999
 30
0.0
 11
77.2809
 21
2.841099999999999
 31
0.0
  0
LINE
  5
239
330
1E
100
AcDbEntity
  8
0
100
AcDbLine
 10
76.0021
 20
2.841099999999999
 30
0.0
 11
76.6255
 21
2.841099999999999
 31
0.0
  0
LINE
  5
23A
330
1E
100
AcDbEntity
  8
0
100
AcDbLine
 10
75.4807
 20
2.841099999999999
 30
0.0
 11
76.0021
 21
2.841099999999999
 31
0.0
  0
LINE
  5
23B
330
1E
100
AcDbEntity
  8
0
100
AcDbLine
 10
75.0642
 20
2.841099999999999
 30
0.0
 11
75.4807
 21
2.841099999999999
 31
0.0
  0
LINE
  5
23C
330
1E
100
AcDbEntity
  8
0
100
AcDbLine
 10
74.5
 20
3.341099999999999
 30
0.0
 11
74.5
 21
3.85919045454545
 31
0.0
  0
LINE
  5
23D
330
1E
100
AcDbEntity
  8
0
100
AcDbLine
 10
73.708
 20
3.341099999999999
 30
0.0
 11
74.28399999999999
 21
3.341099999999999
 31
0.0
  0
LINE
  5
23E
330
1E
100
AcDbEntity
  8
0
100
AcDbLine
 10
74.28399999999999
 20
3.341099999999999
 30
0.0
 11
74.5
 21
3.341099999999999
 31
0.0
  0
LINE
  5
23F
330
1E
100
AcDbEntity
  8
0
100
AcDbLine
 10
69.5
 20
2.841099999999999
 30
0.0
 11
69.5
 21
1.683699999999989
 31
0.0
  0
LINE
  5
240
330
1E
100
AcDbEntity
  8
0
100
AcDbLine
 10
69.55249999999999
 20
3.358869999999999
 30
0.0
 11
70.5525
 21
3.35889
 31
0.0
  0
LINE
  5
241
330
1E
100
AcDbEntity
  8
0
100
AcDbLine
 10
69.55249999999999
 20
3.358869999999999
 30
0.0
 11
69.55249999999999
 21
4.037639504237289
 31
0.0
  0
LINE
  5
242
330
1E
100
AcDbEntity
  8
0
100
AcDbLine
 10
76.5147
 20
3.858539999999999
 30
0.0
 11
77.51470000000001
 21
3.858559999999999
 31
0.0
  0
LINE
  5
243
330
1E
100
AcDbEntity
  8
0
100
AcDbLine
 10
76.5147
 20
3.858539999999999
 30
0.0
 11
76.5147
 21
4.46719368265958
 31
0.0
  0
LINE
  5
244
330
1E
100
AcDbEntity
  8
0
100
AcDbLine
 10
77.51470000000001
 20
3.858559999999999
 30
0.0
 11
77.51470000000001
 21
4.573588363510639
 31
0.0
  0
LINE
  5
245
330
1E
100
AcDbEntity
  8
0
100
AcDbLine
 10
74.78270000000001
 20
3.858519999999999
 30
0.0
 11
74.78270000000001
 21
4.28291809542553
 31
0.0
  0
LINE
  5
246
330
1E
100
AcDbEntity
  8
0
100
AcDbLine
 10
74.78270000000001
 20
3.858519999999999
 30
0.0
 11
76.5147
 21
3.858539999999999
 31
0.0
  0
LINE
  5
247
330
1E
100
AcDbEntity
  8
0
100
AcDbLine
 10
70.5525
 20
3.35889
 30
0.0
 11
70.5525
 21
4.20710221610169
 31
0.0
  0
LINE
  5
248
330
1E
100
AcDbEntity
  8
0
100
AcDbLine
 10
67.82049999999999
 20
3.358849999999999
 30
0.0
 11
67.82049999999999
 21
3.97442991271187
 31
0.0
  0
LINE
  5
249
330
1E
100
AcDbEntity
  8
0
100
AcDbLine
 10
67.82049999999999
 20
3.358849999999999
 30
0.0
 11
69.55249999999999
 21
3.358869999999999
 31
0.0
  0
LINE
  5
24A
330
1E
100
AcDbEntity
  8
0
100
AcDbLine
 10
79.884
 20
3.358369999999999
 30
0.0
 11
79.884
 21
4.151862695
 31
0.0
  0
LINE
  5
24B
330
1E
100
AcDbEntity
  8
0
100
AcDbLine
 10
79.884
 20
3.358369999999999
 30
0.0
 11
80.884
 21
3.35835
 31
0.0
  0
LINE
  5
24C
330
1E
100
AcDbEntity
  8
0
100
AcDbLine
 10
82.61599999999999
 20
3.35834
 30
0.0
 11
82.61599999999999
 21
4.14444253894737
 31
0.0
  0
LINE
  5
24D
330
1E
100
AcDbEntity
  8
0
100
AcDbLine
 10
80.884
 20
3.35835
 30
0.0
 11
82.61599999999999
 21
3.35834
 31
0.0
  0
LINE
  5
24E
330
1E
100
AcDbEntity
  8
0
100
AcDbLine
 10
80.884
 20
3.35835
 30
0.0
 11
80.884
 21
4.214373945
 31
0.0
  0
LINE
  5
24F
330
1E
100
AcDbEntity
  8
0
100
AcDbLine
 10
65.44622502910479
 20
3.85927936124616
 30
0.0
 11
65.935
 21
2.841099999999999
 31
0.0
  0
LINE
  5
250
330
1E
100
AcDbEntity
  8
0
100
AcDbLine
 10
74.5
 20
3.85919045454545
 30
0.0
 11
74.5
 21
3.341099999999999
 31
0.0
  0
LINE
  5
251
330
1E
100
AcDbEntity
  8
0
100
AcDbLine
 10
77.51470000000001
 20
3.859363250526319
 30
0.0
 11
79.1
 21
3.85943
 31
0.0
  0
LINE
  5
252
330
1E
100
AcDbEntity
  8
0
100
AcDbLine
 10
70.8
 20
3.85918
 30
0.0
 11
73.0
 21
3.859469999999999
 31
0.0
  0
LINE
  5
253
330
1E
100
AcDbEntity
  8
0
100
AcDbLine
 10
82.61599999999999
 20
3.859158215384609
 30
0.0
 11
83.46888888889171
 21
3.859309111111109
 31
0.0
  0
LINE
  5
254
330
1E
100
AcDbEntity
  8
0
100
AcDbLine
 10
88.666
 20
3.35883
 30
0.0
 11
88.666
 21
3.954271429285709
 31
0.0
  0
LINE
  5
255
330
1E
100
AcDbEntity
  8
0
100
AcDbLine
 10
88.666
 20
3.35883
 30
0.0
 11
90.66599999999999
 21
3.35883
 31
0.0
  0
LINE
  5
256
330
1E
100
AcDbEntity
  8
0
100
AcDbLine
 10
88.666
 20
3.358849999999999
 30
0.0
 11
88.666
 21
3.954271429285709
 31
0.0
  0
LINE
  5
257
330
1E
100
AcDbEntity
  8
0
100
AcDbLine
 10
88.666
 20
3.358849999999999
 30
0.0
 11
90.66599999999999
 21
3.358849999999999
 31
0.0
  0
LINE
  5
258
330
1E
100
AcDbEntity
  8
0
100
AcDbLine
 10
88.666
 20
3.35894
 30
0.0
 11
88.666
 21
4.10519828941176
 31
0.0
  0
LINE
  5
259
330
1E
100
AcDbEntity
  8
0
100
AcDbLine
 10
88.666
 20
3.35894
 30
0.0
 11
90.66599999999999
 21
3.35894
 31
0.0
  0
LINE
  5
25A
330
1E
100
AcDbEntity
  8
0
100
AcDbLine
 10
88.666
 20
3.358919999999999
 30
0.0
 11
88.666
 21
4.06450739256198
 31
0.0
  0
LINE
  5
25B
330
1E
100
AcDbEntity
  8
0
100
AcDbLine
 10
88.666
 20
3.358919999999999
 30
0.0
 11
90.66599999999999
 21
3.358919999999999
 31
0.0
  0
LINE
  5
25C
330
1E
100
AcDbEntity
  8
0
100
AcDbLine
 10
85.884
 20
3.85823
 30
0.0
 11
85.884
 21
4.526930195
 31
0.0
  0
LINE
  5
25D
330
1E
100
AcDbEntity
  8
0
100
AcDbLine
 10
85.884
 20
3.85823
 30
0.0
 11
86.88399999999999
 21
3.858209999999999
 31
0.0
  0
LINE
  5
25E
330
1E
100
AcDbEntity
  8
0
100
AcDbLine
 10
88.61600000000001
 20
3.85819
 30
0.0
 11
88.61600000000001
 21
4.67468887428571
 31
0.0
  0
LINE
  5
25F
330
1E
100
AcDbEntity
  8
0
100
AcDbLine
 10
86.88399999999999
 20
3.858209999999999
 30
0.0
 11
88.61600000000001
 21
3.85819
 31
0.0
  0
LINE
  5
260
330
1E
100
AcDbEntity
  8
0
100
AcDbLine
 10
86.88399999999999
 20
3.858209999999999
 30
0.0
 11
86.88399999999999
 21
4.589441445
 31
0.0
  0
LINE
  5
261
330
1E
100
AcDbEntity
  8
0
100
AcDbLine
 10
90.66599999999999
 20
3.35894
 30
0.0
 11
90.66599999999999
 21
4.1836241717647
 31
0.0
  0
LINE
  5
262
330
1E
100
AcDbEntity
  8
0
100
AcDbLine
 10
93.0
 20
3.35819
 30
0.0
 11
93.0
 21
4.114691702127659
 31
0.0
  0
LINE
  5
263
330
1E
100
AcDbEntity
  8
0
100
AcDbLine
 10
93.0
 20
3.35819
 30
0.0
 11
95.0
 21
3.35819
 31
0.0
  0
LINE
  5
264
330
1E
100
AcDbEntity
  8
0
100
AcDbLine
 10
93.0
 20
3.358209999999999
 30
0.0
 11
93.0
 21
4.119371010830319
 31
0.0
  0
LINE
  5
265
330
1E
100
AcDbEntity
  8
0
100
AcDbLine
 10
93.0
 20
3.358209999999999
 30
0.0
 11
95.0
 21
3.358209999999999
 31
0.0
  0
LINE
  5
266
330
1E
100
AcDbEntity
  8
0
100
AcDbLine
 10
95.0
 20
3.85863
 30
0.0
 11
95.0
 21
3.358209999999999
 31
0.0
  0
LINE
  5
267
330
1E
100
AcDbEntity
  8
0
100
AcDbLine
 10
95.0
 20
3.358209999999999
 30
0.0
 11
95.0
 21
3.85863
 31
0.0
  0
LINE
  5
268
330
1E
100
AcDbEntity
  8
0
100
AcDbLine
 10
94.77619999999999
 20
3.85863
 30
0.0
 11
94.77619999999999
 21
4.563665890659899
 31
0.0
  0
LINE
  5
269
330
1E
100
AcDbEntity
  8
0
100
AcDbLine
 10
94.77619999999999
 20
3.85863
 30
0.0
 11
96.7762
 21
3.85863
 31
0.0
  0
LINE
  5
26A
330
1E
100
AcDbEntity
  8
0
100
AcDbLine
 10
94.77619999999999
 20
3.85866
 30
0.0
 11
94.77619999999999
 21
4.563665890659899
 31
0.0
  0
LINE
  5
26B
330
1E
100
AcDbEntity
  8
0
100
AcDbLine
 10
94.77619999999999
 20
3.85866
 30
0.0
 11
96.7762
 21
3.85866
 31
0.0
  0
LINE
  5
26C
330
1E
100
AcDbEntity
  8
0
100
AcDbLine
 10
102.0
 20
3.858699999999999
 30
0.0
 11
102.0
 21
4.35895
 31
0.0
  0
LINE
  5
26D
330
1E
100
AcDbEntity
  8
0
100
AcDbLine
 10
102.0
 20
3.858699999999999
 30
0.0
 11
104.0
 21
3.858699999999999
 31
0.0
  0
LINE
  5
26E
330
1E
100
AcDbEntity
  8
0
100
AcDbLine
 10
102.0
 20
3.85873
 30
0.0
 11
102.0
 21
4.35895
 31
0.0
  0
LINE
  5
26F
330
1E
100
AcDbEntity
  8
0
100
AcDbLine
 10
102.0
 20
3.85873
 30
0.0
 11
104.0
 21
3.85873
 31
0.0
  0
LINE
  5
270
330
1E
100
AcDbEntity
  8
0
100
AcDbLine
 10
96.7762
 20
3.85866
 30
0.0
 11
96.7762
 21
4.66517147441624
 31
0.0
  0
LINE
  5
271
330
1E
100
AcDbEntity
  8
0
100
AcDbLine
 10
102.0
 20
3.859019999999999
 30
0.0
 11
102.0
 21
4.35895
 31
0.0
  0
LINE
  5
272
330
1E
100
AcDbEntity
  8
0
100
AcDbLine
 10
102.0
 20
3.859019999999999
 30
0.0
 11
104.0
 21
3.859019999999999
 31
0.0
  0
LINE
  5
273
330
1E
100
AcDbEntity
  8
0
100
AcDbLine
 10
102.0
 20
3.859049999999999
 30
0.0
 11
102.0
 21
4.35895
 31
0.0
  0
LINE
  5
274
330
1E
100
AcDbEntity
  8
0
100
AcDbLine
 10
102.0
 20
3.859049999999999
 30
0.0
 11
104.0
 21
3.859049999999999
 31
0.0
  0
LINE
  5
275
330
1E
100
AcDbEntity
  8
0
100
AcDbLine
 10
105.0
 20
3.85904
 30
0.0
 11
105.0
 21
4.540027872340419
 31
0.0
  0
LINE
  5
276
330
1E
100
AcDbEntity
  8
0
100
AcDbLine
 10
105.0
 20
3.85904
 30
0.0
 11
107.0
 21
3.85904
 31
0.0
  0
LINE
  5
277
330
1E
100
AcDbEntity
  8
0
100
AcDbLine
 10
105.0
 20
3.859069999999999
 30
0.0
 11
105.0
 21
4.55250602888086
 31
0.0
  0
LINE
  5
278
330
1E
100
AcDbEntity
  8
0
100
AcDbLine
 10
105.0
 20
3.859069999999999
 30
0.0
 11
107.0
 21
3.859069999999999
 31
0.0
  0
LINE
  5
279
330
1E
100
AcDbEntity
  8
0
100
AcDbLine
 10
107.0
 20
3.859069999999999
 30
0.0
 11
107.0
 21
4.62469519855595
 31
0.0
  0
LINE
  5
27A
330
1E
100
AcDbEntity
  8
0
100
AcDbLine
 10
104.0
 20
3.859049999999999
 30
0.0
 11
104.0
 21
4.60843953667954
 31
0.0
  0
LINE
  5
27B
330
1E
100
AcDbEntity
  8
0
100
AcDbLine
 10
85.4
 20
3.859109999999999
 30
0.0
 11
85.8
 21
3.85949
 31
0.0
  0
LINE
  5
27C
330
1E
100
AcDbEntity
  8
0
100
AcDbLine
 10
67.82049999999999
 20
3.97442991271187
 30
0.0
 11
67.82049999999999
 21
3.358849999999999
 31
0.0
  0
LINE
  5
27D
330
1E
100
AcDbEntity
  8
0
100
AcDbLine
 10
88.666
 20
3.954271429285709
 30
0.0
 11
88.666
 21
3.358849999999999
 31
0.0
  0
LINE
  5
27E
330
1E
100
AcDbEntity
  8
0
100
AcDbLine
 10
88.666
 20
3.954271429285709
 30
0.0
 11
88.666
 21
3.35883
 31
0.0
  0
LINE
  5
27F
330
1E
100
AcDbEntity
  8
0
100
AcDbLine
 10
69.55249999999999
 20
4.037639504237289
 30
0.0
 11
69.55249999999999
 21
3.358869999999999
 31
0.0
  0
LINE
  5
280
330
1E
100
AcDbEntity
  8
0
100
AcDbLine
 10
70.5525
 20
4.20710221610169
 30
0.0
 11
70.5525
 21
3.35889
 31
0.0
  0
LINE
  5
281
330
1E
100
AcDbEntity
  8
0
100
AcDbLine
 10
79.884
 20
4.151862695
 30
0.0
 11
79.884
 21
3.358369999999999
 31
0.0
  0
LINE
  5
282
330
1E
100
AcDbEntity
  8
0
100
AcDbLine
 10
82.61599999999999
 20
4.14444253894737
 30
0.0
 11
82.61599999999999
 21
3.35834
 31
0.0
  0
LINE
  5
283
330
1E
100
AcDbEntity
  8
0
100
AcDbLine
 10
74.78270000000001
 20
4.28291809542553
 30
0.0
 11
74.78270000000001
 21
3.858519999999999
 31
0.0
  0
LINE
  5
284
330
1E
100
AcDbEntity
  8
0
100
AcDbLine
 10
71.152
 20
4.3585
 30
0.0
 11
72.152
 21
4.358519999999999
 31
0.0
  0
LINE
  5
285
330
1E
100
AcDbEntity
  8
0
100
AcDbLine
 10
71.152
 20
4.3585
 30
0.0
 11
71.152
 21
5.171081919999999
 31
0.0
  0
LINE
  5
286
330
1E
100
AcDbEntity
  8
0
100
AcDbLine
 10
76.5147
 20
4.46719368265958
 30
0.0
 11
76.5147
 21
3.858539999999999
 31
0.0
  0
LINE
  5
287
330
1E
100
AcDbEntity
  8
0
100
AcDbLine
 10
82.7175
 20
4.359409999999999
 30
0.0
 11
83.7175
 21
4.35943
 31
0.0
  0
LINE
  5
288
330
1E
100
AcDbEntity
  8
0
100
AcDbLine
 10
82.7175
 20
4.359409999999999
 30
0.0
 11
82.7175
 21
5.054441135658919
 31
0.0
  0
LINE
  5
289
330
1E
100
AcDbEntity
  8
0
100
AcDbLine
 10
83.7175
 20
4.35943
 30
0.0
 11
83.7175
 21
5.13195896511628
 31
0.0
  0
LINE
  5
28A
330
1E
100
AcDbEntity
  8
0
100
AcDbLine
 10
80.98550000000001
 20
4.359399999999999
 30
0.0
 11
80.98550000000001
 21
5.06072241153846
 31
0.0
  0
LINE
  5
28B
330
1E
100
AcDbEntity
  8
0
100
AcDbLine
 10
80.98550000000001
 20
4.359399999999999
 30
0.0
 11
82.7175
 21
4.359409999999999
 31
0.0
  0
LINE
  5
28C
330
1E
100
AcDbEntity
  8
0
100
AcDbLine
 10
72.152
 20
4.358519999999999
 30
0.0
 11
72.152
 21
4.85911
 31
0.0
  0
LINE
  5
28D
330
1E
100
AcDbEntity
  8
0
100
AcDbLine
 10
69.42
 20
4.358489999999999
 30
0.0
 11
69.42
 21
4.96733555294118
 31
0.0
  0
LINE
  5
28E
330
1E
100
AcDbEntity
  8
0
100
AcDbLine
 10
69.42
 20
4.358489999999999
 30
0.0
 11
71.152
 21
4.3585
 31
0.0
  0
LINE
  5
28F
330
1E
100
AcDbEntity
  8
0
100
AcDbLine
 10
64.4556
 20
4.858699999999999
 30
0.0
 11
65.4556
 21
4.858719999999999
 31
0.0
  0
LINE
  5
290
330
1E
100
AcDbEntity
  8
0
100
AcDbLine
 10
64.4556
 20
4.858699999999999
 30
0.0
 11
64.4556
 21
5.85931886390805
 31
0.0
  0
LINE
  5
291
330
1E
100
AcDbEntity
  8
0
100
AcDbLine
 10
77.51470000000001
 20
4.573588363510639
 30
0.0
 11
77.51470000000001
 21
3.858559999999999
 31
0.0
  0
LINE
  5
292
330
1E
100
AcDbEntity
  8
0
100
AcDbLine
 10
77.36589999999999
 20
4.858969999999999
 30
0.0
 11
78.3659
 21
4.85899
 31
0.0
  0
LINE
  5
293
330
1E
100
AcDbEntity
  8
0
100
AcDbLine
 10
77.36589999999999
 20
4.858969999999999
 30
0.0
 11
77.36589999999999
 21
5.85925760144579
 31
0.0
  0
LINE
  5
294
330
1E
100
AcDbEntity
  8
0
100
AcDbLine
 10
78.3659
 20
4.85899
 30
0.0
 11
78.3659
 21
5.85924314361446
 31
0.0
  0
LINE
  5
295
330
1E
100
AcDbEntity
  8
0
100
AcDbLine
 10
75.6339
 20
4.858959999999999
 30
0.0
 11
75.6339
 21
5.69831681752941
 31
0.0
  0
LINE
  5
296
330
1E
100
AcDbEntity
  8
0
100
AcDbLine
 10
75.6339
 20
4.858959999999999
 30
0.0
 11
77.36589999999999
 21
4.858969999999999
 31
0.0
  0
LINE
  5
297
330
1E
100
AcDbEntity
  8
0
100
AcDbLine
 10
65.4556
 20
4.858719999999999
 30
0.0
 11
65.4556
 21
5.859331507586209
 31
0.0
  0
LINE
  5
298
330
1E
100
AcDbEntity
  8
0
100
AcDbLine
 10
85.884
 20
4.526930195
 30
0.0
 11
85.884
 21
3.85823
 31
0.0
  0
LINE
  5
299
330
1E
100
AcDbEntity
  8
0
100
AcDbLine
 10
88.61600000000001
 20
4.67468887428571
 30
0.0
 11
88.61600000000001
 21
3.85819
 31
0.0
  0
LINE
  5
29A
330
1E
100
AcDbEntity
  8
0
100
AcDbLine
 10
86.88399999999999
 20
4.589441445
 30
0.0
 11
86.88399999999999
 21
3.858209999999999
 31
0.0
  0
LINE
  5
29B
330
1E
100
AcDbEntity
  8
0
100
AcDbLine
 10
80.884
 20
4.214373945
 30
0.0
 11
80.884
 21
3.35835
 31
0.0
  0
LINE
  5
29C
330
1E
100
AcDbEntity
  8
0
100
AcDbLine
 10
89.75010000000001
 20
4.85863
 30
0.0
 11
90.7501
 21
4.858649999999999
 31
0.0
  0
LINE
  5
29D
330
1E
100
AcDbEntity
  8
0
100
AcDbLine
 10
89.75010000000001
 20
4.85863
 30
0.0
 11
89.75010000000001
 21
5.859265571136369
 31
0.0
  0
LINE
  5
29E
330
1E
100
AcDbEntity
  8
0
100
AcDbLine
 10
88.666
 20
4.10519828941176
 30
0.0
 11
88.666
 21
3.35894
 31
0.0
  0
LINE
  5
29F
330
1E
100
AcDbEntity
  8
0
100
AcDbLine
 10
88.666
 20
4.06450739256198
 30
0.0
 11
88.666
 21
3.358919999999999
 31
0.0
  0
LINE
  5
2A0
330
1E
100
AcDbEntity
  8
0
100
AcDbLine
 10
93.0
 20
4.114691702127659
 30
0.0
 11
93.0
 21
3.35819
 31
0.0
  0
LINE
  5
2A1
330
1E
100
AcDbEntity
  8
0
100
AcDbLine
 10
93.0
 20
4.119371010830319
 30
0.0
 11
93.0
 21
3.358209999999999
 31
0.0
  0
LINE
  5
2A2
330
1E
100
AcDbEntity
  8
0
100
AcDbLine
 10
94.616
 20
4.358919999999999
 30
0.0
 11
94.616
 21
5.06631584969697
 31
0.0
  0
LINE
  5
2A3
330
1E
100
AcDbEntity
  8
0
100
AcDbLine
 10
90.7501
 20
4.858649999999999
 30
0.0
 11
90.7501
 21
5.677110852558139
 31
0.0
  0
LINE
  5
2A4
330
1E
100
AcDbEntity
  8
0
100
AcDbLine
 10
94.77619999999999
 20
4.563665890659899
 30
0.0
 11
94.77619999999999
 21
3.85866
 31
0.0
  0
LINE
  5
2A5
330
1E
100
AcDbEntity
  8
0
100
AcDbLine
 10
94.77619999999999
 20
4.563665890659899
 30
0.0
 11
94.77619999999999
 21
3.85863
 31
0.0
  0
LINE
  5
2A6
330
1E
100
AcDbEntity
  8
0
100
AcDbLine
 10
96.7762
 20
4.66517147441624
 30
0.0
 11
96.7762
 21
3.85866
 31
0.0
  0
LINE
  5
2A7
330
1E
100
AcDbEntity
  8
0
100
AcDbLine
 10
91.88399999999999
 20
4.35895
 30
0.0
 11
91.88399999999999
 21
4.93201905531915
 31
0.0
  0
LINE
  5
2A8
330
1E
100
AcDbEntity
  8
0
100
AcDbLine
 10
91.88399999999999
 20
4.35895
 30
0.0
 11
92.88400000000001
 21
4.358929999999999
 31
0.0
  0
LINE
  5
2A9
330
1E
100
AcDbEntity
  8
0
100
AcDbLine
 10
92.88400000000001
 20
4.358929999999999
 30
0.0
 11
94.616
 21
4.358919999999999
 31
0.0
  0
LINE
  5
2AA
330
1E
100
AcDbEntity
  8
0
100
AcDbLine
 10
92.88400000000001
 20
4.358929999999999
 30
0.0
 11
92.88400000000001
 21
5.038421182978719
 31
0.0
  0
LINE
  5
2AB
330
1E
100
AcDbEntity
  8
0
100
AcDbLine
 10
90.66599999999999
 20
4.1836241717647
 30
0.0
 11
90.66599999999999
 21
3.35894
 31
0.0
  0
LINE
  5
2AC
330
1E
100
AcDbEntity
  8
0
100
AcDbLine
 10
90.66599999999999
 20
4.02569785785714
 30
0.0
 11
93.0
 21
4.109052499999999
 31
0.0
  0
LINE
  5
2AD
330
1E
100
AcDbEntity
  8
0
100
AcDbLine
 10
90.66599999999999
 20
4.02569785785714
 30
0.0
 11
93.0
 21
4.109052499999999
 31
0.0
  0
LINE
  5
2AE
330
1E
100
AcDbEntity
  8
0
100
AcDbLine
 10
101.442
 20
4.35874
 30
0.0
 11
101.442
 21
4.410543455
 31
0.0
  0
LINE
  5
2AF
330
1E
100
AcDbEntity
  8
0
100
AcDbLine
 10
101.442
 20
4.35874
 30
0.0
 11
102.0
 21
4.35874
 31
0.0
  0
LINE
  5
2B0
330
1E
100
AcDbEntity
  8
0
100
AcDbLine
 10
101.442
 20
4.358769999999999
 30
0.0
 11
101.442
 21
4.410543455
 31
0.0
  0
LINE
  5
2B1
330
1E
100
AcDbEntity
  8
0
100
AcDbLine
 10
101.442
 20
4.358769999999999
 30
0.0
 11
102.0
 21
4.358769999999999
 31
0.0
  0
LINE
  5
2B2
330
1E
100
AcDbEntity
  8
0
100
AcDbLine
 10
102.0
 20
4.35895
 30
0.0
 11
102.0
 21
3.859019999999999
 31
0.0
  0
LINE
  5
2B3
330
1E
100
AcDbEntity
  8
0
100
AcDbLine
 10
102.0
 20
4.35895
 30
0.0
 11
102.0
 21
3.859049999999999
 31
0.0
  0
LINE
  5
2B4
330
1E
100
AcDbEntity
  8
0
100
AcDbLine
 10
102.0
 20
4.35895
 30
0.0
 11
102.0
 21
3.85873
 31
0.0
  0
LINE
  5
2B5
330
1E
100
AcDbEntity
  8
0
100
AcDbLine
 10
102.0
 20
4.35895
 30
0.0
 11
102.0
 21
3.858699999999999
 31
0.0
  0
LINE
  5
2B6
330
1E
100
AcDbEntity
  8
0
100
AcDbLine
 10
101.442
 20
4.35895
 30
0.0
 11
101.442
 21
4.922066395522389
 31
0.0
  0
LINE
  5
2B7
330
1E
100
AcDbEntity
  8
0
100
AcDbLine
 10
101.442
 20
4.35895
 30
0.0
 11
103.442
 21
4.35895
 31
0.0
  0
LINE
  5
2B8
330
1E
100
AcDbEntity
  8
0
100
AcDbLine
 10
101.442
 20
4.410543455
 30
0.0
 11
101.442
 21
4.358769999999999
 31
0.0
  0
LINE
  5
2B9
330
1E
100
AcDbEntity
  8
0
100
AcDbLine
 10
101.442
 20
4.410543455
 30
0.0
 11
101.442
 21
4.35874
 31
0.0
  0
LINE
  5
2BA
330
1E
100
AcDbEntity
  8
0
100
AcDbLine
 10
101.442
 20
4.358979999999999
 30
0.0
 11
101.442
 21
5.15386658426966
 31
0.0
  0
LINE
  5
2BB
330
1E
100
AcDbEntity
  8
0
100
AcDbLine
 10
101.442
 20
4.358979999999999
 30
0.0
 11
103.442
 21
4.358979999999999
 31
0.0
  0
LINE
  5
2BC
330
1E
100
AcDbEntity
  8
0
100
AcDbLine
 10
104.0
 20
4.60843953667954
 30
0.0
 11
104.0
 21
3.859049999999999
 31
0.0
  0
LINE
  5
2BD
330
1E
100
AcDbEntity
  8
0
100
AcDbLine
 10
103.442
 20
4.358979999999999
 30
0.0
 11
103.442
 21
5.071297738805969
 31
0.0
  0
LINE
  5
2BE
330
1E
100
AcDbEntity
  8
0
100
AcDbLine
 10
108.777
 20
4.358819999999999
 30
0.0
 11
108.777
 21
4.672499881785709
 31
0.0
  0
LINE
  5
2BF
330
1E
100
AcDbEntity
  8
0
100
AcDbLine
 10
108.777
 20
4.358819999999999
 30
0.0
 11
110.777
 21
4.358819999999999
 31
0.0
  0
LINE
  5
2C0
330
1E
100
AcDbEntity
  8
0
100
AcDbLine
 10
108.777
 20
4.35885
 30
0.0
 11
108.777
 21
4.672499881785709
 31
0.0
  0
LINE
  5
2C1
330
1E
100
AcDbEntity
  8
0
100
AcDbLine
 10
108.777
 20
4.35885
 30
0.0
 11
110.777
 21
4.35885
 31
0.0
  0
LINE
  5
2C2
330
1E
100
AcDbEntity
  8
0
100
AcDbLine
 10
108.777
 20
4.35888
 30
0.0
 11
108.777
 21
4.85904
 31
0.0
  0
LINE
  5
2C3
330
1E
100
AcDbEntity
  8
0
100
AcDbLine
 10
108.777
 20
4.35888
 30
0.0
 11
110.777
 21
4.35888
 31
0.0
  0
LINE
  5
2C4
330
1E
100
AcDbEntity
  8
0
100
AcDbLine
 10
105.0
 20
4.540027872340419
 30
0.0
 11
105.0
 21
3.85904
 31
0.0
  0
LINE
  5
2C5
330
1E
100
AcDbEntity
  8
0
100
AcDbLine
 10
105.0
 20
4.55250602888086
 30
0.0
 11
105.0
 21
3.859069999999999
 31
0.0
  0
LINE
  5
2C6
330
1E
100
AcDbEntity
  8
0
100
AcDbLine
 10
108.777
 20
4.358909999999999
 30
0.0
 11
108.777
 21
4.85904
 31
0.0
  0
LINE
  5
2C7
330
1E
100
AcDbEntity
  8
0
100
AcDbLine
 10
108.777
 20
4.358909999999999
 30
0.0
 11
110.777
 21
4.358909999999999
 31
0.0
  0
LINE
  5
2C8
330
1E
100
AcDbEntity
  8
0
100
AcDbLine
 10
110.777
 20
4.358909999999999
 30
0.0
 11
110.777
 21
5.17483197035176
 31
0.0
  0
LINE
  5
2C9
330
1E
100
AcDbEntity
  8
0
100
AcDbLine
 10
104.0
 20
4.50189785714286
 30
0.0
 11
105.0
 21
4.537611071428569
 31
0.0
  0
LINE
  5
2CA
330
1E
100
AcDbEntity
  8
0
100
AcDbLine
 10
107.0
 20
4.62469519855596
 30
0.0
 11
107.0
 21
3.859069999999999
 31
0.0
  0
LINE
  5
2CB
330
1E
100
AcDbEntity
  8
0
100
AcDbLine
 10
100.6159999999999
 20
4.858769999999999
 30
0.0
 11
100.6159999999999
 21
5.85928663589744
 31
0.0
  0
LINE
  5
2CC
330
1E
100
AcDbEntity
  8
0
100
AcDbLine
 10
97.88400000000001
 20
4.85881
 30
0.0
 11
97.88400000000001
 21
5.674593428571429
 31
0.0
  0
LINE
  5
2CD
330
1E
100
AcDbEntity
  8
0
100
AcDbLine
 10
97.88400000000001
 20
4.85881
 30
0.0
 11
98.884
 21
4.858789999999999
 31
0.0
  0
LINE
  5
2CE
330
1E
100
AcDbEntity
  8
0
100
AcDbLine
 10
98.884
 20
4.858789999999999
 30
0.0
 11
100.6159999999999
 21
4.858769999999999
 31
0.0
  0
LINE
  5
2CF
330
1E
100
AcDbEntity
  8
0
100
AcDbLine
 10
98.884
 20
4.858789999999999
 30
0.0
 11
98.884
 21
5.742644448979589
 31
0.0
  0
LINE
  5
2D0
330
1E
100
AcDbEntity
  8
0
100
AcDbLine
 10
108.777
 20
4.672499881785709
 30
0.0
 11
108.777
 21
4.358819999999999
 31
0.0
  0
LINE
  5
2D1
330
1E
100
AcDbEntity
  8
0
100
AcDbLine
 10
108.777
 20
4.672499881785709
 30
0.0
 11
108.777
 21
4.35885
 31
0.0
  0
LINE
  5
2D2
330
1E
100
AcDbEntity
  8
0
100
AcDbLine
 10
107.0
 20
4.6090375
 30
0.0
 11
108.777
 21
4.672499881785709
 31
0.0
  0
LINE
  5
2D3
330
1E
100
AcDbEntity
  8
0
100
AcDbLine
 10
107.0
 20
4.6090375
 30
0.0
 11
108.777
 21
4.672499881785709
 31
0.0
  0
LINE
  5
2D4
330
1E
100
AcDbEntity
  8
0
100
AcDbLine
 10
96.7762
 20
4.243912739785709
 30
0.0
 11
101.442
 21
4.410543455
 31
0.0
  0
LINE
  5
2D5
330
1E
100
AcDbEntity
  8
0
100
AcDbLine
 10
88.61600000000001
 20
3.95248576857143
 30
0.0
 11
88.666
 21
3.954271429285709
 31
0.0
  0
LINE
  5
2D6
330
1E
100
AcDbEntity
  8
0
100
AcDbLine
 10
114.8889999999999
 20
4.35918
 30
0.0
 11
114.8889999999999
 21
4.90581853789474
 31
0.0
  0
LINE
  5
2D7
330
1E
100
AcDbEntity
  8
0
100
AcDbLine
 10
114.8889999999999
 20
4.3592
 30
0.0
 11
114.8889999999999
 21
4.90581853789474
 31
0.0
  0
LINE
  5
2D8
330
1E
100
AcDbEntity
  8
0
100
AcDbLine
 10
114.8889999999999
 20
4.35855
 30
0.0
 11
114.8889999999999
 21
5.076639452970299
 31
0.0
  0
LINE
  5
2D9
330
1E
100
AcDbEntity
  8
0
100
AcDbLine
 10
114.8889999999999
 20
4.35855
 30
0.0
 11
116.8889999999999
 21
4.35855
 31
0.0
  0
LINE
  5
2DA
330
1E
100
AcDbEntity
  8
0
100
AcDbLine
 10
114.8889999999999
 20
4.358519999999999
 30
0.0
 11
114.8889999999999
 21
4.99525420601093
 31
0.0
  0
LINE
  5
2DB
330
1E
100
AcDbEntity
  8
0
100
AcDbLine
 10
114.8889999999999
 20
4.358519999999999
 30
0.0
 11
116.8889999999999
 21
4.358519999999999
 31
0.0
  0
LINE
  5
2DC
330
1E
100
AcDbEntity
  8
0
100
AcDbLine
 10
116.8889999999999
 20
4.858489999999999
 30
0.0
 11
116.8889999999999
 21
4.35855
 31
0.0
  0
LINE
  5
2DD
330
1E
100
AcDbEntity
  8
0
100
AcDbLine
 10
116.8889999999999
 20
4.35855
 30
0.0
 11
116.8889999999999
 21
4.858489999999999
 31
0.0
  0
LINE
  5
2DE
330
1E
100
AcDbEntity
  8
0
100
AcDbLine
 10
117.0
 20
4.35903
 30
0.0
 11
117.0
 21
4.858489999999999
 31
0.0
  0
LINE
  5
2DF
330
1E
100
AcDbEntity
  8
0
100
AcDbLine
 10
117.0
 20
4.35903
 30
0.0
 11
119.0
 21
4.35903
 31
0.0
  0
LINE
  5
2E0
330
1E
100
AcDbEntity
  8
0
100
AcDbLine
 10
117.0
 20
4.858489999999999
 30
0.0
 11
117.0
 21
4.359059999999999
 31
0.0
  0
LINE
  5
2E1
330
1E
100
AcDbEntity
  8
0
100
AcDbLine
 10
117.0
 20
4.858489999999999
 30
0.0
 11
117.0
 21
4.35903
 31
0.0
  0
LINE
  5
2E2
330
1E
100
AcDbEntity
  8
0
100
AcDbLine
 10
117.0
 20
4.359059999999999
 30
0.0
 11
117.0
 21
4.858489999999999
 31
0.0
  0
LINE
  5
2E3
330
1E
100
AcDbEntity
  8
0
100
AcDbLine
 10
117.0
 20
4.359059999999999
 30
0.0
 11
119.0
 21
4.359059999999999
 31
0.0
  0
LINE
  5
2E4
330
1E
100
AcDbEntity
  8
0
100
AcDbLine
 10
119.0
 20
4.359059999999999
 30
0.0
 11
119.0
 21
5.14127666666666
 31
0.0
  0
LINE
  5
2E5
330
1E
100
AcDbEntity
  8
0
100
AcDbLine
 10
117.998
 20
4.858489999999999
 30
0.0
 11
117.998
 21
5.774805171578949
 31
0.0
  0
LINE
  5
2E6
330
1E
100
AcDbEntity
  8
0
100
AcDbLine
 10
115.998
 20
4.858489999999999
 30
0.0
 11
115.998
 21
5.66955569789474
 31
0.0
  0
LINE
  5
2E7
330
1E
100
AcDbEntity
  8
0
100
AcDbLine
 10
115.998
 20
4.858489999999999
 30
0.0
 11
117.998
 21
4.858489999999999
 31
0.0
  0
LINE
  5
2E8
330
1E
100
AcDbEntity
  8
0
100
AcDbLine
 10
115.998
 20
4.858959999999999
 30
0.0
 11
115.998
 21
5.620657599999999
 31
0.0
  0
LINE
  5
2E9
330
1E
100
AcDbEntity
  8
0
100
AcDbLine
 10
110.777
 20
4.74392631035714
 30
0.0
 11
114.0
 21
4.85903
 31
0.0
  0
LINE
  5
2EA
330
1E
100
AcDbEntity
  8
0
100
AcDbLine
 10
107.2189999999999
 20
4.859059999999999
 30
0.0
 11
107.2189999999999
 21
5.81763516782609
 31
0.0
  0
LINE
  5
2EB
330
1E
100
AcDbEntity
  8
0
100
AcDbLine
 10
107.2189999999999
 20
4.859059999999999
 30
0.0
 11
109.2189999999999
 21
4.859059999999999
 31
0.0
  0
LINE
  5
2EC
330
1E
100
AcDbEntity
  8
0
100
AcDbLine
 10
108.777
 20
4.85904
 30
0.0
 11
108.777
 21
4.35888
 31
0.0
  0
LINE
  5
2ED
330
1E
100
AcDbEntity
  8
0
100
AcDbLine
 10
108.777
 20
4.85904
 30
0.0
 11
108.777
 21
4.358909999999999
 31
0.0
  0
LINE
  5
2EE
330
1E
100
AcDbEntity
  8
0
100
AcDbLine
 10
107.2189999999999
 20
4.85904
 30
0.0
 11
107.2189999999999
 21
5.81763516782609
 31
0.0
  0
LINE
  5
2EF
330
1E
100
AcDbEntity
  8
0
100
AcDbLine
 10
107.2189999999999
 20
4.85904
 30
0.0
 11
109.2189999999999
 21
4.85904
 31
0.0
  0
LINE
  5
2F0
330
1E
100
AcDbEntity
  8
0
100
AcDbLine
 10
72.152
 20
4.85911
 30
0.0
 11
72.152
 21
4.358519999999999
 31
0.0
  0
LINE
  5
2F1
330
1E
100
AcDbEntity
  8
0
100
AcDbLine
 10
88.01799999999998
 20
4.85911
 30
0.0
 11
88.01799999999998
 21
5.859214395454549
 31
0.0
  0
LINE
  5
2F2
330
1E
100
AcDbEntity
  8
0
100
AcDbLine
 10
88.01799999999998
 20
4.85911
 30
0.0
 11
89.75010000000001
 21
4.85863
 31
0.0
  0
LINE
  5
2F3
330
1E
100
AcDbEntity
  8
0
100
AcDbLine
 10
80.98550000000001
 20
5.06072241153846
 30
0.0
 11
80.98550000000001
 21
4.359399999999999
 31
0.0
  0
LINE
  5
2F4
330
1E
100
AcDbEntity
  8
0
100
AcDbLine
 10
82.7175
 20
5.054441135658919
 30
0.0
 11
82.7175
 21
4.359409999999999
 31
0.0
  0
LINE
  5
2F5
330
1E
100
AcDbEntity
  8
0
100
AcDbLine
 10
69.42
 20
4.96733555294118
 30
0.0
 11
69.42
 21
4.358489999999999
 31
0.0
  0
LINE
  5
2F6
330
1E
100
AcDbEntity
  8
0
100
AcDbLine
 10
91.88399999999999
 20
4.93201905531915
 30
0.0
 11
91.88399999999999
 21
4.35895
 31
0.0
  0
LINE
  5
2F7
330
1E
100
AcDbEntity
  8
0
100
AcDbLine
 10
94.616
 20
5.06631584969697
 30
0.0
 11
94.616
 21
4.358919999999999
 31
0.0
  0
LINE
  5
2F8
330
1E
100
AcDbEntity
  8
0
100
AcDbLine
 10
92.88400000000001
 20
5.038421182978719
 30
0.0
 11
92.88400000000001
 21
4.358929999999999
 31
0.0
  0
LINE
  5
2F9
330
1E
100
AcDbEntity
  8
0
100
AcDbLine
 10
101.442
 20
4.922066395522389
 30
0.0
 11
101.442
 21
4.35895
 31
0.0
  0
LINE
  5
2FA
330
1E
100
AcDbEntity
  8
0
100
AcDbLine
 10
103.442
 20
5.071297738805969
 30
0.0
 11
103.442
 21
4.358979999999999
 31
0.0
  0
LINE
  5
2FB
330
1E
100
AcDbEntity
  8
0
100
AcDbLine
 10
109.2189999999999
 20
4.859059999999999
 30
0.0
 11
109.2189999999999
 21
5.85919265810811
 31
0.0
  0
LINE
  5
2FC
330
1E
100
AcDbEntity
  8
0
100
AcDbLine
 10
114.8889999999999
 20
4.90581853789474
 30
0.0
 11
114.8889999999999
 21
4.3592
 31
0.0
  0
LINE
  5
2FD
330
1E
100
AcDbEntity
  8
0
100
AcDbLine
 10
114.8889999999999
 20
4.90581853789474
 30
0.0
 11
114.8889999999999
 21
4.35918
 31
0.0
  0
LINE
  5
2FE
330
1E
100
AcDbEntity
  8
0
100
AcDbLine
 10
83.7175
 20
5.13195896511628
 30
0.0
 11
83.7175
 21
4.35943
 31
0.0
  0
LINE
  5
2FF
330
1E
100
AcDbEntity
  8
0
100
AcDbLine
 10
71.152
 20
5.171081919999999
 30
0.0
 11
71.152
 21
4.3585
 31
0.0
  0
LINE
  5
300
330
1E
100
AcDbEntity
  8
0
100
AcDbLine
 10
110.777
 20
5.17483197035176
 30
0.0
 11
110.777
 21
4.358909999999999
 31
0.0
  0
LINE
  5
301
330
1E
100
AcDbEntity
  8
0
100
AcDbLine
 10
101.442
 20
5.15386658426966
 30
0.0
 11
101.442
 21
4.358979999999999
 31
0.0
  0
LINE
  5
302
330
1E
100
AcDbEntity
  8
0
100
AcDbLine
 10
114.8889999999999
 20
5.076639452970299
 30
0.0
 11
114.8889999999999
 21
4.35855
 31
0.0
  0
LINE
  5
303
330
1E
100
AcDbEntity
  8
0
100
AcDbLine
 10
114.8889999999999
 20
4.99525420601093
 30
0.0
 11
114.8889999999999
 21
4.358519999999999
 31
0.0
  0
LINE
  5
304
330
1E
100
AcDbEntity
  8
0
100
AcDbLine
 10
75.6339
 20
5.69831681752941
 30
0.0
 11
75.6339
 21
4.858959999999999
 31
0.0
  0
LINE
  5
305
330
1E
100
AcDbEntity
  8
0
100
AcDbLine
 10
90.7501
 20
5.677110852558139
 30
0.0
 11
90.7501
 21
4.858649999999999
 31
0.0
  0
LINE
  5
306
330
1E
100
AcDbEntity
  8
0
100
AcDbLine
 10
97.88400000000001
 20
5.674593428571429
 30
0.0
 11
97.88400000000001
 21
4.85881
 31
0.0
  0
LINE
  5
307
330
1E
100
AcDbEntity
  8
0
100
AcDbLine
 10
98.884
 20
5.742644448979589
 30
0.0
 11
98.884
 21
4.858789999999999
 31
0.0
  0
LINE
  5
308
330
1E
100
AcDbEntity
  8
0
100
AcDbLine
 10
115.998
 20
5.66955569789474
 30
0.0
 11
115.998
 21
4.858489999999999
 31
0.0
  0
LINE
  5
309
330
1E
100
AcDbEntity
  8
0
100
AcDbLine
 10
119.0
 20
5.14127666666666
 30
0.0
 11
119.0
 21
4.359059999999999
 31
0.0
  0
LINE
  5
30A
330
1E
100
AcDbEntity
  8
0
100
AcDbLine
 10
115.998
 20
5.620657599999999
 30
0.0
 11
115.998
 21
4.858959999999999
 31
0.0
  0
LINE
  5
30B
330
1E
100
AcDbEntity
  8
0
100
AcDbLine
 10
114.0
 20
4.85903
 30
0.0
 11
114.8889999999999
 21
4.90581853789474
 31
0.0
  0
LINE
  5
30C
330
1E
100
AcDbEntity
  8
0
100
AcDbLine
 10
122.555
 20
4.85868
 30
0.0
 11
122.555
 21
5.30928415263158
 31
0.0
  0
LINE
  5
30D
330
1E
100
AcDbEntity
  8
0
100
AcDbLine
 10
122.555
 20
4.85868
 30
0.0
 11
124.555
 21
4.85868
 31
0.0
  0
LINE
  5
30E
330
1E
100
AcDbEntity
  8
0
100
AcDbLine
 10
122.555
 20
4.858709999999999
 30
0.0
 11
122.555
 21
5.30928415263158
 31
0.0
  0
LINE
  5
30F
330
1E
100
AcDbEntity
  8
0
100
AcDbLine
 10
122.555
 20
4.858709999999999
 30
0.0
 11
124.555
 21
4.858709999999999
 31
0.0
  0
LINE
  5
310
330
1E
100
AcDbEntity
  8
0
100
AcDbLine
 10
122.555
 20
4.85902
 30
0.0
 11
122.555
 21
5.747424181818179
 31
0.0
  0
LINE
  5
311
330
1E
100
AcDbEntity
  8
0
100
AcDbLine
 10
122.555
 20
4.85902
 30
0.0
 11
124.555
 21
4.85902
 31
0.0
  0
LINE
  5
312
330
1E
100
AcDbEntity
  8
0
100
AcDbLine
 10
122.555
 20
4.858999999999999
 30
0.0
 11
122.555
 21
5.58830574626865
 31
0.0
  0
LINE
  5
313
330
1E
100
AcDbEntity
  8
0
100
AcDbLine
 10
122.555
 20
4.858999999999999
 30
0.0
 11
124.555
 21
4.858999999999999
 31
0.0
  0
LINE
  5
314
330
1E
100
AcDbEntity
  8
0
100
AcDbLine
 10
122.555
 20
5.30928415263158
 30
0.0
 11
122.555
 21
4.85868
 31
0.0
  0
LINE
  5
315
330
1E
100
AcDbEntity
  8
0
100
AcDbLine
 10
122.555
 20
5.30928415263158
 30
0.0
 11
122.555
 21
4.858709999999999
 31
0.0
  0
LINE
  5
316
330
1E
100
AcDbEntity
  8
0
100
AcDbLine
 10
124.555
 20
4.85902
 30
0.0
 11
124.555
 21
5.687778383084579
 31
0.0
  0
LINE
  5
317
330
1E
100
AcDbEntity
  8
0
100
AcDbLine
 10
127.1109999999999
 20
4.85864
 30
0.0
 11
127.1109999999999
 21
5.662942733879781
 31
0.0
  0
LINE
  5
318
330
1E
100
AcDbEntity
  8
0
100
AcDbLine
 10
127.1109999999999
 20
4.85864
 30
0.0
 11
129.1109999999999
 21
4.85864
 31
0.0
  0
LINE
  5
319
330
1E
100
AcDbEntity
  8
0
100
AcDbLine
 10
127.1109999999999
 20
4.85904
 30
0.0
 11
127.1109999999999
 21
5.549068830526309
 31
0.0
  0
LINE
  5
31A
330
1E
100
AcDbEntity
  8
0
100
AcDbLine
 10
129.1109999999999
 20
4.85902
 30
0.0
 11
131.0
 21
4.85902
 31
0.0
  0
LINE
  5
31B
330
1E
100
AcDbEntity
  8
0
100
AcDbLine
 10
129.1109999999999
 20
4.859049999999999
 30
0.0
 11
131.0
 21
4.859049999999999
 31
0.0
  0
LINE
  5
31C
330
1E
100
AcDbEntity
  8
0
100
AcDbLine
 10
127.1109999999999
 20
4.859059999999999
 30
0.0
 11
127.1109999999999
 21
5.549068830526309
 31
0.0
  0
LINE
  5
31D
330
1E
100
AcDbEntity
  8
0
100
AcDbLine
 10
127.1109999999999
 20
4.85867
 30
0.0
 11
127.1109999999999
 21
5.662942733879781
 31
0.0
  0
LINE
  5
31E
330
1E
100
AcDbEntity
  8
0
100
AcDbLine
 10
127.1109999999999
 20
4.85867
 30
0.0
 11
129.1109999999999
 21
4.85867
 31
0.0
  0
LINE
  5
31F
330
1E
100
AcDbEntity
  8
0
100
AcDbLine
 10
131.0
 20
4.859049999999999
 30
0.0
 11
131.0
 21
5.756476666666669
 31
0.0
  0
LINE
  5
320
330
1E
100
AcDbEntity
  8
0
100
AcDbLine
 10
129.1109999999999
 20
4.85867
 30
0.0
 11
129.1109999999999
 21
5.772202843169401
 31
0.0
  0
LINE
  5
321
330
1E
100
AcDbEntity
  8
0
100
AcDbLine
 10
122.555
 20
5.747424181818179
 30
0.0
 11
122.555
 21
4.85902
 31
0.0
  0
LINE
  5
322
330
1E
100
AcDbEntity
  8
0
100
AcDbLine
 10
122.555
 20
5.58830574626865
 30
0.0
 11
122.555
 21
4.858999999999999
 31
0.0
  0
LINE
  5
323
330
1E
100
AcDbEntity
  8
0
100
AcDbLine
 10
127.1109999999999
 20
5.549068830526309
 30
0.0
 11
127.1109999999999
 21
4.859059999999999
 31
0.0
  0
LINE
  5
324
330
1E
100
AcDbEntity
  8
0
100
AcDbLine
 10
127.1109999999999
 20
5.549068830526309
 30
0.0
 11
127.1109999999999
 21
4.85904
 31
0.0
  0
LINE
  5
325
330
1E
100
AcDbEntity
  8
0
100
AcDbLine
 10
127.1109999999999
 20
5.662942733879781
 30
0.0
 11
127.1109999999999
 21
4.85864
 31
0.0
  0
LINE
  5
326
330
1E
100
AcDbEntity
  8
0
100
AcDbLine
 10
127.1109999999999
 20
5.662942733879781
 30
0.0
 11
127.1109999999999
 21
4.85867
 31
0.0
  0
LINE
  5
327
330
1E
100
AcDbEntity
  8
0
100
AcDbLine
 10
124.555
 20
5.687778383084579
 30
0.0
 11
124.555
 21
4.85902
 31
0.0
  0
LINE
  5
328
330
1E
100
AcDbEntity
  8
0
100
AcDbLine
 10
124.555
 20
5.41454520526316
 30
0.0
 11
127.1109999999999
 21
5.549068830526309
 31
0.0
  0
LINE
  5
329
330
1E
100
AcDbEntity
  8
0
100
AcDbLine
 10
119.0
 20
5.12218263157895
 30
0.0
 11
122.555
 21
5.30928415263158
 31
0.0
  0
LINE
  5
32A
330
1E
100
AcDbEntity
  8
0
100
AcDbLine
 10
107.2189999999999
 20
5.81763516782609
 30
0.0
 11
107.2189999999999
 21
4.85904
 31
0.0
  0
LINE
  5
32B
330
1E
100
AcDbEntity
  8
0
100
AcDbLine
 10
107.2189999999999
 20
5.81763516782609
 30
0.0
 11
107.2189999999999
 21
4.859059999999999
 31
0.0
  0
LINE
  5
32C
330
1E
100
AcDbEntity
  8
0
100
AcDbLine
 10
131.0
 20
5.756476666666669
 30
0.0
 11
131.0
 21
4.859049999999999
 31
0.0
  0
LINE
  5
32D
330
1E
100
AcDbEntity
  8
0
100
AcDbLine
 10
129.1109999999999
 20
5.772202843169401
 30
0.0
 11
129.1109999999999
 21
4.85867
 31
0.0
  0
LINE
  5
32E
330
1E
100
AcDbEntity
  8
0
100
AcDbLine
 10
117.998
 20
5.774805171578949
 30
0.0
 11
117.998
 21
4.858489999999999
 31
0.0
  0
LINE
  5
32F
330
1E
100
AcDbEntity
  8
0
100
AcDbLine
 10
131.0
 20
5.75374894736842
 30
0.0
 11
133.0
 21
5.859009999999999
 31
0.0
  0
LINE
  5
330
330
1E
100
AcDbEntity
  8
0
100
AcDbLine
 10
64.0
 20
3.859469999999999
 30
0.0
 11
66.2
 21
3.85918
 31
0.0
  0
LINE
  5
331
330
1E
100
AcDbEntity
  8
0
100
AcDbLine
 10
77.0
 20
5.85902
 30
0.0
 11
80.57304043934609
 21
5.85921123315028
 31
0.0
  0
LINE
  5
332
330
1E
100
AcDbEntity
  8
0
100
AcDbLine
 10
130.6999999999999
 20
5.859009999999999
 30
0.0
 11
132.4
 21
5.859119999999999
 31
0.0
  0
LINE
  5
333
330
1E
100
AcDbEntity
  8
0
100
AcDbLine
 10
136.0
 20
5.859009999999999
 30
0.0
 11
137.0
 21
6.858989999999999
 31
0.0
  0
LINE
  5
334
330
1E
100
AcDbEntity
  8
0
100
AcDbLine
 10
65.4556
 20
5.859331507586209
 30
0.0
 11
65.4556
 21
4.858719999999999
 31
0.0
  0
LINE
  5
335
330
1E
100
AcDbEntity
  8
0
100
AcDbLine
 10
64.4556
 20
5.85931886390805
 30
0.0
 11
64.4556
 21
4.858699999999999
 31
0.0
  0
LINE
  5
336
330
1E
100
AcDbEntity
  8
0
100
AcDbLine
 10
62.72359999999999
 20
5.859296965057469
 30
0.0
 11
62.72359999999999
 21
4.85868
 31
0.0
  0
LINE
  5
337
330
1E
100
AcDbEntity
  8
0
100
AcDbLine
 10
68.5
 20
5.859329999999999
 30
0.0
 11
77.0
 21
5.85902
 31
0.0
  0
LINE
  5
338
330
1E
100
AcDbEntity
  8
0
100
AcDbLine
 10
68.5
 20
5.859369999999999
 30
0.0
 11
77.2
 21
5.859259999999999
 31
0.0
  0
LINE
  5
339
330
1E
100
AcDbEntity
  8
0
100
AcDbLine
 10
68.5
 20
6.85936
 30
0.0
 11
77.3
 21
6.85925
 31
0.0
  0
LINE
  5
33A
330
1E
100
AcDbEntity
  8
0
100
AcDbLine
 10
68.5
 20
27.8589
 30
0.0
 11
77.3
 21
27.8588
 31
0.0
  0
LINE
  5
33B
330
1E
100
AcDbEntity
  8
0
100
AcDbLine
 10
77.2
 20
5.859259999999999
 30
0.0
 11
85.5
 21
5.85914
 31
0.0
  0
LINE
  5
33C
330
1E
100
AcDbEntity
  8
0
100
AcDbLine
 10
78.3659
 20
5.85924314361446
 30
0.0
 11
78.3659
 21
4.85899
 31
0.0
  0
LINE
  5
33D
330
1E
100
AcDbEntity
  8
0
100
AcDbLine
 10
77.36589999999999
 20
5.85925760144579
 30
0.0
 11
77.36589999999999
 21
4.858969999999999
 31
0.0
  0
LINE
  5
33E
330
1E
100
AcDbEntity
  8
0
100
AcDbLine
 10
85.5
 20
5.85914
 30
0.0
 11
94.29999999999999
 21
5.859399999999999
 31
0.0
  0
LINE
  5
33F
330
1E
100
AcDbEntity
  8
0
100
AcDbLine
 10
77.3
 20
6.85925
 30
0.0
 11
86.2
 21
6.859329999999999
 31
0.0
  0
LINE
  5
340
330
1E
100
AcDbEntity
  8
0
100
AcDbLine
 10
77.3
 20
27.8588
 30
0.0
 11
86.2
 21
27.8589
 31
0.0
  0
LINE
  5
341
330
1E
100
AcDbEntity
  8
0
100
AcDbLine
 10
86.2
 20
6.859329999999999
 30
0.0
 11
94.7
 21
6.859389999999999
 31
0.0
  0
LINE
  5
342
330
1E
100
AcDbEntity
  8
0
100
AcDbLine
 10
88.01799999999998
 20
5.859214395454549
 30
0.0
 11
88.01799999999998
 21
4.85911
 31
0.0
  0
LINE
  5
343
330
1E
100
AcDbEntity
  8
0
100
AcDbLine
 10
89.75010000000001
 20
5.859265571136369
 30
0.0
 11
89.75010000000001
 21
4.85863
 31
0.0
  0
LINE
  5
344
330
1E
100
AcDbEntity
  8
0
100
AcDbLine
 10
93.1
 20
5.859269999999999
 30
0.0
 11
97.0932432432885
 21
5.85934986486487
 31
0.0
  0
LINE
  5
345
330
1E
100
AcDbEntity
  8
0
100
AcDbLine
 10
90.95074626863008
 20
5.85930104477612
 30
0.0
 11
93.1
 21
5.859269999999999
 31
0.0
  0
LINE
  5
346
330
1E
100
AcDbEntity
  8
0
100
AcDbLine
 10
100.6159999999999
 20
5.85928663589744
 30
0.0
 11
100.6159999999999
 21
4.858769999999999
 31
0.0
  0
LINE
  5
347
330
1E
100
AcDbEntity
  8
0
100
AcDbLine
 10
93.1
 20
5.859269999999999
 30
0.0
 11
97.09324324326141
 21
5.85934986486487
 31
0.0
  0
LINE
  5
348
330
1E
100
AcDbEntity
  8
0
100
AcDbLine
 10
90.9507462686478
 20
5.85930104477612
 30
0.0
 11
93.1
 21
5.859269999999999
 31
0.0
  0
LINE
  5
349
330
1E
100
AcDbEntity
  8
0
100
AcDbLine
 10
102.0999999999999
 20
5.859259999999999
 30
0.0
 11
109.4999999999999
 21
5.859189999999999
 31
0.0
  0
LINE
  5
34A
330
1E
100
AcDbEntity
  8
0
100
AcDbLine
 10
94.29999999999999
 20
5.859399999999999
 30
0.0
 11
102.0999999999999
 21
5.859259999999999
 31
0.0
  0
LINE
  5
34B
330
1E
100
AcDbEntity
  8
0
100
AcDbLine
 10
102.6
 20
6.859139999999999
 30
0.0
 11
110.0999999999999
 21
6.85908
 31
0.0
  0
LINE
  5
34C
330
1E
100
AcDbEntity
  8
0
100
AcDbLine
 10
94.7
 20
6.859389999999999
 30
0.0
 11
102.6
 21
6.859139999999999
 31
0.0
  0
LINE
  5
34D
330
1E
100
AcDbEntity
  8
0
100
AcDbLine
 10
109.2189999999999
 20
5.85919265810811
 30
0.0
 11
109.2189999999999
 21
4.859059999999999
 31
0.0
  0
LINE
  5
34E
330
1E
100
AcDbEntity
  8
0
100
AcDbLine
 10
102.6
 20
27.8587
 30
0.0
 11
110.0999999999999
 21
27.8586
 31
0.0
  0
LINE
  5
34F
330
1E
100
AcDbEntity
  8
0
100
AcDbLine
 10
94.7
 20
27.8589
 30
0.0
 11
102.6
 21
27.8587
 31
0.0
  0
LINE
  5
350
330
1E
100
AcDbEntity
  8
0
100
AcDbLine
 10
86.2
 20
27.8589
 30
0.0
 11
94.7
 21
27.8589
 31
0.0
  0
LINE
  5
351
330
1E
100
AcDbEntity
  8
0
100
AcDbLine
 10
102.0999999999999
 20
28.8588
 30
0.0
 11
109.4999999999999
 21
28.8587
 31
0.0
  0
LINE
  5
352
330
1E
100
AcDbEntity
  8
0
100
AcDbLine
 10
85.5
 20
28.8586
 30
0.0
 11
94.29999999999999
 21
28.85889999999999
 31
0.0
  0
LINE
  5
353
330
1E
100
AcDbEntity
  8
0
100
AcDbLine
 10
108.4999999999999
 20
29.6610149700599
 30
0.0
 11
108.4999999999999
 21
32.8411
 31
0.0
  0
LINE
  5
354
330
1E
100
AcDbEntity
  8
0
100
AcDbLine
 10
94.29999999999999
 20
28.85889999999999
 30
0.0
 11
102.0999999999999
 21
28.8588
 31
0.0
  0
LINE
  5
355
330
1E
100
AcDbEntity
  8
0
100
AcDbLine
 10
77.2
 20
28.8588
 30
0.0
 11
85.5
 21
28.8586
 31
0.0
  0
LINE
  5
356
330
1E
100
AcDbEntity
  8
0
100
AcDbLine
 10
68.5
 20
28.85889999999999
 30
0.0
 11
77.2
 21
28.8588
 31
0.0
  0
LINE
  5
357
330
1E
100
AcDbEntity
  8
0
100
AcDbLine
 10
60.2335
 20
44.08619999999999
 30
0.0
 11
61.50310000000001
 21
44.08619999999999
 31
0.0
  0
LINE
  5
358
330
1E
100
AcDbEntity
  8
0
100
AcDbLine
 10
60.2335
 20
51.8481
 30
0.0
 11
61.50310000000001
 21
51.8481
 31
0.0
  0
LINE
  5
35E
330
1E
100
AcDbEntity
  8
0
100
AcDbLine
 10
59.89609999999999
 20
57.7301
 30
0.0
 11
59.937
 21
57.6831
 31
0.0
  0
LINE
  5
360
330
1E
100
AcDbEntity
  8
0
100
AcDbLine
 10
59.9861
 20
56.1661
 30
0.0
 11
60.2361
 21
56.4901
 31
0.0
  0
LINE
  5
361
330
1E
100
AcDbEntity
  8
0
100
AcDbLine
 10
60.01809999999999
 20
57.60609999999999
 30
0.0
 11
60.1109
 21
57.47209999999999
 31
0.0
  0
LINE
  5
362
330
1E
100
AcDbEntity
  8
0
100
AcDbLine
 10
60.1109
 20
57.47209999999999
 30
0.0
 11
60.2542
 21
57.2721
 31
0.0
  0
LINE
  5
363
330
1E
100
AcDbEntity
  8
0
100
AcDbLine
 10
59.937
 20
57.6831
 30
0.0
 11
60.01809999999999
 21
57.60609999999999
 31
0.0
  0
LINE
  5
372
330
1E
100
AcDbEntity
  8
0
100
AcDbLine
 10
59.8137
 20
53.24110000000001
 30
0.0
 11
60.9715
 21
53.24110000000001
 31
0.0
  0
LINE
  5
373
330
1E
100
AcDbEntity
  8
0
100
AcDbLine
 10
60.7027
 20
51.9821
 30
0.0
 11
61.9823
 21
51.9821
 31
0.0
  0
LINE
  5
374
330
1E
100
AcDbEntity
  8
0
100
AcDbLine
 10
60.7027
 20
52.7441
 30
0.0
 11
61.9823
 21
52.7441
 31
0.0
  0
LINE
  5
375
330
1E
100
AcDbEntity
  8
0
100
AcDbLine
 10
60.2889
 20
33.3387
 30
0.0
 11
61.5504
 21
33.3387
 31
0.0
  0
LINE
  5
376
330
1E
100
AcDbEntity
  8
0
100
AcDbLine
 10
60.2542
 20
57.2721
 30
0.0
 11
60.32630000000001
 21
56.8791
 31
0.0
  0
LINE
  5
377
330
1E
100
AcDbEntity
  8
0
100
AcDbLine
 10
60.2361
 20
56.4901
 30
0.0
 11
60.32630000000001
 21
56.8791
 31
0.0
  0
LINE
  5
378
330
1E
100
AcDbEntity
  8
0
100
AcDbLine
 10
60.6433
 20
73.84109999999999
 30
0.0
 11
61.8796
 21
73.84109999999999
 31
0.0
  0
LINE
  5
379
330
1E
100
AcDbEntity
  8
0
100
AcDbLine
 10
63.2789
 20
32.8411
 30
0.0
 11
68.5
 21
32.8411
 31
0.0
  0
LINE
  5
37A
330
1E
100
AcDbEntity
  8
0
100
AcDbLine
 10
62.87729999999999
 20
33.3387
 30
0.0
 11
64.2587
 21
33.3387
 31
0.0
  0
LINE
  5
37B
330
1E
100
AcDbEntity
  8
0
100
AcDbLine
 10
61.50310000000001
 20
44.08619999999999
 30
0.0
 11
62.8401
 21
44.08619999999999
 31
0.0
  0
LINE
  5
37C
330
1E
100
AcDbEntity
  8
0
100
AcDbLine
 10
61.50310000000001
 20
51.8481
 30
0.0
 11
62.8401
 21
51.8481
 31
0.0
  0
LINE
  5
37D
330
1E
100
AcDbEntity
  8
0
100
AcDbLine
 10
62.8401
 20
44.08619999999999
 30
0.0
 11
64.2305
 21
44.08619999999999
 31
0.0
  0
LINE
  5
37E
330
1E
100
AcDbEntity
  8
0
100
AcDbLine
 10
62.8401
 20
51.8481
 30
0.0
 11
64.2305
 21
51.8481
 31
0.0
  0
LINE
  5
37F
330
1E
100
AcDbEntity
  8
0
100
AcDbLine
 10
63.3274
 20
44.08619999999999
 30
0.0
 11
64.7258
 21
44.08619999999999
 31
0.0
  0
LINE
  5
380
330
1E
100
AcDbEntity
  8
0
100
AcDbLine
 10
61.9823
 20
44.08619999999999
 30
0.0
 11
63.3274
 21
44.08619999999999
 31
0.0
  0
LINE
  5
381
330
1E
100
AcDbEntity
  8
0
100
AcDbLine
 10
61.5504
 20
33.3387
 30
0.0
 11
62.87729999999999
 21
33.3387
 31
0.0
  0
LINE
  5
382
330
1E
100
AcDbEntity
  8
0
100
AcDbLine
 10
64.7258
 20
44.08619999999999
 30
0.0
 11
66.16249999999999
 21
44.08619999999999
 31
0.0
  0
LINE
  5
383
330
1E
100
AcDbEntity
  8
0
100
AcDbLine
 10
64.2587
 20
33.3387
 30
0.0
 11
65.6802
 21
33.3387
 31
0.0
  0
LINE
  5
384
330
1E
100
AcDbEntity
  8
0
100
AcDbLine
 10
68.5
 20
32.8411
 30
0.0
 11
73.72110000000001
 21
32.8411
 31
0.0
  0
LINE
  5
385
330
1E
100
AcDbEntity
  8
0
100
AcDbLine
 10
68.4539
 20
33.3387
 30
0.0
 11
69.7788
 21
33.3387
 31
0.0
  0
LINE
  5
386
330
1E
100
AcDbEntity
  8
0
100
AcDbLine
 10
69.7788
 20
33.3387
 30
0.0
 11
71.22759999999999
 21
33.3387
 31
0.0
  0
LINE
  5
387
330
1E
100
AcDbEntity
  8
0
100
AcDbLine
 10
73.72110000000001
 20
32.8411
 30
0.0
 11
78.81579999999999
 21
32.8411
 31
0.0
  0
LINE
  5
388
330
1E
100
AcDbEntity
  8
0
100
AcDbLine
 10
72.6491
 20
33.3387
 30
0.0
 11
74.0304
 21
33.3387
 31
0.0
  0
LINE
  5
389
330
1E
100
AcDbEntity
  8
0
100
AcDbLine
 10
71.22759999999999
 20
33.3387
 30
0.0
 11
72.6491
 21
33.3387
 31
0.0
  0
LINE
  5
38A
330
1E
100
AcDbEntity
  8
0
100
AcDbLine
 10
78.81579999999999
 20
32.8411
 30
0.0
 11
83.7842
 21
32.8411
 31
0.0
  0
LINE
  5
38B
330
1E
100
AcDbEntity
  8
0
100
AcDbLine
 10
74.0304
 20
33.3387
 30
0.0
 11
75.3574
 21
33.3387
 31
0.0
  0
LINE
  5
38C
330
1E
100
AcDbEntity
  8
0
100
AcDbLine
 10
76.61889999999999
 20
33.3387
 30
0.0
 11
77.80079999999999
 21
33.3387
 31
0.0
  0
LINE
  5
38D
330
1E
100
AcDbEntity
  8
0
100
AcDbLine
 10
78.89319999999999
 20
33.3387
 30
0.0
 11
79.88590000000001
 21
33.3387
 31
0.0
  0
LINE
  5
38E
330
1E
100
AcDbEntity
  8
0
100
AcDbLine
 10
77.80079999999999
 20
33.3387
 30
0.0
 11
78.89319999999999
 21
33.3387
 31
0.0
  0
LINE
  5
38F
330
1E
100
AcDbEntity
  8
0
100
AcDbLine
 10
79.88590000000001
 20
33.3387
 30
0.0
 11
80.76680000000001
 21
33.3387
 31
0.0
  0
LINE
  5
390
330
1E
100
AcDbEntity
  8
0
100
AcDbLine
 10
81.5299
 20
33.3387
 30
0.0
 11
82.1672
 21
33.3387
 31
0.0
  0
LINE
  5
391
330
1E
100
AcDbEntity
  8
0
100
AcDbLine
 10
82.8466
 20
32.8411
 30
0.0
 11
83.0596
 21
33.0479
 31
0.0
  0
LINE
  5
394
330
1E
100
AcDbEntity
  8
0
100
AcDbLine
 10
82.6726
 20
33.3387
 30
0.0
 11
83.04109999999999
 21
33.3387
 31
0.0
  0
LINE
  5
395
330
1E
100
AcDbEntity
  8
0
100
AcDbLine
 10
83.0596
 20
33.0479
 30
0.0
 11
83.35320000000001
 21
33.3387
 31
0.0
  0
LINE
  5
397
330
1E
100
AcDbEntity
  8
0
100
AcDbLine
 10
83.04109999999999
 20
33.3387
 30
0.0
 11
83.26869999999999
 21
33.3387
 31
0.0
  0
LINE
  5
398
330
1E
100
AcDbEntity
  8
0
100
AcDbLine
 10
83.26869999999999
 20
33.3387
 30
0.0
 11
83.35320000000001
 21
33.3387
 31
0.0
  0
LINE
  5
399
330
1E
100
AcDbEntity
  8
0
100
AcDbLine
 10
96.75260000000001
 20
32.8411
 30
0.0
 11
100.163
 21
32.8411
 31
0.0
  0
LINE
  5
39A
330
1E
100
AcDbEntity
  8
0
100
AcDbLine
 10
100.163
 20
32.8411
 30
0.0
 11
103.1529999999999
 21
32.8411
 31
0.0
  0
LINE
  5
39B
330
1E
100
AcDbEntity
  8
0
100
AcDbLine
 10
103.1529999999999
 20
32.8411
 30
0.0
 11
105.384
 21
32.8411
 31
0.0
  0
LINE
  5
39C
330
1E
100
AcDbEntity
  8
0
100
AcDbLine
 10
105.384
 20
32.8411
 30
0.0
 11
107.068
 21
32.8411
 31
0.0
  0
LINE
  5
39D
330
1E
100
AcDbEntity
  8
0
100
AcDbLine
 10
107.068
 20
32.8411
 30
0.0
 11
108.0789999999999
 21
32.8411
 31
0.0
  0
LINE
  5
39E
330
1E
100
AcDbEntity
  8
0
100
AcDbLine
 10
108.0789999999999
 20
32.8411
 30
0.0
 11
108.4999999999999
 21
32.8411
 31
0.0
  0
LINE
  5
39F
330
1E
100
AcDbEntity
  8
0
100
AcDbLine
 10
108.4999999999999
 20
32.8411
 30
0.0
 11
108.4999999999999
 21
29.6610149700599
 31
0.0
  0
LINE
  5
3A0
330
1E
100
AcDbEntity
  8
0
100
AcDbLine
 10
92.8368
 20
32.8411
 30
0.0
 11
96.75260000000001
 21
32.8411
 31
0.0
  0
LINE
  5
3A1
330
1E
100
AcDbEntity
  8
0
100
AcDbLine
 10
88.4158
 20
32.8411
 30
0.0
 11
92.8368
 21
32.8411
 31
0.0
  0
LINE
  5
3A2
330
1E
100
AcDbEntity
  8
0
100
AcDbLine
 10
83.7842
 20
32.8411
 30
0.0
 11
88.4158
 21
32.8411
 31
0.0
  0
LINE
  5
3A4
330
1E
100
AcDbEntity
  8
0
100
AcDbLine
 10
83.35320000000001
 20
33.3387
 30
0.0
 11
83.35320000000001
 21
42.7
 31
0.0
  0
LINE
  5
3A5
330
1E
100
AcDbEntity
  8
0
100
AcDbLine
 10
82.1672
 20
33.3387
 30
0.0
 11
82.6726
 21
33.3387
 31
0.0
  0
LINE
  5
3A6
330
1E
100
AcDbEntity
  8
0
100
AcDbLine
 10
80.76680000000001
 20
33.3387
 30
0.0
 11
81.5299
 21
33.3387
 31
0.0
  0
LINE
  5
3A7
330
1E
100
AcDbEntity
  8
0
100
AcDbLine
 10
75.3574
 20
33.3387
 30
0.0
 11
76.61889999999999
 21
33.3387
 31
0.0
  0
LINE
  5
3A8
330
1E
100
AcDbEntity
  8
0
100
AcDbLine
 10
67.12899999999999
 20
33.3387
 30
0.0
 11
68.4539
 21
33.3387
 31
0.0
  0
LINE
  5
3A9
330
1E
100
AcDbEntity
  8
0
100
AcDbLine
 10
69.7879
 20
44.08619999999999
 30
0.0
 11
71.2457
 21
44.08619999999999
 31
0.0
  0
LINE
  5
3AA
330
1E
100
AcDbEntity
  8
0
100
AcDbLine
 10
73.58039999999999
 20
44.08619999999999
 30
0.0
 11
74.9255
 21
44.08619999999999
 31
0.0
  0
LINE
  5
3AB
330
1E
100
AcDbEntity
  8
0
100
AcDbLine
 10
74.0677
 20
44.08619999999999
 30
0.0
 11
75.4047
 21
44.08619999999999
 31
0.0
  0
LINE
  5
3AC
330
1E
100
AcDbEntity
  8
0
100
AcDbLine
 10
72.182
 20
44.08619999999999
 30
0.0
 11
73.58039999999999
 21
44.08619999999999
 31
0.0
  0
LINE
  5
3AD
330
1E
100
AcDbEntity
  8
0
100
AcDbLine
 10
70.7453
 20
44.08619999999999
 30
0.0
 11
72.182
 21
44.08619999999999
 31
0.0
  0
LINE
  5
3AE
330
1E
100
AcDbEntity
  8
0
100
AcDbLine
 10
72.6773
 20
44.08619999999999
 30
0.0
 11
74.0677
 21
44.08619999999999
 31
0.0
  0
LINE
  5
3AF
330
1E
100
AcDbEntity
  8
0
100
AcDbLine
 10
69.2855
 20
44.08619999999999
 30
0.0
 11
70.7453
 21
44.08619999999999
 31
0.0
  0
LINE
  5
3B0
330
1E
100
AcDbEntity
  8
0
100
AcDbLine
 10
71.2457
 20
44.08619999999999
 30
0.0
 11
72.6773
 21
44.08619999999999
 31
0.0
  0
LINE
  5
3B1
330
1E
100
AcDbEntity
  8
0
100
AcDbLine
 10
76.2051
 20
44.08619999999999
 30
0.0
 11
77.4042
 21
44.08619999999999
 31
0.0
  0
LINE
  5
3B2
330
1E
100
AcDbEntity
  8
0
100
AcDbLine
 10
78.5126
 20
44.08619999999999
 30
0.0
 11
79.5174
 21
44.08619999999999
 31
0.0
  0
LINE
  5
3B3
330
1E
100
AcDbEntity
  8
0
100
AcDbLine
 10
78.9637
 20
44.08619999999999
 30
0.0
 11
79.9624
 21
44.08619999999999
 31
0.0
  0
LINE
  5
3B4
330
1E
100
AcDbEntity
  8
0
100
AcDbLine
 10
77.4042
 20
44.08619999999999
 30
0.0
 11
78.5126
 21
44.08619999999999
 31
0.0
  0
LINE
  5
3B5
330
1E
100
AcDbEntity
  8
0
100
AcDbLine
 10
77.8643
 20
44.08619999999999
 30
0.0
 11
78.9637
 21
44.08619999999999
 31
0.0
  0
LINE
  5
3B6
330
1E
100
AcDbEntity
  8
0
100
AcDbLine
 10
76.6743
 20
44.08619999999999
 30
0.0
 11
77.8643
 21
44.08619999999999
 31
0.0
  0
LINE
  5
3B7
330
1E
100
AcDbEntity
  8
0
100
AcDbLine
 10
79.5174
 20
44.08619999999999
 30
0.0
 11
80.40840000000001
 21
44.08619999999999
 31
0.0
  0
LINE
  5
3B8
330
1E
100
AcDbEntity
  8
0
100
AcDbLine
 10
79.9624
 20
44.08619999999999
 30
0.0
 11
80.85039999999999
 21
44.08619999999999
 31
0.0
  0
LINE
  5
3B9
330
1E
100
AcDbEntity
  8
0
100
AcDbLine
 10
80.40840000000001
 20
44.08619999999999
 30
0.0
 11
81.17659999999998
 21
44.08619999999999
 31
0.0
  0
LINE
  5
3BA
330
1E
100
AcDbEntity
  8
0
100
AcDbLine
 10
83.35320000000001
 20
42.7
 30
0.0
 11
83.35320000000001
 21
33.3387
 31
0.0
  0
LINE
  5
3BB
330
1E
100
AcDbEntity
  8
0
100
AcDbLine
 10
81.17659999999998
 20
44.08619999999999
 30
0.0
 11
81.8149
 21
44.08619999999999
 31
0.0
  0
LINE
  5
3BC
330
1E
100
AcDbEntity
  8
0
100
AcDbLine
 10
81.61849999999999
 20
44.08619999999999
 30
0.0
 11
82.25990000000001
 21
44.08619999999999
 31
0.0
  0
LINE
  5
3BD
330
1E
100
AcDbEntity
  8
0
100
AcDbLine
 10
82.25990000000001
 20
44.08619999999999
 30
0.0
 11
82.7683
 21
44.08619999999999
 31
0.0
  0
LINE
  5
3BE
330
1E
100
AcDbEntity
  8
0
100
AcDbLine
 10
81.8149
 20
44.08619999999999
 30
0.0
 11
82.31520000000001
 21
44.08619999999999
 31
0.0
  0
LINE
  5
3BF
330
1E
100
AcDbEntity
  8
0
100
AcDbLine
 10
82.31520000000001
 20
44.08619999999999
 30
0.0
 11
82.67470000000001
 21
44.08619999999999
 31
0.0
  0
LINE
  5
3C0
330
1E
100
AcDbEntity
  8
0
100
AcDbLine
 10
83.11950000000001
 20
43.1013
 30
0.0
 11
83.35320000000001
 21
42.7
 31
0.0
  0
LINE
  5
3C2
330
1E
100
AcDbEntity
  8
0
100
AcDbLine
 10
83.3683
 20
44.08619999999999
 30
0.0
 11
83.4539
 21
44.08619999999999
 31
0.0
  0
LINE
  5
3C3
330
1E
100
AcDbEntity
  8
0
100
AcDbLine
 10
83.13979999999999
 20
44.08619999999999
 30
0.0
 11
83.3683
 21
44.08619999999999
 31
0.0
  0
LINE
  5
3C4
330
1E
100
AcDbEntity
  8
0
100
AcDbLine
 10
82.94719999999999
 20
44.08619999999999
 30
0.0
 11
82.94719999999999
 21
43.3896
 31
0.0
  0
LINE
  5
3C5
330
1E
100
AcDbEntity
  8
0
100
AcDbLine
 10
82.94719999999999
 20
44.08619999999999
 30
0.0
 11
83.13979999999999
 21
44.08619999999999
 31
0.0
  0
LINE
  5
3C6
330
1E
100
AcDbEntity
  8
0
100
AcDbLine
 10
83.4539
 20
44.08619999999999
 30
0.0
 11
83.4539
 21
51.8481
 31
0.0
  0
LINE
  5
3C7
330
1E
100
AcDbEntity
  8
0
100
AcDbLine
 10
83.44849999999999
 20
44.08619999999999
 30
0.0
 11
83.44849999999999
 21
51.8481
 31
0.0
  0
LINE
  5
3C8
330
1E
100
AcDbEntity
  8
0
100
AcDbLine
 10
82.94719999999999
 20
43.3896
 30
0.0
 11
83.11950000000001
 21
43.1013
 31
0.0
  0
LINE
  5
3C9
330
1E
100
AcDbEntity
  8
0
100
AcDbLine
 10
82.94719999999999
 20
43.3896
 30
0.0
 11
82.94719999999999
 21
44.08619999999999
 31
0.0
  0
LINE
  5
3CE
330
1E
100
AcDbEntity
  8
0
100
AcDbLine
 10
82.7683
 20
44.08619999999999
 30
0.0
 11
83.13979999999999
 21
44.08619999999999
 31
0.0
  0
LINE
  5
3CF
330
1E
100
AcDbEntity
  8
0
100
AcDbLine
 10
83.3683
 20
44.08619999999999
 30
0.0
 11
83.4539
 21
44.08619999999999
 31
0.0
  0
LINE
  5
3D0
330
1E
100
AcDbEntity
  8
0
100
AcDbLine
 10
83.13979999999999
 20
44.08619999999999
 30
0.0
 11
83.3683
 21
44.08619999999999
 31
0.0
  0
LINE
  5
3D1
330
1E
100
AcDbEntity
  8
0
100
AcDbLine
 10
82.67470000000001
 20
44.08619999999999
 30
0.0
 11
82.8871
 21
44.08619999999999
 31
0.0
  0
LINE
  5
3D3
330
1E
100
AcDbEntity
  8
0
100
AcDbLine
 10
82.8871
 20
44.08619999999999
 30
0.0
 11
82.94719999999999
 21
44.08619999999999
 31
0.0
  0
LINE
  5
3D6
330
1E
100
AcDbEntity
  8
0
100
AcDbLine
 10
80.85039999999999
 20
44.08619999999999
 30
0.0
 11
81.61849999999999
 21
44.08619999999999
 31
0.0
  0
LINE
  5
3D7
330
1E
100
AcDbEntity
  8
0
100
AcDbLine
 10
75.4047
 20
44.08619999999999
 30
0.0
 11
76.6743
 21
44.08619999999999
 31
0.0
  0
LINE
  5
3D8
330
1E
100
AcDbEntity
  8
0
100
AcDbLine
 10
74.9255
 20
44.08619999999999
 30
0.0
 11
76.2051
 21
44.08619999999999
 31
0.0
  0
LINE
  5
3D9
330
1E
100
AcDbEntity
  8
0
100
AcDbLine
 10
68.4539
 20
44.08619999999999
 30
0.0
 11
69.7879
 21
44.08619999999999
 31
0.0
  0
LINE
  5
3DA
330
1E
100
AcDbEntity
  8
0
100
AcDbLine
 10
68.4539
 20
44.08619999999999
 30
0.0
 11
69.2855
 21
44.08619999999999
 31
0.0
  0
LINE
  5
3DB
330
1E
100
AcDbEntity
  8
0
100
AcDbLine
 10
67.1199
 20
44.08619999999999
 30
0.0
 11
68.4539
 21
44.08619999999999
 31
0.0
  0
LINE
  5
3DC
330
1E
100
AcDbEntity
  8
0
100
AcDbLine
 10
68.4539
 20
51.8481
 30
0.0
 11
69.7879
 21
51.8481
 31
0.0
  0
LINE
  5
3DD
330
1E
100
AcDbEntity
  8
0
100
AcDbLine
 10
72.6773
 20
51.8481
 30
0.0
 11
74.0677
 21
51.8481
 31
0.0
  0
LINE
  5
3DF
330
1E
100
AcDbEntity
  8
0
100
AcDbLine
 10
69.7879
 20
51.8481
 30
0.0
 11
71.2457
 21
51.8481
 31
0.0
  0
LINE
  5
3E0
330
1E
100
AcDbEntity
  8
0
100
AcDbLine
 10
71.2457
 20
51.8481
 30
0.0
 11
72.6773
 21
51.8481
 31
0.0
  0
LINE
  5
3E1
330
1E
100
AcDbEntity
  8
0
100
AcDbLine
 10
78.9637
 20
51.8481
 30
0.0
 11
79.9624
 21
51.8481
 31
0.0
  0
LINE
  5
3E2
330
1E
100
AcDbEntity
  8
0
100
AcDbLine
 10
77.8643
 20
51.8481
 30
0.0
 11
78.9637
 21
51.8481
 31
0.0
  0
LINE
  5
3E3
330
1E
100
AcDbEntity
  8
0
100
AcDbLine
 10
76.6743
 20
51.8481
 30
0.0
 11
77.8643
 21
51.8481
 31
0.0
  0
LINE
  5
3E4
330
1E
100
AcDbEntity
  8
0
100
AcDbLine
 10
79.9624
 20
51.8481
 30
0.0
 11
80.85039999999999
 21
51.8481
 31
0.0
  0
LINE
  5
3E5
330
1E
100
AcDbEntity
  8
0
100
AcDbLine
 10
82.25990000000001
 20
51.8481
 30
0.0
 11
82.7683
 21
51.8481
 31
0.0
  0
LINE
  5
3E6
330
1E
100
AcDbEntity
  8
0
100
AcDbLine
 10
81.61849999999999
 20
51.8481
 30
0.0
 11
82.25990000000001
 21
51.8481
 31
0.0
  0
LINE
  5
3E7
330
1E
100
AcDbEntity
  8
0
100
AcDbLine
 10
82.7683
 20
51.8481
 30
0.0
 11
83.13880000000001
 21
51.8481
 31
0.0
  0
LINE
  5
3E8
330
1E
100
AcDbEntity
  8
0
100
AcDbLine
 10
83.3683
 20
51.8481
 30
0.0
 11
83.4539
 21
51.8481
 31
0.0
  0
LINE
  5
3E9
330
1E
100
AcDbEntity
  8
0
100
AcDbLine
 10
83.4539
 20
51.8481
 30
0.0
 11
83.4539
 21
44.08619999999999
 31
0.0
  0
LINE
  5
3EA
330
1E
100
AcDbEntity
  8
0
100
AcDbLine
 10
83.44849999999999
 20
51.8481
 30
0.0
 11
83.44849999999999
 21
44.08619999999999
 31
0.0
  0
LINE
  5
3EB
330
1E
100
AcDbEntity
  8
0
100
AcDbLine
 10
83.13880000000001
 20
51.8481
 30
0.0
 11
83.3683
 21
51.8481
 31
0.0
  0
LINE
  5
3EC
330
1E
100
AcDbEntity
  8
0
100
AcDbLine
 10
80.85039999999999
 20
51.8481
 30
0.0
 11
81.61849999999999
 21
51.8481
 31
0.0
  0
LINE
  5
3ED
330
1E
100
AcDbEntity
  8
0
100
AcDbLine
 10
75.4047
 20
51.8481
 30
0.0
 11
76.6743
 21
51.8481
 31
0.0
  0
LINE
  5
3EE
330
1E
100
AcDbEntity
  8
0
100
AcDbLine
 10
74.0677
 20
51.8481
 30
0.0
 11
75.4047
 21
51.8481
 31
0.0
  0
LINE
  5
3EF
330
1E
100
AcDbEntity
  8
0
100
AcDbLine
 10
67.1199
 20
51.8481
 30
0.0
 11
68.4539
 21
51.8481
 31
0.0
  0
LINE
  5
3F1
330
1E
100
AcDbEntity
  8
0
100
AcDbLine
 10
67.62229999999999
 20
44.08619999999999
 30
0.0
 11
68.4539
 21
44.08619999999999
 31
0.0
  0
LINE
  5
3F2
330
1E
100
AcDbEntity
  8
0
100
AcDbLine
 10
66.16249999999999
 20
44.08619999999999
 30
0.0
 11
67.62229999999999
 21
44.08619999999999
 31
0.0
  0
LINE
  5
3F3
330
1E
100
AcDbEntity
  8
0
100
AcDbLine
 10
65.6802
 20
33.3387
 30
0.0
 11
67.12899999999999
 21
33.3387
 31
0.0
  0
LINE
  5
3F4
330
1E
100
AcDbEntity
  8
0
100
AcDbLine
 10
65.66209999999999
 20
44.08619999999999
 30
0.0
 11
67.1199
 21
44.08619999999999
 31
0.0
  0
LINE
  5
3F5
330
1E
100
AcDbEntity
  8
0
100
AcDbLine
 10
65.66209999999999
 20
51.8481
 30
0.0
 11
67.1199
 21
51.8481
 31
0.0
  0
LINE
  5
3F6
330
1E
100
AcDbEntity
  8
0
100
AcDbLine
 10
64.2305
 20
44.08619999999999
 30
0.0
 11
65.66209999999999
 21
44.08619999999999
 31
0.0
  0
LINE
  5
3F7
330
1E
100
AcDbEntity
  8
0
100
AcDbLine
 10
60.9715
 20
53.24110000000001
 30
0.0
 11
62.2068
 21
53.24110000000001
 31
0.0
  0
LINE
  5
3F8
330
1E
100
AcDbEntity
  8
0
100
AcDbLine
 10
61.9823
 20
51.9821
 30
0.0
 11
63.3274
 21
51.9821
 31
0.0
  0
LINE
  5
3F9
330
1E
100
AcDbEntity
  8
0
100
AcDbLine
 10
63.3274
 20
51.9821
 30
0.0
 11
64.7258
 21
51.9821
 31
0.0
  0
LINE
  5
3FA
330
1E
100
AcDbEntity
  8
0
100
AcDbLine
 10
61.9823
 20
52.7441
 30
0.0
 11
63.3274
 21
52.7441
 31
0.0
  0
LINE
  5
3FB
330
1E
100
AcDbEntity
  8
0
100
AcDbLine
 10
62.2068
 20
53.24110000000001
 30
0.0
 11
63.5056
 21
53.24110000000001
 31
0.0
  0
LINE
  5
3FC
330
1E
100
AcDbEntity
  8
0
100
AcDbLine
 10
63.5056
 20
53.24110000000001
 30
0.0
 11
64.8557
 21
53.24110000000001
 31
0.0
  0
LINE
  5
3FD
330
1E
100
AcDbEntity
  8
0
100
AcDbLine
 10
63.3274
 20
52.7441
 30
0.0
 11
64.7258
 21
52.7441
 31
0.0
  0
LINE
  5
3FE
330
1E
100
AcDbEntity
  8
0
100
AcDbLine
 10
66.16249999999999
 20
51.9821
 30
0.0
 11
67.62229999999999
 21
51.9821
 31
0.0
  0
LINE
  5
400
330
1E
100
AcDbEntity
  8
0
100
AcDbLine
 10
64.7258
 20
51.9821
 30
0.0
 11
66.16249999999999
 21
51.9821
 31
0.0
  0
LINE
  5
401
330
1E
100
AcDbEntity
  8
0
100
AcDbLine
 10
64.8557
 20
53.24110000000001
 30
0.0
 11
66.242
 21
53.24110000000001
 31
0.0
  0
LINE
  5
402
330
1E
100
AcDbEntity
  8
0
100
AcDbLine
 10
64.7258
 20
52.7441
 30
0.0
 11
66.16249999999999
 21
52.7441
 31
0.0
  0
LINE
  5
403
330
1E
100
AcDbEntity
  8
0
100
AcDbLine
 10
66.242
 20
53.24110000000001
 30
0.0
 11
67.6515
 21
53.24110000000001
 31
0.0
  0
LINE
  5
404
330
1E
100
AcDbEntity
  8
0
100
AcDbLine
 10
66.16249999999999
 20
52.7441
 30
0.0
 11
67.62229999999999
 21
52.7441
 31
0.0
  0
LINE
  5
408
330
1E
100
AcDbEntity
  8
0
100
AcDbLine
 10
67.62229999999999
 20
51.9821
 30
0.0
 11
68.4539
 21
51.9821
 31
0.0
  0
LINE
  5
409
330
1E
100
AcDbEntity
  8
0
100
AcDbLine
 10
67.6515
 20
53.24110000000001
 30
0.0
 11
68.4539
 21
53.24110000000001
 31
0.0
  0
LINE
  5
40A
330
1E
100
AcDbEntity
  8
0
100
AcDbLine
 10
67.62229999999999
 20
52.7441
 30
0.0
 11
68.4539
 21
52.7441
 31
0.0
  0
LINE
  5
41A
330
1E
100
AcDbEntity
  8
0
100
AcDbLine
 10
69.2855
 20
51.9821
 30
0.0
 11
70.7453
 21
51.9821
 31
0.0
  0
LINE
  5
41B
330
1E
100
AcDbEntity
  8
0
100
AcDbLine
 10
68.4539
 20
51.9821
 30
0.0
 11
69.2855
 21
51.9821
 31
0.0
  0
LINE
  5
41C
330
1E
100
AcDbEntity
  8
0
100
AcDbLine
 10
70.7453
 20
51.9821
 30
0.0
 11
72.182
 21
51.9821
 31
0.0
  0
LINE
  5
41D
330
1E
100
AcDbEntity
  8
0
100
AcDbLine
 10
73.58039999999999
 20
51.9821
 30
0.0
 11
74.9255
 21
51.9821
 31
0.0
  0
LINE
  5
41E
330
1E
100
AcDbEntity
  8
0
100
AcDbLine
 10
72.182
 20
51.9821
 30
0.0
 11
73.58039999999999
 21
51.9821
 31
0.0
  0
LINE
  5
41F
330
1E
100
AcDbEntity
  8
0
100
AcDbLine
 10
68.4539
 20
52.7441
 30
0.0
 11
69.2855
 21
52.7441
 31
0.0
  0
LINE
  5
420
330
1E
100
AcDbEntity
  8
0
100
AcDbLine
 10
69.2855
 20
52.7441
 30
0.0
 11
70.7453
 21
52.7441
 31
0.0
  0
LINE
  5
421
330
1E
100
AcDbEntity
  8
0
100
AcDbLine
 10
72.182
 20
52.7441
 30
0.0
 11
73.58039999999999
 21
52.7441
 31
0.0
  0
LINE
  5
422
330
1E
100
AcDbEntity
  8
0
100
AcDbLine
 10
73.58039999999999
 20
52.7441
 30
0.0
 11
74.9255
 21
52.7441
 31
0.0
  0
LINE
  5
423
330
1E
100
AcDbEntity
  8
0
100
AcDbLine
 10
73.40219999999999
 20
53.24110000000001
 30
0.0
 11
74.70100000000001
 21
53.24110000000001
 31
0.0
  0
LINE
  5
424
330
1E
100
AcDbEntity
  8
0
100
AcDbLine
 10
72.0521
 20
53.24110000000001
 30
0.0
 11
73.40219999999999
 21
53.24110000000001
 31
0.0
  0
LINE
  5
425
330
1E
100
AcDbEntity
  8
0
100
AcDbLine
 10
70.7453
 20
52.7441
 30
0.0
 11
72.182
 21
52.7441
 31
0.0
  0
LINE
  5
426
330
1E
100
AcDbEntity
  8
0
100
AcDbLine
 10
70.6658
 20
53.24110000000001
 30
0.0
 11
72.0521
 21
53.24110000000001
 31
0.0
  0
LINE
  5
427
330
1E
100
AcDbEntity
  8
0
100
AcDbLine
 10
69.25629999999999
 20
53.24110000000001
 30
0.0
 11
70.6658
 21
53.24110000000001
 31
0.0
  0
LINE
  5
428
330
1E
100
AcDbEntity
  8
0
100
AcDbLine
 10
68.4539
 20
53.24110000000001
 30
0.0
 11
69.25629999999999
 21
53.24110000000001
 31
0.0
  0
LINE
  5
429
330
1E
100
AcDbEntity
  8
0
100
AcDbLine
 10
74.9255
 20
51.9821
 30
0.0
 11
76.2051
 21
51.9821
 31
0.0
  0
LINE
  5
42A
330
1E
100
AcDbEntity
  8
0
100
AcDbLine
 10
76.2051
 20
52.7441
 30
0.0
 11
77.4042
 21
52.7441
 31
0.0
  0
LINE
  5
42B
330
1E
100
AcDbEntity
  8
0
100
AcDbLine
 10
76.2051
 20
51.9821
 30
0.0
 11
77.4042
 21
51.9821
 31
0.0
  0
LINE
  5
42C
330
1E
100
AcDbEntity
  8
0
100
AcDbLine
 10
74.9255
 20
52.7441
 30
0.0
 11
76.2051
 21
52.7441
 31
0.0
  0
LINE
  5
42D
330
1E
100
AcDbEntity
  8
0
100
AcDbLine
 10
74.70100000000001
 20
53.24110000000001
 30
0.0
 11
75.9363
 21
53.24110000000001
 31
0.0
  0
LINE
  5
42E
330
1E
100
AcDbEntity
  8
0
100
AcDbLine
 10
77.4042
 20
52.7441
 30
0.0
 11
78.5126
 21
52.7441
 31
0.0
  0
LINE
  5
42F
330
1E
100
AcDbEntity
  8
0
100
AcDbLine
 10
77.4042
 20
51.9821
 30
0.0
 11
78.5126
 21
51.9821
 31
0.0
  0
LINE
  5
430
330
1E
100
AcDbEntity
  8
0
100
AcDbLine
 10
77.0941
 20
53.24110000000001
 30
0.0
 11
78.1633
 21
53.24110000000001
 31
0.0
  0
LINE
  5
431
330
1E
100
AcDbEntity
  8
0
100
AcDbLine
 10
75.9363
 20
53.24110000000001
 30
0.0
 11
77.0941
 21
53.24110000000001
 31
0.0
  0
LINE
  5
432
330
1E
100
AcDbEntity
  8
0
100
AcDbLine
 10
79.5174
 20
52.7441
 30
0.0
 11
80.40840000000001
 21
52.7441
 31
0.0
  0
LINE
  5
433
330
1E
100
AcDbEntity
  8
0
100
AcDbLine
 10
79.5174
 20
51.9821
 30
0.0
 11
80.40840000000001
 21
51.9821
 31
0.0
  0
LINE
  5
434
330
1E
100
AcDbEntity
  8
0
100
AcDbLine
 10
78.5126
 20
51.9821
 30
0.0
 11
79.5174
 21
51.9821
 31
0.0
  0
LINE
  5
435
330
1E
100
AcDbEntity
  8
0
100
AcDbLine
 10
78.5126
 20
52.7441
 30
0.0
 11
79.5174
 21
52.7441
 31
0.0
  0
LINE
  5
436
330
1E
100
AcDbEntity
  8
0
100
AcDbLine
 10
78.1633
 20
53.24110000000001
 30
0.0
 11
79.1328
 21
53.24110000000001
 31
0.0
  0
LINE
  5
437
330
1E
100
AcDbEntity
  8
0
100
AcDbLine
 10
79.1328
 20
53.24110000000001
 30
0.0
 11
79.9936
 21
53.24110000000001
 31
0.0
  0
LINE
  5
438
330
1E
100
AcDbEntity
  8
0
100
AcDbLine
 10
81.17659999999998
 20
51.9821
 30
0.0
 11
81.8149
 21
51.9821
 31
0.0
  0
LINE
  5
439
330
1E
100
AcDbEntity
  8
0
100
AcDbLine
 10
81.8149
 20
51.9821
 30
0.0
 11
82.31520000000001
 21
51.9821
 31
0.0
  0
LINE
  5
43A
330
1E
100
AcDbEntity
  8
0
100
AcDbLine
 10
81.17659999999998
 20
52.7441
 30
0.0
 11
81.8149
 21
52.7441
 31
0.0
  0
LINE
  5
43B
330
1E
100
AcDbEntity
  8
0
100
AcDbLine
 10
81.8149
 20
52.7441
 30
0.0
 11
82.31520000000001
 21
52.7441
 31
0.0
  0
LINE
  5
43C
330
1E
100
AcDbEntity
  8
0
100
AcDbLine
 10
80.40840000000001
 20
52.7441
 30
0.0
 11
81.17659999999998
 21
52.7441
 31
0.0
  0
LINE
  5
43D
330
1E
100
AcDbEntity
  8
0
100
AcDbLine
 10
80.40840000000001
 20
51.9821
 30
0.0
 11
81.17659999999998
 21
51.9821
 31
0.0
  0
LINE
  5
43E
330
1E
100
AcDbEntity
  8
0
100
AcDbLine
 10
82.31520000000001
 20
51.9821
 30
0.0
 11
82.6736
 21
51.9821
 31
0.0
  0
LINE
  5
43F
330
1E
100
AcDbEntity
  8
0
100
AcDbLine
 10
82.31520000000001
 20
52.7441
 30
0.0
 11
82.67470000000001
 21
52.7441
 31
0.0
  0
LINE
  5
440
330
1E
100
AcDbEntity
  8
0
100
AcDbLine
 10
83.1601
 20
51.9261
 30
0.0
 11
83.4539
 21
51.8481
 31
0.0
  0
LINE
  5
441
330
1E
100
AcDbEntity
  8
0
100
AcDbLine
 10
83.1601
 20
51.9261
 30
0.0
 11
83.44849999999999
 21
51.8481
 31
0.0
  0
LINE
  5
442
330
1E
100
AcDbEntity
  8
0
100
AcDbLine
 10
82.9462
 20
51.9821
 30
0.0
 11
83.1601
 21
51.9261
 31
0.0
  0
LINE
  5
443
330
1E
100
AcDbEntity
  8
0
100
AcDbLine
 10
82.9462
 20
51.9821
 30
0.0
 11
82.94719999999999
 21
52.7441
 31
0.0
  0
LINE
  5
444
330
1E
100
AcDbEntity
  8
0
100
AcDbLine
 10
82.8861
 20
51.9821
 30
0.0
 11
83.1601
 21
51.9261
 31
0.0
  0
LINE
  5
445
330
1E
100
AcDbEntity
  8
0
100
AcDbLine
 10
82.8861
 20
51.9821
 30
0.0
 11
82.9462
 21
51.9821
 31
0.0
  0
LINE
  5
446
330
1E
100
AcDbEntity
  8
0
100
AcDbLine
 10
82.444
 20
53.24110000000001
 30
0.0
 11
82.94719999999999
 21
52.7441
 31
0.0
  0
LINE
  5
447
330
1E
100
AcDbEntity
  8
0
100
AcDbLine
 10
82.8871
 20
52.7441
 30
0.0
 11
82.94719999999999
 21
52.7441
 31
0.0
  0
LINE
  5
448
330
1E
100
AcDbEntity
  8
0
100
AcDbLine
 10
82.67470000000001
 20
52.7441
 30
0.0
 11
82.8871
 21
52.7441
 31
0.0
  0
LINE
  5
449
330
1E
100
AcDbEntity
  8
0
100
AcDbLine
 10
82.6736
 20
51.9821
 30
0.0
 11
82.8861
 21
51.9821
 31
0.0
  0
LINE
  5
44A
330
1E
100
AcDbEntity
  8
0
100
AcDbLine
 10
82.38570000000001
 20
53.24110000000001
 30
0.0
 11
82.444
 21
53.24110000000001
 31
0.0
  0
LINE
  5
44B
330
1E
100
AcDbEntity
  8
0
100
AcDbLine
 10
82.1803
 20
53.24110000000001
 30
0.0
 11
82.38570000000001
 21
53.24110000000001
 31
0.0
  0
LINE
  5
44C
330
1E
100
AcDbEntity
  8
0
100
AcDbLine
 10
81.834
 20
53.24110000000001
 30
0.0
 11
82.1803
 21
53.24110000000001
 31
0.0
  0
LINE
  5
44D
330
1E
100
AcDbEntity
  8
0
100
AcDbLine
 10
81.3507
 20
53.24110000000001
 30
0.0
 11
81.834
 21
53.24110000000001
 31
0.0
  0
LINE
  5
44E
330
1E
100
AcDbEntity
  8
0
100
AcDbLine
 10
79.9936
 20
53.24110000000001
 30
0.0
 11
80.7346
 21
53.24110000000001
 31
0.0
  0
LINE
  5
453
330
1E
100
AcDbEntity
  8
0
100
AcDbLine
 10
68.4539
 20
73.84109999999999
 30
0.0
 11
69.1194
 21
73.84109999999999
 31
0.0
  0
LINE
  5
454
330
1E
100
AcDbEntity
  8
0
100
AcDbLine
 10
69.1194
 20
73.84109999999999
 30
0.0
 11
70.6869
 21
73.84109999999999
 31
0.0
  0
LINE
  5
456
330
1E
100
AcDbEntity
  8
0
100
AcDbLine
 10
73.669
 20
73.84109999999999
 30
0.0
 11
75.02819999999999
 21
73.84109999999999
 31
0.0
  0
LINE
  5
457
330
1E
100
AcDbEntity
  8
0
100
AcDbLine
 10
72.2132
 20
73.84109999999999
 30
0.0
 11
73.669
 21
73.84109999999999
 31
0.0
  0
LINE
  5
459
330
1E
100
AcDbEntity
  8
0
100
AcDbLine
 10
70.6869
 20
73.84109999999999
 30
0.0
 11
72.2132
 21
73.84109999999999
 31
0.0
  0
LINE
  5
45A
330
1E
100
AcDbEntity
  8
0
100
AcDbLine
 10
76.9217
 20
56.1661
 30
0.0
 11
77.3536
 21
55.76109999999999
 31
0.0
  0
LINE
  5
45B
330
1E
100
AcDbEntity
  8
0
100
AcDbLine
 10
76.6717
 20
56.4901
 30
0.0
 11
76.9217
 21
56.1661
 31
0.0
  0
LINE
  5
45D
330
1E
100
AcDbEntity
  8
0
100
AcDbLine
 10
76.88970000000001
 20
57.60609999999999
 30
0.0
 11
76.97079999999999
 21
57.6831
 31
0.0
  0
LINE
  5
45E
330
1E
100
AcDbEntity
  8
0
100
AcDbLine
 10
76.79689999999999
 20
57.47209999999999
 30
0.0
 11
76.88970000000001
 21
57.60609999999999
 31
0.0
  0
LINE
  5
45F
330
1E
100
AcDbEntity
  8
0
100
AcDbLine
 10
76.65359999999999
 20
57.2721
 30
0.0
 11
76.79689999999999
 21
57.47209999999999
 31
0.0
  0
LINE
  5
460
330
1E
100
AcDbEntity
  8
0
100
AcDbLine
 10
76.5815
 20
56.8791
 30
0.0
 11
76.65359999999999
 21
57.2721
 31
0.0
  0
LINE
  5
461
330
1E
100
AcDbEntity
  8
0
100
AcDbLine
 10
76.5815
 20
56.8791
 30
0.0
 11
76.6717
 21
56.4901
 31
0.0
  0
LINE
  5
466
330
1E
100
AcDbEntity
  8
0
100
AcDbLine
 10
76.97079999999999
 20
57.6831
 30
0.0
 11
77.01170000000001
 21
57.7301
 31
0.0
  0
LINE
  5
469
330
1E
100
AcDbEntity
  8
0
100
AcDbLine
 10
77.3536
 20
55.76109999999999
 30
0.0
 11
78.4384
 21
54.5391
 31
0.0
  0
LINE
  5
46C
330
1E
100
AcDbEntity
  8
0
100
AcDbLine
 10
78.4384
 20
54.5391
 30
0.0
 11
79.31777096296291
 21
53.24110000000001
 31
0.0
  0
LINE
  5
46E
330
1E
100
AcDbEntity
  8
0
100
AcDbLine
 10
77.0119
 20
61.68610000000001
 30
0.0
 11
77.012
 21
62.5921
 31
0.0
  0
LINE
  5
46F
330
1E
100
AcDbEntity
  8
0
100
AcDbLine
 10
77.0119
 20
61.68610000000001
 30
0.0
 11
77.012
 21
61.5321
 31
0.0
  0
LINE
  5
470
330
1E
100
AcDbEntity
  8
0
100
AcDbLine
 10
77.012
 20
62.5921
 30
0.0
 11
77.3749
 21
62.6881
 31
0.0
  0
LINE
  5
472
330
1E
100
AcDbEntity
  8
0
100
AcDbLine
 10
77.01170000000001
 20
57.7301
 30
0.0
 11
77.012
 21
61.5321
 31
0.0
  0
LINE
  5
475
330
1E
100
AcDbEntity
  8
0
100
AcDbLine
 10
77.3749
 20
62.6881
 30
0.0
 11
78.1114
 21
62.8831
 31
0.0
  0
LINE
  5
476
330
1E
100
AcDbEntity
  8
0
100
AcDbLine
 10
78.1114
 20
62.8831
 30
0.0
 11
79.06399999999999
 21
63.1361
 31
0.0
  0
LINE
  5
47A
330
1E
100
AcDbEntity
  8
0
100
AcDbLine
 10
79.06399999999999
 20
63.1361
 30
0.0
 11
80.02489999999999
 21
63.3901
 31
0.0
  0
LINE
  5
47B
330
1E
100
AcDbEntity
  8
0
100
AcDbLine
 10
77.3558
 20
73.84109999999999
 30
0.0
 11
78.28109999999999
 21
73.84109999999999
 31
0.0
  0
LINE
  5
47C
330
1E
100
AcDbEntity
  8
0
100
AcDbLine
 10
79.02309999999999
 20
73.84109999999999
 30
0.0
 11
79.5677
 21
73.84109999999999
 31
0.0
  0
LINE
  5
47D
330
1E
100
AcDbEntity
  8
0
100
AcDbLine
 10
79.906
 20
73.84109999999999
 30
0.0
 11
80.0309
 21
73.84109999999999
 31
0.0
  0
LINE
  5
47E
330
1E
100
AcDbEntity
  8
0
100
AcDbLine
 10
79.5677
 20
73.84109999999999
 30
0.0
 11
79.906
 21
73.84109999999999
 31
0.0
  0
LINE
  5
47F
330
1E
100
AcDbEntity
  8
0
100
AcDbLine
 10
78.28109999999999
 20
73.84109999999999
 30
0.0
 11
79.02309999999999
 21
73.84109999999999
 31
0.0
  0
LINE
  5
481
330
1E
100
AcDbEntity
  8
0
100
AcDbLine
 10
80.0309
 20
63.3921
 30
0.0
 11
80.0309
 21
73.84109999999999
 31
0.0
  0
LINE
  5
482
330
1E
100
AcDbEntity
  8
0
100
AcDbLine
 10
80.0309
 20
73.84109999999999
 30
0.0
 11
80.0309
 21
63.3921
 31
0.0
  0
LINE
  5
485
330
1E
100
AcDbEntity
  8
0
100
AcDbLine
 10
76.2645
 20
73.84109999999999
 30
0.0
 11
77.3558
 21
73.84109999999999
 31
0.0
  0
LINE
  5
489
330
1E
100
AcDbEntity
  8
0
100
AcDbLine
 10
75.02819999999999
 20
73.84109999999999
 30
0.0
 11
76.2645
 21
73.84109999999999
 31
0.0
  0
LINE
  5
48A
330
1E
100
AcDbEntity
  8
0
100
AcDbLine
 10
80.7346
 20
53.24110000000001
 30
0.0
 11
81.3507
 21
53.24110000000001
 31
0.0
  0
LINE
  5
48B
330
1E
100
AcDbEntity
  8
0
100
AcDbLine
 10
67.78839999999999
 20
73.84109999999999
 30
0.0
 11
68.4539
 21
73.84109999999999
 31
0.0
  0
LINE
  5
48C
330
1E
100
AcDbEntity
  8
0
100
AcDbLine
 10
66.2209
 20
73.84109999999999
 30
0.0
 11
67.78839999999999
 21
73.84109999999999
 31
0.0
  0
LINE
  5
48D
330
1E
100
AcDbEntity
  8
0
100
AcDbLine
 10
64.69459999999999
 20
73.84109999999999
 30
0.0
 11
66.2209
 21
73.84109999999999
 31
0.0
  0
LINE
  5
48E
330
1E
100
AcDbEntity
  8
0
100
AcDbLine
 10
63.23879999999999
 20
73.84109999999999
 30
0.0
 11
64.69459999999999
 21
73.84109999999999
 31
0.0
  0
LINE
  5
48F
330
1E
100
AcDbEntity
  8
0
100
AcDbLine
 10
61.8796
 20
73.84109999999999
 30
0.0
 11
63.23879999999999
 21
73.84109999999999
 31
0.0
  0
LINE
  5
490
330
1E
100
AcDbEntity
  8
0
100
AcDbLine
 10
64.2305
 20
51.8481
 30
0.0
 11
65.66209999999999
 21
51.8481
 31
0.0
  0
LINE
  5
491
330
1E
100
AcDbEntity
  8
0
100
AcDbLine
 10
60.7027
 20
44.08619999999999
 30
0.0
 11
61.9823
 21
44.08619999999999
 31
0.0
  0
LINE
  5
492
330
1E
100
AcDbEntity
  8
0
100
AcDbLine
 10
108.4999999999999
 20
29.6733148148148
 30
0.0
 11
136.0
 21
28.85849999999999
 31
0.0
  0
LINE
  5
493
330
1E
100
AcDbEntity
  8
0
100
AcDbLine
 10
114.0000000001149
 20
5.85909
 30
0.0
 11
114.8889999999999
 21
5.859140799999999
 31
0.0
  0
LINE
  5
494
330
1E
100
AcDbEntity
  8
0
100
AcDbLine
 10
114.0
 20
5.85909
 30
0.0
 11
119.5620338983089
 21
5.85910986440678
 31
0.0
  0
LINE
  5
495
330
1E
100
AcDbEntity
  8
0
100
AcDbLine
 10
114.0
 20
5.85909
 30
0.0
 11
119.562033898337
 21
5.85910986440678
 31
0.0
  0
LINE
  5
496
330
1E
100
AcDbEntity
  8
0
100
AcDbLine
 10
131.0
 20
5.85907882352941
 30
0.0
 11
131.687717770048
 21
5.859236594076659
 31
0.0
  0
LINE
  5
497
330
1E
100
AcDbEntity
  8
0
100
AcDbLine
 10
122.0
 20
5.85903
 30
0.0
 11
127.0
 21
5.859239999999999
 31
0.0
  0
LINE
  5
498
330
1E
100
AcDbEntity
  8
0
100
AcDbLine
 10
112.0991379310279
 20
5.85920163793104
 30
0.0
 11
114.0
 21
5.85909
 31
0.0
  0
LINE
  5
499
330
1E
100
AcDbEntity
  8
0
100
AcDbLine
 10
112.099137931038
 20
5.85920163793104
 30
0.0
 11
114.0
 21
5.85909
 31
0.0
  0
LINE
  5
49A
330
1E
100
AcDbEntity
  8
0
100
AcDbLine
 10
109.4999999999999
 20
5.859189999999999
 30
0.0
 11
116.2
 21
5.859219999999999
 31
0.0
  0
LINE
  5
49B
330
1E
100
AcDbEntity
  8
0
100
AcDbLine
 10
128.0
 20
5.859119999999999
 30
0.0
 11
130.6999999999999
 21
5.859009999999999
 31
0.0
  0
LINE
  5
49C
330
1E
100
AcDbEntity
  8
0
100
AcDbLine
 10
125.678343949034
 20
5.85918449044586
 30
0.0
 11
128.0
 21
5.859119999999999
 31
0.0
  0
LINE
  5
49D
330
1E
100
AcDbEntity
  8
0
100
AcDbLine
 10
125.678343949039
 20
5.85918449044586
 30
0.0
 11
128.0
 21
5.859119999999999
 31
0.0
  0
LINE
  5
49E
330
1E
100
AcDbEntity
  8
0
100
AcDbLine
 10
128.0
 20
5.859119999999999
 30
0.0
 11
130.6999999999999
 21
5.859009999999999
 31
0.0
  0
LINE
  5
49F
330
1E
100
AcDbEntity
  8
0
100
AcDbLine
 10
116.2
 20
5.859219999999999
 30
0.0
 11
122.0
 21
5.85903
 31
0.0
  0
LINE
  5
4A0
330
1E
100
AcDbEntity
  8
0
100
AcDbLine
 10
114.000000000111
 20
5.85909
 30
0.0
 11
114.8889999999999
 21
5.8591423875
 31
0.0
  0
LINE
  5
4A1
330
1E
100
AcDbEntity
  8
0
100
AcDbLine
 10
132.4
 20
5.859119999999999
 30
0.0
 11
133.0
 21
5.859009999999999
 31
0.0
  0
LINE
  5
4A2
330
1E
100
AcDbEntity
  8
0
100
AcDbLine
 10
133.6
 20
5.85923
 30
0.0
 11
135.3
 21
5.859219999999999
 31
0.0
  0
LINE
  5
4A3
330
1E
100
AcDbEntity
  8
0
100
AcDbLine
 10
135.3
 20
5.859219999999999
 30
0.0
 11
136.0
 21
5.859009999999999
 31
0.0
  0
LINE
  5
4A4
330
1E
100
AcDbEntity
  8
0
100
AcDbLine
 10
131.0
 20
5.85908882352941
 30
0.0
 11
131.644773519174
 21
5.85923674216028
 31
0.0
  0
LINE
  5
4A5
330
1E
100
AcDbEntity
  8
0
100
AcDbLine
 10
110.0999999999999
 20
6.85908
 30
0.0
 11
116.9
 21
6.85931
 31
0.0
  0
LINE
  5
4A6
330
1E
100
AcDbEntity
  8
0
100
AcDbLine
 10
110.0999999999999
 20
27.8586
 30
0.0
 11
116.9
 21
27.8588
 31
0.0
  0
LINE
  5
4A7
330
1E
100
AcDbEntity
  8
0
100
AcDbLine
 10
116.9
 20
6.85931
 30
0.0
 11
122.7999999999999
 21
6.859319999999999
 31
0.0
  0
LINE
  5
4A8
330
1E
100
AcDbEntity
  8
0
100
AcDbLine
 10
116.9
 20
27.8588
 30
0.0
 11
122.7999999999999
 21
27.8589
 31
0.0
  0
LINE
  5
4A9
330
1E
100
AcDbEntity
  8
0
100
AcDbLine
 10
127.0
 20
5.859239999999999
 30
0.0
 11
130.6999999999999
 21
5.859239999999999
 31
0.0
  0
LINE
  5
4AA
330
1E
100
AcDbEntity
  8
0
100
AcDbLine
 10
122.7999999999999
 20
6.859319999999999
 30
0.0
 11
127.8
 21
6.859219999999999
 31
0.0
  0
LINE
  5
4AB
330
1E
100
AcDbEntity
  8
0
100
AcDbLine
 10
130.6999999999999
 20
5.859239999999999
 30
0.0
 11
133.6
 21
5.85923
 31
0.0
  0
LINE
  5
4AC
330
1E
100
AcDbEntity
  8
0
100
AcDbLine
 10
127.8
 20
6.859219999999999
 30
0.0
 11
131.6999999999999
 21
6.85942
 31
0.0
  0
LINE
  5
4AD
330
1E
100
AcDbEntity
  8
0
100
AcDbLine
 10
122.7999999999999
 20
27.8589
 30
0.0
 11
127.8
 21
27.8588
 31
0.0
  0
LINE
  5
4AE
330
1E
100
AcDbEntity
  8
0
100
AcDbLine
 10
127.8
 20
27.8588
 30
0.0
 11
131.6999999999999
 21
27.859
 31
0.0
  0
LINE
  5
4AF
330
1E
100
AcDbEntity
  8
0
100
AcDbLine
 10
122.0
 20
28.85849999999999
 30
0.0
 11
127.0
 21
28.8587
 31
0.0
  0
LINE
  5
4B0
330
1E
100
AcDbEntity
  8
0
100
AcDbLine
 10
127.0
 20
28.8587
 30
0.0
 11
130.6999999999999
 21
28.8587
 31
0.0
  0
LINE
  5
4B1
330
1E
100
AcDbEntity
  8
0
100
AcDbLine
 10
132.6565333333289
 20
5.85923325333333
 30
0.0
 11
133.0
 21
5.859009999999999
 31
0.0
  0
LINE
  5
4B2
330
1E
100
AcDbEntity
  8
0
100
AcDbLine
 10
131.6999999999999
 20
6.85942
 30
0.0
 11
134.4999999999999
 21
6.859319999999999
 31
0.0
  0
LINE
  5
4B3
330
1E
100
AcDbEntity
  8
0
100
AcDbLine
 10
134.4999999999999
 20
6.859319999999999
 30
0.0
 11
136.3
 21
6.858999999999999
 31
0.0
  0
LINE
  5
4B4
330
1E
100
AcDbEntity
  8
0
100
AcDbLine
 10
131.6999999999999
 20
27.859
 30
0.0
 11
134.4999999999999
 21
27.8589
 31
0.0
  0
LINE
  5
4B5
330
1E
100
AcDbEntity
  8
0
100
AcDbLine
 10
134.4999999999999
 20
27.8589
 30
0.0
 11
136.3
 21
27.85849999999999
 31
0.0
  0
LINE
  5
4B6
330
1E
100
AcDbEntity
  8
0
100
AcDbLine
 10
130.6999999999999
 20
28.8587
 30
0.0
 11
133.6
 21
28.8587
 31
0.0
  0
LINE
  5
4B7
330
1E
100
AcDbEntity
  8
0
100
AcDbLine
 10
109.4999999999999
 20
28.8587
 30
0.0
 11
116.2
 21
28.8587
 31
0.0
  0
LINE
  5
4B8
330
1E
100
AcDbEntity
  8
0
100
AcDbLine
 10
116.2
 20
28.8587
 30
0.0
 11
122.0
 21
28.85849999999999
 31
0.0
  0
LINE
  5
4B9
330
1E
100
AcDbEntity
  8
0
100
AcDbLine
 10
133.6
 20
28.8587
 30
0.0
 11
135.3
 21
28.8587
 31
0.0
  0
LINE
  5
4BA
330
1E
100
AcDbEntity
  8
0
100
AcDbLine
 10
135.3
 20
28.8587
 30
0.0
 11
136.0
 21
28.85849999999999
 31
0.0
  0
LINE
  5
4BB
330
1E
100
AcDbEntity
  8
0
100
AcDbLine
 10
132.665164644711
 20
5.85923322357019
 30
0.0
 11
133.0
 21
5.859009999999999
 31
0.0
  0
LINE
  5
4BC
330
1E
100
AcDbEntity
  8
0
100
AcDbLine
 10
136.3
 20
6.858999999999999
 30
0.0
 11
137.0
 21
6.858989999999999
 31
0.0
  0
LINE
  5
4BD
330
1E
100
AcDbEntity
  8
0
100
AcDbLine
 10
137.0
 20
6.858989999999999
 30
0.0
 11
137.0
 21
27.85849999999999
 31
0.0
  0
LINE
  5
4BE
330
1E
100
AcDbEntity
  8
0
100
AcDbLine
 10
136.3
 20
27.85849999999999
 30
0.0
 11
137.0
 21
27.85849999999999
 31
0.0
  0
LINE
  5
4BF
330
1E
100
AcDbEntity
  8
0
100
AcDbLine
 10
137.0
 20
27.85849999999999
 30
0.0
 11
137.0
 21
6.858989999999999
 31
0.0
  0
LINE
  5
4C0
330
1E
100
AcDbEntity
  8
0
100
AcDbLine
 10
136.0
 20
28.85849999999999
 30
0.0
 11
137.0
 21
27.85849999999999
 31
0.0
  0
LINE
  5
4C1
330
1E
100
AcDbEntity
  8
0
100
AcDbLine
 10
60.0
 20
5.85902
 30
0.0
 11
68.5
 21
5.859329999999999
 31
0.0
  0
LINE
  5
4C2
330
1E
100
AcDbEntity
  8
0
100
AcDbLine
 10
59.8
 20
28.8588
 30
0.0
 11
68.5
 21
28.85889999999999
 31
0.0
  0
LINE
  5
4C7
330
1E
100
AcDbEntity
  8
0
  6
Continuous
100
AcDbLine
 10
59.8958
 20
62.5921
 30
0.0
 11
59.89609999999999
 21
57.7301
 31
0.0
  0
ENDSEC
  0
SECTION
  2
OBJECTS
  0
DICTIONARY
  5
C
330
0
100
AcDbDictionary
281
     1
  3
ACAD_GROUP
350
D
  3
ACAD_LAYOUT
350
19
  3
ACAD_MLINESTYLE
350
16
  3
ACAD_PLOTSETTINGS
350
18
  3
ACAD_PLOTSTYLENAME
350
E
  3
AcDbVariableDictionary
350
4C9
  0
DICTIONARY
  5
D
102
{ACAD_REACTORS
330
C
102
}
330
C
100
AcDbDictionary
281
     1
  0
DICTIONARY
  5
19
102
{ACAD_REACTORS
330
C
102
}
330
C
100
AcDbDictionary
281
     1
  3
Layout1
350
1D
  3
Model
350
21
  0
DICTIONARY
  5
16
102
{ACAD_REACTORS
330
C
102
}
330
C
100
AcDbDictionary
281
     1
  3
Standard
350
17
  0
DICTIONARY
  5
18
102
{ACAD_REACTORS
330
C
102
}
330
C
100
AcDbDictionary
281
     1
  0
ACDBDICTIONARYWDFLT
  5
E
102
{ACAD_REACTORS
330
C
102
}
330
C
100
AcDbDictionary
281
     1
  3
Normal
350
F
100
AcDbDictionaryWithDefault
340
F
  0
DICTIONARY
  5
4C9
102
{ACAD_REACTORS
330
C
102
}
330
C
100
AcDbDictionary
281
     1
  3
DIMASSOC
350
4CA
  0
LAYOUT
  5
1D
102
{ACAD_REACTORS
330
19
102
}
330
19
100
AcDbPlotSettings
  1

  2
C:\Programme\AutoCAD LT 2002 Deu\plotters\DWF ePlot (optimized for plotting).pc3
  4

  6

 40
0.0
 41
0.0
 42
0.0
 43
0.0
 44
0.0
 45
0.0
 46
0.0
 47
0.0
 48
0.0
 49
0.0
140
0.0
141
0.0
142
1.0
143
1.0
 70
   688
 72
     0
 73
     0
 74
     5
  7

 75
    16
147
1.0
148
0.0
149
0.0
100
AcDbLayout
  1
Layout1
 70
     1
 71
     1
 10
0.0
 20
0.0
 11
12.0
 21
9.0
 12
0.0
 22
0.0
 32
0.0
 14
1.000000000000000E+20
 24
1.000000000000000E+20
 34
1.000000000000000E+20
 15
-1.000000000000000E+20
 25
-1.000000000000000E+20
 35
-1.000000000000000E+20
146
0.0
 13
0.0
 23
0.0
 33
0.0
 16
1.0
 26
0.0
 36
0.0
 17
0.0
 27
1.0
 37
0.0
 76
     0
330
1A
  0
LAYOUT
  5
21
102
{ACAD_REACTORS
330
19
102
}
330
19
100
AcDbPlotSettings
  1

  2
C:\Programme\AutoCAD LT 2002 Deu\plotters\DWF ePlot (optimized for plotting).pc3
  4

  6

 40
0.0
 41
0.0
 42
0.0
 43
0.0
 44
0.0
 45
0.0
 46
0.0
 47
0.0
 48
0.0
 49
0.0
140
0.0
141
0.0
142
1.0
143
1.0
 70
  1712
 72
     0
 73
     0
 74
     0
  7

 75
     0
147
1.0
148
0.0
149
0.0
100
AcDbLayout
  1
Model
 70
     1
 71
     0
 10
0.0
 20
0.0
 11
12.0
 21
9.0
 12
0.0
 22
0.0
 32
0.0
 14
0.0
 24
0.0
 34
0.0
 15
0.0
 25
0.0
 35
0.0
146
0.0
 13
0.0
 23
0.0
 33
0.0
 16
1.0
 26
0.0
 36
0.0
 17
0.0
 27
1.0
 37
0.0
 76
     0
330
1E
  0
MLINESTYLE
  5
17
102
{ACAD_REACTORS
330
16
102
}
330
16
100
AcDbMlineStyle
  2
STANDARD
 70
     0
  3

 62
   256
 51
90.0
 52
90.0
 71
     2
 49
0.5
 62
   256
  6
BYLAYER
 49
-0.5
 62
   256
  6
BYLAYER
  0
ACDBPLACEHOLDER
  5
F
102
{ACAD_REACTORS
330
E
102
}
330
E
  0
DICTIONARYVAR
  5
4CA
102
{ACAD_REACTORS
330
4C9
102
}
330
4C9
100
DictionaryVariables
280
     0
  1
1
  0
ENDSEC
  0
EOF
