  0
SECTION
  2
HEADER
  9
$ACADVER
  1
AC1015
  9
$ACADMAINTVER
 70
    13
  9
$DWGCODEPAGE
  3
ANSI_1252
  9
$INSBASE
 10
0.0
 20
0.0
 30
0.0
  9
$EXTMIN
 10
0.0000000000000002
 20
-0.0000000000000006
 30
0.0
  9
$EXTMAX
 10
190.0
 20
187.0
 30
0.0
  9
$LIMMIN
 10
0.0
 20
0.0
  9
$LIMMAX
 10
12.0
 20
9.0
  9
$ORTHOMODE
 70
     0
  9
$REGENMODE
 70
     1
  9
$FILLMODE
 70
     1
  9
$QTEXTMODE
 70
     0
  9
$MIRRTEXT
 70
     1
  9
$LTSCALE
 40
1.0
  9
$ATTMODE
 70
     1
  9
$TEXTSIZE
 40
0.2
  9
$TRACEWID
 40
0.05
  9
$TEXTSTYLE
  7
Standard
  9
$CLAYER
  8
0
  9
$CELTYPE
  6
Continuous
  9
$CECOLOR
 62
   256
  9
$CELTSCALE
 40
1.0
  9
$DISPSILH
 70
     0
  9
$DIMSCALE
 40
1.0
  9
$DIMASZ
 40
0.18
  9
$DIMEXO
 40
0.0625
  9
$DIMDLI
 40
0.38
  9
$DIMRND
 40
0.0
  9
$DIMDLE
 40
0.0
  9
$DIMEXE
 40
0.18
  9
$DIMTP
 40
0.0
  9
$DIMTM
 40
0.0
  9
$DIMTXT
 40
0.18
  9
$DIMCEN
 40
0.09
  9
$DIMTSZ
 40
0.0
  9
$DIMTOL
 70
     0
  9
$DIMLIM
 70
     0
  9
$DIMTIH
 70
     1
  9
$DIMTOH
 70
     1
  9
$DIMSE1
 70
     0
  9
$DIMSE2
 70
     0
  9
$DIMTAD
 70
     0
  9
$DIMZIN
 70
     0
  9
$DIMBLK
  1

  9
$DIMASO
 70
     1
  9
$DIMSHO
 70
     1
  9
$DIMPOST
  1

  9
$DIMAPOST
  1

  9
$DIMALT
 70
     0
  9
$DIMALTD
 70
     2
  9
$DIMALTF
 40
25.4
  9
$DIMLFAC
 40
1.0
  9
$DIMTOFL
 70
     0
  9
$DIMTVP
 40
0.0
  9
$DIMTIX
 70
     0
  9
$DIMSOXD
 70
     0
  9
$DIMSAH
 70
     0
  9
$DIMBLK1
  1

  9
$DIMBLK2
  1

  9
$DIMSTYLE
  2
Standard
  9
$DIMCLRD
 70
     0
  9
$DIMCLRE
 70
     0
  9
$DIMCLRT
 70
     0
  9
$DIMTFAC
 40
1.0
  9
$DIMGAP
 40
0.09
  9
$DIMJUST
 70
     0
  9
$DIMSD1
 70
     0
  9
$DIMSD2
 70
     0
  9
$DIMTOLJ
 70
     1
  9
$DIMTZIN
 70
     0
  9
$DIMALTZ
 70
     0
  9
$DIMALTTZ
 70
     0
  9
$DIMUPT
 70
     0
  9
$DIMDEC
 70
     4
  9
$DIMTDEC
 70
     4
  9
$DIMALTU
 70
     2
  9
$DIMALTTD
 70
     2
  9
$DIMTXSTY
  7
Standard
  9
$DIMAUNIT
 70
     0
  9
$DIMADEC
 70
     0
  9
$DIMALTRND
 40
0.0
  9
$DIMAZIN
 70
     0
  9
$DIMDSEP
 70
    46
  9
$DIMATFIT
 70
     3
  9
$DIMFRAC
 70
     0
  9
$DIMLDRBLK
  1

  9
$DIMLUNIT
 70
     2
  9
$DIMLWD
 70
    -2
  9
$DIMLWE
 70
    -2
  9
$DIMTMOVE
 70
     0
  9
$LUNITS
 70
     2
  9
$LUPREC
 70
     4
  9
$SKETCHINC
 40
0.1
  9
$FILLETRAD
 40
0.0
  9
$AUNITS
 70
     0
  9
$AUPREC
 70
     0
  9
$MENU
  1
.
  9
$ELEVATION
 40
0.0
  9
$PELEVATION
 40
0.0
  9
$THICKNESS
 40
0.0
  9
$LIMCHECK
 70
     0
  9
$CHAMFERA
 40
0.0
  9
$CHAMFERB
 40
0.0
  9
$CHAMFERC
 40
0.0
  9
$CHAMFERD
 40
0.0
  9
$SKPOLY
 70
     0
  9
$TDCREATE
 40
2455653.007840520
  9
$TDUCREATE
 40
2455652.924507187
  9
$TDUPDATE
 40
2455653.008885995
  9
$TDUUPDATE
 40
2455652.925552662
  9
$TDINDWG
 40
0.0010456481
  9
$TDUSRTIMER
 40
0.0010456481
  9
$USRTIMER
 70
     1
  9
$ANGBASE
 50
0.0
  9
$ANGDIR
 70
     0
  9
$PDMODE
 70
     0
  9
$PDSIZE
 40
0.0
  9
$PLINEWID
 40
0.0
  9
$SPLFRAME
 70
     0
  9
$SPLINETYPE
 70
     6
  9
$SPLINESEGS
 70
     8
  9
$HANDSEED
  5
2B3
  9
$SURFTAB1
 70
     6
  9
$SURFTAB2
 70
     6
  9
$SURFTYPE
 70
     6
  9
$SURFU
 70
     6
  9
$SURFV
 70
     6
  9
$UCSBASE
  2

  9
$UCSNAME
  2

  9
$UCSORG
 10
0.0
 20
0.0
 30
0.0
  9
$UCSXDIR
 10
1.0
 20
0.0
 30
0.0
  9
$UCSYDIR
 10
0.0
 20
1.0
 30
0.0
  9
$UCSORTHOREF
  2

  9
$UCSORTHOVIEW
 70
     1
  9
$UCSORGTOP
 10
0.0
 20
0.0
 30
0.0
  9
$UCSORGBOTTOM
 10
0.0
 20
0.0
 30
0.0
  9
$UCSORGLEFT
 10
0.0
 20
0.0
 30
0.0
  9
$UCSORGRIGHT
 10
0.0
 20
0.0
 30
0.0
  9
$UCSORGFRONT
 10
0.0
 20
0.0
 30
0.0
  9
$UCSORGBACK
 10
0.0
 20
0.0
 30
0.0
  9
$PUCSBASE
  2

  9
$PUCSNAME
  2

  9
$PUCSORG
 10
0.0
 20
0.0
 30
0.0
  9
$PUCSXDIR
 10
1.0
 20
0.0
 30
0.0
  9
$PUCSYDIR
 10
0.0
 20
1.0
 30
0.0
  9
$PUCSORTHOREF
  2

  9
$PUCSORTHOVIEW
 70
     0
  9
$PUCSORGTOP
 10
0.0
 20
0.0
 30
0.0
  9
$PUCSORGBOTTOM
 10
0.0
 20
0.0
 30
0.0
  9
$PUCSORGLEFT
 10
0.0
 20
0.0
 30
0.0
  9
$PUCSORGRIGHT
 10
0.0
 20
0.0
 30
0.0
  9
$PUCSORGFRONT
 10
0.0
 20
0.0
 30
0.0
  9
$PUCSORGBACK
 10
0.0
 20
0.0
 30
0.0
  9
$USERI1
 70
     0
  9
$USERI2
 70
     0
  9
$USERI3
 70
     0
  9
$USERI4
 70
     0
  9
$USERI5
 70
     0
  9
$USERR1
 40
0.0
  9
$USERR2
 40
0.0
  9
$USERR3
 40
0.0
  9
$USERR4
 40
0.0
  9
$USERR5
 40
0.0
  9
$WORLDVIEW
 70
     1
  9
$SHADEDGE
 70
     3
  9
$SHADEDIF
 70
    70
  9
$TILEMODE
 70
     1
  9
$MAXACTVP
 70
    64
  9
$PINSBASE
 10
0.0
 20
0.0
 30
0.0
  9
$PLIMCHECK
 70
     0
  9
$PEXTMIN
 10
1.000000000000000E+20
 20
1.000000000000000E+20
 30
1.000000000000000E+20
  9
$PEXTMAX
 10
-1.000000000000000E+20
 20
-1.000000000000000E+20
 30
-1.000000000000000E+20
  9
$PLIMMIN
 10
0.0
 20
0.0
  9
$PLIMMAX
 10
12.0
 20
9.0
  9
$UNITMODE
 70
     0
  9
$VISRETAIN
 70
     1
  9
$PLINEGEN
 70
     0
  9
$PSLTSCALE
 70
     1
  9
$TREEDEPTH
 70
  3020
  9
$CMLSTYLE
  2
Standard
  9
$CMLJUST
 70
     0
  9
$CMLSCALE
 40
1.0
  9
$PROXYGRAPHICS
 70
     1
  9
$MEASUREMENT
 70
     0
  9
$CELWEIGHT
370
    -1
  9
$ENDCAPS
280
     0
  9
$JOINSTYLE
280
     0
  9
$LWDISPLAY
290
     0
  9
$INSUNITS
 70
     0
  9
$HYPERLINKBASE
  1

  9
$STYLESHEET
  1

  9
$XEDIT
290
     1
  9
$CEPSNTYPE
380
     0
  9
$PSTYLEMODE
290
     1
  9
$FINGERPRINTGUID
  2
{ED9A1444-5946-4AFD-B154-59B15502166A}
  9
$VERSIONGUID
  2
{C193B097-C4C6-4A14-AC9C-0CF8C4CEFCAC}
  9
$EXTNAMES
290
     1
  9
$PSVPSCALE
 40
0.0
  9
$OLESTARTUP
290
     0
  0
ENDSEC
  0
SECTION
  2
CLASSES
  0
CLASS
  1
ACDBDICTIONARYWDFLT
  2
AcDbDictionaryWithDefault
  3
AutoCAD 2000
 90
        0
280
     0
281
     0
  0
CLASS
  1
ACDBPLACEHOLDER
  2
AcDbPlaceHolder
  3
AutoCAD 2000
 90
        0
280
     0
281
     0
  0
CLASS
  1
LAYOUT
  2
AcDbLayout
  3
AutoCAD 2000
 90
        0
280
     0
281
     0
  0
CLASS
  1
DICTIONARYVAR
  2
AcDbDictionaryVar
  3
AutoCAD 2000
 90
        0
280
     0
281
     0
  0
ENDSEC
  0
SECTION
  2
TABLES
  0
TABLE
  2
VPORT
  5
8
330
0
100
AcDbSymbolTable
 70
     3
  0
VPORT
  5
2B2
330
8
100
AcDbSymbolTableRecord
100
AcDbViewportTableRecord
  2
*Active
 70
     0
 10
0.0
 20
0.0
 11
1.0
 21
1.0
 12
95.0
 22
93.49999999999999
 13
0.0
 23
0.0
 14
1.0
 24
1.0
 15
0.0
 25
0.0
 16
0.0
 26
0.0
 36
1.0
 17
0.0
 27
0.0
 37
0.0
 40
188.2649379932356
 41
2.073363431151241
 42
50.0
 43
0.0
 44
0.0
 50
0.0
 51
0.0
 71
     0
 72
   100
 73
     1
 74
     3
 75
     0
 76
     0
 77
     0
 78
     0
281
     0
 65
     1
110
0.0
120
0.0
130
0.0
111
1.0
121
0.0
131
0.0
112
0.0
122
1.0
132
0.0
 79
     1
146
0.0
  0
ENDTAB
  0
TABLE
  2
LTYPE
  5
5
330
0
100
AcDbSymbolTable
 70
     1
  0
LTYPE
  5
13
330
5
100
AcDbSymbolTableRecord
100
AcDbLinetypeTableRecord
  2
ByBlock
 70
     0
  3

 72
    65
 73
     0
 40
0.0
  0
LTYPE
  5
14
330
5
100
AcDbSymbolTableRecord
100
AcDbLinetypeTableRecord
  2
ByLayer
 70
     0
  3

 72
    65
 73
     0
 40
0.0
  0
LTYPE
  5
15
330
5
100
AcDbSymbolTableRecord
100
AcDbLinetypeTableRecord
  2
Continuous
 70
     0
  3
Solid line
 72
    65
 73
     0
 40
0.0
  0
ENDTAB
  0
TABLE
  2
LAYER
  5
2
330
0
100
AcDbSymbolTable
 70
     1
  0
LAYER
  5
10
330
2
100
AcDbSymbolTableRecord
100
AcDbLayerTableRecord
  2
0
 70
     0
 62
     7
  6
Continuous
370
    -3
390
F
  0
ENDTAB
  0
TABLE
  2
STYLE
  5
3
330
0
100
AcDbSymbolTable
 70
     1
  0
STYLE
  5
11
330
3
100
AcDbSymbolTableRecord
100
AcDbTextStyleTableRecord
  2
Standard
 70
     0
 40
0.0
 41
1.0
 50
0.0
 71
     0
 42
0.2
  3
txt
  4

  0
ENDTAB
  0
TABLE
  2
VIEW
  5
6
330
0
100
AcDbSymbolTable
 70
     0
  0
ENDTAB
  0
TABLE
  2
UCS
  5
7
330
0
100
AcDbSymbolTable
 70
     0
  0
ENDTAB
  0
TABLE
  2
APPID
  5
9
330
0
100
AcDbSymbolTable
 70
     1
  0
APPID
  5
12
330
9
100
AcDbSymbolTableRecord
100
AcDbRegAppTableRecord
  2
ACAD
 70
     0
  0
ENDTAB
  0
TABLE
  2
DIMSTYLE
  5
A
330
0
100
AcDbSymbolTable
 70
     1
100
AcDbDimStyleTable
 71
     0
  0
DIMSTYLE
105
2AB
330
A
100
AcDbSymbolTableRecord
100
AcDbDimStyleTableRecord
  2
Standard
 70
     0
340
11
  0
ENDTAB
  0
TABLE
  2
BLOCK_RECORD
  5
1
330
0
100
AcDbSymbolTable
 70
     0
  0
BLOCK_RECORD
  5
1E
330
1
100
AcDbSymbolTableRecord
100
AcDbBlockTableRecord
  2
*Model_Space
340
21
  0
BLOCK_RECORD
  5
1A
330
1
100
AcDbSymbolTableRecord
100
AcDbBlockTableRecord
  2
*Paper_Space
340
1D
  0
ENDTAB
  0
ENDSEC
  0
SECTION
  2
BLOCKS
  0
BLOCK
  5
1F
330
1E
100
AcDbEntity
  8
0
100
AcDbBlockBegin
  2
*Model_Space
 70
     0
 10
0.0
 20
0.0
 30
0.0
  3
*Model_Space
  1

  0
ENDBLK
  5
20
330
1E
100
AcDbEntity
  8
0
100
AcDbBlockEnd
  0
BLOCK
  5
1B
330
1A
100
AcDbEntity
 67
     1
  8
0
100
AcDbBlockBegin
  2
*Paper_Space
 70
     0
 10
0.0
 20
0.0
 30
0.0
  3
*Paper_Space
  1

  0
ENDBLK
  5
1C
330
1A
100
AcDbEntity
 67
     1
  8
0
100
AcDbBlockEnd
  0
ENDSEC
  0
SECTION
  2
ENTITIES
  0
LINE
  5
22
330
1E
100
AcDbEntity
  8
0
100
AcDbLine
 10
9.948789999999998
 20
2.00000000000001
 30
0.0
 11
95.0
 21
2.0
 31
0.0
  0
LINE
  5
23
330
1E
100
AcDbEntity
  8
0
100
AcDbLine
 10
3.12053
 20
2.00000000000001
 30
0.0
 11
4.48618
 21
2.00000000000001
 31
0.0
  0
LINE
  5
24
330
1E
100
AcDbEntity
  8
0
100
AcDbLine
 10
0.22649
 20
2.666670000000009
 30
0.0
 11
0.8807950000000001
 21
2.666670000000009
 31
0.0
  0
LINE
  5
25
330
1E
100
AcDbEntity
  8
0
100
AcDbLine
 10
0.0000000000000002
 20
2.666670000000009
 30
0.0
 11
0.0000000000000009
 21
14.0
 31
0.0
  0
LINE
  5
26
330
1E
100
AcDbEntity
  8
0
100
AcDbLine
 10
0.8807950000000001
 20
2.666670000000009
 30
0.0
 11
1.88742
 21
2.666670000000009
 31
0.0
  0
LINE
  5
27
330
1E
100
AcDbEntity
  8
0
100
AcDbLine
 10
0.22649
 20
2.666670000000009
 30
0.0
 11
0.8807950000000001
 21
2.666670000000009
 31
0.0
  0
LINE
  5
28
330
1E
100
AcDbEntity
  8
0
100
AcDbLine
 10
0.0000000000000002
 20
2.666670000000009
 30
0.0
 11
1.258279999999999
 21
2.00000000000001
 31
0.0
  0
LINE
  5
29
330
1E
100
AcDbEntity
  8
0
100
AcDbLine
 10
0.0000000000000002
 20
2.666670000000009
 30
0.0
 11
0.22649
 21
2.666670000000009
 31
0.0
  0
LINE
  5
2A
330
1E
100
AcDbEntity
  8
0
100
AcDbLine
 10
2.127329999999999
 20
2.00000000000001
 30
0.0
 11
3.12053
 21
2.00000000000001
 31
0.0
  0
LINE
  5
2B
330
1E
100
AcDbEntity
  8
0
100
AcDbLine
 10
1.88742
 20
2.666670000000009
 30
0.0
 11
3.27152
 21
2.666670000000009
 31
0.0
  0
LINE
  5
2C
330
1E
100
AcDbEntity
  8
0
100
AcDbLine
 10
3.27152
 20
2.666670000000009
 30
0.0
 11
5.033109999999999
 21
2.666670000000009
 31
0.0
  0
LINE
  5
2D
330
1E
100
AcDbEntity
  8
0
100
AcDbLine
 10
5.033109999999999
 20
2.666670000000009
 30
0.0
 11
6.870199999999999
 21
2.666670000000009
 31
0.0
  0
LINE
  5
2E
330
1E
100
AcDbEntity
  8
0
100
AcDbLine
 10
1.481749999999999
 20
2.00000000000001
 30
0.0
 11
2.127329999999999
 21
2.00000000000001
 31
0.0
  0
LINE
  5
2F
330
1E
100
AcDbEntity
  8
0
100
AcDbLine
 10
1.258279999999999
 20
2.00000000000001
 30
0.0
 11
1.481749999999999
 21
2.00000000000001
 31
0.0
  0
LINE
  5
30
330
1E
100
AcDbEntity
  8
0
100
AcDbLine
 10
4.48618
 20
2.00000000000001
 30
0.0
 11
6.224289999999999
 21
2.00000000000001
 31
0.0
  0
LINE
  5
31
330
1E
100
AcDbEntity
  8
0
100
AcDbLine
 10
8.807949999999999
 20
2.666670000000009
 30
0.0
 11
95.0
 21
2.666669999999999
 31
0.0
  0
LINE
  5
32
330
1E
100
AcDbEntity
  8
0
100
AcDbLine
 10
6.870199999999999
 20
2.666670000000009
 30
0.0
 11
8.807949999999999
 21
2.666670000000009
 31
0.0
  0
LINE
  5
33
330
1E
100
AcDbEntity
  8
0
100
AcDbLine
 10
8.807949999999991
 20
2.666670000000009
 30
0.0
 11
95.0
 21
2.666669999999999
 31
0.0
  0
LINE
  5
34
330
1E
100
AcDbEntity
  8
0
100
AcDbLine
 10
6.224289999999999
 20
2.00000000000001
 30
0.0
 11
8.03687
 21
2.00000000000001
 31
0.0
  0
LINE
  5
35
330
1E
100
AcDbEntity
  8
0
100
AcDbLine
 10
8.03687
 20
2.00000000000001
 30
0.0
 11
9.948789999999998
 21
2.00000000000001
 31
0.0
  0
LINE
  5
36
330
1E
100
AcDbEntity
  8
0
100
AcDbLine
 10
66.3113
 20
0.0000000000000063
 30
0.0
 11
67.63249999999999
 21
0.0000000000000062
 31
0.0
  0
LINE
  5
37
330
1E
100
AcDbEntity
  8
0
100
AcDbLine
 10
66.3113
 20
0.0000000000000063
 30
0.0
 11
66.3113
 21
2.00000000000001
 31
0.0
  0
LINE
  5
38
330
1E
100
AcDbEntity
  8
0
100
AcDbLine
 10
69.51990000000001
 20
0.0000000000000061
 30
0.0
 11
69.51990000000001
 21
2.00000000000001
 31
0.0
  0
LINE
  5
39
330
1E
100
AcDbEntity
  8
0
100
AcDbLine
 10
68.9536
 20
0.0000000000000062
 30
0.0
 11
69.51990000000001
 21
0.0000000000000061
 31
0.0
  0
LINE
  5
3A
330
1E
100
AcDbEntity
  8
0
100
AcDbLine
 10
68.9536
 20
0.0000000000000062
 30
0.0
 11
68.9536
 21
2.00000000000001
 31
0.0
  0
LINE
  5
3B
330
1E
100
AcDbEntity
  8
0
100
AcDbLine
 10
67.63249999999999
 20
0.0000000000000062
 30
0.0
 11
68.9536
 21
0.0000000000000062
 31
0.0
  0
LINE
  5
3C
330
1E
100
AcDbEntity
  8
0
100
AcDbLine
 10
67.63249999999999
 20
0.0000000000000062
 30
0.0
 11
67.63249999999999
 21
2.00000000000001
 31
0.0
  0
LINE
  5
3D
330
1E
100
AcDbEntity
  8
0
100
AcDbLine
 10
51.2748
 20
0.0000000000000072
 30
0.0
 11
51.2748
 21
2.00000000000001
 31
0.0
  0
LINE
  5
3E
330
1E
100
AcDbEntity
  8
0
100
AcDbLine
 10
50.70859999999999
 20
0.0000000000000073
 30
0.0
 11
51.2748
 21
0.0000000000000072
 31
0.0
  0
LINE
  5
3F
330
1E
100
AcDbEntity
  8
0
100
AcDbLine
 10
50.70859999999999
 20
0.0000000000000073
 30
0.0
 11
50.70859999999999
 21
2.00000000000001
 31
0.0
  0
LINE
  5
40
330
1E
100
AcDbEntity
  8
0
100
AcDbLine
 10
49.3874
 20
0.0000000000000074
 30
0.0
 11
50.70859999999999
 21
0.0000000000000073
 31
0.0
  0
LINE
  5
41
330
1E
100
AcDbEntity
  8
0
100
AcDbLine
 10
49.3874
 20
0.0000000000000074
 30
0.0
 11
49.3874
 21
2.00000000000001
 31
0.0
  0
LINE
  5
42
330
1E
100
AcDbEntity
  8
0
100
AcDbLine
 10
33.0298
 20
0.0000000000000084
 30
0.0
 11
33.0298
 21
2.00000000000001
 31
0.0
  0
LINE
  5
43
330
1E
100
AcDbEntity
  8
0
100
AcDbLine
 10
32.4636
 20
0.0000000000000084
 30
0.0
 11
33.0298
 21
0.0000000000000084
 31
0.0
  0
LINE
  5
44
330
1E
100
AcDbEntity
  8
0
100
AcDbLine
 10
32.4636
 20
0.0000000000000084
 30
0.0
 11
32.4636
 21
2.00000000000001
 31
0.0
  0
LINE
  5
45
330
1E
100
AcDbEntity
  8
0
100
AcDbLine
 10
47.5
 20
0.0000000000000075
 30
0.0
 11
48.0662
 21
0.0000000000000074
 31
0.0
  0
LINE
  5
46
330
1E
100
AcDbEntity
  8
0
100
AcDbLine
 10
48.0662
 20
0.0000000000000074
 30
0.0
 11
49.3874
 21
0.0000000000000074
 31
0.0
  0
LINE
  5
47
330
1E
100
AcDbEntity
  8
0
100
AcDbLine
 10
48.0662
 20
0.0000000000000074
 30
0.0
 11
48.0662
 21
2.00000000000001
 31
0.0
  0
LINE
  5
48
330
1E
100
AcDbEntity
  8
0
100
AcDbLine
 10
31.1424
 20
0.0000000000000085
 30
0.0
 11
32.4636
 21
0.0000000000000084
 31
0.0
  0
LINE
  5
49
330
1E
100
AcDbEntity
  8
0
100
AcDbLine
 10
31.1424
 20
0.0000000000000085
 30
0.0
 11
31.1424
 21
2.00000000000001
 31
0.0
  0
LINE
  5
4A
330
1E
100
AcDbEntity
  8
0
100
AcDbLine
 10
11.5762
 20
0.0000000000000097
 30
0.0
 11
12.8974
 21
0.0000000000000096
 31
0.0
  0
LINE
  5
4B
330
1E
100
AcDbEntity
  8
0
100
AcDbLine
 10
11.5762
 20
0.0000000000000097
 30
0.0
 11
11.5762
 21
2.00000000000001
 31
0.0
  0
LINE
  5
4C
330
1E
100
AcDbEntity
  8
0
100
AcDbLine
 10
29.25499999999999
 20
0.0000000000000086
 30
0.0
 11
29.8212
 21
0.0000000000000086
 31
0.0
  0
LINE
  5
4D
330
1E
100
AcDbEntity
  8
0
100
AcDbLine
 10
14.7848
 20
0.0000000000000095
 30
0.0
 11
14.7848
 21
2.00000000000001
 31
0.0
  0
LINE
  5
4E
330
1E
100
AcDbEntity
  8
0
100
AcDbLine
 10
14.2185
 20
0.0000000000000095
 30
0.0
 11
14.7848
 21
0.0000000000000095
 31
0.0
  0
LINE
  5
4F
330
1E
100
AcDbEntity
  8
0
100
AcDbLine
 10
14.2185
 20
0.0000000000000095
 30
0.0
 11
14.2185
 21
2.00000000000001
 31
0.0
  0
LINE
  5
50
330
1E
100
AcDbEntity
  8
0
100
AcDbLine
 10
12.8974
 20
0.0000000000000096
 30
0.0
 11
14.2185
 21
0.0000000000000095
 31
0.0
  0
LINE
  5
51
330
1E
100
AcDbEntity
  8
0
100
AcDbLine
 10
12.8974
 20
0.0000000000000096
 30
0.0
 11
12.8974
 21
2.00000000000001
 31
0.0
  0
LINE
  5
52
330
1E
100
AcDbEntity
  8
0
100
AcDbLine
 10
12.8974
 20
2.00000000000001
 30
0.0
 11
12.8974
 21
0.0000000000000097
 31
0.0
  0
LINE
  5
53
330
1E
100
AcDbEntity
  8
0
100
AcDbLine
 10
14.2185
 20
2.00000000000001
 30
0.0
 11
14.2185
 21
0.0000000000000094
 31
0.0
  0
LINE
  5
54
330
1E
100
AcDbEntity
  8
0
100
AcDbLine
 10
14.2185
 20
2.00000000000001
 30
0.0
 11
14.7848
 21
2.00000000000001
 31
0.0
  0
LINE
  5
55
330
1E
100
AcDbEntity
  8
0
100
AcDbLine
 10
14.7848
 20
2.00000000000001
 30
0.0
 11
14.7848
 21
0.0000000000000094
 31
0.0
  0
LINE
  5
56
330
1E
100
AcDbEntity
  8
0
100
AcDbLine
 10
11.5762
 20
2.00000000000001
 30
0.0
 11
11.5762
 21
0.0000000000000097
 31
0.0
  0
LINE
  5
57
330
1E
100
AcDbEntity
  8
0
100
AcDbLine
 10
11.0099
 20
2.00000000000001
 30
0.0
 11
11.0099
 21
0.0000000000000097
 31
0.0
  0
LINE
  5
58
330
1E
100
AcDbEntity
  8
0
100
AcDbLine
 10
11.0099
 20
0.0000000000000097
 30
0.0
 11
11.5762
 21
0.0000000000000097
 31
0.0
  0
LINE
  5
59
330
1E
100
AcDbEntity
  8
0
100
AcDbLine
 10
50.70859999999999
 20
2.00000000000001
 30
0.0
 11
50.70859999999999
 21
0.0000000000000071
 31
0.0
  0
LINE
  5
5A
330
1E
100
AcDbEntity
  8
0
100
AcDbLine
 10
50.70859999999999
 20
2.00000000000001
 30
0.0
 11
51.2748
 21
2.00000000000001
 31
0.0
  0
LINE
  5
5B
330
1E
100
AcDbEntity
  8
0
100
AcDbLine
 10
49.3874
 20
2.00000000000001
 30
0.0
 11
49.3874
 21
0.0000000000000075
 31
0.0
  0
LINE
  5
5C
330
1E
100
AcDbEntity
  8
0
100
AcDbLine
 10
49.3874
 20
2.00000000000001
 30
0.0
 11
50.70859999999999
 21
2.00000000000001
 31
0.0
  0
LINE
  5
5D
330
1E
100
AcDbEntity
  8
0
100
AcDbLine
 10
51.2748
 20
2.00000000000001
 30
0.0
 11
51.2748
 21
0.0000000000000071
 31
0.0
  0
LINE
  5
5E
330
1E
100
AcDbEntity
  8
0
100
AcDbLine
 10
48.0662
 20
2.00000000000001
 30
0.0
 11
48.0662
 21
0.0000000000000075
 31
0.0
  0
LINE
  5
5F
330
1E
100
AcDbEntity
  8
0
100
AcDbLine
 10
31.1424
 20
2.00000000000001
 30
0.0
 11
31.1424
 21
0.0000000000000084
 31
0.0
  0
LINE
  5
60
330
1E
100
AcDbEntity
  8
0
100
AcDbLine
 10
32.4636
 20
2.00000000000001
 30
0.0
 11
32.4636
 21
0.0000000000000084
 31
0.0
  0
LINE
  5
61
330
1E
100
AcDbEntity
  8
0
100
AcDbLine
 10
33.0298
 20
2.00000000000001
 30
0.0
 11
33.0298
 21
0.0000000000000084
 31
0.0
  0
LINE
  5
62
330
1E
100
AcDbEntity
  8
0
100
AcDbLine
 10
29.8212
 20
2.00000000000001
 30
0.0
 11
29.8212
 21
0.0000000000000084
 31
0.0
  0
LINE
  5
63
330
1E
100
AcDbEntity
  8
0
100
AcDbLine
 10
29.8212
 20
2.00000000000001
 30
0.0
 11
31.1424
 21
2.00000000000001
 31
0.0
  0
LINE
  5
64
330
1E
100
AcDbEntity
  8
0
100
AcDbLine
 10
47.5
 20
2.00000000000001
 30
0.0
 11
47.5
 21
0.0000000000000075
 31
0.0
  0
LINE
  5
65
330
1E
100
AcDbEntity
  8
0
100
AcDbLine
 10
29.25499999999999
 20
2.00000000000001
 30
0.0
 11
29.25499999999999
 21
0.0000000000000084
 31
0.0
  0
LINE
  5
66
330
1E
100
AcDbEntity
  8
0
100
AcDbLine
 10
29.25499999999999
 20
2.00000000000001
 30
0.0
 11
29.8212
 21
2.00000000000001
 31
0.0
  0
LINE
  5
67
330
1E
100
AcDbEntity
  8
0
100
AcDbLine
 10
29.8212
 20
0.0000000000000086
 30
0.0
 11
31.1424
 21
0.0000000000000085
 31
0.0
  0
LINE
  5
68
330
1E
100
AcDbEntity
  8
0
100
AcDbLine
 10
29.8212
 20
0.0000000000000086
 30
0.0
 11
29.8212
 21
2.00000000000001
 31
0.0
  0
LINE
  5
69
330
1E
100
AcDbEntity
  8
0
100
AcDbLine
 10
67.63249999999999
 20
2.00000000000001
 30
0.0
 11
67.63249999999999
 21
0.0000000000000062
 31
0.0
  0
LINE
  5
6A
330
1E
100
AcDbEntity
  8
0
100
AcDbLine
 10
67.63249999999999
 20
2.00000000000001
 30
0.0
 11
68.9536
 21
2.00000000000001
 31
0.0
  0
LINE
  5
6B
330
1E
100
AcDbEntity
  8
0
100
AcDbLine
 10
68.9536
 20
2.00000000000001
 30
0.0
 11
68.9536
 21
0.0000000000000062
 31
0.0
  0
LINE
  5
6C
330
1E
100
AcDbEntity
  8
0
100
AcDbLine
 10
69.51990000000001
 20
2.00000000000001
 30
0.0
 11
69.51990000000001
 21
0.0000000000000062
 31
0.0
  0
LINE
  5
6D
330
1E
100
AcDbEntity
  8
0
100
AcDbLine
 10
66.3113
 20
2.00000000000001
 30
0.0
 11
66.3113
 21
0.0000000000000062
 31
0.0
  0
LINE
  5
6E
330
1E
100
AcDbEntity
  8
0
100
AcDbLine
 10
66.3113
 20
2.00000000000001
 30
0.0
 11
67.63249999999999
 21
2.00000000000001
 31
0.0
  0
LINE
  5
6F
330
1E
100
AcDbEntity
  8
0
100
AcDbLine
 10
65.745
 20
2.00000000000001
 30
0.0
 11
65.745
 21
0.0000000000000065
 31
0.0
  0
LINE
  5
70
330
1E
100
AcDbEntity
  8
0
100
AcDbLine
 10
65.745
 20
0.0000000000000064
 30
0.0
 11
66.3113
 21
0.0000000000000063
 31
0.0
  0
LINE
  5
71
330
1E
100
AcDbEntity
  8
0
100
AcDbLine
 10
9.948789999999998
 20
2.00000000000001
 30
0.0
 11
95.0
 21
2.0
 31
0.0
  0
LINE
  5
72
330
1E
100
AcDbEntity
  8
0
100
AcDbLine
 10
0.0000000000000008
 20
14.0
 30
0.0
 11
0.6291390000000011
 21
14.6667
 31
0.0
  0
LINE
  5
73
330
1E
100
AcDbEntity
  8
0
100
AcDbLine
 10
0.226490000000001
 20
14.0
 30
0.0
 11
0.880795000000001
 21
14.0
 31
0.0
  0
LINE
  5
74
330
1E
100
AcDbEntity
  8
0
100
AcDbLine
 10
0.0000000000000009
 20
14.0
 30
0.0
 11
0.226490000000001
 21
14.0
 31
0.0
  0
LINE
  5
75
330
1E
100
AcDbEntity
  8
0
100
AcDbLine
 10
0.880795000000001
 20
14.0
 30
0.0
 11
1.88742
 21
14.0
 31
0.0
  0
LINE
  5
76
330
1E
100
AcDbEntity
  8
0
100
AcDbLine
 10
1.88742
 20
14.0
 30
0.0
 11
3.27152
 21
14.0
 31
0.0
  0
LINE
  5
77
330
1E
100
AcDbEntity
  8
0
100
AcDbLine
 10
3.27152
 20
14.0
 30
0.0
 11
5.033109999999999
 21
14.0
 31
0.0
  0
LINE
  5
78
330
1E
100
AcDbEntity
  8
0
100
AcDbLine
 10
5.033109999999999
 20
14.0
 30
0.0
 11
6.870199999999999
 21
14.0
 31
0.0
  0
LINE
  5
79
330
1E
100
AcDbEntity
  8
0
100
AcDbLine
 10
8.807949999999999
 20
14.0
 30
0.0
 11
95.0
 21
14.0
 31
0.0
  0
LINE
  5
7A
330
1E
100
AcDbEntity
  8
0
100
AcDbLine
 10
6.870199999999999
 20
14.0
 30
0.0
 11
8.807949999999999
 21
14.0
 31
0.0
  0
LINE
  5
7B
330
1E
100
AcDbEntity
  8
0
100
AcDbLine
 10
8.807949999999991
 20
14.0
 30
0.0
 11
95.0
 21
14.0
 31
0.0
  0
LINE
  5
7C
330
1E
100
AcDbEntity
  8
0
100
AcDbLine
 10
0.6291390000000011
 20
14.6667
 30
0.0
 11
5.033109999999999
 21
16.0
 31
0.0
  0
LINE
  5
7D
330
1E
100
AcDbEntity
  8
0
100
AcDbLine
 10
36.4901
 20
20.0
 30
0.0
 11
45.298
 21
20.66669999999999
 31
0.0
  0
LINE
  5
7E
330
1E
100
AcDbEntity
  8
0
100
AcDbLine
 10
22.649
 20
18.6667
 30
0.0
 11
36.4901
 21
20.0
 31
0.0
  0
LINE
  5
7F
330
1E
100
AcDbEntity
  8
0
100
AcDbLine
 10
12.5828
 20
17.3333
 30
0.0
 11
22.649
 21
18.6667
 31
0.0
  0
LINE
  5
80
330
1E
100
AcDbEntity
  8
0
100
AcDbLine
 10
5.033109999999999
 20
16.0
 30
0.0
 11
12.5828
 21
17.3333
 31
0.0
  0
LINE
  5
81
330
1E
100
AcDbEntity
  8
0
100
AcDbLine
 10
75.67289999999999
 20
22.0
 30
0.0
 11
75.8742
 21
22.0
 31
0.0
  0
LINE
  5
82
330
1E
100
AcDbEntity
  8
0
100
AcDbLine
 10
75.542
 20
22.0
 30
0.0
 11
75.67289999999999
 21
22.0
 31
0.0
  0
LINE
  5
83
330
1E
100
AcDbEntity
  8
0
100
AcDbLine
 10
56.6225
 20
21.3333
 30
0.0
 11
75.4967
 21
22.0
 31
0.0
  0
LINE
  5
84
330
1E
100
AcDbEntity
  8
0
100
AcDbLine
 10
75.8742
 20
22.0
 30
0.0
 11
76.15100000000001
 21
22.0
 31
0.0
  0
LINE
  5
85
330
1E
100
AcDbEntity
  8
0
100
AcDbLine
 10
76.15100000000001
 20
22.0
 30
0.0
 11
76.5033
 21
22.0
 31
0.0
  0
LINE
  5
86
330
1E
100
AcDbEntity
  8
0
100
AcDbLine
 10
76.5033
 20
22.0
 30
0.0
 11
76.8707
 21
22.0
 31
0.0
  0
LINE
  5
87
330
1E
100
AcDbEntity
  8
0
100
AcDbLine
 10
76.8707
 20
22.0
 30
0.0
 11
77.25830000000001
 21
22.0
 31
0.0
  0
LINE
  5
88
330
1E
100
AcDbEntity
  8
0
100
AcDbLine
 10
77.25830000000001
 20
22.0
 30
0.0
 11
95.0
 21
22.0
 31
0.0
  0
LINE
  5
89
330
1E
100
AcDbEntity
  8
0
100
AcDbLine
 10
45.298
 20
20.66669999999999
 30
0.0
 11
56.6225
 21
21.3333
 31
0.0
  0
LINE
  5
8A
330
1E
100
AcDbEntity
  8
0
100
AcDbLine
 10
0.6291390000000011
 20
14.6667
 30
0.0
 11
5.033109999999999
 21
16.0
 31
0.0
  0
LINE
  5
8B
330
1E
100
AcDbEntity
  8
0
100
AcDbLine
 10
0.0000000000000009
 20
14.0
 30
0.0
 11
0.6291390000000011
 21
14.6667
 31
0.0
  0
LINE
  5
8C
330
1E
100
AcDbEntity
  8
0
100
AcDbLine
 10
0.0000000000000009
 20
14.0
 30
0.0
 11
0.226490000000001
 21
14.0
 31
0.0
  0
LINE
  5
8D
330
1E
100
AcDbEntity
  8
0
100
AcDbLine
 10
0.0000000000000002
 20
2.666670000000009
 30
0.0
 11
1.258279999999999
 21
2.00000000000001
 31
0.0
  0
LINE
  5
8E
330
1E
100
AcDbEntity
  8
0
100
AcDbLine
 10
0.0000000000000002
 20
2.666670000000009
 30
0.0
 11
0.0000000000000009
 21
14.0
 31
0.0
  0
LINE
  5
8F
330
1E
100
AcDbEntity
  8
0
100
AcDbLine
 10
0.0000000000000002
 20
2.666670000000009
 30
0.0
 11
0.22649
 21
2.666670000000009
 31
0.0
  0
LINE
  5
90
330
1E
100
AcDbEntity
  8
0
100
AcDbLine
 10
85.87749999999999
 20
0.0000000000000051
 30
0.0
 11
87.1987
 21
0.000000000000005
 31
0.0
  0
LINE
  5
91
330
1E
100
AcDbEntity
  8
0
100
AcDbLine
 10
85.87749999999999
 20
0.0000000000000051
 30
0.0
 11
85.87749999999999
 21
2.00000000000001
 31
0.0
  0
LINE
  5
92
330
1E
100
AcDbEntity
  8
0
100
AcDbLine
 10
84.55629999999999
 20
0.0000000000000052
 30
0.0
 11
85.87749999999999
 21
0.0000000000000051
 31
0.0
  0
LINE
  5
93
330
1E
100
AcDbEntity
  8
0
100
AcDbLine
 10
84.55629999999999
 20
0.0000000000000052
 30
0.0
 11
84.55629999999999
 21
2.00000000000001
 31
0.0
  0
LINE
  5
94
330
1E
100
AcDbEntity
  8
0
100
AcDbLine
 10
82.41719999999999
 20
0.0000000000000053
 30
0.0
 11
82.8702
 21
0.0000000000000053
 31
0.0
  0
LINE
  5
95
330
1E
100
AcDbEntity
  8
0
100
AcDbLine
 10
82.41719999999999
 20
0.0000000000000053
 30
0.0
 11
82.41719999999999
 21
2.00000000000001
 31
0.0
  0
LINE
  5
96
330
1E
100
AcDbEntity
  8
0
100
AcDbLine
 10
83.9901
 20
0.0000000000000052
 30
0.0
 11
84.55629999999999
 21
0.0000000000000052
 31
0.0
  0
LINE
  5
97
330
1E
100
AcDbEntity
  8
0
100
AcDbLine
 10
82.8702
 20
0.0000000000000053
 30
0.0
 11
83.9901
 21
0.0000000000000052
 31
0.0
  0
LINE
  5
98
330
1E
100
AcDbEntity
  8
0
100
AcDbLine
 10
84.55629999999999
 20
0.0000000000000052
 30
0.0
 11
86.0914
 21
0.0000000000000051
 31
0.0
  0
LINE
  5
99
330
1E
100
AcDbEntity
  8
0
100
AcDbLine
 10
87.7649
 20
0.000000000000005
 30
0.0
 11
87.7649
 21
2.0
 31
0.0
  0
LINE
  5
9A
330
1E
100
AcDbEntity
  8
0
100
AcDbLine
 10
87.1987
 20
0.000000000000005
 30
0.0
 11
87.7649
 21
0.000000000000005
 31
0.0
  0
LINE
  5
9B
330
1E
100
AcDbEntity
  8
0
100
AcDbLine
 10
87.1987
 20
0.000000000000005
 30
0.0
 11
87.1987
 21
2.00000000000001
 31
0.0
  0
LINE
  5
9C
330
1E
100
AcDbEntity
  8
0
100
AcDbLine
 10
86.0914
 20
0.0000000000000051
 30
0.0
 11
88.7589
 21
0.0000000000000049
 31
0.0
  0
LINE
  5
9D
330
1E
100
AcDbEntity
  8
0
100
AcDbLine
 10
88.7589
 20
0.0000000000000049
 30
0.0
 11
91.7788
 21
0.0000000000000048
 31
0.0
  0
LINE
  5
9E
330
1E
100
AcDbEntity
  8
0
100
AcDbLine
 10
95.0
 20
0.0000000000000046
 30
0.0
 11
98.22119999999999
 21
0.0000000000000044
 31
0.0
  0
LINE
  5
9F
330
1E
100
AcDbEntity
  8
0
100
AcDbLine
 10
91.7788
 20
0.0000000000000048
 30
0.0
 11
95.0
 21
0.0000000000000046
 31
0.0
  0
LINE
  5
A0
330
1E
100
AcDbEntity
  8
0
100
AcDbLine
 10
85.87749999999999
 20
2.00000000000001
 30
0.0
 11
85.87749999999999
 21
0.0000000000000052
 31
0.0
  0
LINE
  5
A1
330
1E
100
AcDbEntity
  8
0
100
AcDbLine
 10
87.1987
 20
2.00000000000001
 30
0.0
 11
87.1987
 21
0.0000000000000052
 31
0.0
  0
LINE
  5
A2
330
1E
100
AcDbEntity
  8
0
100
AcDbLine
 10
87.7649
 20
2.0
 30
0.0
 11
87.7649
 21
0.0000000000000049
 31
0.0
  0
LINE
  5
A3
330
1E
100
AcDbEntity
  8
0
100
AcDbLine
 10
84.55629999999999
 20
2.00000000000001
 30
0.0
 11
84.55629999999999
 21
0.0000000000000052
 31
0.0
  0
LINE
  5
A4
330
1E
100
AcDbEntity
  8
0
100
AcDbLine
 10
83.9901
 20
2.00000000000001
 30
0.0
 11
83.9901
 21
0.0000000000000052
 31
0.0
  0
LINE
  5
A5
330
1E
100
AcDbEntity
  8
0
100
AcDbLine
 10
83.9901
 20
2.00000000000001
 30
0.0
 11
84.55629999999999
 21
2.00000000000001
 31
0.0
  0
LINE
  5
A6
330
1E
100
AcDbEntity
  8
0
100
AcDbLine
 10
82.41719999999999
 20
2.00000000000001
 30
0.0
 11
82.41719999999999
 21
0.0000000000000052
 31
0.0
  0
LINE
  5
A7
330
1E
100
AcDbEntity
  8
0
100
AcDbLine
 10
82.41719999999999
 20
2.00000000000001
 30
0.0
 11
82.8702
 21
2.00000000000001
 31
0.0
  0
LINE
  5
A8
330
1E
100
AcDbEntity
  8
0
100
AcDbLine
 10
82.8702
 20
2.00000000000001
 30
0.0
 11
83.9901
 21
2.00000000000001
 31
0.0
  0
LINE
  5
A9
330
1E
100
AcDbEntity
  8
0
100
AcDbLine
 10
91.7788
 20
2.0
 30
0.0
 11
95.0
 21
2.0
 31
0.0
  0
LINE
  5
AA
330
1E
100
AcDbEntity
  8
0
100
AcDbLine
 10
95.0
 20
2.0
 30
0.0
 11
180.0509999999999
 21
2.0
 31
0.0
  0
LINE
  5
AB
330
1E
100
AcDbEntity
  8
0
100
AcDbLine
 10
95.0
 20
2.666669999999999
 30
0.0
 11
181.192
 21
2.666669999999999
 31
0.0
  0
LINE
  5
AC
330
1E
100
AcDbEntity
  8
0
100
AcDbLine
 10
95.0
 20
14.0
 30
0.0
 11
181.192
 21
14.0
 31
0.0
  0
LINE
  5
AD
330
1E
100
AcDbEntity
  8
0
100
AcDbLine
 10
80.0
 20
22.0
 30
0.0
 11
80.0
 21
31.5727
 31
0.0
  0
LINE
  5
AE
330
1E
100
AcDbEntity
  8
0
100
AcDbLine
 10
91.15999999999999
 20
31.5727
 30
0.0
 11
95.0
 21
31.5727
 31
0.0
  0
LINE
  5
AF
330
1E
100
AcDbEntity
  8
0
100
AcDbLine
 10
87.56
 20
31.5727
 30
0.0
 11
91.15999999999999
 21
31.5727
 31
0.0
  0
LINE
  5
B0
330
1E
100
AcDbEntity
  8
0
100
AcDbLine
 10
84.38
 20
31.5727
 30
0.0
 11
87.56
 21
31.5727
 31
0.0
  0
LINE
  5
B1
330
1E
100
AcDbEntity
  8
0
100
AcDbLine
 10
81.98
 20
31.5727
 30
0.0
 11
84.38
 21
31.5727
 31
0.0
  0
LINE
  5
B2
330
1E
100
AcDbEntity
  8
0
100
AcDbLine
 10
80.54
 20
31.5727
 30
0.0
 11
81.98
 21
31.5727
 31
0.0
  0
LINE
  5
B3
330
1E
100
AcDbEntity
  8
0
100
AcDbLine
 10
80.0
 20
31.5727
 30
0.0
 11
80.0
 21
22.0
 31
0.0
  0
LINE
  5
B4
330
1E
100
AcDbEntity
  8
0
100
AcDbLine
 10
80.0
 20
31.5727
 30
0.0
 11
80.54
 21
31.5727
 31
0.0
  0
LINE
  5
B5
330
1E
100
AcDbEntity
  8
0
100
AcDbLine
 10
80.0
 20
31.5727
 30
0.0
 11
80.35999999999999
 21
32.0
 31
0.0
  0
LINE
  5
B6
330
1E
100
AcDbEntity
  8
0
100
AcDbLine
 10
95.0
 20
22.0
 30
0.0
 11
98.84
 21
22.0
 31
0.0
  0
LINE
  5
B7
330
1E
100
AcDbEntity
  8
0
100
AcDbLine
 10
95.0
 20
22.0
 30
0.0
 11
112.742
 21
22.0
 31
0.0
  0
LINE
  5
B8
330
1E
100
AcDbEntity
  8
0
100
AcDbLine
 10
98.22119999999999
 20
2.0
 30
0.0
 11
101.241
 21
2.0
 31
0.0
  0
LINE
  5
B9
330
1E
100
AcDbEntity
  8
0
100
AcDbLine
 10
98.22119999999999
 20
0.0000000000000044
 30
0.0
 11
101.241
 21
0.0000000000000042
 31
0.0
  0
LINE
  5
BA
330
1E
100
AcDbEntity
  8
0
100
AcDbLine
 10
102.235
 20
0.0000000000000041
 30
0.0
 11
102.801
 21
0.0000000000000041
 31
0.0
  0
LINE
  5
BB
330
1E
100
AcDbEntity
  8
0
100
AcDbLine
 10
102.235
 20
0.0000000000000041
 30
0.0
 11
102.235
 21
2.0
 31
0.0
  0
LINE
  5
BC
330
1E
100
AcDbEntity
  8
0
100
AcDbLine
 10
102.235
 20
2.0
 30
0.0
 11
102.235
 21
0.0000000000000042
 31
0.0
  0
LINE
  5
BD
330
1E
100
AcDbEntity
  8
0
100
AcDbLine
 10
101.241
 20
2.0
 30
0.0
 11
102.235
 21
2.0
 31
0.0
  0
LINE
  5
BE
330
1E
100
AcDbEntity
  8
0
100
AcDbLine
 10
101.241
 20
0.0000000000000042
 30
0.0
 11
103.9089999999999
 21
0.000000000000004
 31
0.0
  0
LINE
  5
BF
330
1E
100
AcDbEntity
  8
0
100
AcDbLine
 10
101.241
 20
0.0000000000000042
 30
0.0
 11
102.801
 21
0.0000000000000041
 31
0.0
  0
LINE
  5
C0
330
1E
100
AcDbEntity
  8
0
100
AcDbLine
 10
98.84
 20
22.0
 30
0.0
 11
102.4399999999999
 21
22.0
 31
0.0
  0
LINE
  5
C1
330
1E
100
AcDbEntity
  8
0
100
AcDbLine
 10
102.4399999999999
 20
22.0
 30
0.0
 11
105.62
 21
22.0
 31
0.0
  0
LINE
  5
C2
330
1E
100
AcDbEntity
  8
0
100
AcDbLine
 10
95.0
 20
31.5727
 30
0.0
 11
98.84
 21
31.5727
 31
0.0
  0
LINE
  5
C3
330
1E
100
AcDbEntity
  8
0
100
AcDbLine
 10
98.84
 20
31.5727
 30
0.0
 11
102.4399999999999
 21
31.5727
 31
0.0
  0
LINE
  5
C4
330
1E
100
AcDbEntity
  8
0
100
AcDbLine
 10
107.583
 20
0.0000000000000038
 30
0.0
 11
107.583
 21
2.0
 31
0.0
  0
LINE
  5
C5
330
1E
100
AcDbEntity
  8
0
100
AcDbLine
 10
107.1299999999999
 20
0.0000000000000038
 30
0.0
 11
107.583
 21
0.0000000000000038
 31
0.0
  0
LINE
  5
C6
330
1E
100
AcDbEntity
  8
0
100
AcDbLine
 10
102.801
 20
2.0
 30
0.0
 11
102.801
 21
0.0000000000000042
 31
0.0
  0
LINE
  5
C7
330
1E
100
AcDbEntity
  8
0
100
AcDbLine
 10
102.801
 20
2.0
 30
0.0
 11
104.1229999999999
 21
2.0
 31
0.0
  0
LINE
  5
C8
330
1E
100
AcDbEntity
  8
0
100
AcDbLine
 10
104.1229999999999
 20
2.0
 30
0.0
 11
105.444
 21
2.0
 31
0.0
  0
LINE
  5
C9
330
1E
100
AcDbEntity
  8
0
100
AcDbLine
 10
104.1229999999999
 20
2.0
 30
0.0
 11
104.1229999999999
 21
0.0000000000000039
 31
0.0
  0
LINE
  5
CA
330
1E
100
AcDbEntity
  8
0
100
AcDbLine
 10
102.801
 20
0.0000000000000041
 30
0.0
 11
104.1229999999999
 21
0.000000000000004
 31
0.0
  0
LINE
  5
CB
330
1E
100
AcDbEntity
  8
0
100
AcDbLine
 10
102.801
 20
0.0000000000000041
 30
0.0
 11
102.801
 21
2.0
 31
0.0
  0
LINE
  5
CC
330
1E
100
AcDbEntity
  8
0
100
AcDbLine
 10
104.1229999999999
 20
0.000000000000004
 30
0.0
 11
105.444
 21
0.0000000000000039
 31
0.0
  0
LINE
  5
CD
330
1E
100
AcDbEntity
  8
0
100
AcDbLine
 10
104.1229999999999
 20
0.000000000000004
 30
0.0
 11
104.1229999999999
 21
2.0
 31
0.0
  0
LINE
  5
CE
330
1E
100
AcDbEntity
  8
0
100
AcDbLine
 10
106.01
 20
2.0
 30
0.0
 11
106.01
 21
0.0000000000000039
 31
0.0
  0
LINE
  5
CF
330
1E
100
AcDbEntity
  8
0
100
AcDbLine
 10
105.444
 20
2.0
 30
0.0
 11
105.444
 21
0.0000000000000039
 31
0.0
  0
LINE
  5
D0
330
1E
100
AcDbEntity
  8
0
100
AcDbLine
 10
105.444
 20
0.0000000000000039
 30
0.0
 11
106.01
 21
0.0000000000000039
 31
0.0
  0
LINE
  5
D1
330
1E
100
AcDbEntity
  8
0
100
AcDbLine
 10
105.444
 20
0.0000000000000039
 30
0.0
 11
105.444
 21
2.0
 31
0.0
  0
LINE
  5
D2
330
1E
100
AcDbEntity
  8
0
100
AcDbLine
 10
107.583
 20
2.0
 30
0.0
 11
107.583
 21
0.0000000000000039
 31
0.0
  0
LINE
  5
D3
330
1E
100
AcDbEntity
  8
0
100
AcDbLine
 10
105.922
 20
0.0000000000000039
 30
0.0
 11
107.1299999999999
 21
0.0000000000000038
 31
0.0
  0
LINE
  5
D4
330
1E
100
AcDbEntity
  8
0
100
AcDbLine
 10
104.1229999999999
 20
0.000000000000004
 30
0.0
 11
105.444
 21
0.0000000000000039
 31
0.0
  0
LINE
  5
D5
330
1E
100
AcDbEntity
  8
0
100
AcDbLine
 10
106.01
 20
0.0000000000000039
 30
0.0
 11
107.1299999999999
 21
0.0000000000000038
 31
0.0
  0
LINE
  5
D6
330
1E
100
AcDbEntity
  8
0
100
AcDbLine
 10
102.4399999999999
 20
31.5727
 30
0.0
 11
105.62
 21
31.5727
 31
0.0
  0
LINE
  5
D7
330
1E
100
AcDbEntity
  8
0
100
AcDbLine
 10
105.62
 20
31.5727
 30
0.0
 11
108.02
 21
31.5727
 31
0.0
  0
LINE
  5
D8
330
1E
100
AcDbEntity
  8
0
100
AcDbLine
 10
108.02
 20
31.5727
 30
0.0
 11
109.46
 21
31.5727
 31
0.0
  0
LINE
  5
D9
330
1E
100
AcDbEntity
  8
0
100
AcDbLine
 10
80.5
 20
32.0
 30
0.0
 11
80.5
 21
53.57269999999999
 31
0.0
  0
LINE
  5
DA
330
1E
100
AcDbEntity
  8
0
100
AcDbLine
 10
91.21999999999999
 20
32.0
 30
0.0
 11
95.0
 21
32.0
 31
0.0
  0
LINE
  5
DB
330
1E
100
AcDbEntity
  8
0
100
AcDbLine
 10
87.73999999999999
 20
32.0
 30
0.0
 11
91.21999999999999
 21
32.0
 31
0.0
  0
LINE
  5
DC
330
1E
100
AcDbEntity
  8
0
100
AcDbLine
 10
84.68000000000001
 20
32.0
 30
0.0
 11
87.73999999999999
 21
32.0
 31
0.0
  0
LINE
  5
DD
330
1E
100
AcDbEntity
  8
0
100
AcDbLine
 10
82.33999999999999
 20
32.0
 30
0.0
 11
84.68000000000001
 21
32.0
 31
0.0
  0
LINE
  5
DE
330
1E
100
AcDbEntity
  8
0
100
AcDbLine
 10
80.90000000000001
 20
32.0
 30
0.0
 11
82.33999999999999
 21
32.0
 31
0.0
  0
LINE
  5
DF
330
1E
100
AcDbEntity
  8
0
100
AcDbLine
 10
80.35999999999999
 20
32.0
 30
0.0
 11
80.90000000000001
 21
32.0
 31
0.0
  0
LINE
  5
E0
330
1E
100
AcDbEntity
  8
0
100
AcDbLine
 10
95.0
 20
32.0
 30
0.0
 11
98.78
 21
32.0
 31
0.0
  0
LINE
  5
E1
330
1E
100
AcDbEntity
  8
0
100
AcDbLine
 10
98.78
 20
32.0
 30
0.0
 11
102.26
 21
32.0
 31
0.0
  0
LINE
  5
E2
330
1E
100
AcDbEntity
  8
0
100
AcDbLine
 10
102.26
 20
32.0
 30
0.0
 11
105.3199999999999
 21
32.0
 31
0.0
  0
LINE
  5
E3
330
1E
100
AcDbEntity
  8
0
100
AcDbLine
 10
105.3199999999999
 20
32.0
 30
0.0
 11
107.66
 21
32.0
 31
0.0
  0
LINE
  5
E4
330
1E
100
AcDbEntity
  8
0
100
AcDbLine
 10
91.288
 20
53.57269999999999
 30
0.0
 11
95.0
 21
53.57269999999999
 31
0.0
  0
LINE
  5
E5
330
1E
100
AcDbEntity
  8
0
100
AcDbLine
 10
87.80799999999999
 20
53.57269999999999
 30
0.0
 11
91.288
 21
53.57269999999999
 31
0.0
  0
LINE
  5
E6
330
1E
100
AcDbEntity
  8
0
100
AcDbLine
 10
84.73399999999999
 20
53.57269999999999
 30
0.0
 11
87.80799999999999
 21
53.57269999999999
 31
0.0
  0
LINE
  5
E7
330
1E
100
AcDbEntity
  8
0
100
AcDbLine
 10
82.414
 20
53.57269999999999
 30
0.0
 11
84.73399999999999
 21
53.57269999999999
 31
0.0
  0
LINE
  5
E8
330
1E
100
AcDbEntity
  8
0
100
AcDbLine
 10
81.02199999999999
 20
53.57269999999999
 30
0.0
 11
82.414
 21
53.57269999999999
 31
0.0
  0
LINE
  5
EC
330
1E
100
AcDbEntity
  8
0
100
AcDbLine
 10
91.346
 20
54.0
 30
0.0
 11
95.0
 21
54.0
 31
0.0
  0
LINE
  5
ED
330
1E
100
AcDbEntity
  8
0
100
AcDbLine
 10
87.98200000000001
 20
54.0
 30
0.0
 11
91.346
 21
54.0
 31
0.0
  0
LINE
  5
EE
330
1E
100
AcDbEntity
  8
0
100
AcDbLine
 10
85.02399999999999
 20
54.0
 30
0.0
 11
87.98200000000001
 21
54.0
 31
0.0
  0
LINE
  5
EF
330
1E
100
AcDbEntity
  8
0
100
AcDbLine
 10
80.5
 20
53.57269999999999
 30
0.0
 11
80.5
 21
32.0
 31
0.0
  0
LINE
  5
F0
330
1E
100
AcDbEntity
  8
0
100
AcDbLine
 10
80.5
 20
53.57269999999999
 30
0.0
 11
81.02199999999999
 21
53.57269999999999
 31
0.0
  0
LINE
  5
F1
330
1E
100
AcDbEntity
  8
0
100
AcDbLine
 10
80.5
 20
53.57269999999999
 30
0.0
 11
80.84799999999999
 21
54.0
 31
0.0
  0
LINE
  5
F2
330
1E
100
AcDbEntity
  8
0
100
AcDbLine
 10
95.0
 20
54.0
 30
0.0
 11
98.65400000000001
 21
54.0
 31
0.0
  0
LINE
  5
F3
330
1E
100
AcDbEntity
  8
0
100
AcDbLine
 10
95.0
 20
53.57269999999999
 30
0.0
 11
98.71200000000001
 21
53.57269999999999
 31
0.0
  0
LINE
  5
F5
330
1E
100
AcDbEntity
  8
0
100
AcDbLine
 10
98.71200000000001
 20
53.57269999999999
 30
0.0
 11
102.192
 21
53.57269999999999
 31
0.0
  0
LINE
  5
F6
330
1E
100
AcDbEntity
  8
0
100
AcDbLine
 10
98.65400000000001
 20
54.0
 30
0.0
 11
102.0179999999999
 21
54.0
 31
0.0
  0
LINE
  5
F7
330
1E
100
AcDbEntity
  8
0
100
AcDbLine
 10
102.192
 20
53.57269999999999
 30
0.0
 11
105.266
 21
53.57269999999999
 31
0.0
  0
LINE
  5
F8
330
1E
100
AcDbEntity
  8
0
100
AcDbLine
 10
102.0179999999999
 20
54.0
 30
0.0
 11
104.976
 21
54.0
 31
0.0
  0
LINE
  5
F9
330
1E
100
AcDbEntity
  8
0
100
AcDbLine
 10
105.266
 20
53.57269999999999
 30
0.0
 11
107.586
 21
53.57269999999999
 31
0.0
  0
LINE
  5
FA
330
1E
100
AcDbEntity
  8
0
100
AcDbLine
 10
104.976
 20
54.0
 30
0.0
 11
107.238
 21
54.0
 31
0.0
  0
LINE
  5
FB
330
1E
100
AcDbEntity
  8
0
100
AcDbLine
 10
107.238
 20
54.0
 30
0.0
 11
108.63
 21
54.0
 31
0.0
  0
LINE
  5
FC
330
1E
100
AcDbEntity
  8
0
100
AcDbLine
 10
107.586
 20
53.57269999999999
 30
0.0
 11
108.9779999999999
 21
53.57269999999999
 31
0.0
  0
LINE
  5
107
330
1E
100
AcDbEntity
  8
0
100
AcDbLine
 10
56.6725
 20
171.513
 30
0.0
 11
57.07180000000001
 21
171.3919999999999
 31
0.0
  0
LINE
  5
108
330
1E
100
AcDbEntity
  8
0
100
AcDbLine
 10
55.9201
 20
172.2649999999999
 30
0.0
 11
56.1969
 21
171.8529999999999
 31
0.0
  0
LINE
  5
10A
330
1E
100
AcDbEntity
  8
0
100
AcDbLine
 10
56.2887
 20
171.7709999999999
 30
0.0
 11
56.6725
 21
171.513
 31
0.0
  0
LINE
  5
10D
330
1E
100
AcDbEntity
  8
0
100
AcDbLine
 10
56.1969
 20
171.8529999999999
 30
0.0
 11
56.2887
 21
171.7709999999999
 31
0.0
  0
LINE
  5
113
330
1E
100
AcDbEntity
  8
0
100
AcDbLine
 10
57.07180000000001
 20
171.3919999999999
 30
0.0
 11
57.9678
 21
171.299
 31
0.0
  0
LINE
  5
114
330
1E
100
AcDbEntity
  8
0
100
AcDbLine
 10
57.9678
 20
171.299
 30
0.0
 11
74.15399999999999
 21
170.7019999999999
 31
0.0
  0
LINE
  5
118
330
1E
100
AcDbEntity
  8
0
100
AcDbLine
 10
74.15399999999999
 20
170.7019999999999
 30
0.0
 11
76.4839
 21
170.654
 31
0.0
  0
LINE
  5
119
330
1E
100
AcDbEntity
  8
0
100
AcDbLine
 10
74.15399999999999
 20
170.7019999999999
 30
0.0
 11
81.3287
 21
170.518
 31
0.0
  0
LINE
  5
11B
330
1E
100
AcDbEntity
  8
0
100
AcDbLine
 10
55.8003
 20
172.641
 30
0.0
 11
55.9201
 21
172.2649999999999
 31
0.0
  0
LINE
  5
11C
330
1E
100
AcDbEntity
  8
0
100
AcDbLine
 10
55.3612
 20
187.0
 30
0.0
 11
55.5079
 21
187.0
 31
0.0
  0
LINE
  5
11D
330
1E
100
AcDbEntity
  8
0
100
AcDbLine
 10
55.5079
 20
187.0
 30
0.0
 11
55.6696
 21
187.0
 31
0.0
  0
LINE
  5
11E
330
1E
100
AcDbEntity
  8
0
100
AcDbLine
 10
55.6696
 20
187.0
 30
0.0
 11
55.78929999999999
 21
187.0
 31
0.0
  0
LINE
  5
11F
330
1E
100
AcDbEntity
  8
0
100
AcDbLine
 10
55.78929999999999
 20
187.0
 30
0.0
 11
55.953
 21
187.0
 31
0.0
  0
LINE
  5
120
330
1E
100
AcDbEntity
  8
0
100
AcDbLine
 10
56.912
 20
187.0
 30
0.0
 11
57.1864
 21
187.0
 31
0.0
  0
LINE
  5
121
330
1E
100
AcDbEntity
  8
0
100
AcDbLine
 10
56.46889999999999
 20
187.0
 30
0.0
 11
56.912
 21
187.0
 31
0.0
  0
LINE
  5
122
330
1E
100
AcDbEntity
  8
0
100
AcDbLine
 10
55.953
 20
187.0
 30
0.0
 11
56.1725
 21
187.0
 31
0.0
  0
LINE
  5
123
330
1E
100
AcDbEntity
  8
0
100
AcDbLine
 10
56.1725
 20
187.0
 30
0.0
 11
56.46889999999999
 21
187.0
 31
0.0
  0
LINE
  5
124
330
1E
100
AcDbEntity
  8
0
100
AcDbLine
 10
55.06389999999999
 20
187.0
 30
0.0
 11
55.1976
 21
187.0
 31
0.0
  0
LINE
  5
125
330
1E
100
AcDbEntity
  8
0
100
AcDbLine
 10
55.1976
 20
187.0
 30
0.0
 11
55.3612
 21
187.0
 31
0.0
  0
LINE
  5
126
330
1E
100
AcDbEntity
  8
0
100
AcDbLine
 10
55.0
 20
187.0
 30
0.0
 11
55.7025
 21
173.564
 31
0.0
  0
LINE
  5
127
330
1E
100
AcDbEntity
  8
0
100
AcDbLine
 10
55.7025
 20
173.564
 30
0.0
 11
55.8003
 21
172.641
 31
0.0
  0
LINE
  5
128
330
1E
100
AcDbEntity
  8
0
100
AcDbLine
 10
57.8241
 20
187.0
 30
0.0
 11
58.1773
 21
187.0
 31
0.0
  0
LINE
  5
129
330
1E
100
AcDbEntity
  8
0
100
AcDbLine
 10
60.0354
 20
187.0
 30
0.0
 11
60.62319999999999
 21
187.0
 31
0.0
  0
LINE
  5
12A
330
1E
100
AcDbEntity
  8
0
100
AcDbLine
 10
59.4896
 20
187.0
 30
0.0
 11
60.0354
 21
187.0
 31
0.0
  0
LINE
  5
12B
330
1E
100
AcDbEntity
  8
0
100
AcDbLine
 10
58.9677
 20
187.0
 30
0.0
 11
59.4896
 21
187.0
 31
0.0
  0
LINE
  5
12C
330
1E
100
AcDbEntity
  8
0
100
AcDbLine
 10
58.1773
 20
187.0
 30
0.0
 11
58.9677
 21
187.0
 31
0.0
  0
LINE
  5
12D
330
1E
100
AcDbEntity
  8
0
100
AcDbLine
 10
57.4997
 20
187.0
 30
0.0
 11
57.8241
 21
187.0
 31
0.0
  0
LINE
  5
12E
330
1E
100
AcDbEntity
  8
0
100
AcDbLine
 10
57.1864
 20
187.0
 30
0.0
 11
57.4997
 21
187.0
 31
0.0
  0
LINE
  5
12F
330
1E
100
AcDbEntity
  8
0
100
AcDbLine
 10
61.2229
 20
187.0
 30
0.0
 11
62.4474
 21
187.0
 31
0.0
  0
LINE
  5
130
330
1E
100
AcDbEntity
  8
0
100
AcDbLine
 10
60.62319999999999
 20
187.0
 30
0.0
 11
61.2229
 21
187.0
 31
0.0
  0
LINE
  5
131
330
1E
100
AcDbEntity
  8
0
100
AcDbLine
 10
75.937
 20
187.0
 30
0.0
 11
82.9673
 21
187.0
 31
0.0
  0
LINE
  5
132
330
1E
100
AcDbEntity
  8
0
100
AcDbLine
 10
67.2153
 20
187.0
 30
0.0
 11
68.9098
 21
187.0
 31
0.0
  0
LINE
  5
133
330
1E
100
AcDbEntity
  8
0
100
AcDbLine
 10
68.9098
 20
187.0
 30
0.0
 11
75.937
 21
187.0
 31
0.0
  0
LINE
  5
134
330
1E
100
AcDbEntity
  8
0
100
AcDbLine
 10
63.4722
 20
187.0
 30
0.0
 11
64.503
 21
187.0
 31
0.0
  0
LINE
  5
135
330
1E
100
AcDbEntity
  8
0
100
AcDbLine
 10
64.503
 20
187.0
 30
0.0
 11
67.2153
 21
187.0
 31
0.0
  0
LINE
  5
136
330
1E
100
AcDbEntity
  8
0
100
AcDbLine
 10
62.4474
 20
187.0
 30
0.0
 11
63.4722
 21
187.0
 31
0.0
  0
LINE
  5
13A
330
1E
100
AcDbEntity
  8
0
100
AcDbLine
 10
82.0
 20
54.0
 30
0.0
 11
82.2574
 21
54.62749999999999
 31
0.0
  0
LINE
  5
13B
330
1E
100
AcDbEntity
  8
0
100
AcDbLine
 10
83.51170000000001
 20
54.0
 30
0.0
 11
84.24330000000001
 21
54.0
 31
0.0
  0
LINE
  5
13C
330
1E
100
AcDbEntity
  8
0
100
AcDbLine
 10
82.76200000000001
 20
54.0
 30
0.0
 11
85.02399999999999
 21
54.0
 31
0.0
  0
LINE
  5
13D
330
1E
100
AcDbEntity
  8
0
100
AcDbLine
 10
82.76200000000001
 20
54.0
 30
0.0
 11
83.51170000000001
 21
54.0
 31
0.0
  0
LINE
  5
13E
330
1E
100
AcDbEntity
  8
0
100
AcDbLine
 10
81.69589999999999
 20
71.5
 30
0.0
 11
82.2268
 21
71.5
 31
0.0
  0
LINE
  5
13F
330
1E
100
AcDbEntity
  8
0
100
AcDbLine
 10
81.3287
 20
170.518
 30
0.0
 11
81.3896
 21
170.517
 31
0.0
  0
LINE
  5
140
330
1E
100
AcDbEntity
  8
0
100
AcDbLine
 10
81.3896
 20
170.517
 30
0.0
 11
81.74280000000001
 21
170.516
 31
0.0
  0
LINE
  5
141
330
1E
100
AcDbEntity
  8
0
100
AcDbLine
 10
81.3896
 20
170.517
 30
0.0
 11
81.53579999999999
 21
170.516586070215
 31
0.0
  0
LINE
  5
143
330
1E
100
AcDbEntity
  8
0
100
AcDbLine
 10
81.74280000000001
 20
170.516
 30
0.0
 11
82.4005
 21
170.514
 31
0.0
  0
LINE
  5
144
330
1E
100
AcDbEntity
  8
0
100
AcDbLine
 10
81.53579999999999
 20
71.5
 30
0.0
 11
81.69589999999999
 21
71.5
 31
0.0
  0
LINE
  5
145
330
1E
100
AcDbEntity
  8
0
100
AcDbLine
 10
81.53579999999999
 20
71.5
 30
0.0
 11
81.53579999999999
 21
170.521431934435
 31
0.0
  0
LINE
  5
146
330
1E
100
AcDbEntity
  8
0
100
AcDbLine
 10
81.53579999999999
 20
71.5
 30
0.0
 11
81.53579999999999
 21
170.521431934435
 31
0.0
  0
LINE
  5
147
330
1E
100
AcDbEntity
  8
0
100
AcDbLine
 10
81.53579999999999
 20
71.5
 30
0.0
 11
82.0344
 21
71.0
 31
0.0
  0
LINE
  5
148
330
1E
100
AcDbEntity
  8
0
100
AcDbLine
 10
82.0344
 20
71.0
 30
0.0
 11
82.1889
 21
71.0
 31
0.0
  0
LINE
  5
150
330
1E
100
AcDbEntity
  8
0
100
AcDbLine
 10
82.1889
 20
71.0
 30
0.0
 11
82.6998
 21
71.0
 31
0.0
  0
LINE
  5
151
330
1E
100
AcDbEntity
  8
0
100
AcDbLine
 10
82.1889
 20
71.0
 30
0.0
 11
82.5
 21
71.0
 31
0.0
  0
LINE
  5
152
330
1E
100
AcDbEntity
  8
0
100
AcDbLine
 10
82.4005
 20
170.514
 30
0.0
 11
83.3495
 21
170.513
 31
0.0
  0
LINE
  5
153
330
1E
100
AcDbEntity
  8
0
100
AcDbLine
 10
82.2268
 20
71.5
 30
0.0
 11
83.10500000000001
 21
71.5
 31
0.0
  0
LINE
  5
15A
330
1E
100
AcDbEntity
  8
0
100
AcDbLine
 10
82.5
 20
59.6154
 30
0.0
 11
82.79999999999999
 21
59.0
 31
0.0
  0
LINE
  5
15B
330
1E
100
AcDbEntity
  8
0
100
AcDbLine
 10
82.5
 20
59.6154
 30
0.0
 11
82.5
 21
71.0
 31
0.0
  0
LINE
  5
15C
330
1E
100
AcDbEntity
  8
0
100
AcDbLine
 10
83.25000000000001
 20
59.0
 30
0.0
 11
84.45
 21
59.0
 31
0.0
  0
LINE
  5
15D
330
1E
100
AcDbEntity
  8
0
100
AcDbLine
 10
82.9673
 20
187.0
 30
0.0
 11
88.2961
 21
187.0
 31
0.0
  0
LINE
  5
15E
330
1E
100
AcDbEntity
  8
0
100
AcDbLine
 10
82.6998
 20
71.0
 30
0.0
 11
83.54609999999999
 21
71.0
 31
0.0
  0
LINE
  5
15F
330
1E
100
AcDbEntity
  8
0
100
AcDbLine
 10
83.3495
 20
170.513
 30
0.0
 11
84.5669
 21
170.5109999999999
 31
0.0
  0
LINE
  5
160
330
1E
100
AcDbEntity
  8
0
100
AcDbLine
 10
83.54609999999999
 20
71.0
 30
0.0
 11
84.7046
 21
71.0
 31
0.0
  0
LINE
  5
161
330
1E
100
AcDbEntity
  8
0
100
AcDbLine
 10
83.10500000000001
 20
71.5
 30
0.0
 11
84.30849999999999
 21
71.5
 31
0.0
  0
LINE
  5
162
330
1E
100
AcDbEntity
  8
0
100
AcDbLine
 10
82.79999999999999
 20
59.0
 30
0.0
 11
83.25000000000001
 21
59.0
 31
0.0
  0
LINE
  5
163
330
1E
100
AcDbEntity
  8
0
100
AcDbLine
 10
82.5
 20
71.0
 30
0.0
 11
82.5
 21
59.6154
 31
0.0
  0
LINE
  5
164
330
1E
100
AcDbEntity
  8
0
100
AcDbLine
 10
84.24330000000001
 20
57.1373
 30
0.0
 11
86.4892
 21
59.0
 31
0.0
  0
LINE
  5
16A
330
1E
100
AcDbEntity
  8
0
100
AcDbLine
 10
82.2574
 20
54.62749999999999
 30
0.0
 11
84.24330000000001
 21
57.1373
 31
0.0
  0
LINE
  5
173
330
1E
100
AcDbEntity
  8
0
100
AcDbLine
 10
107.7429999999999
 20
54.62749999999999
 30
0.0
 11
108.0
 21
54.0
 31
0.0
  0
LINE
  5
17C
330
1E
100
AcDbEntity
  8
0
100
AcDbLine
 10
105.757
 20
57.1373
 30
0.0
 11
107.7429999999999
 21
54.62749999999999
 31
0.0
  0
LINE
  5
18C
330
1E
100
AcDbEntity
  8
0
100
AcDbLine
 10
86.4
 20
59.0
 30
0.0
 11
88.95000000000001
 21
59.0
 31
0.0
  0
LINE
  5
18D
330
1E
100
AcDbEntity
  8
0
100
AcDbLine
 10
86.4
 20
59.0
 30
0.0
 11
86.4892
 21
59.0
 31
0.0
  0
LINE
  5
18E
330
1E
100
AcDbEntity
  8
0
100
AcDbLine
 10
84.7046
 20
71.0
 30
0.0
 11
86.14459999999999
 21
71.0
 31
0.0
  0
LINE
  5
18F
330
1E
100
AcDbEntity
  8
0
100
AcDbLine
 10
84.5669
 20
170.5109999999999
 30
0.0
 11
86.0767
 21
170.5109999999999
 31
0.0
  0
LINE
  5
190
330
1E
100
AcDbEntity
  8
0
100
AcDbLine
 10
84.30849999999999
 20
71.5
 30
0.0
 11
85.8033
 21
71.5
 31
0.0
  0
LINE
  5
191
330
1E
100
AcDbEntity
  8
0
100
AcDbLine
 10
86.0767
 20
170.5109999999999
 30
0.0
 11
87.8071
 21
170.513
 31
0.0
  0
LINE
  5
192
330
1E
100
AcDbEntity
  8
0
100
AcDbLine
 10
86.14459999999999
 20
71.0
 30
0.0
 11
87.8251
 21
71.0
 31
0.0
  0
LINE
  5
193
330
1E
100
AcDbEntity
  8
0
100
AcDbLine
 10
85.8033
 20
71.5
 30
0.0
 11
87.5496
 21
71.5
 31
0.0
  0
LINE
  5
194
330
1E
100
AcDbEntity
  8
0
100
AcDbLine
 10
84.45
 20
59.0
 30
0.0
 11
86.4
 21
59.0
 31
0.0
  0
LINE
  5
198
330
1E
100
AcDbEntity
  8
0
100
AcDbLine
 10
88.95000000000001
 20
59.0
 30
0.0
 11
91.85
 21
59.0
 31
0.0
  0
LINE
  5
199
330
1E
100
AcDbEntity
  8
0
100
AcDbLine
 10
86.89109999999999
 20
59.0
 30
0.0
 11
86.98590000000001
 21
59.0
 31
0.0
  0
LINE
  5
19A
330
1E
100
AcDbEntity
  8
0
100
AcDbLine
 10
87.8251
 20
71.0
 30
0.0
 11
89.70209999999999
 21
71.0
 31
0.0
  0
LINE
  5
19B
330
1E
100
AcDbEntity
  8
0
100
AcDbLine
 10
88.2961
 20
187.0
 30
0.0
 11
94.9994
 21
187.0
 31
0.0
  0
LINE
  5
19C
330
1E
100
AcDbEntity
  8
0
100
AcDbLine
 10
87.8071
 20
170.513
 30
0.0
 11
89.48159999999999
 21
170.514
 31
0.0
  0
LINE
  5
19D
330
1E
100
AcDbEntity
  8
0
100
AcDbLine
 10
89.48159999999999
 20
170.514
 30
0.0
 11
91.26090000000001
 21
170.516
 31
0.0
  0
LINE
  5
19E
330
1E
100
AcDbEntity
  8
0
100
AcDbLine
 10
89.49859999999999
 20
71.5
 30
0.0
 11
91.5971
 21
71.5
 31
0.0
  0
LINE
  5
19F
330
1E
100
AcDbEntity
  8
0
100
AcDbLine
 10
87.5496
 20
71.5
 30
0.0
 11
89.49859999999999
 21
71.5
 31
0.0
  0
LINE
  5
1A0
330
1E
100
AcDbEntity
  8
0
100
AcDbLine
 10
86.98590000000001
 20
59.0
 30
0.0
 11
89.55209999999999
 21
59.0
 31
0.0
  0
LINE
  5
1A1
330
1E
100
AcDbEntity
  8
0
100
AcDbLine
 10
91.85
 20
59.0
 30
0.0
 11
95.0
 21
59.0
 31
0.0
  0
LINE
  5
1A2
330
1E
100
AcDbEntity
  8
0
100
AcDbLine
 10
96.48940000000001
 20
59.0
 30
0.0
 11
99.7991
 21
59.0
 31
0.0
  0
LINE
  5
1A3
330
1E
100
AcDbEntity
  8
0
100
AcDbLine
 10
95.0
 20
59.0
 30
0.0
 11
98.15000000000001
 21
59.0
 31
0.0
  0
LINE
  5
1A4
330
1E
100
AcDbEntity
  8
0
100
AcDbLine
 10
95.0
 20
59.0
 30
0.0
 11
96.48940000000001
 21
59.0
 31
0.0
  0
LINE
  5
1A6
330
1E
100
AcDbEntity
  8
0
100
AcDbLine
 10
103.014
 20
59.0
 30
0.0
 11
103.109
 21
59.0
 31
0.0
  0
LINE
  5
1A7
330
1E
100
AcDbEntity
  8
0
100
AcDbLine
 10
100.448
 20
59.0
 30
0.0
 11
103.014
 21
59.0
 31
0.0
  0
LINE
  5
1A9
330
1E
100
AcDbEntity
  8
0
100
AcDbLine
 10
99.7991
 20
59.0
 30
0.0
 11
100.448
 21
59.0
 31
0.0
  0
LINE
  5
1AB
330
1E
100
AcDbEntity
  8
0
100
AcDbLine
 10
103.109
 20
59.0
 30
0.0
 11
103.511
 21
59.0
 31
0.0
  0
LINE
  5
1AD
330
1E
100
AcDbEntity
  8
0
100
AcDbLine
 10
103.511
 20
59.0
 30
0.0
 11
103.6
 21
59.0
 31
0.0
  0
LINE
  5
1AE
330
1E
100
AcDbEntity
  8
0
100
AcDbLine
 10
103.511
 20
59.0
 30
0.0
 11
105.757
 21
57.1373
 31
0.0
  0
LINE
  5
1AF
330
1E
100
AcDbEntity
  8
0
100
AcDbLine
 10
98.15000000000001
 20
59.0
 30
0.0
 11
101.0499999999999
 21
59.0
 31
0.0
  0
LINE
  5
1B0
330
1E
100
AcDbEntity
  8
0
100
AcDbLine
 10
101.0499999999999
 20
59.0
 30
0.0
 11
103.6
 21
59.0
 31
0.0
  0
LINE
  5
1B1
330
1E
100
AcDbEntity
  8
0
100
AcDbLine
 10
103.6
 20
59.0
 30
0.0
 11
105.5499999999999
 21
59.0
 31
0.0
  0
LINE
  5
1B2
330
1E
100
AcDbEntity
  8
0
100
AcDbLine
 10
105.5499999999999
 20
59.0
 30
0.0
 11
106.75
 21
59.0
 31
0.0
  0
LINE
  5
1B3
330
1E
100
AcDbEntity
  8
0
100
AcDbLine
 10
106.75
 20
59.0
 30
0.0
 11
107.2
 21
59.0
 31
0.0
  0
LINE
  5
1B4
330
1E
100
AcDbEntity
  8
0
100
AcDbLine
 10
107.2
 20
59.0
 30
0.0
 11
107.4999999999999
 21
59.6154
 31
0.0
  0
LINE
  5
1B5
330
1E
100
AcDbEntity
  8
0
100
AcDbLine
 10
93.5106
 20
59.0
 30
0.0
 11
95.0
 21
59.0
 31
0.0
  0
LINE
  5
1B6
330
1E
100
AcDbEntity
  8
0
100
AcDbLine
 10
89.70209999999999
 20
71.0
 30
0.0
 11
91.7239
 21
71.0
 31
0.0
  0
LINE
  5
1B7
330
1E
100
AcDbEntity
  8
0
100
AcDbLine
 10
93.8344
 20
71.0
 30
0.0
 11
95.0
 21
71.0
 31
0.0
  0
LINE
  5
1B8
330
1E
100
AcDbEntity
  8
0
100
AcDbLine
 10
91.7239
 20
71.0
 30
0.0
 11
93.8344
 21
71.0
 31
0.0
  0
LINE
  5
1B9
330
1E
100
AcDbEntity
  8
0
100
AcDbLine
 10
91.7239
 20
71.0
 30
0.0
 11
92.2781614691511
 21
71.0
 31
0.0
  0
LINE
  5
1BA
330
1E
100
AcDbEntity
  8
0
100
AcDbLine
 10
95.0
 20
71.0
 30
0.0
 11
96.16559999999999
 21
71.0
 31
0.0
  0
LINE
  5
1BB
330
1E
100
AcDbEntity
  8
0
100
AcDbLine
 10
96.16559999999999
 20
71.0
 30
0.0
 11
98.27609999999999
 21
71.0
 31
0.0
  0
LINE
  5
1BC
330
1E
100
AcDbEntity
  8
0
100
AcDbLine
 10
98.2
 20
71.0
 30
0.0
 11
98.27609999999999
 21
71.0
 31
0.0
  0
LINE
  5
1BD
330
1E
100
AcDbEntity
  8
0
100
AcDbLine
 10
98.27609999999999
 20
71.0
 30
0.0
 11
100.2979999999999
 21
71.0
 31
0.0
  0
LINE
  5
1BE
330
1E
100
AcDbEntity
  8
0
100
AcDbLine
 10
105.295
 20
71.0
 30
0.0
 11
106.454
 21
71.0
 31
0.0
  0
LINE
  5
1BF
330
1E
100
AcDbEntity
  8
0
100
AcDbLine
 10
103.855
 20
71.0
 30
0.0
 11
105.295
 21
71.0
 31
0.0
  0
LINE
  5
1C0
330
1E
100
AcDbEntity
  8
0
100
AcDbLine
 10
102.1749999999999
 20
71.0
 30
0.0
 11
103.855
 21
71.0
 31
0.0
  0
LINE
  5
1C1
330
1E
100
AcDbEntity
  8
0
100
AcDbLine
 10
100.2979999999999
 20
71.0
 30
0.0
 11
102.1749999999999
 21
71.0
 31
0.0
  0
LINE
  5
1C2
330
1E
100
AcDbEntity
  8
0
100
AcDbLine
 10
106.454
 20
71.0
 30
0.0
 11
107.2999999999999
 21
71.0
 31
0.0
  0
LINE
  5
1C3
330
1E
100
AcDbEntity
  8
0
100
AcDbLine
 10
107.2999999999999
 20
71.0
 30
0.0
 11
107.811
 21
71.0
 31
0.0
  0
LINE
  5
1C4
330
1E
100
AcDbEntity
  8
0
100
AcDbLine
 10
93.78950000000001
 20
71.5
 30
0.0
 11
95.0
 21
71.5
 31
0.0
  0
LINE
  5
1C5
330
1E
100
AcDbEntity
  8
0
100
AcDbLine
 10
91.5971
 20
71.5
 30
0.0
 11
93.78950000000001
 21
71.5
 31
0.0
  0
LINE
  5
1C6
330
1E
100
AcDbEntity
  8
0
100
AcDbLine
 10
91.26090000000001
 20
170.516
 30
0.0
 11
93.11300000000001
 21
170.517
 31
0.0
  0
LINE
  5
1C7
330
1E
100
AcDbEntity
  8
0
100
AcDbLine
 10
93.11300000000001
 20
170.517
 30
0.0
 11
95.0
 21
170.518
 31
0.0
  0
LINE
  5
1C8
330
1E
100
AcDbEntity
  8
0
100
AcDbLine
 10
95.0
 20
170.518
 30
0.0
 11
96.887
 21
170.517
 31
0.0
  0
LINE
  5
1D1
330
1E
100
AcDbEntity
  8
0
100
AcDbLine
 10
95.0
 20
71.5
 30
0.0
 11
96.2105
 21
71.5
 31
0.0
  0
LINE
  5
1D6
330
1E
100
AcDbEntity
  8
0
100
AcDbLine
 10
102.4499999999999
 20
71.5
 30
0.0
 11
104.197
 21
71.5
 31
0.0
  0
LINE
  5
1D7
330
1E
100
AcDbEntity
  8
0
100
AcDbLine
 10
100.5009999999999
 20
71.5
 30
0.0
 11
102.4499999999999
 21
71.5
 31
0.0
  0
LINE
  5
1D8
330
1E
100
AcDbEntity
  8
0
100
AcDbLine
 10
106.895
 20
71.5
 30
0.0
 11
107.773
 21
71.5
 31
0.0
  0
LINE
  5
1D9
330
1E
100
AcDbEntity
  8
0
100
AcDbLine
 10
105.691
 20
71.5
 30
0.0
 11
106.895
 21
71.5
 31
0.0
  0
LINE
  5
1DA
330
1E
100
AcDbEntity
  8
0
100
AcDbLine
 10
104.197
 20
71.5
 30
0.0
 11
105.691
 21
71.5
 31
0.0
  0
LINE
  5
1DB
330
1E
100
AcDbEntity
  8
0
100
AcDbLine
 10
98.40290000000001
 20
71.5
 30
0.0
 11
100.5009999999999
 21
71.5
 31
0.0
  0
LINE
  5
1DC
330
1E
100
AcDbEntity
  8
0
100
AcDbLine
 10
98.7391
 20
170.516
 30
0.0
 11
100.5179999999999
 21
170.514
 31
0.0
  0
LINE
  5
1DD
330
1E
100
AcDbEntity
  8
0
100
AcDbLine
 10
100.5179999999999
 20
170.514
 30
0.0
 11
102.193
 21
170.513
 31
0.0
  0
LINE
  5
1DE
330
1E
100
AcDbEntity
  8
0
100
AcDbLine
 10
96.887
 20
170.517
 30
0.0
 11
98.7391
 21
170.516
 31
0.0
  0
LINE
  5
1DF
330
1E
100
AcDbEntity
  8
0
100
AcDbLine
 10
102.193
 20
170.513
 30
0.0
 11
103.9229999999999
 21
170.5109999999999
 31
0.0
  0
LINE
  5
1E0
330
1E
100
AcDbEntity
  8
0
100
AcDbLine
 10
103.9229999999999
 20
170.5109999999999
 30
0.0
 11
105.4329999999999
 21
170.5109999999999
 31
0.0
  0
LINE
  5
1E1
330
1E
100
AcDbEntity
  8
0
100
AcDbLine
 10
101.7039999999999
 20
187.0
 30
0.0
 11
107.033
 21
187.0
 31
0.0
  0
LINE
  5
1E2
330
1E
100
AcDbEntity
  8
0
100
AcDbLine
 10
95.00060000000001
 20
187.0
 30
0.0
 11
101.7039999999999
 21
187.0
 31
0.0
  0
LINE
  5
1E3
330
1E
100
AcDbEntity
  8
0
100
AcDbLine
 10
105.4329999999999
 20
170.5109999999999
 30
0.0
 11
106.65
 21
170.513
 31
0.0
  0
LINE
  5
1E4
330
1E
100
AcDbEntity
  8
0
100
AcDbLine
 10
106.65
 20
170.513
 30
0.0
 11
107.6
 21
170.514
 31
0.0
  0
LINE
  5
1E5
330
1E
100
AcDbEntity
  8
0
100
AcDbLine
 10
107.033
 20
187.0
 30
0.0
 11
114.0629999999999
 21
187.0
 31
0.0
  0
LINE
  5
1E6
330
1E
100
AcDbEntity
  8
0
100
AcDbLine
 10
96.2105
 20
71.5
 30
0.0
 11
98.40290000000001
 21
71.5
 31
0.0
  0
LINE
  5
1EB
330
1E
100
AcDbEntity
  8
0
100
AcDbLine
 10
107.4999999999999
 20
71.0
 30
0.0
 11
107.4999999999999
 21
59.6154
 31
0.0
  0
LINE
  5
1EC
330
1E
100
AcDbEntity
  8
0
100
AcDbLine
 10
107.4999999999999
 20
71.0
 30
0.0
 11
107.811
 21
71.0
 31
0.0
  0
LINE
  5
1ED
330
1E
100
AcDbEntity
  8
0
100
AcDbLine
 10
107.966
 20
71.0
 30
0.0
 11
108.464
 21
71.5
 31
0.0
  0
LINE
  5
1EE
330
1E
100
AcDbEntity
  8
0
100
AcDbLine
 10
107.811
 20
71.0
 30
0.0
 11
107.966
 21
71.0
 31
0.0
  0
LINE
  5
1EF
330
1E
100
AcDbEntity
  8
0
100
AcDbLine
 10
108.304
 20
71.5
 30
0.0
 11
108.464
 21
71.5
 31
0.0
  0
LINE
  5
1F0
330
1E
100
AcDbEntity
  8
0
100
AcDbLine
 10
107.6
 20
170.514
 30
0.0
 11
108.257
 21
170.516
 31
0.0
  0
LINE
  5
1F1
330
1E
100
AcDbEntity
  8
0
100
AcDbLine
 10
108.257
 20
170.516
 30
0.0
 11
108.61
 21
170.517
 31
0.0
  0
LINE
  5
1F9
330
1E
100
AcDbEntity
  8
0
100
AcDbLine
 10
107.773
 20
71.5
 30
0.0
 11
108.304
 21
71.5
 31
0.0
  0
LINE
  5
1FB
330
1E
100
AcDbEntity
  8
0
100
AcDbLine
 10
108.61
 20
170.517
 30
0.0
 11
108.671
 21
170.518
 31
0.0
  0
LINE
  5
1FC
330
1E
100
AcDbEntity
  8
0
100
AcDbLine
 10
108.464
 20
170.516586402266
 30
0.0
 11
108.61
 21
170.517
 31
0.0
  0
LINE
  5
1FD
330
1E
100
AcDbEntity
  8
0
100
AcDbLine
 10
108.464
 20
71.5
 30
0.0
 11
108.464
 21
170.521431831147
 31
0.0
  0
LINE
  5
1FE
330
1E
100
AcDbEntity
  8
0
100
AcDbLine
 10
108.464
 20
71.5
 30
0.0
 11
108.464
 21
170.521431831147
 31
0.0
  0
LINE
  5
1FF
330
1E
100
AcDbEntity
  8
0
100
AcDbLine
 10
107.4999999999999
 20
59.6154
 30
0.0
 11
107.4999999999999
 21
71.0
 31
0.0
  0
LINE
  5
201
330
1E
100
AcDbEntity
  8
0
100
AcDbLine
 10
90.20090000000001
 20
59.0
 30
0.0
 11
93.5106
 21
59.0
 31
0.0
  0
LINE
  5
202
330
1E
100
AcDbEntity
  8
0
100
AcDbLine
 10
89.55209999999999
 20
59.0
 30
0.0
 11
90.20090000000001
 21
59.0
 31
0.0
  0
LINE
  5
205
330
1E
100
AcDbEntity
  8
0
100
AcDbLine
 10
86.4892
 20
59.0
 30
0.0
 11
86.89109999999999
 21
59.0
 31
0.0
  0
LINE
  5
208
330
1E
100
AcDbEntity
  8
0
100
AcDbLine
 10
81.37
 20
54.0
 30
0.0
 11
82.76200000000001
 21
54.0
 31
0.0
  0
LINE
  5
209
330
1E
100
AcDbEntity
  8
0
100
AcDbLine
 10
80.84799999999999
 20
54.0
 30
0.0
 11
81.37
 21
54.0
 31
0.0
  0
LINE
  5
20A
330
1E
100
AcDbEntity
  8
0
100
AcDbLine
 10
108.63
 20
54.0
 30
0.0
 11
109.152
 21
54.0
 31
0.0
  0
LINE
  5
20B
330
1E
100
AcDbEntity
  8
0
100
AcDbLine
 10
108.9779999999999
 20
53.57269999999999
 30
0.0
 11
109.4999999999999
 21
53.57269999999999
 31
0.0
  0
LINE
  5
20C
330
1E
100
AcDbEntity
  8
0
100
AcDbLine
 10
107.66
 20
32.0
 30
0.0
 11
109.0999999999999
 21
32.0
 31
0.0
  0
LINE
  5
20D
330
1E
100
AcDbEntity
  8
0
100
AcDbLine
 10
109.4999999999999
 20
53.57269999999999
 30
0.0
 11
109.4999999999999
 21
32.0
 31
0.0
  0
LINE
  5
20E
330
1E
100
AcDbEntity
  8
0
100
AcDbLine
 10
109.4999999999999
 20
32.0
 30
0.0
 11
109.4999999999999
 21
53.57269999999999
 31
0.0
  0
LINE
  5
20F
330
1E
100
AcDbEntity
  8
0
100
AcDbLine
 10
109.152
 20
54.0
 30
0.0
 11
109.4999999999999
 21
53.57269999999999
 31
0.0
  0
LINE
  5
210
330
1E
100
AcDbEntity
  8
0
100
AcDbLine
 10
109.0999999999999
 20
32.0
 30
0.0
 11
109.64
 21
32.0
 31
0.0
  0
LINE
  5
211
330
1E
100
AcDbEntity
  8
0
100
AcDbLine
 10
109.46
 20
31.5727
 30
0.0
 11
110.0
 21
31.5727
 31
0.0
  0
LINE
  5
212
330
1E
100
AcDbEntity
  8
0
100
AcDbLine
 10
178.424
 20
-0.0000000000000005
 30
0.0
 11
178.99
 21
-0.0000000000000006
 31
0.0
  0
LINE
  5
213
330
1E
100
AcDbEntity
  8
0
100
AcDbLine
 10
178.424
 20
-0.0000000000000005
 30
0.0
 11
178.424
 21
2.0
 31
0.0
  0
LINE
  5
214
330
1E
100
AcDbEntity
  8
0
100
AcDbLine
 10
175.215
 20
-0.0000000000000003
 30
0.0
 11
175.7809999999999
 21
-0.0000000000000004
 31
0.0
  0
LINE
  5
215
330
1E
100
AcDbEntity
  8
0
100
AcDbLine
 10
175.215
 20
-0.0000000000000003
 30
0.0
 11
175.215
 21
2.0
 31
0.0
  0
LINE
  5
216
330
1E
100
AcDbEntity
  8
0
100
AcDbLine
 10
175.7809999999999
 20
-0.0000000000000004
 30
0.0
 11
177.1029999999999
 21
-0.0000000000000005
 31
0.0
  0
LINE
  5
217
330
1E
100
AcDbEntity
  8
0
100
AcDbLine
 10
175.7809999999999
 20
-0.0000000000000004
 30
0.0
 11
175.7809999999999
 21
2.0
 31
0.0
  0
LINE
  5
218
330
1E
100
AcDbEntity
  8
0
100
AcDbLine
 10
177.1029999999999
 20
-0.0000000000000005
 30
0.0
 11
178.424
 21
-0.0000000000000005
 31
0.0
  0
LINE
  5
219
330
1E
100
AcDbEntity
  8
0
100
AcDbLine
 10
177.1029999999999
 20
-0.0000000000000005
 30
0.0
 11
177.1029999999999
 21
2.0
 31
0.0
  0
LINE
  5
21A
330
1E
100
AcDbEntity
  8
0
100
AcDbLine
 10
160.179
 20
0.0000000000000006
 30
0.0
 11
160.745
 21
0.0000000000000005
 31
0.0
  0
LINE
  5
21B
330
1E
100
AcDbEntity
  8
0
100
AcDbLine
 10
160.179
 20
0.0000000000000006
 30
0.0
 11
160.179
 21
2.0
 31
0.0
  0
LINE
  5
21C
330
1E
100
AcDbEntity
  8
0
100
AcDbLine
 10
156.97
 20
0.0000000000000008
 30
0.0
 11
157.536
 21
0.0000000000000007
 31
0.0
  0
LINE
  5
21D
330
1E
100
AcDbEntity
  8
0
100
AcDbLine
 10
156.97
 20
0.0000000000000008
 30
0.0
 11
156.97
 21
2.0
 31
0.0
  0
LINE
  5
21E
330
1E
100
AcDbEntity
  8
0
100
AcDbLine
 10
157.536
 20
0.0000000000000007
 30
0.0
 11
158.858
 21
0.0000000000000007
 31
0.0
  0
LINE
  5
21F
330
1E
100
AcDbEntity
  8
0
100
AcDbLine
 10
157.536
 20
0.0000000000000007
 30
0.0
 11
157.536
 21
2.0
 31
0.0
  0
LINE
  5
220
330
1E
100
AcDbEntity
  8
0
100
AcDbLine
 10
158.858
 20
0.0000000000000007
 30
0.0
 11
160.179
 21
0.0000000000000006
 31
0.0
  0
LINE
  5
221
330
1E
100
AcDbEntity
  8
0
100
AcDbLine
 10
158.858
 20
0.0000000000000007
 30
0.0
 11
158.858
 21
2.0
 31
0.0
  0
LINE
  5
222
330
1E
100
AcDbEntity
  8
0
100
AcDbLine
 10
141.934
 20
0.0000000000000017
 30
0.0
 11
142.5
 21
0.0000000000000017
 31
0.0
  0
LINE
  5
223
330
1E
100
AcDbEntity
  8
0
100
AcDbLine
 10
141.934
 20
0.0000000000000017
 30
0.0
 11
141.934
 21
2.0
 31
0.0
  0
LINE
  5
224
330
1E
100
AcDbEntity
  8
0
100
AcDbLine
 10
138.7249999999999
 20
0.0000000000000019
 30
0.0
 11
139.291
 21
0.0000000000000019
 31
0.0
  0
LINE
  5
225
330
1E
100
AcDbEntity
  8
0
100
AcDbLine
 10
138.7249999999999
 20
0.0000000000000019
 30
0.0
 11
138.7249999999999
 21
2.0
 31
0.0
  0
LINE
  5
226
330
1E
100
AcDbEntity
  8
0
100
AcDbLine
 10
139.291
 20
0.0000000000000019
 30
0.0
 11
140.613
 21
0.0000000000000018
 31
0.0
  0
LINE
  5
227
330
1E
100
AcDbEntity
  8
0
100
AcDbLine
 10
139.291
 20
0.0000000000000019
 30
0.0
 11
139.291
 21
2.0
 31
0.0
  0
LINE
  5
228
330
1E
100
AcDbEntity
  8
0
100
AcDbLine
 10
140.613
 20
0.0000000000000018
 30
0.0
 11
141.934
 21
0.0000000000000017
 31
0.0
  0
LINE
  5
229
330
1E
100
AcDbEntity
  8
0
100
AcDbLine
 10
140.613
 20
0.0000000000000018
 30
0.0
 11
140.613
 21
2.0
 31
0.0
  0
LINE
  5
22A
330
1E
100
AcDbEntity
  8
0
100
AcDbLine
 10
123.689
 20
0.0000000000000028
 30
0.0
 11
124.255
 21
0.0000000000000028
 31
0.0
  0
LINE
  5
22B
330
1E
100
AcDbEntity
  8
0
100
AcDbLine
 10
123.689
 20
0.0000000000000028
 30
0.0
 11
123.689
 21
2.0
 31
0.0
  0
LINE
  5
22C
330
1E
100
AcDbEntity
  8
0
100
AcDbLine
 10
121.046
 20
2.0
 30
0.0
 11
121.046
 21
0.0000000000000029
 31
0.0
  0
LINE
  5
22D
330
1E
100
AcDbEntity
  8
0
100
AcDbLine
 10
120.48
 20
2.0
 30
0.0
 11
120.48
 21
0.0000000000000029
 31
0.0
  0
LINE
  5
22E
330
1E
100
AcDbEntity
  8
0
100
AcDbLine
 10
120.48
 20
2.0
 30
0.0
 11
121.046
 21
2.0
 31
0.0
  0
LINE
  5
22F
330
1E
100
AcDbEntity
  8
0
100
AcDbLine
 10
120.48
 20
0.000000000000003
 30
0.0
 11
121.046
 21
0.000000000000003
 31
0.0
  0
LINE
  5
230
330
1E
100
AcDbEntity
  8
0
100
AcDbLine
 10
120.48
 20
0.000000000000003
 30
0.0
 11
120.48
 21
2.0
 31
0.0
  0
LINE
  5
231
330
1E
100
AcDbEntity
  8
0
100
AcDbLine
 10
142.5
 20
2.0
 30
0.0
 11
142.5
 21
0.0000000000000016
 31
0.0
  0
LINE
  5
232
330
1E
100
AcDbEntity
  8
0
100
AcDbLine
 10
141.934
 20
2.0
 30
0.0
 11
141.934
 21
0.0000000000000016
 31
0.0
  0
LINE
  5
233
330
1E
100
AcDbEntity
  8
0
100
AcDbLine
 10
141.934
 20
2.0
 30
0.0
 11
142.5
 21
2.0
 31
0.0
  0
LINE
  5
234
330
1E
100
AcDbEntity
  8
0
100
AcDbLine
 10
139.291
 20
2.0
 30
0.0
 11
139.291
 21
0.0000000000000019
 31
0.0
  0
LINE
  5
235
330
1E
100
AcDbEntity
  8
0
100
AcDbLine
 10
140.613
 20
2.0
 30
0.0
 11
141.934
 21
2.0
 31
0.0
  0
LINE
  5
236
330
1E
100
AcDbEntity
  8
0
100
AcDbLine
 10
140.613
 20
2.0
 30
0.0
 11
140.613
 21
0.0000000000000016
 31
0.0
  0
LINE
  5
237
330
1E
100
AcDbEntity
  8
0
100
AcDbLine
 10
175.7809999999999
 20
2.0
 30
0.0
 11
175.7809999999999
 21
-0.0000000000000003
 31
0.0
  0
LINE
  5
238
330
1E
100
AcDbEntity
  8
0
100
AcDbLine
 10
178.99
 20
2.0
 30
0.0
 11
178.99
 21
-0.0000000000000006
 31
0.0
  0
LINE
  5
239
330
1E
100
AcDbEntity
  8
0
100
AcDbLine
 10
178.424
 20
2.0
 30
0.0
 11
178.424
 21
-0.0000000000000006
 31
0.0
  0
LINE
  5
23A
330
1E
100
AcDbEntity
  8
0
100
AcDbLine
 10
178.424
 20
2.0
 30
0.0
 11
178.99
 21
2.0
 31
0.0
  0
LINE
  5
23B
330
1E
100
AcDbEntity
  8
0
100
AcDbLine
 10
177.1029999999999
 20
2.0
 30
0.0
 11
178.424
 21
2.0
 31
0.0
  0
LINE
  5
23C
330
1E
100
AcDbEntity
  8
0
100
AcDbLine
 10
177.1029999999999
 20
2.0
 30
0.0
 11
177.1029999999999
 21
-0.0000000000000003
 31
0.0
  0
LINE
  5
23D
330
1E
100
AcDbEntity
  8
0
100
AcDbLine
 10
158.858
 20
2.0
 30
0.0
 11
158.858
 21
0.0000000000000006
 31
0.0
  0
LINE
  5
23E
330
1E
100
AcDbEntity
  8
0
100
AcDbLine
 10
157.536
 20
2.0
 30
0.0
 11
157.536
 21
0.0000000000000006
 31
0.0
  0
LINE
  5
23F
330
1E
100
AcDbEntity
  8
0
100
AcDbLine
 10
157.536
 20
2.0
 30
0.0
 11
158.858
 21
2.0
 31
0.0
  0
LINE
  5
240
330
1E
100
AcDbEntity
  8
0
100
AcDbLine
 10
160.745
 20
2.0
 30
0.0
 11
160.745
 21
0.0000000000000006
 31
0.0
  0
LINE
  5
241
330
1E
100
AcDbEntity
  8
0
100
AcDbLine
 10
160.179
 20
2.0
 30
0.0
 11
160.179
 21
0.0000000000000006
 31
0.0
  0
LINE
  5
242
330
1E
100
AcDbEntity
  8
0
100
AcDbLine
 10
175.215
 20
2.0
 30
0.0
 11
175.215
 21
-0.0000000000000003
 31
0.0
  0
LINE
  5
243
330
1E
100
AcDbEntity
  8
0
100
AcDbLine
 10
156.97
 20
2.0
 30
0.0
 11
156.97
 21
0.0000000000000006
 31
0.0
  0
LINE
  5
244
330
1E
100
AcDbEntity
  8
0
100
AcDbLine
 10
156.97
 20
2.0
 30
0.0
 11
157.536
 21
2.0
 31
0.0
  0
LINE
  5
245
330
1E
100
AcDbEntity
  8
0
100
AcDbLine
 10
122.3679999999999
 20
2.0
 30
0.0
 11
122.3679999999999
 21
0.0000000000000029
 31
0.0
  0
LINE
  5
246
330
1E
100
AcDbEntity
  8
0
100
AcDbLine
 10
124.255
 20
2.0
 30
0.0
 11
124.255
 21
0.0000000000000029
 31
0.0
  0
LINE
  5
247
330
1E
100
AcDbEntity
  8
0
100
AcDbLine
 10
123.689
 20
2.0
 30
0.0
 11
123.689
 21
0.0000000000000029
 31
0.0
  0
LINE
  5
248
330
1E
100
AcDbEntity
  8
0
100
AcDbLine
 10
138.7249999999999
 20
2.0
 30
0.0
 11
138.7249999999999
 21
0.0000000000000019
 31
0.0
  0
LINE
  5
249
330
1E
100
AcDbEntity
  8
0
100
AcDbLine
 10
121.046
 20
0.000000000000003
 30
0.0
 11
122.3679999999999
 21
0.0000000000000029
 31
0.0
  0
LINE
  5
24A
330
1E
100
AcDbEntity
  8
0
100
AcDbLine
 10
121.046
 20
0.000000000000003
 30
0.0
 11
121.046
 21
2.0
 31
0.0
  0
LINE
  5
24B
330
1E
100
AcDbEntity
  8
0
100
AcDbLine
 10
122.3679999999999
 20
0.0000000000000029
 30
0.0
 11
123.689
 21
0.0000000000000028
 31
0.0
  0
LINE
  5
24C
330
1E
100
AcDbEntity
  8
0
100
AcDbLine
 10
122.3679999999999
 20
0.0000000000000029
 30
0.0
 11
122.3679999999999
 21
2.0
 31
0.0
  0
LINE
  5
24D
330
1E
100
AcDbEntity
  8
0
100
AcDbLine
 10
180.0509999999999
 20
2.0
 30
0.0
 11
181.963
 21
2.0
 31
0.0
  0
LINE
  5
24E
330
1E
100
AcDbEntity
  8
0
100
AcDbLine
 10
114.126
 20
22.0
 30
0.0
 11
114.327
 21
22.0
 31
0.0
  0
LINE
  5
24F
330
1E
100
AcDbEntity
  8
0
100
AcDbLine
 10
114.5029999999999
 20
22.0
 30
0.0
 11
133.377
 21
21.3333
 31
0.0
  0
LINE
  5
250
330
1E
100
AcDbEntity
  8
0
100
AcDbLine
 10
114.327
 20
22.0
 30
0.0
 11
114.4579999999999
 21
22.0
 31
0.0
  0
LINE
  5
251
330
1E
100
AcDbEntity
  8
0
100
AcDbLine
 10
113.849
 20
22.0
 30
0.0
 11
114.126
 21
22.0
 31
0.0
  0
LINE
  5
252
330
1E
100
AcDbEntity
  8
0
100
AcDbLine
 10
113.497
 20
22.0
 30
0.0
 11
113.849
 21
22.0
 31
0.0
  0
LINE
  5
253
330
1E
100
AcDbEntity
  8
0
100
AcDbLine
 10
113.1289999999999
 20
22.0
 30
0.0
 11
113.497
 21
22.0
 31
0.0
  0
LINE
  5
254
330
1E
100
AcDbEntity
  8
0
100
AcDbLine
 10
112.742
 20
22.0
 30
0.0
 11
113.1289999999999
 21
22.0
 31
0.0
  0
LINE
  5
255
330
1E
100
AcDbEntity
  8
0
100
AcDbLine
 10
177.4169999999999
 20
17.3333
 30
0.0
 11
184.967
 21
16.0
 31
0.0
  0
LINE
  5
256
330
1E
100
AcDbEntity
  8
0
100
AcDbLine
 10
167.351
 20
18.6667
 30
0.0
 11
177.4169999999999
 21
17.3333
 31
0.0
  0
LINE
  5
257
330
1E
100
AcDbEntity
  8
0
100
AcDbLine
 10
153.5099999999999
 20
20.0
 30
0.0
 11
167.351
 21
18.6667
 31
0.0
  0
LINE
  5
258
330
1E
100
AcDbEntity
  8
0
100
AcDbLine
 10
144.702
 20
20.66669999999999
 30
0.0
 11
153.5099999999999
 21
20.0
 31
0.0
  0
LINE
  5
259
330
1E
100
AcDbEntity
  8
0
100
AcDbLine
 10
133.377
 20
21.3333
 30
0.0
 11
144.702
 21
20.66669999999999
 31
0.0
  0
LINE
  5
25A
330
1E
100
AcDbEntity
  8
0
100
AcDbLine
 10
181.192
 20
2.666669999999999
 30
0.0
 11
183.1299999999999
 21
2.666669999999999
 31
0.0
  0
LINE
  5
25B
330
1E
100
AcDbEntity
  8
0
100
AcDbLine
 10
183.7749999999999
 20
2.0
 30
0.0
 11
185.514
 21
2.0
 31
0.0
  0
LINE
  5
25C
330
1E
100
AcDbEntity
  8
0
100
AcDbLine
 10
181.963
 20
2.0
 30
0.0
 11
183.7749999999999
 21
2.0
 31
0.0
  0
LINE
  5
25D
330
1E
100
AcDbEntity
  8
0
100
AcDbLine
 10
184.967
 20
2.666669999999999
 30
0.0
 11
186.7279999999999
 21
2.666669999999999
 31
0.0
  0
LINE
  5
25E
330
1E
100
AcDbEntity
  8
0
100
AcDbLine
 10
183.1299999999999
 20
2.666669999999999
 30
0.0
 11
184.967
 21
2.666669999999999
 31
0.0
  0
LINE
  5
25F
330
1E
100
AcDbEntity
  8
0
100
AcDbLine
 10
186.879
 20
2.0
 30
0.0
 11
187.872
 21
2.0
 31
0.0
  0
LINE
  5
260
330
1E
100
AcDbEntity
  8
0
100
AcDbLine
 10
187.872
 20
2.0
 30
0.0
 11
188.518
 21
2.0
 31
0.0
  0
LINE
  5
261
330
1E
100
AcDbEntity
  8
0
100
AcDbLine
 10
185.514
 20
2.0
 30
0.0
 11
186.879
 21
2.0
 31
0.0
  0
LINE
  5
262
330
1E
100
AcDbEntity
  8
0
100
AcDbLine
 10
188.1129999999999
 20
2.666669999999999
 30
0.0
 11
189.119
 21
2.666669999999999
 31
0.0
  0
LINE
  5
263
330
1E
100
AcDbEntity
  8
0
100
AcDbLine
 10
186.7279999999999
 20
2.666669999999999
 30
0.0
 11
188.1129999999999
 21
2.666669999999999
 31
0.0
  0
LINE
  5
264
330
1E
100
AcDbEntity
  8
0
100
AcDbLine
 10
188.518
 20
2.0
 30
0.0
 11
188.742
 21
2.0
 31
0.0
  0
LINE
  5
265
330
1E
100
AcDbEntity
  8
0
100
AcDbLine
 10
188.742
 20
2.0
 30
0.0
 11
190.0
 21
2.666669999999999
 31
0.0
  0
LINE
  5
266
330
1E
100
AcDbEntity
  8
0
100
AcDbLine
 10
189.119
 20
2.666669999999999
 30
0.0
 11
189.7739999999999
 21
2.666669999999999
 31
0.0
  0
LINE
  5
267
330
1E
100
AcDbEntity
  8
0
100
AcDbLine
 10
189.7739999999999
 20
2.666669999999999
 30
0.0
 11
190.0
 21
2.666669999999999
 31
0.0
  0
LINE
  5
268
330
1E
100
AcDbEntity
  8
0
100
AcDbLine
 10
188.1129999999999
 20
14.0
 30
0.0
 11
189.119
 21
14.0
 31
0.0
  0
LINE
  5
269
330
1E
100
AcDbEntity
  8
0
100
AcDbLine
 10
189.119
 20
14.0
 30
0.0
 11
189.7739999999999
 21
14.0
 31
0.0
  0
LINE
  5
26A
330
1E
100
AcDbEntity
  8
0
100
AcDbLine
 10
190.0
 20
2.666669999999999
 30
0.0
 11
190.0
 21
14.0
 31
0.0
  0
LINE
  5
26B
330
1E
100
AcDbEntity
  8
0
100
AcDbLine
 10
190.0
 20
14.0
 30
0.0
 11
190.0
 21
2.666669999999999
 31
0.0
  0
LINE
  5
26C
330
1E
100
AcDbEntity
  8
0
100
AcDbLine
 10
189.7739999999999
 20
14.0
 30
0.0
 11
190.0
 21
14.0
 31
0.0
  0
LINE
  5
26D
330
1E
100
AcDbEntity
  8
0
100
AcDbLine
 10
186.7279999999999
 20
14.0
 30
0.0
 11
188.1129999999999
 21
14.0
 31
0.0
  0
LINE
  5
26E
330
1E
100
AcDbEntity
  8
0
100
AcDbLine
 10
184.967
 20
14.0
 30
0.0
 11
186.7279999999999
 21
14.0
 31
0.0
  0
LINE
  5
26F
330
1E
100
AcDbEntity
  8
0
100
AcDbLine
 10
184.967
 20
16.0
 30
0.0
 11
189.3709999999999
 21
14.6667
 31
0.0
  0
LINE
  5
270
330
1E
100
AcDbEntity
  8
0
100
AcDbLine
 10
189.3709999999999
 20
14.6667
 30
0.0
 11
190.0
 21
14.0
 31
0.0
  0
LINE
  5
271
330
1E
100
AcDbEntity
  8
0
100
AcDbLine
 10
183.1299999999999
 20
14.0
 30
0.0
 11
184.967
 21
14.0
 31
0.0
  0
LINE
  5
272
330
1E
100
AcDbEntity
  8
0
100
AcDbLine
 10
181.192
 20
14.0
 30
0.0
 11
183.1299999999999
 21
14.0
 31
0.0
  0
LINE
  5
276
330
1E
100
AcDbEntity
  8
0
100
AcDbLine
 10
122.775
 20
170.9159999999999
 30
0.0
 11
132.032
 21
171.299
 31
0.0
  0
LINE
  5
279
330
1E
100
AcDbEntity
  8
0
100
AcDbLine
 10
108.671
 20
170.518
 30
0.0
 11
122.775
 21
170.9159999999999
 31
0.0
  0
LINE
  5
27D
330
1E
100
AcDbEntity
  8
0
100
AcDbLine
 10
132.032
 20
171.299
 30
0.0
 11
132.928
 21
171.3919999999999
 31
0.0
  0
LINE
  5
283
330
1E
100
AcDbEntity
  8
0
100
AcDbLine
 10
132.928
 20
171.3919999999999
 30
0.0
 11
133.3269999999999
 21
171.513
 31
0.0
  0
LINE
  5
287
330
1E
100
AcDbEntity
  8
0
100
AcDbLine
 10
133.3269999999999
 20
171.513
 30
0.0
 11
133.711
 21
171.7709999999999
 31
0.0
  0
LINE
  5
288
330
1E
100
AcDbEntity
  8
0
100
AcDbLine
 10
133.711
 20
171.7709999999999
 30
0.0
 11
133.803
 21
171.8529999999999
 31
0.0
  0
LINE
  5
28C
330
1E
100
AcDbEntity
  8
0
100
AcDbLine
 10
133.803
 20
171.8529999999999
 30
0.0
 11
134.08
 21
172.2649999999999
 31
0.0
  0
LINE
  5
28D
330
1E
100
AcDbEntity
  8
0
100
AcDbLine
 10
121.09
 20
187.0
 30
0.0
 11
122.7849999999999
 21
187.0
 31
0.0
  0
LINE
  5
28E
330
1E
100
AcDbEntity
  8
0
100
AcDbLine
 10
126.5279999999999
 20
187.0
 30
0.0
 11
127.553
 21
187.0
 31
0.0
  0
LINE
  5
28F
330
1E
100
AcDbEntity
  8
0
100
AcDbLine
 10
131.032
 20
187.0
 30
0.0
 11
131.8229999999999
 21
187.0
 31
0.0
  0
LINE
  5
290
330
1E
100
AcDbEntity
  8
0
100
AcDbLine
 10
130.5099999999999
 20
187.0
 30
0.0
 11
131.032
 21
187.0
 31
0.0
  0
LINE
  5
291
330
1E
100
AcDbEntity
  8
0
100
AcDbLine
 10
131.8229999999999
 20
187.0
 30
0.0
 11
132.176
 21
187.0
 31
0.0
  0
LINE
  5
292
330
1E
100
AcDbEntity
  8
0
100
AcDbLine
 10
129.9649999999999
 20
187.0
 30
0.0
 11
130.5099999999999
 21
187.0
 31
0.0
  0
LINE
  5
293
330
1E
100
AcDbEntity
  8
0
100
AcDbLine
 10
128.777
 20
187.0
 30
0.0
 11
129.377
 21
187.0
 31
0.0
  0
LINE
  5
294
330
1E
100
AcDbEntity
  8
0
100
AcDbLine
 10
127.553
 20
187.0
 30
0.0
 11
128.777
 21
187.0
 31
0.0
  0
LINE
  5
295
330
1E
100
AcDbEntity
  8
0
100
AcDbLine
 10
129.377
 20
187.0
 30
0.0
 11
129.9649999999999
 21
187.0
 31
0.0
  0
LINE
  5
296
330
1E
100
AcDbEntity
  8
0
100
AcDbLine
 10
122.7849999999999
 20
187.0
 30
0.0
 11
125.497
 21
187.0
 31
0.0
  0
LINE
  5
297
330
1E
100
AcDbEntity
  8
0
100
AcDbLine
 10
125.497
 20
187.0
 30
0.0
 11
126.5279999999999
 21
187.0
 31
0.0
  0
LINE
  5
298
330
1E
100
AcDbEntity
  8
0
100
AcDbLine
 10
133.5309999999999
 20
187.0
 30
0.0
 11
133.827
 21
187.0
 31
0.0
  0
LINE
  5
299
330
1E
100
AcDbEntity
  8
0
100
AcDbLine
 10
133.827
 20
187.0
 30
0.0
 11
134.047
 21
187.0
 31
0.0
  0
LINE
  5
29A
330
1E
100
AcDbEntity
  8
0
100
AcDbLine
 10
134.047
 20
187.0
 30
0.0
 11
134.211
 21
187.0
 31
0.0
  0
LINE
  5
29B
330
1E
100
AcDbEntity
  8
0
100
AcDbLine
 10
133.088
 20
187.0
 30
0.0
 11
133.5309999999999
 21
187.0
 31
0.0
  0
LINE
  5
29C
330
1E
100
AcDbEntity
  8
0
100
AcDbLine
 10
132.8139999999999
 20
187.0
 30
0.0
 11
133.088
 21
187.0
 31
0.0
  0
LINE
  5
29D
330
1E
100
AcDbEntity
  8
0
100
AcDbLine
 10
132.4999999999999
 20
187.0
 30
0.0
 11
132.8139999999999
 21
187.0
 31
0.0
  0
LINE
  5
29E
330
1E
100
AcDbEntity
  8
0
100
AcDbLine
 10
132.176
 20
187.0
 30
0.0
 11
132.4999999999999
 21
187.0
 31
0.0
  0
LINE
  5
29F
330
1E
100
AcDbEntity
  8
0
100
AcDbLine
 10
114.0629999999999
 20
187.0
 30
0.0
 11
121.09
 21
187.0
 31
0.0
  0
LINE
  5
2A0
330
1E
100
AcDbEntity
  8
0
100
AcDbLine
 10
134.211
 20
187.0
 30
0.0
 11
134.33
 21
187.0
 31
0.0
  0
LINE
  5
2A1
330
1E
100
AcDbEntity
  8
0
100
AcDbLine
 10
134.639
 20
187.0
 30
0.0
 11
134.802
 21
187.0
 31
0.0
  0
LINE
  5
2A2
330
1E
100
AcDbEntity
  8
0
100
AcDbLine
 10
134.802
 20
187.0
 30
0.0
 11
134.936
 21
187.0
 31
0.0
  0
LINE
  5
2A3
330
1E
100
AcDbEntity
  8
0
100
AcDbLine
 10
134.33
 20
187.0
 30
0.0
 11
134.492
 21
187.0
 31
0.0
  0
LINE
  5
2A4
330
1E
100
AcDbEntity
  8
0
100
AcDbLine
 10
134.492
 20
187.0
 30
0.0
 11
134.639
 21
187.0
 31
0.0
  0
LINE
  5
2A5
330
1E
100
AcDbEntity
  8
0
100
AcDbLine
 10
134.298
 20
173.564
 30
0.0
 11
135.0
 21
187.0
 31
0.0
  0
LINE
  5
2A6
330
1E
100
AcDbEntity
  8
0
100
AcDbLine
 10
134.1999999999999
 20
172.641
 30
0.0
 11
134.298
 21
173.564
 31
0.0
  0
LINE
  5
2A7
330
1E
100
AcDbEntity
  8
0
100
AcDbLine
 10
134.08
 20
172.2649999999999
 30
0.0
 11
134.1999999999999
 21
172.641
 31
0.0
  0
LINE
  5
2A8
330
1E
100
AcDbEntity
  8
0
100
AcDbLine
 10
110.0
 20
31.5727
 30
0.0
 11
110.0
 21
22.0
 31
0.0
  0
LINE
  5
2A9
330
1E
100
AcDbEntity
  8
0
100
AcDbLine
 10
110.0
 20
22.0
 30
0.0
 11
110.0
 21
31.5727
 31
0.0
  0
LINE
  5
2AA
330
1E
100
AcDbEntity
  8
0
100
AcDbLine
 10
109.64
 20
32.0
 30
0.0
 11
110.0
 21
31.5727
 31
0.0
  0
ENDSEC
  0
SECTION
  2
OBJECTS
  0
DICTIONARY
  5
C
330
0
100
AcDbDictionary
281
     1
  3
ACAD_GROUP
350
D
  3
ACAD_LAYOUT
350
19
  3
ACAD_MLINESTYLE
350
16
  3
ACAD_PLOTSETTINGS
350
18
  3
ACAD_PLOTSTYLENAME
350
E
  3
AcDbVariableDictionary
350
2B0
  0
DICTIONARY
  5
D
102
{ACAD_REACTORS
330
C
102
}
330
C
100
AcDbDictionary
281
     1
  0
DICTIONARY
  5
19
102
{ACAD_REACTORS
330
C
102
}
330
C
100
AcDbDictionary
281
     1
  3
Layout1
350
1D
  3
Model
350
21
  0
DICTIONARY
  5
16
102
{ACAD_REACTORS
330
C
102
}
330
C
100
AcDbDictionary
281
     1
  3
Standard
350
17
  0
DICTIONARY
  5
18
102
{ACAD_REACTORS
330
C
102
}
330
C
100
AcDbDictionary
281
     1
  0
ACDBDICTIONARYWDFLT
  5
E
102
{ACAD_REACTORS
330
C
102
}
330
C
100
AcDbDictionary
281
     1
  3
Normal
350
F
100
AcDbDictionaryWithDefault
340
F
  0
DICTIONARY
  5
2B0
102
{ACAD_REACTORS
330
C
102
}
330
C
100
AcDbDictionary
281
     1
  3
DIMASSOC
350
2B1
  0
LAYOUT
  5
1D
102
{ACAD_REACTORS
330
19
102
}
330
19
100
AcDbPlotSettings
  1

  2
C:\Programme\AutoCAD LT 2002 Deu\plotters\DWF ePlot (optimized for plotting).pc3
  4

  6

 40
0.0
 41
0.0
 42
0.0
 43
0.0
 44
0.0
 45
0.0
 46
0.0
 47
0.0
 48
0.0
 49
0.0
140
0.0
141
0.0
142
1.0
143
1.0
 70
   688
 72
     0
 73
     0
 74
     5
  7

 75
    16
147
1.0
148
0.0
149
0.0
100
AcDbLayout
  1
Layout1
 70
     1
 71
     1
 10
0.0
 20
0.0
 11
12.0
 21
9.0
 12
0.0
 22
0.0
 32
0.0
 14
1.000000000000000E+20
 24
1.000000000000000E+20
 34
1.000000000000000E+20
 15
-1.000000000000000E+20
 25
-1.000000000000000E+20
 35
-1.000000000000000E+20
146
0.0
 13
0.0
 23
0.0
 33
0.0
 16
1.0
 26
0.0
 36
0.0
 17
0.0
 27
1.0
 37
0.0
 76
     0
330
1A
  0
LAYOUT
  5
21
102
{ACAD_REACTORS
330
19
102
}
330
19
100
AcDbPlotSettings
  1

  2
C:\Programme\AutoCAD LT 2002 Deu\plotters\DWF ePlot (optimized for plotting).pc3
  4

  6

 40
0.0
 41
0.0
 42
0.0
 43
0.0
 44
0.0
 45
0.0
 46
0.0
 47
0.0
 48
0.0
 49
0.0
140
0.0
141
0.0
142
1.0
143
1.0
 70
  1712
 72
     0
 73
     0
 74
     0
  7

 75
     0
147
1.0
148
0.0
149
0.0
100
AcDbLayout
  1
Model
 70
     1
 71
     0
 10
0.0
 20
0.0
 11
12.0
 21
9.0
 12
0.0
 22
0.0
 32
0.0
 14
0.0
 24
0.0
 34
0.0
 15
0.0
 25
0.0
 35
0.0
146
0.0
 13
0.0
 23
0.0
 33
0.0
 16
1.0
 26
0.0
 36
0.0
 17
0.0
 27
1.0
 37
0.0
 76
     0
330
1E
  0
MLINESTYLE
  5
17
102
{ACAD_REACTORS
330
16
102
}
330
16
100
AcDbMlineStyle
  2
STANDARD
 70
     0
  3

 62
   256
 51
90.0
 52
90.0
 71
     2
 49
0.5
 62
   256
  6
BYLAYER
 49
-0.5
 62
   256
  6
BYLAYER
  0
ACDBPLACEHOLDER
  5
F
102
{ACAD_REACTORS
330
E
102
}
330
E
  0
DICTIONARYVAR
  5
2B1
102
{ACAD_REACTORS
330
2B0
102
}
330
2B0
100
DictionaryVariables
280
     0
  1
1
  0
ENDSEC
  0
EOF
