  0
SECTION
  2
HEADER
  9
$ACADVER
  1
AC1014
  9
$ACADMAINTVER
 70
     9
  9
$DWGCODEPAGE
  3
ANSI_1252
  9
$INSBASE
 10
0.0
 20
0.0
 30
0.0
  9
$EXTMIN
 10
0.0000079999999977
 20
0.0790499999999947
 30
0.0
  9
$EXTMAX
 10
165.9999919999999
 20
147.92095
 30
0.0
  9
$LIMMIN
 10
0.0
 20
0.0
  9
$LIMMAX
 10
12.0
 20
9.0
  9
$ORTHOMODE
 70
     0
  9
$REGENMODE
 70
     1
  9
$FILLMODE
 70
     1
  9
$QTEXTMODE
 70
     0
  9
$MIRRTEXT
 70
     1
  9
$DRAGMODE
 70
     2
  9
$LTSCALE
 40
1.0
  9
$OSMODE
 70
    37
  9
$ATTMODE
 70
     1
  9
$TEXTSIZE
 40
0.2
  9
$TRACEWID
 40
0.05
  9
$TEXTSTYLE
  7
STANDARD
  9
$CLAYER
  8
0
  9
$CELTYPE
  6
CONTINUOUS
  9
$CECOLOR
 62
   256
  9
$CELTSCALE
 40
1.0
  9
$DELOBJ
 70
     1
  9
$DISPSILH
 70
     0
  9
$DIMSCALE
 40
1.0
  9
$DIMASZ
 40
0.18
  9
$DIMEXO
 40
0.0625
  9
$DIMDLI
 40
0.38
  9
$DIMRND
 40
0.0
  9
$DIMDLE
 40
0.0
  9
$DIMEXE
 40
0.18
  9
$DIMTP
 40
0.0
  9
$DIMTM
 40
0.0
  9
$DIMTXT
 40
0.18
  9
$DIMCEN
 40
0.09
  9
$DIMTSZ
 40
0.0
  9
$DIMTOL
 70
     0
  9
$DIMLIM
 70
     0
  9
$DIMTIH
 70
     1
  9
$DIMTOH
 70
     1
  9
$DIMSE1
 70
     0
  9
$DIMSE2
 70
     0
  9
$DIMTAD
 70
     0
  9
$DIMZIN
 70
     0
  9
$DIMBLK
  1

  9
$DIMASO
 70
     1
  9
$DIMSHO
 70
     1
  9
$DIMPOST
  1

  9
$DIMAPOST
  1

  9
$DIMALT
 70
     0
  9
$DIMALTD
 70
     2
  9
$DIMALTF
 40
25.4
  9
$DIMLFAC
 40
1.0
  9
$DIMTOFL
 70
     0
  9
$DIMTVP
 40
0.0
  9
$DIMTIX
 70
     0
  9
$DIMSOXD
 70
     0
  9
$DIMSAH
 70
     0
  9
$DIMBLK1
  1

  9
$DIMBLK2
  1

  9
$DIMSTYLE
  2
STANDARD
  9
$DIMCLRD
 70
     0
  9
$DIMCLRE
 70
     0
  9
$DIMCLRT
 70
     0
  9
$DIMTFAC
 40
1.0
  9
$DIMGAP
 40
0.09
  9
$DIMJUST
 70
     0
  9
$DIMSD1
 70
     0
  9
$DIMSD2
 70
     0
  9
$DIMTOLJ
 70
     1
  9
$DIMTZIN
 70
     0
  9
$DIMALTZ
 70
     0
  9
$DIMALTTZ
 70
     0
  9
$DIMFIT
 70
     3
  9
$DIMUPT
 70
     0
  9
$DIMUNIT
 70
     2
  9
$DIMDEC
 70
     4
  9
$DIMTDEC
 70
     4
  9
$DIMALTU
 70
     2
  9
$DIMALTTD
 70
     2
  9
$DIMTXSTY
  7
STANDARD
  9
$DIMAUNIT
 70
     0
  9
$LUNITS
 70
     2
  9
$LUPREC
 70
     4
  9
$SKETCHINC
 40
0.1
  9
$FILLETRAD
 40
0.0
  9
$AUNITS
 70
     0
  9
$AUPREC
 70
     0
  9
$MENU
  1
.
  9
$ELEVATION
 40
0.0
  9
$PELEVATION
 40
0.0
  9
$THICKNESS
 40
0.0
  9
$LIMCHECK
 70
     0
  9
$BLIPMODE
 70
     0
  9
$CHAMFERA
 40
0.0
  9
$CHAMFERB
 40
0.0
  9
$CHAMFERC
 40
0.0
  9
$CHAMFERD
 40
0.0
  9
$SKPOLY
 70
     0
  9
$TDCREATE
 40
2455233.467500532
  9
$TDUPDATE
 40
2455233.469986794
  9
$TDINDWG
 40
0.0024864468
  9
$TDUSRTIMER
 40
0.0024864468
  9
$USRTIMER
 70
     1
  9
$ANGBASE
 50
0.0
  9
$ANGDIR
 70
     0
  9
$PDMODE
 70
     0
  9
$PDSIZE
 40
0.0
  9
$PLINEWID
 40
0.0
  9
$COORDS
 70
     1
  9
$SPLFRAME
 70
     0
  9
$SPLINETYPE
 70
     6
  9
$SPLINESEGS
 70
     8
  9
$ATTDIA
 70
     0
  9
$ATTREQ
 70
     1
  9
$HANDLING
 70
 22529
  9
$HANDSEED
  5
1BF
  9
$SURFTAB1
 70
     6
  9
$SURFTAB2
 70
     6
  9
$SURFTYPE
 70
     6
  9
$SURFU
 70
     6
  9
$SURFV
 70
     6
  9
$UCSNAME
  2

  9
$UCSORG
 10
0.0
 20
0.0
 30
0.0
  9
$UCSXDIR
 10
1.0
 20
0.0
 30
0.0
  9
$UCSYDIR
 10
0.0
 20
1.0
 30
0.0
  9
$PUCSNAME
  2

  9
$PUCSORG
 10
0.0
 20
0.0
 30
0.0
  9
$PUCSXDIR
 10
1.0
 20
0.0
 30
0.0
  9
$PUCSYDIR
 10
0.0
 20
1.0
 30
0.0
  9
$USERI1
 70
     0
  9
$USERI2
 70
     0
  9
$USERI3
 70
     0
  9
$USERI4
 70
     0
  9
$USERI5
 70
     0
  9
$USERR1
 40
0.0
  9
$USERR2
 40
0.0
  9
$USERR3
 40
0.0
  9
$USERR4
 40
0.0
  9
$USERR5
 40
0.0
  9
$WORLDVIEW
 70
     1
  9
$SHADEDGE
 70
     3
  9
$SHADEDIF
 70
    70
  9
$TILEMODE
 70
     1
  9
$MAXACTVP
 70
    64
  9
$PINSBASE
 10
0.0
 20
0.0
 30
0.0
  9
$PLIMCHECK
 70
     0
  9
$PEXTMIN
 10
1.000000000000000E+20
 20
1.000000000000000E+20
 30
1.000000000000000E+20
  9
$PEXTMAX
 10
-1.000000000000000E+20
 20
-1.000000000000000E+20
 30
-1.000000000000000E+20
  9
$PLIMMIN
 10
0.0
 20
0.0
  9
$PLIMMAX
 10
12.0
 20
9.0
  9
$UNITMODE
 70
     0
  9
$VISRETAIN
 70
     1
  9
$PLINEGEN
 70
     0
  9
$PSLTSCALE
 70
     1
  9
$TREEDEPTH
 70
  3020
  9
$PICKSTYLE
 70
     1
  9
$CMLSTYLE
  2
STANDARD
  9
$CMLJUST
 70
     0
  9
$CMLSCALE
 40
1.0
  9
$PROXYGRAPHICS
 70
     1
  9
$MEASUREMENT
 70
     0
  0
ENDSEC
  0
SECTION
  2
CLASSES
  0
CLASS
  1
ACDBDICTIONARYWDFLT
  2
AcDbDictionaryWithDefault
  3
AutoCAD 2000
 90
        0
280
     0
281
     0
  0
CLASS
  1
ACDBPLACEHOLDER
  2
AcDbPlaceHolder
  3
AutoCAD 2000
 90
        0
280
     0
281
     0
  0
CLASS
  1
LAYOUT
  2
AcDbLayout
  3
AutoCAD 2000
 90
        0
280
     0
281
     0
  0
CLASS
  1
DICTIONARYVAR
  2
AcDbDictionaryVar
  3
AutoCAD 2000
 90
        0
280
     0
281
     0
  0
CLASS
  1
LONG_TRANSACTION
  2
AcDbLongTransaction
  3
AutoCAD 2000
 90
        0
280
     0
281
     0
  0
CLASS
  1
LWPOLYLINE
  2
AcDbPolyline
  3
AutoCAD 2000
 90
        0
280
     0
281
     1
  0
CLASS
  1
HATCH
  2
AcDbHatch
  3
AutoCAD 2000
 90
        0
280
     0
281
     1
  0
CLASS
  1
XRECORD
  2
AcDbXrecord
  3
AutoCAD 2000
 90
        0
280
     0
281
     0
  0
ENDSEC
  0
SECTION
  2
TABLES
  0
TABLE
  2
VPORT
  5
8
330
0
100
AcDbSymbolTable
 70
     4
  0
VPORT
  5
19A
330
8
100
AcDbSymbolTableRecord
100
AcDbViewportTableRecord
  2
*ACTIVE
 70
     0
 10
0.0
 20
0.0
 11
1.0
 21
1.0
 12
82.99999999999998
 22
74.0
 13
0.0
 23
0.0
 14
1.0
 24
1.0
 15
0.0
 25
0.0
 16
0.0
 26
0.0
 36
1.0
 17
0.0
 27
0.0
 37
0.0
 40
148.8124157549234
 41
2.041621029572836
 42
50.0
 43
0.0
 44
0.0
 50
0.0
 51
0.0
 71
     0
 72
   100
 73
     1
 74
     3
 75
     0
 76
     0
 77
     0
 78
     0
  0
ENDTAB
  0
TABLE
  2
LTYPE
  5
5
330
0
100
AcDbSymbolTable
 70
     1
  0
LTYPE
  5
13
330
5
100
AcDbSymbolTableRecord
100
AcDbLinetypeTableRecord
  2
BYBLOCK
 70
     0
  3

 72
    65
 73
     0
 40
0.0
  0
LTYPE
  5
14
330
5
100
AcDbSymbolTableRecord
100
AcDbLinetypeTableRecord
  2
BYLAYER
 70
     0
  3

 72
    65
 73
     0
 40
0.0
  0
LTYPE
  5
15
330
5
100
AcDbSymbolTableRecord
100
AcDbLinetypeTableRecord
  2
CONTINUOUS
 70
     0
  3
Solid line
 72
    65
 73
     0
 40
0.0
  0
ENDTAB
  0
TABLE
  2
LAYER
  5
2
330
0
100
AcDbSymbolTable
 70
     1
  0
LAYER
  5
10
330
2
100
AcDbSymbolTableRecord
100
AcDbLayerTableRecord
  2
0
 70
     0
 62
     7
  6
CONTINUOUS
  0
ENDTAB
  0
TABLE
  2
STYLE
  5
3
330
0
100
AcDbSymbolTable
 70
     1
  0
STYLE
  5
11
330
3
100
AcDbSymbolTableRecord
100
AcDbTextStyleTableRecord
  2
STANDARD
 70
     0
 40
0.0
 41
1.0
 50
0.0
 71
     0
 42
0.2
  3
txt
  4

  0
ENDTAB
  0
TABLE
  2
VIEW
  5
6
330
0
100
AcDbSymbolTable
 70
     0
  0
ENDTAB
  0
TABLE
  2
UCS
  5
7
330
0
100
AcDbSymbolTable
 70
     0
  0
ENDTAB
  0
TABLE
  2
APPID
  5
9
330
0
100
AcDbSymbolTable
 70
     1
  0
APPID
  5
12
330
9
100
AcDbSymbolTableRecord
100
AcDbRegAppTableRecord
  2
ACAD
 70
     0
  0
ENDTAB
  0
TABLE
  2
DIMSTYLE
  5
A
330
0
100
AcDbSymbolTable
 70
     1
  0
DIMSTYLE
105
16A
330
A
100
AcDbSymbolTableRecord
100
AcDbDimStyleTableRecord
  2
STANDARD
 70
     0
  3

  4

  5

  6

  7

 40
1.0
 41
0.18
 42
0.0625
 43
0.38
 44
0.18
 45
0.0
 46
0.0
 47
0.0
 48
0.0
140
0.18
141
0.09
142
0.0
143
25.4
144
1.0
145
0.0
146
1.0
147
0.09
 71
     0
 72
     0
 73
     1
 74
     1
 75
     0
 76
     0
 77
     0
 78
     0
170
     0
171
     2
172
     0
173
     0
174
     0
175
     0
176
     0
177
     0
178
     0
270
     2
271
     4
272
     4
273
     2
274
     2
340
11
275
     0
280
     0
281
     0
282
     0
283
     1
284
     0
285
     0
286
     0
287
     3
288
     0
  0
ENDTAB
  0
TABLE
  2
BLOCK_RECORD
  5
1
330
0
100
AcDbSymbolTable
 70
     0
  0
BLOCK_RECORD
  5
1E
102
{ACAD_XDICTIONARY
360
1BD
102
}
330
1
100
AcDbSymbolTableRecord
100
AcDbBlockTableRecord
  2
*MODEL_SPACE
  0
BLOCK_RECORD
  5
1A
102
{ACAD_XDICTIONARY
360
1BB
102
}
330
1
100
AcDbSymbolTableRecord
100
AcDbBlockTableRecord
  2
*PAPER_SPACE
  0
ENDTAB
  0
ENDSEC
  0
SECTION
  2
BLOCKS
  0
BLOCK
  5
1F
330
1E
100
AcDbEntity
  8
0
100
AcDbBlockBegin
  2
*MODEL_SPACE
 70
     0
 10
0.0
 20
0.0
 30
0.0
  3
*MODEL_SPACE
  1

  0
ENDBLK
  5
20
330
1E
100
AcDbEntity
  8
0
100
AcDbBlockEnd
  0
BLOCK
  5
1B
330
1A
100
AcDbEntity
 67
     1
  8
0
100
AcDbBlockBegin
  2
*PAPER_SPACE
 70
     0
 10
0.0
 20
0.0
 30
0.0
  3
*PAPER_SPACE
  1

  0
ENDBLK
  5
1C
330
1A
100
AcDbEntity
 67
     1
  8
0
100
AcDbBlockEnd
  0
ENDSEC
  0
SECTION
  2
ENTITIES
  0
LINE
  5
22
330
1E
100
AcDbEntity
  8
0
100
AcDbLine
 10
2.210312
 20
94.42775000000001
 30
0.0
 11
2.650091999999999
 21
94.26765000000001
 31
0.0
  0
LINE
  5
23
330
1E
100
AcDbEntity
  8
0
100
AcDbLine
 10
3.822832
 20
93.84085
 30
0.0
 11
5.728521999999999
 21
93.14714999999999
 31
0.0
  0
LINE
  5
24
330
1E
100
AcDbEntity
  8
0
100
AcDbLine
 10
2.650091999999999
 20
94.26765000000001
 30
0.0
 11
3.822832
 21
93.84085
 31
0.0
  0
LINE
  5
25
330
1E
100
AcDbEntity
  8
0
100
AcDbLine
 10
11.05469199999999
 20
91.20865
 30
0.0
 11
14.133092
 21
90.08815
 31
0.0
  0
LINE
  5
26
330
1E
100
AcDbEntity
  8
0
100
AcDbLine
 10
8.220591999999999
 20
92.24014999999999
 30
0.0
 11
11.05469199999999
 21
91.20865
 31
0.0
  0
LINE
  5
27
330
1E
100
AcDbEntity
  8
0
100
AcDbLine
 10
11.137392
 20
91.58784999999999
 30
0.0
 11
14.264692
 21
90.44954999999999
 31
0.0
  0
LINE
  5
28
330
1E
100
AcDbEntity
  8
0
100
AcDbLine
 10
5.728521999999999
 20
93.14714999999999
 30
0.0
 11
8.220591999999999
 21
92.24014999999999
 31
0.0
  0
LINE
  5
29
330
1E
100
AcDbEntity
  8
0
100
AcDbLine
 10
8.205541999999999
 20
92.65494999999999
 30
0.0
 11
11.137392
 21
91.58784999999999
 31
0.0
  0
LINE
  5
2A
330
1E
100
AcDbEntity
  8
0
100
AcDbLine
 10
5.615751999999999
 20
93.59754999999999
 30
0.0
 11
8.205541999999999
 21
92.65494999999999
 31
0.0
  0
LINE
  5
2B
330
1E
100
AcDbEntity
  8
0
100
AcDbLine
 10
3.661191999999999
 20
94.30894999999999
 30
0.0
 11
5.615751999999999
 21
93.59754999999999
 31
0.0
  0
LINE
  5
2C
330
1E
100
AcDbEntity
  8
0
100
AcDbLine
 10
2.488452
 20
94.73575
 30
0.0
 11
3.661191999999999
 21
94.30894999999999
 31
0.0
  0
LINE
  5
2D
330
1E
100
AcDbEntity
  8
0
100
AcDbLine
 10
14.133092
 20
90.08815
 30
0.0
 11
17.21159199999999
 21
88.96774999999999
 31
0.0
  0
LINE
  5
2E
330
1E
100
AcDbEntity
  8
0
100
AcDbLine
 10
14.264692
 20
90.44954999999999
 30
0.0
 11
17.391992
 21
89.31135000000001
 31
0.0
  0
LINE
  5
2F
330
1E
100
AcDbEntity
  8
0
100
AcDbLine
 10
0.0000079999999978
 20
100.96235
 30
0.0
 11
0.147233999999998
 21
100.6359499999999
 31
0.0
  0
LINE
  5
30
330
1E
100
AcDbEntity
  8
0
100
AcDbLine
 10
0.0000079999999977
 20
100.96235
 30
0.0
 11
1.774191999999999
 21
105.7422499999999
 31
0.0
  0
LINE
  5
31
330
1E
100
AcDbEntity
  8
0
100
AcDbLine
 10
0.0000079999999977
 20
100.96235
 30
0.0
 11
0.5638239999999979
 21
100.75715
 31
0.0
  0
LINE
  5
32
330
1E
100
AcDbEntity
  8
0
100
AcDbLine
 10
0.147233999999998
 20
100.6359499999999
 30
0.0
 11
0.573231999999998
 21
100.34445
 31
0.0
  0
LINE
  5
33
330
1E
100
AcDbEntity
  8
0
100
AcDbLine
 10
2.048681999999999
 20
94.89584999999999
 30
0.0
 11
2.488452
 21
94.73575
 31
0.0
  0
LINE
  5
34
330
1E
100
AcDbEntity
  8
0
100
AcDbLine
 10
2.048681999999999
 20
94.89584999999999
 30
0.0
 11
3.627231999999999
 21
99.23284999999999
 31
0.0
  0
LINE
  5
35
330
1E
100
AcDbEntity
  8
0
100
AcDbLine
 10
2.048681999999999
 20
94.89584999999999
 30
0.0
 11
2.210312
 21
94.42775000000001
 31
0.0
  0
LINE
  5
36
330
1E
100
AcDbEntity
  8
0
100
AcDbLine
 10
0.147233999999998
 20
100.6359499999999
 30
0.0
 11
0.573231999999998
 21
100.34445
 31
0.0
  0
LINE
  5
48
330
1E
100
AcDbEntity
  8
0
100
AcDbLine
 10
3.741232
 20
109.73105
 30
0.0
 11
6.212081999999999
 21
113.4289499999999
 31
0.0
  0
LINE
  5
49
330
1E
100
AcDbEntity
  8
0
100
AcDbLine
 10
9.144461999999998
 20
116.77265
 30
0.0
 11
12.488192
 21
119.70505
 31
0.0
  0
LINE
  5
4A
330
1E
100
AcDbEntity
  8
0
100
AcDbLine
 10
12.488192
 20
119.70505
 30
0.0
 11
16.186092
 21
122.17595
 31
0.0
  0
LINE
  5
4B
330
1E
100
AcDbEntity
  8
0
100
AcDbLine
 10
6.212081999999999
 20
113.4289499999999
 30
0.0
 11
9.144461999999998
 21
116.77265
 31
0.0
  0
LINE
  5
4C
330
1E
100
AcDbEntity
  8
0
100
AcDbLine
 10
1.774191999999999
 20
105.7422499999999
 30
0.0
 11
3.741232
 21
109.73105
 31
0.0
  0
LINE
  5
4E
330
1E
100
AcDbEntity
  8
0
100
AcDbLine
 10
0.0000079999999978
 20
100.96235
 30
0.0
 11
0.5638239999999979
 21
100.75715
 31
0.0
  0
LINE
  5
4F
330
1E
100
AcDbEntity
  8
0
100
AcDbLine
 10
0.0000079999999978
 20
100.96235
 30
0.0
 11
0.147233999999998
 21
100.6359499999999
 31
0.0
  0
LINE
  5
50
330
1E
100
AcDbEntity
  8
0
100
AcDbLine
 10
0.0000079999999978
 20
100.96235
 30
0.0
 11
1.774191999999999
 21
105.7422499999999
 31
0.0
  0
LINE
  5
53
330
1E
100
AcDbEntity
  8
0
100
AcDbLine
 10
20.045692
 20
87.93615
 30
0.0
 11
22.53779199999999
 21
87.02915
 31
0.0
  0
LINE
  5
54
330
1E
100
AcDbEntity
  8
0
100
AcDbLine
 10
22.53779199999999
 20
87.02915
 30
0.0
 11
24.443492
 21
86.33554999999999
 31
0.0
  0
LINE
  5
55
330
1E
100
AcDbEntity
  8
0
100
AcDbLine
 10
17.21159199999999
 20
88.96774999999999
 30
0.0
 11
20.045692
 21
87.93615
 31
0.0
  0
LINE
  5
56
330
1E
100
AcDbEntity
  8
0
100
AcDbLine
 10
17.391992
 20
89.31135000000001
 30
0.0
 11
20.323792
 21
88.24424999999999
 31
0.0
  0
LINE
  5
57
330
1E
100
AcDbEntity
  8
0
100
AcDbLine
 10
20.323792
 20
88.24424999999999
 30
0.0
 11
22.913592
 21
87.30164999999999
 31
0.0
  0
LINE
  5
58
330
1E
100
AcDbEntity
  8
0
100
AcDbLine
 10
22.913592
 20
87.30164999999999
 30
0.0
 11
24.868192
 21
86.59024999999999
 31
0.0
  0
LINE
  5
5C
330
1E
100
AcDbEntity
  8
0
100
AcDbLine
 10
25.616192
 20
85.90864999999999
 30
0.0
 11
26.055992
 21
85.74865
 31
0.0
  0
LINE
  5
5D
330
1E
100
AcDbEntity
  8
0
100
AcDbLine
 10
26.055992
 20
85.74865
 30
0.0
 11
26.480692
 21
86.00334999999999
 31
0.0
  0
LINE
  5
5E
330
1E
100
AcDbEntity
  8
0
100
AcDbLine
 10
24.443492
 20
86.33554999999999
 30
0.0
 11
25.616192
 21
85.90864999999999
 31
0.0
  0
LINE
  5
5F
330
1E
100
AcDbEntity
  8
0
100
AcDbLine
 10
24.868192
 20
86.59024999999999
 30
0.0
 11
26.040892
 21
86.16334999999999
 31
0.0
  0
LINE
  5
60
330
1E
100
AcDbEntity
  8
0
100
AcDbLine
 10
26.040892
 20
86.16334999999999
 30
0.0
 11
26.480692
 21
86.00334999999999
 31
0.0
  0
LINE
  5
61
330
1E
100
AcDbEntity
  8
0
100
AcDbLine
 10
26.480692
 20
86.00334999999999
 30
0.0
 11
28.05919199999999
 21
90.34035000000001
 31
0.0
  0
LINE
  5
62
330
1E
100
AcDbEntity
  8
0
100
AcDbLine
 10
31.113292
 20
89.22875000000001
 30
0.0
 11
31.62689199999999
 21
89.17825
 31
0.0
  0
LINE
  5
63
330
1E
100
AcDbEntity
  8
0
100
AcDbLine
 10
50.572292
 20
60.07905
 30
0.0
 11
50.972292
 21
60.07905
 31
0.0
  0
LINE
  5
64
330
1E
100
AcDbEntity
  8
0
100
AcDbLine
 10
62.972292
 20
0.105350000000007
 30
0.0
 11
64.772292
 21
0.18024999999999
 31
0.0
  0
LINE
  5
65
330
1E
100
AcDbEntity
  8
0
100
AcDbLine
 10
61.072292
 20
0.0790499999999947
 30
0.0
 11
62.972292
 21
0.105350000000007
 31
0.0
  0
LINE
  5
66
330
1E
100
AcDbEntity
  8
0
100
AcDbLine
 10
53.572292
 20
60.07905
 30
0.0
 11
53.572292
 21
4.34084999999998
 31
0.0
  0
LINE
  5
67
330
1E
100
AcDbEntity
  8
0
100
AcDbLine
 10
53.572292
 20
60.07905
 30
0.0
 11
53.872292
 21
60.07905
 31
0.0
  0
LINE
  5
68
330
1E
100
AcDbEntity
  8
0
100
AcDbLine
 10
53.872292
 20
5.69024999999999
 30
0.0
 11
54.572292
 21
6.88964999999998
 31
0.0
  0
LINE
  5
69
330
1E
100
AcDbEntity
  8
0
100
AcDbLine
 10
53.672292
 20
60.07905
 30
0.0
 11
55.872292
 21
60.07905
 31
0.0
  0
LINE
  5
6A
330
1E
100
AcDbEntity
  8
0
100
AcDbLine
 10
53.872292
 20
60.07905
 30
0.0
 11
54.572292
 21
60.07905
 31
0.0
  0
LINE
  5
6B
330
1E
100
AcDbEntity
  8
0
100
AcDbLine
 10
54.572292
 20
60.07905
 30
0.0
 11
55.77229200000001
 21
60.07905
 31
0.0
  0
LINE
  5
6C
330
1E
100
AcDbEntity
  8
0
100
AcDbLine
 10
54.572292
 20
6.88964999999998
 30
0.0
 11
55.77229200000001
 21
8.089049999999989
 31
0.0
  0
LINE
  5
6D
330
1E
100
AcDbEntity
  8
0
100
AcDbLine
 10
53.572292
 20
4.34084999999998
 30
0.0
 11
53.872292
 21
2.354249999999999
 31
0.0
  0
LINE
  5
6E
330
1E
100
AcDbEntity
  8
0
100
AcDbLine
 10
53.572292
 20
4.34084999999998
 30
0.0
 11
53.572292
 21
60.07905
 31
0.0
  0
LINE
  5
6F
330
1E
100
AcDbEntity
  8
0
100
AcDbLine
 10
53.572292
 20
4.34084999999998
 30
0.0
 11
53.872292
 21
5.69024999999999
 31
0.0
  0
LINE
  5
70
330
1E
100
AcDbEntity
  8
0
100
AcDbLine
 10
53.872292
 20
2.354249999999999
 30
0.0
 11
54.572292
 21
1.229749999999989
 31
0.0
  0
LINE
  5
71
330
1E
100
AcDbEntity
  8
0
100
AcDbLine
 10
55.872292
 20
60.07905
 30
0.0
 11
58.372292
 21
60.07905
 31
0.0
  0
LINE
  5
72
330
1E
100
AcDbEntity
  8
0
100
AcDbLine
 10
55.77229200000001
 20
60.07905
 30
0.0
 11
57.372292
 21
60.07905
 31
0.0
  0
LINE
  5
73
330
1E
100
AcDbEntity
  8
0
100
AcDbLine
 10
55.77229200000001
 20
8.089049999999989
 30
0.0
 11
57.372292
 21
9.13854999999998
 31
0.0
  0
LINE
  5
74
330
1E
100
AcDbEntity
  8
0
100
AcDbLine
 10
54.572292
 20
1.229749999999989
 30
0.0
 11
55.77229200000001
 21
0.555150000000011
 31
0.0
  0
LINE
  5
75
330
1E
100
AcDbEntity
  8
0
100
AcDbLine
 10
55.77229200000001
 20
0.555150000000011
 30
0.0
 11
57.372292
 21
0.18024999999999
 31
0.0
  0
LINE
  5
76
330
1E
100
AcDbEntity
  8
0
100
AcDbLine
 10
58.372292
 20
60.07905
 30
0.0
 11
61.072292
 21
60.07905
 31
0.0
  0
LINE
  5
77
330
1E
100
AcDbEntity
  8
0
100
AcDbLine
 10
57.372292
 20
9.13854999999998
 30
0.0
 11
59.17229200000001
 21
9.85074999999999
 31
0.0
  0
LINE
  5
78
330
1E
100
AcDbEntity
  8
0
100
AcDbLine
 10
57.372292
 20
60.07905
 30
0.0
 11
59.17229200000001
 21
60.07905
 31
0.0
  0
LINE
  5
79
330
1E
100
AcDbEntity
  8
0
100
AcDbLine
 10
62.972292
 20
9.85074999999999
 30
0.0
 11
64.772292
 21
9.13854999999998
 31
0.0
  0
LINE
  5
7A
330
1E
100
AcDbEntity
  8
0
100
AcDbLine
 10
62.972292
 20
60.07905
 30
0.0
 11
64.772292
 21
60.07905
 31
0.0
  0
LINE
  5
7B
330
1E
100
AcDbEntity
  8
0
100
AcDbLine
 10
61.072292
 20
10.07905
 30
0.0
 11
62.972292
 21
9.85074999999999
 31
0.0
  0
LINE
  5
7C
330
1E
100
AcDbEntity
  8
0
100
AcDbLine
 10
66.372292
 20
0.555150000000011
 30
0.0
 11
67.57229200000001
 21
1.229749999999989
 31
0.0
  0
LINE
  5
7D
330
1E
100
AcDbEntity
  8
0
100
AcDbLine
 10
64.772292
 20
0.18024999999999
 30
0.0
 11
66.372292
 21
0.555150000000011
 31
0.0
  0
LINE
  5
7E
330
1E
100
AcDbEntity
  8
0
100
AcDbLine
 10
68.27229200000001
 20
2.35424999999999
 30
0.0
 11
68.572292
 21
4.34084999999997
 31
0.0
  0
LINE
  5
7F
330
1E
100
AcDbEntity
  8
0
100
AcDbLine
 10
67.57229200000001
 20
1.229749999999989
 30
0.0
 11
68.27229200000001
 21
2.35424999999999
 31
0.0
  0
LINE
  5
80
330
1E
100
AcDbEntity
  8
0
100
AcDbLine
 10
68.27229200000001
 20
5.690249999999981
 30
0.0
 11
68.572292
 21
4.34084999999997
 31
0.0
  0
LINE
  5
81
330
1E
100
AcDbEntity
  8
0
100
AcDbLine
 10
67.57229200000001
 20
6.88964999999997
 30
0.0
 11
68.27229200000001
 21
5.690249999999981
 31
0.0
  0
LINE
  5
82
330
1E
100
AcDbEntity
  8
0
100
AcDbLine
 10
66.372292
 20
8.089049999999989
 30
0.0
 11
67.57229200000001
 21
6.88964999999997
 31
0.0
  0
LINE
  5
83
330
1E
100
AcDbEntity
  8
0
100
AcDbLine
 10
68.27229200000001
 20
60.07905
 30
0.0
 11
68.572292
 21
60.07905
 31
0.0
  0
LINE
  5
84
330
1E
100
AcDbEntity
  8
0
100
AcDbLine
 10
67.57229200000001
 20
60.07905
 30
0.0
 11
68.27229200000001
 21
60.07905
 31
0.0
  0
LINE
  5
85
330
1E
100
AcDbEntity
  8
0
100
AcDbLine
 10
66.372292
 20
60.07905
 30
0.0
 11
67.57229200000001
 21
60.07905
 31
0.0
  0
LINE
  5
86
330
1E
100
AcDbEntity
  8
0
100
AcDbLine
 10
64.772292
 20
60.07905
 30
0.0
 11
66.372292
 21
60.07905
 31
0.0
  0
LINE
  5
87
330
1E
100
AcDbEntity
  8
0
100
AcDbLine
 10
64.772292
 20
9.13854999999998
 30
0.0
 11
66.372292
 21
8.089049999999989
 31
0.0
  0
LINE
  5
88
330
1E
100
AcDbEntity
  8
0
100
AcDbLine
 10
68.572292
 20
4.34084999999997
 30
0.0
 11
68.572292
 21
60.07905
 31
0.0
  0
LINE
  5
89
330
1E
100
AcDbEntity
  8
0
100
AcDbLine
 10
68.47229200000001
 20
60.07905
 30
0.0
 11
70.172292
 21
60.07905
 31
0.0
  0
LINE
  5
8A
330
1E
100
AcDbEntity
  8
0
100
AcDbLine
 10
66.27229200000001
 20
60.07905
 30
0.0
 11
68.47229200000001
 21
60.07905
 31
0.0
  0
LINE
  5
8B
330
1E
100
AcDbEntity
  8
0
100
AcDbLine
 10
63.77229200000001
 20
60.07905
 30
0.0
 11
66.27229200000001
 21
60.07905
 31
0.0
  0
LINE
  5
8C
330
1E
100
AcDbEntity
  8
0
100
AcDbLine
 10
61.072292
 20
60.07905
 30
0.0
 11
63.77229200000001
 21
60.07905
 31
0.0
  0
LINE
  5
8D
330
1E
100
AcDbEntity
  8
0
100
AcDbLine
 10
61.072292
 20
60.07905
 30
0.0
 11
62.972292
 21
60.07905
 31
0.0
  0
LINE
  5
8E
330
1E
100
AcDbEntity
  8
0
100
AcDbLine
 10
71.572292
 20
60.07905
 30
0.0
 11
72.57229200000001
 21
90.07904999999999
 31
0.0
  0
LINE
  5
8F
330
1E
100
AcDbEntity
  8
0
100
AcDbLine
 10
71.172292
 20
60.07905
 30
0.0
 11
71.572292
 21
60.07905
 31
0.0
  0
LINE
  5
90
330
1E
100
AcDbEntity
  8
0
100
AcDbLine
 10
70.172292
 20
60.07905
 30
0.0
 11
71.172292
 21
60.07905
 31
0.0
  0
LINE
  5
91
330
1E
100
AcDbEntity
  8
0
100
AcDbLine
 10
68.572292
 20
60.07905
 30
0.0
 11
70.172292
 21
60.07905
 31
0.0
  0
LINE
  5
92
330
1E
100
AcDbEntity
  8
0
100
AcDbLine
 10
68.572292
 20
60.07905
 30
0.0
 11
68.572292
 21
4.34084999999997
 31
0.0
  0
LINE
  5
93
330
1E
100
AcDbEntity
  8
0
100
AcDbLine
 10
59.17229200000001
 20
9.85074999999999
 30
0.0
 11
61.072292
 21
10.07905
 31
0.0
  0
LINE
  5
94
330
1E
100
AcDbEntity
  8
0
100
AcDbLine
 10
59.17229200000001
 20
60.07905
 30
0.0
 11
61.072292
 21
60.07905
 31
0.0
  0
LINE
  5
95
330
1E
100
AcDbEntity
  8
0
100
AcDbLine
 10
57.372292
 20
0.18024999999999
 30
0.0
 11
59.17229200000001
 21
0.105350000000007
 31
0.0
  0
LINE
  5
96
330
1E
100
AcDbEntity
  8
0
100
AcDbLine
 10
59.17229200000001
 20
0.105350000000007
 30
0.0
 11
61.072292
 21
0.0790499999999947
 31
0.0
  0
LINE
  5
97
330
1E
100
AcDbEntity
  8
0
100
AcDbLine
 10
50.972292
 20
60.07905
 30
0.0
 11
51.97229199999999
 21
60.07905
 31
0.0
  0
LINE
  5
98
330
1E
100
AcDbEntity
  8
0
100
AcDbLine
 10
51.97229199999999
 20
60.07905
 30
0.0
 11
53.572292
 21
60.07905
 31
0.0
  0
LINE
  5
99
330
1E
100
AcDbEntity
  8
0
100
AcDbLine
 10
51.97229199999999
 20
60.07905
 30
0.0
 11
53.672292
 21
60.07905
 31
0.0
  0
LINE
  5
9A
330
1E
100
AcDbEntity
  8
0
100
AcDbLine
 10
165.9999919999999
 20
75.73104999999999
 30
0.0
 11
165.9999919999999
 21
76.93105
 31
0.0
  0
LINE
  5
9B
330
1E
100
AcDbEntity
  8
0
100
AcDbLine
 10
157.9999919999999
 20
77.23105
 30
0.0
 11
157.9999919999999
 21
81.63104999999999
 31
0.0
  0
LINE
  5
9C
330
1E
100
AcDbEntity
  8
0
100
AcDbLine
 10
157.9999919999999
 20
81.63104999999999
 30
0.0
 11
157.9999919999999
 21
77.23105
 31
0.0
  0
LINE
  5
9D
330
1E
100
AcDbEntity
  8
0
100
AcDbLine
 10
157.9999919999999
 20
81.63104999999999
 30
0.0
 11
157.9999919999999
 21
86.73104999999999
 31
0.0
  0
LINE
  5
9E
330
1E
100
AcDbEntity
  8
0
100
AcDbLine
 10
157.9999919999999
 20
86.73104999999999
 30
0.0
 11
157.9999919999999
 21
93.53104999999999
 31
0.0
  0
LINE
  5
9F
330
1E
100
AcDbEntity
  8
0
100
AcDbLine
 10
157.9999919999999
 20
86.73104999999999
 30
0.0
 11
157.9999919999999
 21
81.63104999999999
 31
0.0
  0
LINE
  5
A0
330
1E
100
AcDbEntity
  8
0
100
AcDbLine
 10
157.9999919999999
 20
77.23105
 30
0.0
 11
158.1919919999999
 21
76.23104999999999
 31
0.0
  0
LINE
  5
A1
330
1E
100
AcDbEntity
  8
0
100
AcDbLine
 10
158.5769919999999
 20
80.33105
 30
0.0
 11
158.5769919999999
 21
76.93105
 31
0.0
  0
LINE
  5
A2
330
1E
100
AcDbEntity
  8
0
100
AcDbLine
 10
158.5769919999999
 20
80.33105
 30
0.0
 11
158.5769919999999
 21
85.73104999999999
 31
0.0
  0
LINE
  5
A3
330
1E
100
AcDbEntity
  8
0
100
AcDbLine
 10
158.5769919999999
 20
76.93105
 30
0.0
 11
158.5769919999999
 21
75.73104999999999
 31
0.0
  0
LINE
  5
A4
330
1E
100
AcDbEntity
  8
0
100
AcDbLine
 10
158.5769919999999
 20
76.93105
 30
0.0
 11
158.5769919999999
 21
80.33105
 31
0.0
  0
LINE
  5
A5
330
1E
100
AcDbEntity
  8
0
100
AcDbLine
 10
165.9999919999999
 20
80.33105
 30
0.0
 11
165.9999919999999
 21
76.93105
 31
0.0
  0
LINE
  5
A6
330
1E
100
AcDbEntity
  8
0
100
AcDbLine
 10
165.9999919999999
 20
80.33105
 30
0.0
 11
165.9999919999999
 21
85.73104999999999
 31
0.0
  0
LINE
  5
A7
330
1E
100
AcDbEntity
  8
0
100
AcDbLine
 10
165.9999919999999
 20
76.93105
 30
0.0
 11
165.9999919999999
 21
75.73104999999999
 31
0.0
  0
LINE
  5
A8
330
1E
100
AcDbEntity
  8
0
100
AcDbLine
 10
165.9999919999999
 20
76.93105
 30
0.0
 11
165.9999919999999
 21
80.33105
 31
0.0
  0
LINE
  5
A9
330
1E
100
AcDbEntity
  8
0
100
AcDbLine
 10
158.5769919999999
 20
85.73104999999999
 30
0.0
 11
158.5769919999999
 21
92.83105
 31
0.0
  0
LINE
  5
AA
330
1E
100
AcDbEntity
  8
0
100
AcDbLine
 10
158.5769919999999
 20
85.73104999999999
 30
0.0
 11
158.5769919999999
 21
80.33105
 31
0.0
  0
LINE
  5
AB
330
1E
100
AcDbEntity
  8
0
100
AcDbLine
 10
165.9999919999999
 20
85.73104999999999
 30
0.0
 11
165.9999919999999
 21
92.83105
 31
0.0
  0
LINE
  5
AC
330
1E
100
AcDbEntity
  8
0
100
AcDbLine
 10
165.9999919999999
 20
85.73104999999999
 30
0.0
 11
165.9999919999999
 21
80.33105
 31
0.0
  0
LINE
  5
AD
330
1E
100
AcDbEntity
  8
0
100
AcDbLine
 10
158.1919919999999
 20
76.23104999999999
 30
0.0
 11
158.5769919999999
 21
75.73104999999999
 31
0.0
  0
LINE
  5
AE
330
1E
100
AcDbEntity
  8
0
100
AcDbLine
 10
158.5769919999999
 20
75.73104999999999
 30
0.0
 11
165.9999919999999
 21
75.73104999999999
 31
0.0
  0
LINE
  5
AF
330
1E
100
AcDbEntity
  8
0
100
AcDbLine
 10
158.5769919999999
 20
75.73104999999999
 30
0.0
 11
158.5769919999999
 21
76.93105
 31
0.0
  0
LINE
  5
B0
330
1E
100
AcDbEntity
  8
0
100
AcDbLine
 10
31.62689199999999
 20
89.17825
 30
0.0
 11
31.94959199999999
 21
89.33365
 31
0.0
  0
LINE
  5
B5
330
1E
100
AcDbEntity
  8
0
100
AcDbLine
 10
27.9925550428017
 20
90.36461330872739
 30
0.0
 11
28.05919199999999
 21
90.34035000000001
 31
0.0
  0
LINE
  5
B6
330
1E
100
AcDbEntity
  8
0
100
AcDbLine
 10
27.9925550428019
 20
90.36461330872731
 30
0.0
 11
28.05919199999999
 21
90.34035000000001
 31
0.0
  0
LINE
  5
B9
330
1E
100
AcDbEntity
  8
0
100
AcDbLine
 10
49.97229199999999
 20
90.07904999999999
 30
0.0
 11
51.07229199999999
 21
90.07904999999999
 31
0.0
  0
LINE
  5
BA
330
1E
100
AcDbEntity
  8
0
100
AcDbLine
 10
49.572292
 20
90.07904999999999
 30
0.0
 11
50.572292
 21
60.07905
 31
0.0
  0
LINE
  5
BB
330
1E
100
AcDbEntity
  8
0
100
AcDbLine
 10
49.572292
 20
90.07904999999999
 30
0.0
 11
49.97229199999999
 21
90.07904999999999
 31
0.0
  0
LINE
  5
BC
330
1E
100
AcDbEntity
  8
0
100
AcDbLine
 10
51.07229199999999
 20
90.07904999999999
 30
0.0
 11
52.972292
 21
90.07904999999999
 31
0.0
  0
LINE
  5
BD
330
1E
100
AcDbEntity
  8
0
100
AcDbLine
 10
50.072292
 20
90.43905
 30
0.0
 11
50.468292
 21
90.43905
 31
0.0
  0
LINE
  5
BE
330
1E
100
AcDbEntity
  8
0
100
AcDbLine
 10
50.072292
 20
90.43905
 30
0.0
 11
50.336292
 21
90.07904999999999
 31
0.0
  0
LINE
  5
BF
330
1E
100
AcDbEntity
  8
0
100
AcDbLine
 10
50.072292
 20
90.43905
 30
0.0
 11
50.072292
 21
92.73104999999999
 31
0.0
  0
LINE
  5
C0
330
1E
100
AcDbEntity
  8
0
100
AcDbLine
 10
50.468292
 20
90.43905
 30
0.0
 11
51.524292
 21
90.43905
 31
0.0
  0
LINE
  5
C1
330
1E
100
AcDbEntity
  8
0
100
AcDbLine
 10
52.972292
 20
90.07904999999999
 30
0.0
 11
55.372292
 21
90.07904999999999
 31
0.0
  0
LINE
  5
C2
330
1E
100
AcDbEntity
  8
0
100
AcDbLine
 10
55.372292
 20
90.07904999999999
 30
0.0
 11
58.072292
 21
90.07904999999999
 31
0.0
  0
LINE
  5
C3
330
1E
100
AcDbEntity
  8
0
100
AcDbLine
 10
51.524292
 20
90.43905
 30
0.0
 11
53.284292
 21
90.43905
 31
0.0
  0
LINE
  5
C4
330
1E
100
AcDbEntity
  8
0
100
AcDbLine
 10
53.284292
 20
90.43905
 30
0.0
 11
55.616292
 21
90.43905
 31
0.0
  0
LINE
  5
C5
330
1E
100
AcDbEntity
  8
0
100
AcDbLine
 10
61.072292
 20
90.07904999999999
 30
0.0
 11
64.072292
 21
90.07904999999999
 31
0.0
  0
LINE
  5
C6
330
1E
100
AcDbEntity
  8
0
100
AcDbLine
 10
58.072292
 20
90.07904999999999
 30
0.0
 11
61.072292
 21
90.07904999999999
 31
0.0
  0
LINE
  5
C7
330
1E
100
AcDbEntity
  8
0
100
AcDbLine
 10
55.616292
 20
90.43905
 30
0.0
 11
58.256292
 21
90.43905
 31
0.0
  0
LINE
  5
C8
330
1E
100
AcDbEntity
  8
0
100
AcDbLine
 10
58.256292
 20
90.43905
 30
0.0
 11
61.072292
 21
90.43905
 31
0.0
  0
LINE
  5
C9
330
1E
100
AcDbEntity
  8
0
100
AcDbLine
 10
66.77229200000001
 20
90.07904999999999
 30
0.0
 11
69.172292
 21
90.07904999999999
 31
0.0
  0
LINE
  5
CA
330
1E
100
AcDbEntity
  8
0
100
AcDbLine
 10
64.072292
 20
90.07904999999999
 30
0.0
 11
66.77229200000001
 21
90.07904999999999
 31
0.0
  0
LINE
  5
CB
330
1E
100
AcDbEntity
  8
0
100
AcDbLine
 10
71.072292
 20
90.07904999999999
 30
0.0
 11
72.172292
 21
90.07904999999999
 31
0.0
  0
LINE
  5
CC
330
1E
100
AcDbEntity
  8
0
100
AcDbLine
 10
69.172292
 20
90.07904999999999
 30
0.0
 11
71.072292
 21
90.07904999999999
 31
0.0
  0
LINE
  5
CD
330
1E
100
AcDbEntity
  8
0
100
AcDbLine
 10
71.676292
 20
90.43905
 30
0.0
 11
72.072292
 21
90.43905
 31
0.0
  0
LINE
  5
CE
330
1E
100
AcDbEntity
  8
0
100
AcDbLine
 10
70.62029200000001
 20
90.43905
 30
0.0
 11
71.676292
 21
90.43905
 31
0.0
  0
LINE
  5
CF
330
1E
100
AcDbEntity
  8
0
100
AcDbLine
 10
68.860292
 20
90.43905
 30
0.0
 11
70.62029200000001
 21
90.43905
 31
0.0
  0
LINE
  5
D0
330
1E
100
AcDbEntity
  8
0
100
AcDbLine
 10
66.52829200000001
 20
90.43905
 30
0.0
 11
68.860292
 21
90.43905
 31
0.0
  0
LINE
  5
D1
330
1E
100
AcDbEntity
  8
0
100
AcDbLine
 10
63.888292
 20
90.43905
 30
0.0
 11
66.52829200000001
 21
90.43905
 31
0.0
  0
LINE
  5
D2
330
1E
100
AcDbEntity
  8
0
100
AcDbLine
 10
61.072292
 20
90.43905
 30
0.0
 11
63.888292
 21
90.43905
 31
0.0
  0
LINE
  5
D3
330
1E
100
AcDbEntity
  8
0
100
AcDbLine
 10
72.172292
 20
90.07904999999999
 30
0.0
 11
72.57229200000001
 21
90.07904999999999
 31
0.0
  0
LINE
  5
D4
330
1E
100
AcDbEntity
  8
0
100
AcDbLine
 10
72.072292
 20
90.43905
 30
0.0
 11
72.072292
 21
92.73104999999999
 31
0.0
  0
LINE
  5
D5
330
1E
100
AcDbEntity
  8
0
100
AcDbLine
 10
71.80829200000001
 20
90.07904999999999
 30
0.0
 11
72.072292
 21
90.43905
 31
0.0
  0
LINE
  5
D6
330
1E
100
AcDbEntity
  8
0
100
AcDbLine
 10
157.9999919999999
 20
90.45104999999999
 30
0.0
 11
157.9999919999999
 21
92.37104999999999
 31
0.0
  0
LINE
  5
D7
330
1E
100
AcDbEntity
  8
0
100
AcDbLine
 10
157.9999919999999
 20
89.73105
 30
0.0
 11
157.9999919999999
 21
90.45104999999999
 31
0.0
  0
LINE
  5
D8
330
1E
100
AcDbEntity
  8
0
100
AcDbLine
 10
50.072292
 20
92.73104999999999
 30
0.0
 11
50.072292
 21
90.43905
 31
0.0
  0
LINE
  5
D9
330
1E
100
AcDbEntity
  8
0
100
AcDbLine
 10
33.18609199999999
 20
92.73104999999999
 30
0.0
 11
50.072292
 21
92.73104999999999
 31
0.0
  0
LINE
  5
DA
330
1E
100
AcDbEntity
  8
0
100
AcDbLine
 10
72.072292
 20
92.73104999999999
 30
0.0
 11
154.9999919999999
 21
92.73104999999999
 31
0.0
  0
LINE
  5
DB
330
1E
100
AcDbEntity
  8
0
100
AcDbLine
 10
72.072292
 20
92.73104999999999
 30
0.0
 11
72.072292
 21
90.43905
 31
0.0
  0
LINE
  5
DC
330
1E
100
AcDbEntity
  8
0
100
AcDbLine
 10
33.18609199999999
 20
92.73104999999999
 30
0.0
 11
50.072292
 21
92.73104999999999
 31
0.0
  0
LINE
  5
DD
330
1E
100
AcDbEntity
  8
0
100
AcDbLine
 10
157.9999919999999
 20
92.37104999999999
 30
0.0
 11
157.9999919999999
 21
95.57104999999999
 31
0.0
  0
LINE
  5
E0
330
1E
100
AcDbEntity
  8
0
100
AcDbLine
 10
154.9999919999999
 20
92.73104999999999
 30
0.0
 11
156.9999919999999
 21
91.73104999999999
 31
0.0
  0
LINE
  5
E2
330
1E
100
AcDbEntity
  8
0
100
AcDbLine
 10
156.9999919999999
 20
91.73104999999999
 30
0.0
 11
157.9999919999999
 21
89.73105
 31
0.0
  0
LINE
  5
E3
330
1E
100
AcDbEntity
  8
0
100
AcDbLine
 10
158.5769919999999
 20
92.83105
 30
0.0
 11
158.5769919999999
 21
85.73104999999999
 31
0.0
  0
LINE
  5
E4
330
1E
100
AcDbEntity
  8
0
100
AcDbLine
 10
158.5769919999999
 20
92.83105
 30
0.0
 11
158.5769919999999
 21
101.0310499999999
 31
0.0
  0
LINE
  5
E5
330
1E
100
AcDbEntity
  8
0
100
AcDbLine
 10
157.9999919999999
 20
93.53104999999999
 30
0.0
 11
157.9999919999999
 21
86.73104999999999
 31
0.0
  0
LINE
  5
E6
330
1E
100
AcDbEntity
  8
0
100
AcDbLine
 10
157.9999919999999
 20
93.53104999999999
 30
0.0
 11
157.9999919999999
 21
101.33105
 31
0.0
  0
LINE
  5
E7
330
1E
100
AcDbEntity
  8
0
100
AcDbLine
 10
165.9999919999999
 20
92.83105
 30
0.0
 11
165.9999919999999
 21
85.73104999999999
 31
0.0
  0
LINE
  5
E8
330
1E
100
AcDbEntity
  8
0
100
AcDbLine
 10
165.9999919999999
 20
92.83105
 30
0.0
 11
165.9999919999999
 21
101.0310499999999
 31
0.0
  0
LINE
  5
E9
330
1E
100
AcDbEntity
  8
0
100
AcDbLine
 10
31.385692
 20
89.53895000000001
 30
0.0
 11
31.94959199999999
 21
89.33365
 31
0.0
  0
LINE
  5
EA
330
1E
100
AcDbEntity
  8
0
100
AcDbLine
 10
31.94959199999999
 20
89.33365
 30
0.0
 11
33.18609199999999
 21
92.73104999999999
 31
0.0
  0
LINE
  5
F0
330
1E
100
AcDbEntity
  8
0
100
AcDbLine
 10
157.9999919999999
 20
104.61105
 30
0.0
 11
157.9999919999999
 21
109.73105
 31
0.0
  0
LINE
  5
F1
330
1E
100
AcDbEntity
  8
0
100
AcDbLine
 10
157.9999919999999
 20
99.81104999999999
 30
0.0
 11
157.9999919999999
 21
104.61105
 31
0.0
  0
LINE
  5
F2
330
1E
100
AcDbEntity
  8
0
100
AcDbLine
 10
157.9999919999999
 20
95.57104999999999
 30
0.0
 11
157.9999919999999
 21
99.81104999999999
 31
0.0
  0
LINE
  5
F5
330
1E
100
AcDbEntity
  8
0
100
AcDbLine
 10
16.186092
 20
122.17595
 30
0.0
 11
20.17489199999999
 21
124.1429499999999
 31
0.0
  0
LINE
  5
FC
330
1E
100
AcDbEntity
  8
0
100
AcDbLine
 10
20.17489199999999
 20
124.1429499999999
 30
0.0
 11
24.386292
 21
125.57255
 31
0.0
  0
LINE
  5
FD
330
1E
100
AcDbEntity
  8
0
100
AcDbLine
 10
24.386292
 20
125.57255
 30
0.0
 11
28.748192
 21
126.4401499999999
 31
0.0
  0
LINE
  5
100
330
1E
100
AcDbEntity
  8
0
100
AcDbLine
 10
157.9999919999999
 20
114.8510499999999
 30
0.0
 11
157.9999919999999
 21
119.65105
 31
0.0
  0
LINE
  5
101
330
1E
100
AcDbEntity
  8
0
100
AcDbLine
 10
157.9999919999999
 20
119.65105
 30
0.0
 11
157.9999919999999
 21
123.89105
 31
0.0
  0
LINE
  5
102
330
1E
100
AcDbEntity
  8
0
100
AcDbLine
 10
157.9999919999999
 20
123.89105
 30
0.0
 11
157.9999919999999
 21
127.09105
 31
0.0
  0
LINE
  5
107
330
1E
100
AcDbEntity
  8
0
100
AcDbLine
 10
157.9999919999999
 20
101.33105
 30
0.0
 11
157.9999919999999
 21
93.53104999999999
 31
0.0
  0
LINE
  5
108
330
1E
100
AcDbEntity
  8
0
100
AcDbLine
 10
157.9999919999999
 20
101.33105
 30
0.0
 11
157.9999919999999
 21
109.73105
 31
0.0
  0
LINE
  5
109
330
1E
100
AcDbEntity
  8
0
100
AcDbLine
 10
28.748192
 20
126.4401499999999
 30
0.0
 11
33.18609199999999
 21
126.73105
 31
0.0
  0
LINE
  5
10A
330
1E
100
AcDbEntity
  8
0
100
AcDbLine
 10
54.000192
 20
126.73105
 30
0.0
 11
54.000192
 21
129.92095
 31
0.0
  0
LINE
  5
10B
330
1E
100
AcDbEntity
  8
0
100
AcDbLine
 10
68.000192
 20
126.73105
 30
0.0
 11
68.000192
 21
129.92095
 31
0.0
  0
LINE
  5
10C
330
1E
100
AcDbEntity
  8
0
100
AcDbLine
 10
68.000192
 20
126.73105
 30
0.0
 11
154.9999919999999
 21
126.73105
 31
0.0
  0
LINE
  5
10D
330
1E
100
AcDbEntity
  8
0
100
AcDbLine
 10
33.18609199999999
 20
126.73105
 30
0.0
 11
54.000192
 21
126.73105
 31
0.0
  0
LINE
  5
10E
330
1E
100
AcDbEntity
  8
0
100
AcDbLine
 10
67.36009200000001
 20
129.92095
 30
0.0
 11
68.800092
 21
129.92095
 31
0.0
  0
LINE
  5
10F
330
1E
100
AcDbEntity
  8
0
100
AcDbLine
 10
54.000192
 20
129.92095
 30
0.0
 11
54.000192
 21
126.73105
 31
0.0
  0
LINE
  5
110
330
1E
100
AcDbEntity
  8
0
100
AcDbLine
 10
61.00019200000001
 20
129.92095
 30
0.0
 11
63.340192
 21
129.92095
 31
0.0
  0
LINE
  5
111
330
1E
100
AcDbEntity
  8
0
100
AcDbLine
 10
63.340192
 20
129.92095
 30
0.0
 11
65.500192
 21
129.92095
 31
0.0
  0
LINE
  5
112
330
1E
100
AcDbEntity
  8
0
100
AcDbLine
 10
65.500192
 20
129.92095
 30
0.0
 11
67.36009200000001
 21
129.92095
 31
0.0
  0
LINE
  5
113
330
1E
100
AcDbEntity
  8
0
100
AcDbLine
 10
58.660192
 20
129.92095
 30
0.0
 11
61.00019200000001
 21
129.92095
 31
0.0
  0
LINE
  5
114
330
1E
100
AcDbEntity
  8
0
100
AcDbLine
 10
56.500192
 20
129.92095
 30
0.0
 11
58.660192
 21
129.92095
 31
0.0
  0
LINE
  5
115
330
1E
100
AcDbEntity
  8
0
100
AcDbLine
 10
54.640192
 20
129.92095
 30
0.0
 11
56.500192
 21
129.92095
 31
0.0
  0
LINE
  5
116
330
1E
100
AcDbEntity
  8
0
100
AcDbLine
 10
68.000192
 20
129.92095
 30
0.0
 11
68.800092
 21
129.92095
 31
0.0
  0
LINE
  5
117
330
1E
100
AcDbEntity
  8
0
100
AcDbLine
 10
68.000192
 20
129.92095
 30
0.0
 11
68.000192
 21
126.73105
 31
0.0
  0
LINE
  5
118
330
1E
100
AcDbEntity
  8
0
100
AcDbLine
 10
53.200192
 20
129.92095
 30
0.0
 11
54.000192
 21
129.92095
 31
0.0
  0
LINE
  5
119
330
1E
100
AcDbEntity
  8
0
100
AcDbLine
 10
53.200192
 20
129.92095
 30
0.0
 11
54.640192
 21
129.92095
 31
0.0
  0
LINE
  5
11A
330
1E
100
AcDbEntity
  8
0
100
AcDbLine
 10
52.300192
 20
129.92095
 30
0.0
 11
53.200192
 21
129.92095
 31
0.0
  0
LINE
  5
11B
330
1E
100
AcDbEntity
  8
0
100
AcDbLine
 10
52.00019199999999
 20
129.92095
 30
0.0
 11
52.300192
 21
129.92095
 31
0.0
  0
LINE
  5
11C
330
1E
100
AcDbEntity
  8
0
100
AcDbLine
 10
52.00019199999999
 20
129.92095
 30
0.0
 11
52.00019199999999
 21
146.9461499999999
 31
0.0
  0
LINE
  5
11D
330
1E
100
AcDbEntity
  8
0
100
AcDbLine
 10
33.18609199999999
 20
126.73105
 30
0.0
 11
54.000192
 21
126.73105
 31
0.0
  0
LINE
  5
11E
330
1E
100
AcDbEntity
  8
0
100
AcDbLine
 10
68.800092
 20
129.92095
 30
0.0
 11
69.70009199999999
 21
129.92095
 31
0.0
  0
LINE
  5
11F
330
1E
100
AcDbEntity
  8
0
100
AcDbLine
 10
69.70009199999999
 20
129.92095
 30
0.0
 11
70.000192
 21
129.92095
 31
0.0
  0
LINE
  5
120
330
1E
100
AcDbEntity
  8
0
100
AcDbLine
 10
70.000192
 20
129.92095
 30
0.0
 11
70.000192
 21
146.9461499999999
 31
0.0
  0
LINE
  5
122
330
1E
100
AcDbEntity
  8
0
100
AcDbLine
 10
156.9999919999999
 20
127.73105
 30
0.0
 11
157.9999919999999
 21
129.73105
 31
0.0
  0
LINE
  5
123
330
1E
100
AcDbEntity
  8
0
100
AcDbLine
 10
68.000192
 20
126.73105
 30
0.0
 11
154.9999919999999
 21
126.73105
 31
0.0
  0
LINE
  5
124
330
1E
100
AcDbEntity
  8
0
100
AcDbLine
 10
154.9999919999999
 20
126.73105
 30
0.0
 11
156.9999919999999
 21
127.73105
 31
0.0
  0
LINE
  5
125
330
1E
100
AcDbEntity
  8
0
100
AcDbLine
 10
157.9999919999999
 20
127.09105
 30
0.0
 11
157.9999919999999
 21
129.01105
 31
0.0
  0
LINE
  5
126
330
1E
100
AcDbEntity
  8
0
100
AcDbLine
 10
157.9999919999999
 20
129.01105
 30
0.0
 11
157.9999919999999
 21
129.73105
 31
0.0
  0
LINE
  5
129
330
1E
100
AcDbEntity
  8
0
100
AcDbLine
 10
157.9999919999999
 20
125.9310499999999
 30
0.0
 11
157.9999919999999
 21
132.73105
 31
0.0
  0
LINE
  5
12A
330
1E
100
AcDbEntity
  8
0
100
AcDbLine
 10
157.9999919999999
 20
109.73105
 30
0.0
 11
157.9999919999999
 21
118.13105
 31
0.0
  0
LINE
  5
12B
330
1E
100
AcDbEntity
  8
0
100
AcDbLine
 10
157.9999919999999
 20
109.73105
 30
0.0
 11
157.9999919999999
 21
101.33105
 31
0.0
  0
LINE
  5
12C
330
1E
100
AcDbEntity
  8
0
100
AcDbLine
 10
157.9999919999999
 20
109.73105
 30
0.0
 11
157.9999919999999
 21
114.8510499999999
 31
0.0
  0
LINE
  5
12D
330
1E
100
AcDbEntity
  8
0
100
AcDbLine
 10
157.9999919999999
 20
132.73105
 30
0.0
 11
157.9999919999999
 21
125.9310499999999
 31
0.0
  0
LINE
  5
12E
330
1E
100
AcDbEntity
  8
0
100
AcDbLine
 10
157.9999919999999
 20
132.73105
 30
0.0
 11
157.9999919999999
 21
137.8310499999999
 31
0.0
  0
LINE
  5
12F
330
1E
100
AcDbEntity
  8
0
100
AcDbLine
 10
157.9999919999999
 20
118.13105
 30
0.0
 11
157.9999919999999
 21
109.73105
 31
0.0
  0
LINE
  5
130
330
1E
100
AcDbEntity
  8
0
100
AcDbLine
 10
157.9999919999999
 20
141.03105
 30
0.0
 11
157.9999919999999
 21
137.8310499999999
 31
0.0
  0
LINE
  5
131
330
1E
100
AcDbEntity
  8
0
100
AcDbLine
 10
157.9999919999999
 20
141.03105
 30
0.0
 11
157.9999919999999
 21
142.23105
 31
0.0
  0
LINE
  5
132
330
1E
100
AcDbEntity
  8
0
100
AcDbLine
 10
157.9999919999999
 20
137.8310499999999
 30
0.0
 11
157.9999919999999
 21
141.03105
 31
0.0
  0
LINE
  5
133
330
1E
100
AcDbEntity
  8
0
100
AcDbLine
 10
157.9999919999999
 20
137.8310499999999
 30
0.0
 11
157.9999919999999
 21
132.73105
 31
0.0
  0
LINE
  5
134
330
1E
100
AcDbEntity
  8
0
100
AcDbLine
 10
158.5769919999999
 20
101.0310499999999
 30
0.0
 11
158.5769919999999
 21
92.83105
 31
0.0
  0
LINE
  5
135
330
1E
100
AcDbEntity
  8
0
100
AcDbLine
 10
158.5769919999999
 20
101.0310499999999
 30
0.0
 11
158.5769919999999
 21
109.73105
 31
0.0
  0
LINE
  5
136
330
1E
100
AcDbEntity
  8
0
100
AcDbLine
 10
158.5769919999999
 20
109.73105
 30
0.0
 11
158.5769919999999
 21
118.43105
 31
0.0
  0
LINE
  5
137
330
1E
100
AcDbEntity
  8
0
100
AcDbLine
 10
158.5769919999999
 20
109.73105
 30
0.0
 11
158.5769919999999
 21
101.0310499999999
 31
0.0
  0
LINE
  5
138
330
1E
100
AcDbEntity
  8
0
100
AcDbLine
 10
158.5769919999999
 20
139.1310499999999
 30
0.0
 11
158.5769919999999
 21
133.73105
 31
0.0
  0
LINE
  5
139
330
1E
100
AcDbEntity
  8
0
100
AcDbLine
 10
158.5769919999999
 20
139.1310499999999
 30
0.0
 11
158.5769919999999
 21
142.5310499999999
 31
0.0
  0
LINE
  5
13A
330
1E
100
AcDbEntity
  8
0
100
AcDbLine
 10
158.5769919999999
 20
142.5310499999999
 30
0.0
 11
158.5769919999999
 21
139.1310499999999
 31
0.0
  0
LINE
  5
13B
330
1E
100
AcDbEntity
  8
0
100
AcDbLine
 10
158.5769919999999
 20
142.5310499999999
 30
0.0
 11
158.5769919999999
 21
143.73105
 31
0.0
  0
LINE
  5
13C
330
1E
100
AcDbEntity
  8
0
100
AcDbLine
 10
158.5769919999999
 20
133.73105
 30
0.0
 11
158.5769919999999
 21
126.63105
 31
0.0
  0
LINE
  5
13D
330
1E
100
AcDbEntity
  8
0
100
AcDbLine
 10
158.5769919999999
 20
133.73105
 30
0.0
 11
158.5769919999999
 21
139.1310499999999
 31
0.0
  0
LINE
  5
13E
330
1E
100
AcDbEntity
  8
0
100
AcDbLine
 10
158.5769919999999
 20
126.63105
 30
0.0
 11
158.5769919999999
 21
118.43105
 31
0.0
  0
LINE
  5
13F
330
1E
100
AcDbEntity
  8
0
100
AcDbLine
 10
158.5769919999999
 20
126.63105
 30
0.0
 11
158.5769919999999
 21
133.73105
 31
0.0
  0
LINE
  5
140
330
1E
100
AcDbEntity
  8
0
100
AcDbLine
 10
158.5769919999999
 20
118.43105
 30
0.0
 11
158.5769919999999
 21
109.73105
 31
0.0
  0
LINE
  5
141
330
1E
100
AcDbEntity
  8
0
100
AcDbLine
 10
158.5769919999999
 20
118.43105
 30
0.0
 11
158.5769919999999
 21
126.63105
 31
0.0
  0
LINE
  5
142
330
1E
100
AcDbEntity
  8
0
100
AcDbLine
 10
157.9999919999999
 20
142.23105
 30
0.0
 11
158.1919919999999
 21
143.2310499999999
 31
0.0
  0
LINE
  5
143
330
1E
100
AcDbEntity
  8
0
100
AcDbLine
 10
157.9999919999999
 20
142.23105
 30
0.0
 11
157.9999919999999
 21
141.03105
 31
0.0
  0
LINE
  5
144
330
1E
100
AcDbEntity
  8
0
100
AcDbLine
 10
53.200192
 20
146.9461499999999
 30
0.0
 11
54.640192
 21
146.9461499999999
 31
0.0
  0
LINE
  5
145
330
1E
100
AcDbEntity
  8
0
100
AcDbLine
 10
52.300192
 20
146.9461499999999
 30
0.0
 11
53.200192
 21
146.9461499999999
 31
0.0
  0
LINE
  5
146
330
1E
100
AcDbEntity
  8
0
100
AcDbLine
 10
52.00019199999999
 20
146.9461499999999
 30
0.0
 11
53.200192
 21
147.6772499999999
 31
0.0
  0
LINE
  5
147
330
1E
100
AcDbEntity
  8
0
100
AcDbLine
 10
52.00019199999999
 20
146.9461499999999
 30
0.0
 11
52.00019199999999
 21
129.92095
 31
0.0
  0
LINE
  5
148
330
1E
100
AcDbEntity
  8
0
100
AcDbLine
 10
52.00019199999999
 20
146.9461499999999
 30
0.0
 11
52.300192
 21
146.9461499999999
 31
0.0
  0
LINE
  5
149
330
1E
100
AcDbEntity
  8
0
100
AcDbLine
 10
61.00019200000001
 20
146.9461499999999
 30
0.0
 11
63.340192
 21
146.9461499999999
 31
0.0
  0
LINE
  5
14A
330
1E
100
AcDbEntity
  8
0
100
AcDbLine
 10
63.340192
 20
146.9461499999999
 30
0.0
 11
65.500192
 21
146.9461499999999
 31
0.0
  0
LINE
  5
14B
330
1E
100
AcDbEntity
  8
0
100
AcDbLine
 10
65.500192
 20
146.9461499999999
 30
0.0
 11
67.36009200000001
 21
146.9461499999999
 31
0.0
  0
LINE
  5
14C
330
1E
100
AcDbEntity
  8
0
100
AcDbLine
 10
67.36009200000001
 20
146.9461499999999
 30
0.0
 11
68.800092
 21
146.9461499999999
 31
0.0
  0
LINE
  5
14D
330
1E
100
AcDbEntity
  8
0
100
AcDbLine
 10
68.800092
 20
146.9461499999999
 30
0.0
 11
69.70009199999999
 21
146.9461499999999
 31
0.0
  0
LINE
  5
14E
330
1E
100
AcDbEntity
  8
0
100
AcDbLine
 10
58.660192
 20
146.9461499999999
 30
0.0
 11
61.00019200000001
 21
146.9461499999999
 31
0.0
  0
LINE
  5
14F
330
1E
100
AcDbEntity
  8
0
100
AcDbLine
 10
56.500192
 20
146.9461499999999
 30
0.0
 11
58.660192
 21
146.9461499999999
 31
0.0
  0
LINE
  5
150
330
1E
100
AcDbEntity
  8
0
100
AcDbLine
 10
54.640192
 20
146.9461499999999
 30
0.0
 11
56.500192
 21
146.9461499999999
 31
0.0
  0
LINE
  5
151
330
1E
100
AcDbEntity
  8
0
100
AcDbLine
 10
70.000192
 20
146.9461499999999
 30
0.0
 11
70.000192
 21
129.92095
 31
0.0
  0
LINE
  5
152
330
1E
100
AcDbEntity
  8
0
100
AcDbLine
 10
69.70009199999999
 20
146.9461499999999
 30
0.0
 11
70.000192
 21
146.9461499999999
 31
0.0
  0
LINE
  5
153
330
1E
100
AcDbEntity
  8
0
100
AcDbLine
 10
68.800092
 20
147.6772499999999
 30
0.0
 11
70.000192
 21
146.9461499999999
 31
0.0
  0
LINE
  5
154
330
1E
100
AcDbEntity
  8
0
100
AcDbLine
 10
61.00019200000001
 20
147.92095
 30
0.0
 11
68.800092
 21
147.6772499999999
 31
0.0
  0
LINE
  5
155
330
1E
100
AcDbEntity
  8
0
100
AcDbLine
 10
53.200192
 20
147.6772499999999
 30
0.0
 11
61.00019200000001
 21
147.92095
 31
0.0
  0
LINE
  5
156
330
1E
100
AcDbEntity
  8
0
100
AcDbLine
 10
158.1919919999999
 20
143.2310499999999
 30
0.0
 11
158.5769919999999
 21
143.73105
 31
0.0
  0
LINE
  5
157
330
1E
100
AcDbEntity
  8
0
100
AcDbLine
 10
165.9999919999999
 20
101.0310499999999
 30
0.0
 11
165.9999919999999
 21
92.83105
 31
0.0
  0
LINE
  5
158
330
1E
100
AcDbEntity
  8
0
100
AcDbLine
 10
165.9999919999999
 20
101.0310499999999
 30
0.0
 11
165.9999919999999
 21
109.73105
 31
0.0
  0
LINE
  5
159
330
1E
100
AcDbEntity
  8
0
100
AcDbLine
 10
165.9999919999999
 20
109.73105
 30
0.0
 11
165.9999919999999
 21
118.43105
 31
0.0
  0
LINE
  5
15A
330
1E
100
AcDbEntity
  8
0
100
AcDbLine
 10
165.9999919999999
 20
109.73105
 30
0.0
 11
165.9999919999999
 21
101.0310499999999
 31
0.0
  0
LINE
  5
15B
330
1E
100
AcDbEntity
  8
0
100
AcDbLine
 10
165.9999919999999
 20
139.1310499999999
 30
0.0
 11
165.9999919999999
 21
133.73105
 31
0.0
  0
LINE
  5
15C
330
1E
100
AcDbEntity
  8
0
100
AcDbLine
 10
165.9999919999999
 20
139.1310499999999
 30
0.0
 11
165.9999919999999
 21
142.5310499999999
 31
0.0
  0
LINE
  5
15D
330
1E
100
AcDbEntity
  8
0
100
AcDbLine
 10
165.9999919999999
 20
142.5310499999999
 30
0.0
 11
165.9999919999999
 21
139.1310499999999
 31
0.0
  0
LINE
  5
15E
330
1E
100
AcDbEntity
  8
0
100
AcDbLine
 10
165.9999919999999
 20
142.5310499999999
 30
0.0
 11
165.9999919999999
 21
143.73105
 31
0.0
  0
LINE
  5
15F
330
1E
100
AcDbEntity
  8
0
100
AcDbLine
 10
165.9999919999999
 20
143.73105
 30
0.0
 11
165.9999919999999
 21
142.5310499999999
 31
0.0
  0
LINE
  5
160
330
1E
100
AcDbEntity
  8
0
100
AcDbLine
 10
165.9999919999999
 20
133.73105
 30
0.0
 11
165.9999919999999
 21
126.63105
 31
0.0
  0
LINE
  5
161
330
1E
100
AcDbEntity
  8
0
100
AcDbLine
 10
165.9999919999999
 20
133.73105
 30
0.0
 11
165.9999919999999
 21
139.1310499999999
 31
0.0
  0
LINE
  5
162
330
1E
100
AcDbEntity
  8
0
100
AcDbLine
 10
165.9999919999999
 20
126.63105
 30
0.0
 11
165.9999919999999
 21
118.43105
 31
0.0
  0
LINE
  5
163
330
1E
100
AcDbEntity
  8
0
100
AcDbLine
 10
165.9999919999999
 20
126.63105
 30
0.0
 11
165.9999919999999
 21
133.73105
 31
0.0
  0
LINE
  5
164
330
1E
100
AcDbEntity
  8
0
100
AcDbLine
 10
165.9999919999999
 20
118.43105
 30
0.0
 11
165.9999919999999
 21
109.73105
 31
0.0
  0
LINE
  5
165
330
1E
100
AcDbEntity
  8
0
100
AcDbLine
 10
165.9999919999999
 20
118.43105
 30
0.0
 11
165.9999919999999
 21
126.63105
 31
0.0
  0
LINE
  5
166
330
1E
100
AcDbEntity
  8
0
100
AcDbLine
 10
158.5769919999999
 20
143.73105
 30
0.0
 11
165.9999919999999
 21
143.73105
 31
0.0
  0
LINE
  5
167
330
1E
100
AcDbEntity
  8
0
100
AcDbLine
 10
158.5769919999999
 20
143.73105
 30
0.0
 11
158.5769919999999
 21
142.5310499999999
 31
0.0
  0
LINE
  5
16E
330
1E
100
AcDbEntity
  8
0
100
AcDbLine
 10
54.000192
 20
126.73105
 30
0.0
 11
68.000192
 21
126.73105
 31
0.0
  0
LINE
  5
16F
330
1E
100
AcDbEntity
  8
0
100
AcDbLine
 10
50.072292
 20
92.73104999999999
 30
0.0
 11
73.69269802505744
 21
92.73104999999999
 31
0.0
  0
LINE
  5
170
330
1E
100
AcDbEntity
  8
0
100
AcDbLine
 10
31.113292
 20
89.22875000000001
 30
0.0
 11
0.573231999999998
 21
100.34445
 31
0.0
  0
LINE
  5
171
330
1E
100
AcDbEntity
  8
0
100
AcDbLine
 10
31.385692
 20
89.53895000000001
 30
0.0
 11
0.5638239999999979
 21
100.75715
 31
0.0
  0
ENDSEC
  0
SECTION
  2
OBJECTS
  0
DICTIONARY
  5
C
330
0
100
AcDbDictionary
  3
ACAD_GROUP
350
D
  3
ACAD_LAYOUT
350
19
  3
ACAD_MLINESTYLE
350
16
  3
ACAD_PLOTSETTINGS
350
18
  3
ACAD_PLOTSTYLENAME
350
E
  3
ACDBHEADERROUNDTRIPXREC
350
19B
  3
ACDBVARIABLEDICTIONARY
350
173
  0
DICTIONARY
  5
1BD
330
1E
100
AcDbDictionary
280
     1
  3
ACAD_LAYOUTSELFREF
360
1BE
  0
DICTIONARY
  5
1BB
330
1A
100
AcDbDictionary
280
     1
  3
ACAD_LAYOUTSELFREF
360
1BC
  0
DICTIONARY
  5
D
102
{ACAD_REACTORS
330
C
102
}
330
C
100
AcDbDictionary
  0
DICTIONARY
  5
19
102
{ACAD_REACTORS
330
C
102
}
330
C
100
AcDbDictionary
  0
DICTIONARY
  5
16
102
{ACAD_REACTORS
330
C
102
}
330
C
100
AcDbDictionary
  3
STANDARD
350
17
  0
DICTIONARY
  5
18
102
{ACAD_REACTORS
330
C
102
}
330
C
100
AcDbDictionary
  0
ACDBDICTIONARYWDFLT
  5
E
102
{ACAD_REACTORS
330
C
102
}
330
C
100
AcDbDictionary
281
     1
  3
Normal
350
F
100
AcDbDictionaryWithDefault
340
F
  0
DICTIONARY
  5
19B
102
{ACAD_REACTORS
330
C
102
}
330
C
100
AcDbDictionary
  3
CEPSNTYPE
350
1A5
  3
FINGERPRINTGUID
350
1A6
  3
HYPERLINKBASE
350
19E
  3
INSUNITS
350
1A4
  3
LAYOUTDICT
350
1A0
  3
LWETCUNION
350
1A3
  3
PLOTSETDICT
350
1A1
  3
PLOTSTYLNAMDICT
350
1A2
  3
PSVPSCALE
350
1A8
  3
PUCSBASE
350
1AB
  3
PUCSORGBACK
350
1B1
  3
PUCSORGBOTTOM
350
1AD
  3
PUCSORGFRONT
350
1B0
  3
PUCSORGLEFT
350
1AE
  3
PUCSORGRIGHT
350
1AF
  3
PUCSORGTOP
350
1AC
  3
PUCSORTHOREF
350
1A9
  3
PUCSORTHOVIEW
350
1AA
  3
STYLESHEET
350
19F
  3
TSTACKALIGN
350
19C
  3
TSTACKSIZE
350
19D
  3
UCSBASE
350
1B4
  3
UCSORGBACK
350
1BA
  3
UCSORGBOTTOM
350
1B6
  3
UCSORGFRONT
350
1B9
  3
UCSORGLEFT
350
1B7
  3
UCSORGRIGHT
350
1B8
  3
UCSORGTOP
350
1B5
  3
UCSORTHOREF
350
1B2
  3
UCSORTHOVIEW
350
1B3
  3
VERSIONGUID
350
1A7
  0
DICTIONARY
  5
173
102
{ACAD_REACTORS
330
C
102
}
330
C
100
AcDbDictionary
  3
DIMASSOC
350
174
  0
XRECORD
  5
1BE
102
{ACAD_REACTORS
330
1BD
102
}
330
1BD
100
AcDbXrecord
340
1E
  0
XRECORD
  5
1BC
102
{ACAD_REACTORS
330
1BB
102
}
330
1BB
100
AcDbXrecord
340
1A
  0
MLINESTYLE
  5
17
102
{ACAD_REACTORS
330
16
102
}
330
16
100
AcDbMlineStyle
  2
STANDARD
 70
     0
  3

 62
   256
 51
90.0
 52
90.0
 71
     2
 49
0.5
 62
   256
  6
BYLAYER
 49
-0.5
 62
   256
  6
BYLAYER
  0
ACDBPLACEHOLDER
  5
F
102
{ACAD_REACTORS
330
E
102
}
330
E
100
AcDbPlaceHolder
280
     0
  0
XRECORD
  5
1A5
102
{ACAD_REACTORS
330
19B
102
}
330
19B
100
AcDbXrecord
 90
        0
  0
XRECORD
  5
1A6
102
{ACAD_REACTORS
330
19B
102
}
330
19B
100
AcDbXrecord
  1
{035F5178-B69F-47CD-88F2-33E5D1239F2B}
  0
XRECORD
  5
19E
102
{ACAD_REACTORS
330
19B
102
}
330
19B
100
AcDbXrecord
  1

  0
XRECORD
  5
1A4
102
{ACAD_REACTORS
330
19B
102
}
330
19B
100
AcDbXrecord
 90
        0
  0
XRECORD
  5
1A0
102
{ACAD_REACTORS
330
19B
102
}
330
19B
100
AcDbXrecord
340
19
  0
XRECORD
  5
1A3
102
{ACAD_REACTORS
330
19B
102
}
330
19B
100
AcDbXrecord
 90
    10781
  0
XRECORD
  5
1A1
102
{ACAD_REACTORS
330
19B
102
}
330
19B
100
AcDbXrecord
340
18
  0
XRECORD
  5
1A2
102
{ACAD_REACTORS
330
19B
102
}
330
19B
100
AcDbXrecord
340
E
  0
XRECORD
  5
1A8
102
{ACAD_REACTORS
330
19B
102
}
330
19B
100
AcDbXrecord
 40
0.0
  0
XRECORD
  5
1AB
102
{ACAD_REACTORS
330
19B
102
}
330
19B
100
AcDbXrecord
340
0
  0
XRECORD
  5
1B1
102
{ACAD_REACTORS
330
19B
102
}
330
19B
100
AcDbXrecord
 10
0.0
 20
0.0
 30
0.0
  0
XRECORD
  5
1AD
102
{ACAD_REACTORS
330
19B
102
}
330
19B
100
AcDbXrecord
 10
0.0
 20
0.0
 30
0.0
  0
XRECORD
  5
1B0
102
{ACAD_REACTORS
330
19B
102
}
330
19B
100
AcDbXrecord
 10
0.0
 20
0.0
 30
0.0
  0
XRECORD
  5
1AE
102
{ACAD_REACTORS
330
19B
102
}
330
19B
100
AcDbXrecord
 10
0.0
 20
0.0
 30
0.0
  0
XRECORD
  5
1AF
102
{ACAD_REACTORS
330
19B
102
}
330
19B
100
AcDbXrecord
 10
0.0
 20
0.0
 30
0.0
  0
XRECORD
  5
1AC
102
{ACAD_REACTORS
330
19B
102
}
330
19B
100
AcDbXrecord
 10
0.0
 20
0.0
 30
0.0
  0
XRECORD
  5
1A9
102
{ACAD_REACTORS
330
19B
102
}
330
19B
100
AcDbXrecord
340
0
  0
XRECORD
  5
1AA
102
{ACAD_REACTORS
330
19B
102
}
330
19B
100
AcDbXrecord
 70
     0
  0
XRECORD
  5
19F
102
{ACAD_REACTORS
330
19B
102
}
330
19B
100
AcDbXrecord
  1

  0
XRECORD
  5
19C
102
{ACAD_REACTORS
330
19B
102
}
330
19B
100
AcDbXrecord
 90
        1
  0
XRECORD
  5
19D
102
{ACAD_REACTORS
330
19B
102
}
330
19B
100
AcDbXrecord
 90
       70
  0
XRECORD
  5
1B4
102
{ACAD_REACTORS
330
19B
102
}
330
19B
100
AcDbXrecord
340
0
  0
XRECORD
  5
1BA
102
{ACAD_REACTORS
330
19B
102
}
330
19B
100
AcDbXrecord
 10
0.0
 20
0.0
 30
0.0
  0
XRECORD
  5
1B6
102
{ACAD_REACTORS
330
19B
102
}
330
19B
100
AcDbXrecord
 10
0.0
 20
0.0
 30
0.0
  0
XRECORD
  5
1B9
102
{ACAD_REACTORS
330
19B
102
}
330
19B
100
AcDbXrecord
 10
0.0
 20
0.0
 30
0.0
  0
XRECORD
  5
1B7
102
{ACAD_REACTORS
330
19B
102
}
330
19B
100
AcDbXrecord
 10
0.0
 20
0.0
 30
0.0
  0
XRECORD
  5
1B8
102
{ACAD_REACTORS
330
19B
102
}
330
19B
100
AcDbXrecord
 10
0.0
 20
0.0
 30
0.0
  0
XRECORD
  5
1B5
102
{ACAD_REACTORS
330
19B
102
}
330
19B
100
AcDbXrecord
 10
0.0
 20
0.0
 30
0.0
  0
XRECORD
  5
1B2
102
{ACAD_REACTORS
330
19B
102
}
330
19B
100
AcDbXrecord
340
0
  0
XRECORD
  5
1B3
102
{ACAD_REACTORS
330
19B
102
}
330
19B
100
AcDbXrecord
 70
     1
  0
XRECORD
  5
1A7
102
{ACAD_REACTORS
330
19B
102
}
330
19B
100
AcDbXrecord
  1
{AC81A9B5-F62C-4BCC-95A4-600A28FB0C17}
  0
DICTIONARYVAR
  5
174
102
{ACAD_REACTORS
330
173
102
}
330
173
100
DictionaryVariables
280
     0
  1
1
  0
ENDSEC
  0
EOF
