  0
SECTION
  2
HEADER
  9
$ACADVER
  1
AC1014
  9
$ACADMAINTVER
 70
     9
  9
$DWGCODEPAGE
  3
ANSI_1252
  9
$INSBASE
 10
0.0
 20
0.0
 30
0.0
  9
$EXTMIN
 10
0.0
 20
0.0
 30
0.0
  9
$EXTMAX
 10
233.0
 20
108.0
 30
0.0
  9
$LIMMIN
 10
0.0
 20
0.0
  9
$LIMMAX
 10
12.0
 20
9.0
  9
$ORTHOMODE
 70
     0
  9
$REGENMODE
 70
     1
  9
$FILLMODE
 70
     1
  9
$QTEXTMODE
 70
     0
  9
$MIRRTEXT
 70
     1
  9
$DRAGMODE
 70
     2
  9
$LTSCALE
 40
1.0
  9
$OSMODE
 70
    37
  9
$ATTMODE
 70
     1
  9
$TEXTSIZE
 40
0.2
  9
$TRACEWID
 40
0.05
  9
$TEXTSTYLE
  7
STANDARD
  9
$CLAYER
  8
0
  9
$CELTYPE
  6
CONTINUOUS
  9
$CECOLOR
 62
   256
  9
$CELTSCALE
 40
1.0
  9
$DELOBJ
 70
     1
  9
$DISPSILH
 70
     0
  9
$DIMSCALE
 40
1.0
  9
$DIMASZ
 40
0.18
  9
$DIMEXO
 40
0.0625
  9
$DIMDLI
 40
0.38
  9
$DIMRND
 40
0.0
  9
$DIMDLE
 40
0.0
  9
$DIMEXE
 40
0.18
  9
$DIMTP
 40
0.0
  9
$DIMTM
 40
0.0
  9
$DIMTXT
 40
0.18
  9
$DIMCEN
 40
0.09
  9
$DIMTSZ
 40
0.0
  9
$DIMTOL
 70
     0
  9
$DIMLIM
 70
     0
  9
$DIMTIH
 70
     1
  9
$DIMTOH
 70
     1
  9
$DIMSE1
 70
     0
  9
$DIMSE2
 70
     0
  9
$DIMTAD
 70
     0
  9
$DIMZIN
 70
     0
  9
$DIMBLK
  1

  9
$DIMASO
 70
     1
  9
$DIMSHO
 70
     1
  9
$DIMPOST
  1

  9
$DIMAPOST
  1

  9
$DIMALT
 70
     0
  9
$DIMALTD
 70
     2
  9
$DIMALTF
 40
25.4
  9
$DIMLFAC
 40
1.0
  9
$DIMTOFL
 70
     0
  9
$DIMTVP
 40
0.0
  9
$DIMTIX
 70
     0
  9
$DIMSOXD
 70
     0
  9
$DIMSAH
 70
     0
  9
$DIMBLK1
  1

  9
$DIMBLK2
  1

  9
$DIMSTYLE
  2
STANDARD
  9
$DIMCLRD
 70
     0
  9
$DIMCLRE
 70
     0
  9
$DIMCLRT
 70
     0
  9
$DIMTFAC
 40
1.0
  9
$DIMGAP
 40
0.09
  9
$DIMJUST
 70
     0
  9
$DIMSD1
 70
     0
  9
$DIMSD2
 70
     0
  9
$DIMTOLJ
 70
     1
  9
$DIMTZIN
 70
     0
  9
$DIMALTZ
 70
     0
  9
$DIMALTTZ
 70
     0
  9
$DIMFIT
 70
     3
  9
$DIMUPT
 70
     0
  9
$DIMUNIT
 70
     2
  9
$DIMDEC
 70
     4
  9
$DIMTDEC
 70
     4
  9
$DIMALTU
 70
     2
  9
$DIMALTTD
 70
     2
  9
$DIMTXSTY
  7
STANDARD
  9
$DIMAUNIT
 70
     0
  9
$LUNITS
 70
     2
  9
$LUPREC
 70
     4
  9
$SKETCHINC
 40
0.1
  9
$FILLETRAD
 40
0.0
  9
$AUNITS
 70
     0
  9
$AUPREC
 70
     0
  9
$MENU
  1
.
  9
$ELEVATION
 40
0.0
  9
$PELEVATION
 40
0.0
  9
$THICKNESS
 40
0.0
  9
$LIMCHECK
 70
     0
  9
$BLIPMODE
 70
     0
  9
$CHAMFERA
 40
0.0
  9
$CHAMFERB
 40
0.0
  9
$CHAMFERC
 40
0.0
  9
$CHAMFERD
 40
0.0
  9
$SKPOLY
 70
     0
  9
$TDCREATE
 40
2455236.852815567
  9
$TDUPDATE
 40
2455236.863189560
  9
$TDINDWG
 40
0.0103739931
  9
$TDUSRTIMER
 40
0.0103739931
  9
$USRTIMER
 70
     1
  9
$ANGBASE
 50
0.0
  9
$ANGDIR
 70
     0
  9
$PDMODE
 70
     0
  9
$PDSIZE
 40
0.0
  9
$PLINEWID
 40
0.0
  9
$COORDS
 70
     1
  9
$SPLFRAME
 70
     0
  9
$SPLINETYPE
 70
     6
  9
$SPLINESEGS
 70
     8
  9
$ATTDIA
 70
     0
  9
$ATTREQ
 70
     1
  9
$HANDLING
 70
 22529
  9
$HANDSEED
  5
3D0
  9
$SURFTAB1
 70
     6
  9
$SURFTAB2
 70
     6
  9
$SURFTYPE
 70
     6
  9
$SURFU
 70
     6
  9
$SURFV
 70
     6
  9
$UCSNAME
  2

  9
$UCSORG
 10
0.0
 20
0.0
 30
0.0
  9
$UCSXDIR
 10
1.0
 20
0.0
 30
0.0
  9
$UCSYDIR
 10
0.0
 20
1.0
 30
0.0
  9
$PUCSNAME
  2

  9
$PUCSORG
 10
0.0
 20
0.0
 30
0.0
  9
$PUCSXDIR
 10
1.0
 20
0.0
 30
0.0
  9
$PUCSYDIR
 10
0.0
 20
1.0
 30
0.0
  9
$USERI1
 70
     0
  9
$USERI2
 70
     0
  9
$USERI3
 70
     0
  9
$USERI4
 70
     0
  9
$USERI5
 70
     0
  9
$USERR1
 40
0.0
  9
$USERR2
 40
0.0
  9
$USERR3
 40
0.0
  9
$USERR4
 40
0.0
  9
$USERR5
 40
0.0
  9
$WORLDVIEW
 70
     1
  9
$SHADEDGE
 70
     3
  9
$SHADEDIF
 70
    70
  9
$TILEMODE
 70
     1
  9
$MAXACTVP
 70
    64
  9
$PINSBASE
 10
0.0
 20
0.0
 30
0.0
  9
$PLIMCHECK
 70
     0
  9
$PEXTMIN
 10
1.000000000000000E+20
 20
1.000000000000000E+20
 30
1.000000000000000E+20
  9
$PEXTMAX
 10
-1.000000000000000E+20
 20
-1.000000000000000E+20
 30
-1.000000000000000E+20
  9
$PLIMMIN
 10
0.0
 20
0.0
  9
$PLIMMAX
 10
12.0
 20
9.0
  9
$UNITMODE
 70
     0
  9
$VISRETAIN
 70
     1
  9
$PLINEGEN
 70
     0
  9
$PSLTSCALE
 70
     1
  9
$TREEDEPTH
 70
  3020
  9
$PICKSTYLE
 70
     1
  9
$CMLSTYLE
  2
STANDARD
  9
$CMLJUST
 70
     0
  9
$CMLSCALE
 40
1.0
  9
$PROXYGRAPHICS
 70
     1
  9
$MEASUREMENT
 70
     0
  0
ENDSEC
  0
SECTION
  2
CLASSES
  0
CLASS
  1
ACDBDICTIONARYWDFLT
  2
AcDbDictionaryWithDefault
  3
AutoCAD 2000
 90
        0
280
     0
281
     0
  0
CLASS
  1
ACDBPLACEHOLDER
  2
AcDbPlaceHolder
  3
AutoCAD 2000
 90
        0
280
     0
281
     0
  0
CLASS
  1
LAYOUT
  2
AcDbLayout
  3
AutoCAD 2000
 90
        0
280
     0
281
     0
  0
CLASS
  1
DICTIONARYVAR
  2
AcDbDictionaryVar
  3
AutoCAD 2000
 90
        0
280
     0
281
     0
  0
CLASS
  1
LONG_TRANSACTION
  2
AcDbLongTransaction
  3
AutoCAD 2000
 90
        0
280
     0
281
     0
  0
CLASS
  1
LWPOLYLINE
  2
AcDbPolyline
  3
AutoCAD 2000
 90
        0
280
     0
281
     1
  0
CLASS
  1
HATCH
  2
AcDbHatch
  3
AutoCAD 2000
 90
        0
280
     0
281
     1
  0
CLASS
  1
XRECORD
  2
AcDbXrecord
  3
AutoCAD 2000
 90
        0
280
     0
281
     0
  0
ENDSEC
  0
SECTION
  2
TABLES
  0
TABLE
  2
VPORT
  5
8
330
0
100
AcDbSymbolTable
 70
     3
  0
VPORT
  5
3AB
330
8
100
AcDbSymbolTableRecord
100
AcDbViewportTableRecord
  2
*ACTIVE
 70
     0
 10
0.0
 20
0.0
 11
1.0
 21
1.0
 12
116.5
 22
54.0
 13
0.0
 23
0.0
 14
1.0
 24
1.0
 15
0.0
 25
0.0
 16
0.0
 26
0.0
 36
1.0
 17
0.0
 27
0.0
 37
0.0
 40
114.4921581769437
 41
2.041621029572836
 42
50.0
 43
0.0
 44
0.0
 50
0.0
 51
0.0
 71
     0
 72
   100
 73
     1
 74
     3
 75
     0
 76
     0
 77
     0
 78
     0
  0
ENDTAB
  0
TABLE
  2
LTYPE
  5
5
330
0
100
AcDbSymbolTable
 70
     1
  0
LTYPE
  5
13
330
5
100
AcDbSymbolTableRecord
100
AcDbLinetypeTableRecord
  2
BYBLOCK
 70
     0
  3

 72
    65
 73
     0
 40
0.0
  0
LTYPE
  5
14
330
5
100
AcDbSymbolTableRecord
100
AcDbLinetypeTableRecord
  2
BYLAYER
 70
     0
  3

 72
    65
 73
     0
 40
0.0
  0
LTYPE
  5
15
330
5
100
AcDbSymbolTableRecord
100
AcDbLinetypeTableRecord
  2
CONTINUOUS
 70
     0
  3
Solid line
 72
    65
 73
     0
 40
0.0
  0
ENDTAB
  0
TABLE
  2
LAYER
  5
2
330
0
100
AcDbSymbolTable
 70
     1
  0
LAYER
  5
10
330
2
100
AcDbSymbolTableRecord
100
AcDbLayerTableRecord
  2
0
 70
     0
 62
     7
  6
CONTINUOUS
  0
ENDTAB
  0
TABLE
  2
STYLE
  5
3
330
0
100
AcDbSymbolTable
 70
     1
  0
STYLE
  5
11
330
3
100
AcDbSymbolTableRecord
100
AcDbTextStyleTableRecord
  2
STANDARD
 70
     0
 40
0.0
 41
1.0
 50
0.0
 71
     0
 42
0.2
  3
txt
  4

  0
ENDTAB
  0
TABLE
  2
VIEW
  5
6
330
0
100
AcDbSymbolTable
 70
     0
  0
ENDTAB
  0
TABLE
  2
UCS
  5
7
330
0
100
AcDbSymbolTable
 70
     0
  0
ENDTAB
  0
TABLE
  2
APPID
  5
9
330
0
100
AcDbSymbolTable
 70
     1
  0
APPID
  5
12
330
9
100
AcDbSymbolTableRecord
100
AcDbRegAppTableRecord
  2
ACAD
 70
     0
  0
ENDTAB
  0
TABLE
  2
DIMSTYLE
  5
A
330
0
100
AcDbSymbolTable
 70
     1
  0
DIMSTYLE
105
3A3
330
A
100
AcDbSymbolTableRecord
100
AcDbDimStyleTableRecord
  2
STANDARD
 70
     0
  3

  4

  5

  6

  7

 40
1.0
 41
0.18
 42
0.0625
 43
0.38
 44
0.18
 45
0.0
 46
0.0
 47
0.0
 48
0.0
140
0.18
141
0.09
142
0.0
143
25.4
144
1.0
145
0.0
146
1.0
147
0.09
 71
     0
 72
     0
 73
     1
 74
     1
 75
     0
 76
     0
 77
     0
 78
     0
170
     0
171
     2
172
     0
173
     0
174
     0
175
     0
176
     0
177
     0
178
     0
270
     2
271
     4
272
     4
273
     2
274
     2
340
11
275
     0
280
     0
281
     0
282
     0
283
     1
284
     0
285
     0
286
     0
287
     3
288
     0
  0
ENDTAB
  0
TABLE
  2
BLOCK_RECORD
  5
1
330
0
100
AcDbSymbolTable
 70
     0
  0
BLOCK_RECORD
  5
1E
102
{ACAD_XDICTIONARY
360
3CE
102
}
330
1
100
AcDbSymbolTableRecord
100
AcDbBlockTableRecord
  2
*MODEL_SPACE
  0
BLOCK_RECORD
  5
1A
102
{ACAD_XDICTIONARY
360
3CC
102
}
330
1
100
AcDbSymbolTableRecord
100
AcDbBlockTableRecord
  2
*PAPER_SPACE
  0
ENDTAB
  0
ENDSEC
  0
SECTION
  2
BLOCKS
  0
BLOCK
  5
1F
330
1E
100
AcDbEntity
  8
0
100
AcDbBlockBegin
  2
*MODEL_SPACE
 70
     0
 10
0.0
 20
0.0
 30
0.0
  3
*MODEL_SPACE
  1

  0
ENDBLK
  5
20
330
1E
100
AcDbEntity
  8
0
100
AcDbBlockEnd
  0
BLOCK
  5
1B
330
1A
100
AcDbEntity
 67
     1
  8
0
100
AcDbBlockBegin
  2
*PAPER_SPACE
 70
     0
 10
0.0
 20
0.0
 30
0.0
  3
*PAPER_SPACE
  1

  0
ENDBLK
  5
1C
330
1A
100
AcDbEntity
 67
     1
  8
0
100
AcDbBlockEnd
  0
ENDSEC
  0
SECTION
  2
ENTITIES
  0
LINE
  5
22
330
1E
100
AcDbEntity
  8
0
100
AcDbLine
 10
56.14209999999999
 20
0.0000000000000041
 30
0.0
 11
57.6832
 21
0.0000000000000037
 31
0.0
  0
LINE
  5
23
330
1E
100
AcDbEntity
  8
0
100
AcDbLine
 10
42.168
 20
35.0
 30
0.0
 11
43.016
 21
35.0
 31
0.0
  0
LINE
  5
24
330
1E
100
AcDbEntity
  8
0
100
AcDbLine
 10
43.016
 20
35.0
 30
0.0
 11
43.976
 21
35.0
 31
0.0
  0
LINE
  5
25
330
1E
100
AcDbEntity
  8
0
100
AcDbLine
 10
47.83199999999999
 20
35.0
 30
0.0
 11
48.472
 21
35.0
 31
0.0
  0
LINE
  5
26
330
1E
100
AcDbEntity
  8
0
100
AcDbLine
 10
46.98399999999999
 20
35.0
 30
0.0
 11
47.83199999999999
 21
35.0
 31
0.0
  0
LINE
  5
27
330
1E
100
AcDbEntity
  8
0
100
AcDbLine
 10
46.02399999999999
 20
35.0
 30
0.0
 11
46.98399999999999
 21
35.0
 31
0.0
  0
LINE
  5
28
330
1E
100
AcDbEntity
  8
0
100
AcDbLine
 10
45.0
 20
35.0
 30
0.0
 11
46.02399999999999
 21
35.0
 31
0.0
  0
LINE
  5
29
330
1E
100
AcDbEntity
  8
0
100
AcDbLine
 10
43.976
 20
35.0
 30
0.0
 11
45.0
 21
35.0
 31
0.0
  0
LINE
  5
2A
330
1E
100
AcDbEntity
  8
0
100
AcDbLine
 10
43.9374
 20
35.0
 30
0.0
 11
55.5
 21
35.0
 31
0.0
  0
LINE
  5
2B
330
1E
100
AcDbEntity
  8
0
100
AcDbLine
 10
41.14399999999999
 20
35.0
 30
0.0
 11
41.528
 21
35.0
 31
0.0
  0
LINE
  5
2C
330
1E
100
AcDbEntity
  8
0
100
AcDbLine
 10
42.168
 20
35.0
 30
0.0
 11
43.016
 21
35.0
 31
0.0
  0
LINE
  5
2D
330
1E
100
AcDbEntity
  8
0
100
AcDbLine
 10
41.528
 20
35.0
 30
0.0
 11
42.168
 21
35.0
 31
0.0
  0
LINE
  5
2E
330
1E
100
AcDbEntity
  8
0
100
AcDbLine
 10
41.528
 20
35.0
 30
0.0
 11
42.168
 21
35.0
 31
0.0
  0
LINE
  5
2F
330
1E
100
AcDbEntity
  8
0
100
AcDbLine
 10
42.0
 20
35.0
 30
0.0
 11
47.0
 21
35.0
 31
0.0
  0
LINE
  5
30
330
1E
100
AcDbEntity
  8
0
100
AcDbLine
 10
43.9374
 20
35.0
 30
0.0
 11
45.1955
 21
35.0
 31
0.0
  0
LINE
  5
31
330
1E
100
AcDbEntity
  8
0
100
AcDbLine
 10
43.9374
 20
35.0
 30
0.0
 11
67.6618
 21
35.0
 31
0.0
  0
LINE
  5
32
330
1E
100
AcDbEntity
  8
0
100
AcDbLine
 10
45.0
 20
35.0
 30
0.0
 11
46.02399999999999
 21
35.0
 31
0.0
  0
LINE
  5
33
330
1E
100
AcDbEntity
  8
0
100
AcDbLine
 10
43.016
 20
35.0
 30
0.0
 11
43.976
 21
35.0
 31
0.0
  0
LINE
  5
34
330
1E
100
AcDbEntity
  8
0
100
AcDbLine
 10
43.976
 20
35.0
 30
0.0
 11
45.0
 21
35.0
 31
0.0
  0
LINE
  5
35
330
1E
100
AcDbEntity
  8
0
100
AcDbLine
 10
46.02399999999999
 20
35.0
 30
0.0
 11
46.98399999999999
 21
35.0
 31
0.0
  0
LINE
  5
36
330
1E
100
AcDbEntity
  8
0
100
AcDbLine
 10
46.6103
 20
35.0
 30
0.0
 11
46.7543
 21
35.0
 31
0.0
  0
LINE
  5
37
330
1E
100
AcDbEntity
  8
0
100
AcDbLine
 10
46.98399999999999
 20
35.0
 30
0.0
 11
47.83199999999999
 21
35.0
 31
0.0
  0
LINE
  5
38
330
1E
100
AcDbEntity
  8
0
100
AcDbLine
 10
46.7543
 20
35.0
 30
0.0
 11
47.1383
 21
35.0
 31
0.0
  0
LINE
  5
39
330
1E
100
AcDbEntity
  8
0
100
AcDbLine
 10
47.1383
 20
35.0
 30
0.0
 11
47.7783
 21
35.0
 31
0.0
  0
LINE
  5
3A
330
1E
100
AcDbEntity
  8
0
100
AcDbLine
 10
48.472
 20
35.0
 30
0.0
 11
48.856
 21
35.0
 31
0.0
  0
LINE
  5
3B
330
1E
100
AcDbEntity
  8
0
100
AcDbLine
 10
47.7783
 20
35.0
 30
0.0
 11
48.6263
 21
35.0
 31
0.0
  0
LINE
  5
3C
330
1E
100
AcDbEntity
  8
0
100
AcDbLine
 10
48.856
 20
35.0
 30
0.0
 11
49.0
 21
35.0
 31
0.0
  0
LINE
  5
3D
330
1E
100
AcDbEntity
  8
0
100
AcDbLine
 10
53.4423
 20
35.0
 30
0.0
 11
54.08229999999999
 21
35.0
 31
0.0
  0
LINE
  5
3E
330
1E
100
AcDbEntity
  8
0
100
AcDbLine
 10
52.5943
 20
35.0
 30
0.0
 11
53.4423
 21
35.0
 31
0.0
  0
LINE
  5
3F
330
1E
100
AcDbEntity
  8
0
100
AcDbLine
 10
51.6343
 20
35.0
 30
0.0
 11
52.5943
 21
35.0
 31
0.0
  0
LINE
  5
40
330
1E
100
AcDbEntity
  8
0
100
AcDbLine
 10
50.6103
 20
35.0
 30
0.0
 11
51.6343
 21
35.0
 31
0.0
  0
LINE
  5
41
330
1E
100
AcDbEntity
  8
0
100
AcDbLine
 10
48.6263
 20
35.0
 30
0.0
 11
49.5863
 21
35.0
 31
0.0
  0
LINE
  5
42
330
1E
100
AcDbEntity
  8
0
100
AcDbLine
 10
49.5863
 20
35.0
 30
0.0
 11
50.6103
 21
35.0
 31
0.0
  0
LINE
  5
43
330
1E
100
AcDbEntity
  8
0
100
AcDbLine
 10
47.68489999999999
 20
35.0
 30
0.0
 11
55.5
 21
35.0
 31
0.0
  0
LINE
  5
44
330
1E
100
AcDbEntity
  8
0
100
AcDbLine
 10
47.68489999999999
 20
35.0
 30
0.0
 11
58.855
 21
35.0
 31
0.0
  0
LINE
  5
45
330
1E
100
AcDbEntity
  8
0
100
AcDbLine
 10
47.34239999999999
 20
35.0
 30
0.0
 11
47.68489999999999
 21
35.0
 31
0.0
  0
LINE
  5
46
330
1E
100
AcDbEntity
  8
0
100
AcDbLine
 10
47.34239999999999
 20
35.0
 30
0.0
 11
55.5
 21
35.0
 31
0.0
  0
LINE
  5
47
330
1E
100
AcDbEntity
  8
0
100
AcDbLine
 10
47.34239999999999
 20
35.0
 30
0.0
 11
58.04619999999999
 21
35.0
 31
0.0
  0
LINE
  5
48
330
1E
100
AcDbEntity
  8
0
100
AcDbLine
 10
45.1955
 20
35.0
 30
0.0
 11
46.98399999999999
 21
35.0
 31
0.0
  0
LINE
  5
49
330
1E
100
AcDbEntity
  8
0
100
AcDbLine
 10
45.1955
 20
35.0
 30
0.0
 11
66.3138
 21
35.0
 31
0.0
  0
LINE
  5
4A
330
1E
100
AcDbEntity
  8
0
100
AcDbLine
 10
47.83199999999999
 20
35.0
 30
0.0
 11
55.5
 21
35.0
 31
0.0
  0
LINE
  5
4B
330
1E
100
AcDbEntity
  8
0
100
AcDbLine
 10
47.83199999999999
 20
35.0
 30
0.0
 11
48.472
 21
35.0
 31
0.0
  0
LINE
  5
4C
330
1E
100
AcDbEntity
  8
0
100
AcDbLine
 10
43.0
 20
35.0
 30
0.0
 11
43.9374
 21
35.0
 31
0.0
  0
LINE
  5
4D
330
1E
100
AcDbEntity
  8
0
100
AcDbLine
 10
43.0
 20
35.0
 30
0.0
 11
67.7667
 21
35.0
 31
0.0
  0
LINE
  5
4E
330
1E
100
AcDbEntity
  8
0
100
AcDbLine
 10
53.5
 20
66.72
 30
0.0
 11
53.5
 21
68.64
 31
0.0
  0
LINE
  5
4F
330
1E
100
AcDbEntity
  8
0
100
AcDbLine
 10
53.5
 20
66.72
 30
0.0
 11
53.5
 21
66.0
 31
0.0
  0
LINE
  5
50
330
1E
100
AcDbEntity
  8
0
100
AcDbLine
 10
53.5
 20
66.0
 30
0.0
 11
53.5
 21
66.72
 31
0.0
  0
LINE
  5
51
330
1E
100
AcDbEntity
  8
0
100
AcDbLine
 10
53.5
 20
66.0
 30
0.0
 11
55.5
 21
66.0
 31
0.0
  0
LINE
  5
52
330
1E
100
AcDbEntity
  8
0
100
AcDbLine
 10
41.0
 20
39.0
 30
0.0
 11
41.0
 21
35.0
 31
0.0
  0
LINE
  5
53
330
1E
100
AcDbEntity
  8
0
100
AcDbLine
 10
41.0
 20
39.0
 30
0.0
 11
91.0
 21
39.0
 31
0.0
  0
LINE
  5
54
330
1E
100
AcDbEntity
  8
0
100
AcDbLine
 10
41.0
 20
35.0
 30
0.0
 11
41.528
 21
35.0
 31
0.0
  0
LINE
  5
55
330
1E
100
AcDbEntity
  8
0
100
AcDbLine
 10
41.0
 20
35.0
 30
0.0
 11
41.0
 21
39.0
 31
0.0
  0
LINE
  5
56
330
1E
100
AcDbEntity
  8
0
100
AcDbLine
 10
41.0
 20
35.0
 30
0.0
 11
43.0
 21
35.0
 31
0.0
  0
LINE
  5
57
330
1E
100
AcDbEntity
  8
0
100
AcDbLine
 10
41.0
 20
35.0
 30
0.0
 11
41.528
 21
35.0
 31
0.0
  0
LINE
  5
58
330
1E
100
AcDbEntity
  8
0
100
AcDbLine
 10
41.0
 20
35.0
 30
0.0
 11
91.0
 21
35.0
 31
0.0
  0
LINE
  5
59
330
1E
100
AcDbEntity
  8
0
100
AcDbLine
 10
41.0
 20
35.0
 30
0.0
 11
41.14399999999999
 21
35.0
 31
0.0
  0
LINE
  5
5A
330
1E
100
AcDbEntity
  8
0
100
AcDbLine
 10
54.46629999999999
 20
35.0
 30
0.0
 11
54.6103
 21
35.0
 31
0.0
  0
LINE
  5
5B
330
1E
100
AcDbEntity
  8
0
100
AcDbLine
 10
54.08229999999999
 20
35.0
 30
0.0
 11
54.46629999999999
 21
35.0
 31
0.0
  0
LINE
  5
5C
330
1E
100
AcDbEntity
  8
0
100
AcDbLine
 10
54.256
 20
35.0
 30
0.0
 11
55.5
 21
35.0
 31
0.0
  0
LINE
  5
5D
330
1E
100
AcDbEntity
  8
0
100
AcDbLine
 10
54.256
 20
35.0
 30
0.0
 11
55.768
 21
35.0
 31
0.0
  0
LINE
  5
5E
330
1E
100
AcDbEntity
  8
0
100
AcDbLine
 10
53.5
 20
35.0
 30
0.0
 11
54.256
 21
35.0
 31
0.0
  0
LINE
  5
5F
330
1E
100
AcDbEntity
  8
0
100
AcDbLine
 10
12.0
 20
70.9
 30
0.0
 11
12.1974
 21
70.9
 31
0.0
  0
LINE
  5
60
330
1E
100
AcDbEntity
  8
0
100
AcDbLine
 10
12.0
 20
70.9
 30
0.0
 11
26.0
 21
70.9
 31
0.0
  0
LINE
  5
61
330
1E
100
AcDbEntity
  8
0
100
AcDbLine
 10
12.0
 20
70.9
 30
0.0
 11
12.0
 21
72.82
 31
0.0
  0
LINE
  5
62
330
1E
100
AcDbEntity
  8
0
100
AcDbLine
 10
12.1974
 20
70.9
 30
0.0
 11
12.9823
 21
70.9
 31
0.0
  0
LINE
  5
63
330
1E
100
AcDbEntity
  8
0
100
AcDbLine
 10
17.29789999999999
 20
70.9
 30
0.0
 11
19.0
 21
70.9
 31
0.0
  0
LINE
  5
64
330
1E
100
AcDbEntity
  8
0
100
AcDbLine
 10
15.5151
 20
70.9
 30
0.0
 11
17.29789999999999
 21
70.9
 31
0.0
  0
LINE
  5
65
330
1E
100
AcDbEntity
  8
0
100
AcDbLine
 10
14.0
 20
70.9
 30
0.0
 11
15.5151
 21
70.9
 31
0.0
  0
LINE
  5
66
330
1E
100
AcDbEntity
  8
0
100
AcDbLine
 10
12.9823
 20
70.9
 30
0.0
 11
14.0
 21
70.9
 31
0.0
  0
LINE
  5
68
330
1E
100
AcDbEntity
  8
0
100
AcDbLine
 10
19.0
 20
70.9
 30
0.0
 11
34.5
 21
70.9
 31
0.0
  0
LINE
  5
69
330
1E
100
AcDbEntity
  8
0
100
AcDbLine
 10
9.576
 20
69.508
 30
0.0
 11
14.13599999999999
 21
67.68399999999999
 31
0.0
  0
LINE
  5
6B
330
1E
100
AcDbEntity
  8
0
100
AcDbLine
 10
14.13599999999999
 20
67.68399999999999
 30
0.0
 11
19.0
 21
67.0
 31
0.0
  0
LINE
  5
6D
330
1E
100
AcDbEntity
  8
0
100
AcDbLine
 10
26.0
 20
70.9
 30
0.0
 11
34.5
 21
70.9
 31
0.0
  0
LINE
  5
70
330
1E
100
AcDbEntity
  8
0
100
AcDbLine
 10
53.5
 20
69.0
 30
0.0
 11
53.5
 21
69.61199999999999
 31
0.0
  0
LINE
  5
71
330
1E
100
AcDbEntity
  8
0
100
AcDbLine
 10
53.5
 20
68.64
 30
0.0
 11
53.5
 21
71.0
 31
0.0
  0
LINE
  5
72
330
1E
100
AcDbEntity
  8
0
100
AcDbLine
 10
53.5
 20
68.64
 30
0.0
 11
53.5
 21
66.72
 31
0.0
  0
LINE
  5
73
330
1E
100
AcDbEntity
  8
0
100
AcDbLine
 10
53.5
 20
68.64
 30
0.0
 11
53.5
 21
71.84000000000001
 31
0.0
  0
LINE
  5
74
330
1E
100
AcDbEntity
  8
0
100
AcDbLine
 10
53.5
 20
71.0
 30
0.0
 11
53.5
 21
69.61199999999999
 31
0.0
  0
LINE
  5
75
330
1E
100
AcDbEntity
  8
0
100
AcDbLine
 10
53.5
 20
71.0
 30
0.0
 11
53.5
 21
68.64
 31
0.0
  0
LINE
  5
76
330
1E
100
AcDbEntity
  8
0
100
AcDbLine
 10
53.5
 20
69.61199999999999
 30
0.0
 11
53.5
 21
69.0
 31
0.0
  0
LINE
  5
77
330
1E
100
AcDbEntity
  8
0
100
AcDbLine
 10
53.5
 20
69.61199999999999
 30
0.0
 11
53.5
 21
71.0
 31
0.0
  0
LINE
  5
78
330
1E
100
AcDbEntity
  8
0
100
AcDbLine
 10
53.5
 20
69.61199999999999
 30
0.0
 11
53.5
 21
71.244
 31
0.0
  0
LINE
  5
79
330
1E
100
AcDbEntity
  8
0
100
AcDbLine
 10
34.5
 20
70.9
 30
0.0
 11
34.5
 21
72.98
 31
0.0
  0
LINE
  5
7A
330
1E
100
AcDbEntity
  8
0
100
AcDbLine
 10
53.5
 20
71.244
 30
0.0
 11
53.5
 21
69.61199999999999
 31
0.0
  0
LINE
  5
7B
330
1E
100
AcDbEntity
  8
0
100
AcDbLine
 10
53.5
 20
71.244
 30
0.0
 11
53.5
 21
73.96399999999999
 31
0.0
  0
LINE
  5
7C
330
1E
100
AcDbEntity
  8
0
100
AcDbLine
 10
53.5
 20
71.84000000000001
 30
0.0
 11
53.5
 21
76.08
 31
0.0
  0
LINE
  5
7D
330
1E
100
AcDbEntity
  8
0
100
AcDbLine
 10
53.5
 20
71.84000000000001
 30
0.0
 11
53.5
 21
68.64
 31
0.0
  0
LINE
  5
7E
330
1E
100
AcDbEntity
  8
0
100
AcDbLine
 10
34.5
 20
71.0
 30
0.0
 11
53.5
 21
71.0
 31
0.0
  0
LINE
  5
7F
330
1E
100
AcDbEntity
  8
0
100
AcDbLine
 10
28.42399999999999
 20
69.508
 30
0.0
 11
30.26839999999999
 21
70.9
 31
0.0
  0
LINE
  5
80
330
1E
100
AcDbEntity
  8
0
100
AcDbLine
 10
23.864
 20
67.68399999999999
 30
0.0
 11
28.42399999999999
 21
69.508
 31
0.0
  0
LINE
  5
81
330
1E
100
AcDbEntity
  8
0
100
AcDbLine
 10
19.0
 20
67.0
 30
0.0
 11
23.864
 21
67.68399999999999
 31
0.0
  0
LINE
  5
83
330
1E
100
AcDbEntity
  8
0
100
AcDbLine
 10
5.5
 20
79.76
 30
0.0
 11
5.98
 21
78.56
 31
0.0
  0
LINE
  5
84
330
1E
100
AcDbEntity
  8
0
100
AcDbLine
 10
5.5
 20
79.76
 30
0.0
 11
5.98
 21
78.56
 31
0.0
  0
LINE
  5
85
330
1E
100
AcDbEntity
  8
0
100
AcDbLine
 10
2.508
 20
76.57600000000001
 30
0.0
 11
5.547999999999999
 21
72.548
 31
0.0
  0
LINE
  5
87
330
1E
100
AcDbEntity
  8
0
100
AcDbLine
 10
34.5
 20
72.98
 30
0.0
 11
34.5
 21
70.9
 31
0.0
  0
LINE
  5
88
330
1E
100
AcDbEntity
  8
0
100
AcDbLine
 10
12.0
 20
72.82
 30
0.0
 11
12.0
 21
70.9
 31
0.0
  0
LINE
  5
89
330
1E
100
AcDbEntity
  8
0
100
AcDbLine
 10
5.98
 20
78.56
 30
0.0
 11
8.38
 21
75.38
 31
0.0
  0
LINE
  5
8A
330
1E
100
AcDbEntity
  8
0
100
AcDbLine
 10
53.5
 20
73.96399999999999
 30
0.0
 11
53.5
 21
71.244
 31
0.0
  0
LINE
  5
8B
330
1E
100
AcDbEntity
  8
0
100
AcDbLine
 10
53.5
 20
73.96399999999999
 30
0.0
 11
53.5
 21
77.568
 31
0.0
  0
LINE
  5
8C
330
1E
100
AcDbEntity
  8
0
100
AcDbLine
 10
53.5
 20
77.568
 30
0.0
 11
53.5
 21
73.96399999999999
 31
0.0
  0
LINE
  5
8D
330
1E
100
AcDbEntity
  8
0
100
AcDbLine
 10
53.5
 20
77.568
 30
0.0
 11
53.5
 21
81.64799999999999
 31
0.0
  0
LINE
  5
8E
330
1E
100
AcDbEntity
  8
0
100
AcDbLine
 10
53.5
 20
80.87999999999999
 30
0.0
 11
53.5
 21
86.0
 31
0.0
  0
LINE
  5
8F
330
1E
100
AcDbEntity
  8
0
100
AcDbLine
 10
53.5
 20
80.87999999999999
 30
0.0
 11
53.5
 21
76.08
 31
0.0
  0
LINE
  5
90
330
1E
100
AcDbEntity
  8
0
100
AcDbLine
 10
53.5
 20
76.08
 30
0.0
 11
53.5
 21
80.87999999999999
 31
0.0
  0
LINE
  5
91
330
1E
100
AcDbEntity
  8
0
100
AcDbLine
 10
53.5
 20
76.08
 30
0.0
 11
53.5
 21
71.84000000000001
 31
0.0
  0
LINE
  5
92
330
1E
100
AcDbEntity
  8
0
100
AcDbLine
 10
8.38
 20
75.38
 30
0.0
 11
11.56
 21
72.98
 31
0.0
  0
LINE
  5
93
330
1E
100
AcDbEntity
  8
0
100
AcDbLine
 10
11.56
 20
72.98
 30
0.0
 11
12.0
 21
72.804
 31
0.0
  0
LINE
  5
94
330
1E
100
AcDbEntity
  8
0
100
AcDbLine
 10
5.547999999999999
 20
72.548
 30
0.0
 11
9.576
 21
69.508
 31
0.0
  0
LINE
  5
97
330
1E
100
AcDbEntity
  8
0
100
AcDbLine
 10
0.6840000000000001
 20
81.13600000000001
 30
0.0
 11
2.508
 21
76.57600000000001
 31
0.0
  0
LINE
  5
9A
330
1E
100
AcDbEntity
  8
0
100
AcDbLine
 10
4.5
 20
82.15999999999999
 30
0.0
 11
6.0
 21
78.56
 31
0.0
  0
LINE
  5
9B
330
1E
100
AcDbEntity
  8
0
100
AcDbLine
 10
4.5
 20
89.83999999999999
 30
0.0
 11
6.0
 21
93.43999999999999
 31
0.0
  0
LINE
  5
9C
330
1E
100
AcDbEntity
  8
0
100
AcDbLine
 10
4.0
 20
86.0
 30
0.0
 11
4.5
 21
82.15999999999999
 31
0.0
  0
LINE
  5
9D
330
1E
100
AcDbEntity
  8
0
100
AcDbLine
 10
4.0
 20
86.0
 30
0.0
 11
4.5
 21
89.83999999999999
 31
0.0
  0
LINE
  5
9E
330
1E
100
AcDbEntity
  8
0
100
AcDbLine
 10
0.6840000000000001
 20
90.86399999999999
 30
0.0
 11
2.508
 21
95.42399999999998
 31
0.0
  0
LINE
  5
9F
330
1E
100
AcDbEntity
  8
0
100
AcDbLine
 10
5.5
 20
92.24
 30
0.0
 11
5.98
 21
93.43999999999999
 31
0.0
  0
LINE
  5
A1
330
1E
100
AcDbEntity
  8
0
100
AcDbLine
 10
0.6840000000000001
 20
90.86399999999999
 30
0.0
 11
2.508
 21
95.42399999999998
 31
0.0
  0
LINE
  5
A2
330
1E
100
AcDbEntity
  8
0
100
AcDbLine
 10
53.5
 20
91.12
 30
0.0
 11
53.5
 21
86.0
 31
0.0
  0
LINE
  5
A3
330
1E
100
AcDbEntity
  8
0
100
AcDbLine
 10
53.5
 20
91.12
 30
0.0
 11
53.5
 21
95.92
 31
0.0
  0
LINE
  5
A4
330
1E
100
AcDbEntity
  8
0
100
AcDbLine
 10
53.5
 20
90.35200000000001
 30
0.0
 11
53.5
 21
94.432
 31
0.0
  0
LINE
  5
A5
330
1E
100
AcDbEntity
  8
0
100
AcDbLine
 10
53.5
 20
90.35200000000001
 30
0.0
 11
53.5
 21
86.0
 31
0.0
  0
LINE
  5
A6
330
1E
100
AcDbEntity
  8
0
100
AcDbLine
 10
53.5
 20
86.0
 30
0.0
 11
53.5
 21
81.64799999999999
 31
0.0
  0
LINE
  5
A7
330
1E
100
AcDbEntity
  8
0
100
AcDbLine
 10
53.5
 20
86.0
 30
0.0
 11
53.5
 21
80.87999999999999
 31
0.0
  0
LINE
  5
A8
330
1E
100
AcDbEntity
  8
0
100
AcDbLine
 10
53.5
 20
86.0
 30
0.0
 11
53.5
 21
90.35200000000001
 31
0.0
  0
LINE
  5
A9
330
1E
100
AcDbEntity
  8
0
100
AcDbLine
 10
53.5
 20
86.0
 30
0.0
 11
53.5
 21
91.12
 31
0.0
  0
LINE
  5
AA
330
1E
100
AcDbEntity
  8
0
100
AcDbLine
 10
53.5
 20
81.64799999999999
 30
0.0
 11
53.5
 21
77.568
 31
0.0
  0
LINE
  5
AB
330
1E
100
AcDbEntity
  8
0
100
AcDbLine
 10
53.5
 20
81.64799999999999
 30
0.0
 11
53.5
 21
86.0
 31
0.0
  0
LINE
  5
AC
330
1E
100
AcDbEntity
  8
0
100
AcDbLine
 10
5.5
 20
92.24
 30
0.0
 11
5.98
 21
93.43999999999999
 31
0.0
  0
LINE
  5
AD
330
1E
100
AcDbEntity
  8
0
100
AcDbLine
 10
53.5
 20
95.92
 30
0.0
 11
53.5
 21
91.12
 31
0.0
  0
LINE
  5
AE
330
1E
100
AcDbEntity
  8
0
100
AcDbLine
 10
53.5
 20
95.92
 30
0.0
 11
53.5
 21
100.16
 31
0.0
  0
LINE
  5
AF
330
1E
100
AcDbEntity
  8
0
100
AcDbLine
 10
53.5
 20
94.432
 30
0.0
 11
53.5
 21
98.03600000000001
 31
0.0
  0
LINE
  5
B0
330
1E
100
AcDbEntity
  8
0
100
AcDbLine
 10
53.5
 20
94.432
 30
0.0
 11
53.5
 21
90.35200000000001
 31
0.0
  0
LINE
  5
B2
330
1E
100
AcDbEntity
  8
0
100
AcDbLine
 10
2.508
 20
95.42399999999998
 30
0.0
 11
5.547999999999999
 21
99.45200000000001
 31
0.0
  0
LINE
  5
B3
330
1E
100
AcDbEntity
  8
0
100
AcDbLine
 10
5.98
 20
93.43999999999999
 30
0.0
 11
8.38
 21
96.62
 31
0.0
  0
LINE
  5
B4
330
1E
100
AcDbEntity
  8
0
100
AcDbLine
 10
0.0
 20
86.0
 30
0.0
 11
0.6840000000000001
 21
81.13600000000001
 31
0.0
  0
LINE
  5
B7
330
1E
100
AcDbEntity
  8
0
100
AcDbLine
 10
0.0
 20
86.0
 30
0.0
 11
0.6840000000000001
 21
90.86399999999999
 31
0.0
  0
LINE
  5
B9
330
1E
100
AcDbEntity
  8
0
100
AcDbLine
 10
0.6840000000000001
 20
81.13600000000001
 30
0.0
 11
2.508
 21
76.57600000000001
 31
0.0
  0
LINE
  5
BA
330
1E
100
AcDbEntity
  8
0
100
AcDbLine
 10
55.5
 20
86.0
 30
0.0
 11
55.5
 21
80.87999999999999
 31
0.0
  0
LINE
  5
BB
330
1E
100
AcDbEntity
  8
0
100
AcDbLine
 10
55.5
 20
80.87999999999999
 30
0.0
 11
55.5
 21
76.08
 31
0.0
  0
LINE
  5
BC
330
1E
100
AcDbEntity
  8
0
100
AcDbLine
 10
55.5
 20
76.08
 30
0.0
 11
55.5
 21
71.84000000000001
 31
0.0
  0
LINE
  5
BD
330
1E
100
AcDbEntity
  8
0
100
AcDbLine
 10
55.5
 20
71.84000000000001
 30
0.0
 11
55.5
 21
68.64
 31
0.0
  0
LINE
  5
BE
330
1E
100
AcDbEntity
  8
0
100
AcDbLine
 10
55.5
 20
68.64
 30
0.0
 11
55.5
 21
66.72
 31
0.0
  0
LINE
  5
BF
330
1E
100
AcDbEntity
  8
0
100
AcDbLine
 10
55.5
 20
66.72
 30
0.0
 11
55.5
 21
66.0
 31
0.0
  0
LINE
  5
C0
330
1E
100
AcDbEntity
  8
0
100
AcDbLine
 10
55.5
 20
91.12
 30
0.0
 11
55.5
 21
86.0
 31
0.0
  0
LINE
  5
C1
330
1E
100
AcDbEntity
  8
0
100
AcDbLine
 10
8.38
 20
96.62
 30
0.0
 11
11.56
 21
99.02000000000001
 31
0.0
  0
LINE
  5
C3
330
1E
100
AcDbEntity
  8
0
100
AcDbLine
 10
5.547999999999999
 20
99.45200000000001
 30
0.0
 11
9.576
 21
102.492
 31
0.0
  0
LINE
  5
C4
330
1E
100
AcDbEntity
  8
0
100
AcDbLine
 10
12.0
 20
99.18179775280899
 30
0.0
 11
12.0
 21
101.0999999999999
 31
0.0
  0
LINE
  5
C5
330
1E
100
AcDbEntity
  8
0
100
AcDbLine
 10
12.0
 20
99.18000000000001
 30
0.0
 11
12.0
 21
101.0999999999999
 31
0.0
  0
LINE
  5
C6
330
1E
100
AcDbEntity
  8
0
100
AcDbLine
 10
12.0
 20
101.0999999999999
 30
0.0
 11
12.1974
 21
101.0999999999999
 31
0.0
  0
LINE
  5
C7
330
1E
100
AcDbEntity
  8
0
100
AcDbLine
 10
12.0
 20
101.0999999999999
 30
0.0
 11
12.0
 21
99.18000000000001
 31
0.0
  0
LINE
  5
C8
330
1E
100
AcDbEntity
  8
0
100
AcDbLine
 10
12.0
 20
101.0999999999999
 30
0.0
 11
12.0
 21
99.18179775280899
 31
0.0
  0
LINE
  5
C9
330
1E
100
AcDbEntity
  8
0
100
AcDbLine
 10
17.29789999999999
 20
101.0999999999999
 30
0.0
 11
19.0
 21
101.0999999999999
 31
0.0
  0
LINE
  5
CA
330
1E
100
AcDbEntity
  8
0
100
AcDbLine
 10
15.5151
 20
101.0999999999999
 30
0.0
 11
17.29789999999999
 21
101.0999999999999
 31
0.0
  0
LINE
  5
CB
330
1E
100
AcDbEntity
  8
0
100
AcDbLine
 10
14.0
 20
101.0999999999999
 30
0.0
 11
15.5151
 21
101.0999999999999
 31
0.0
  0
LINE
  5
CC
330
1E
100
AcDbEntity
  8
0
100
AcDbLine
 10
12.1974
 20
101.0999999999999
 30
0.0
 11
12.9823
 21
101.0999999999999
 31
0.0
  0
LINE
  5
CD
330
1E
100
AcDbEntity
  8
0
100
AcDbLine
 10
12.9823
 20
101.0999999999999
 30
0.0
 11
14.0
 21
101.0999999999999
 31
0.0
  0
LINE
  5
CE
330
1E
100
AcDbEntity
  8
0
100
AcDbLine
 10
11.56
 20
99.02000000000001
 30
0.0
 11
12.0
 21
99.196
 31
0.0
  0
LINE
  5
D0
330
1E
100
AcDbEntity
  8
0
100
AcDbLine
 10
9.576
 20
102.492
 30
0.0
 11
14.13599999999999
 21
104.316
 31
0.0
  0
LINE
  5
D2
330
1E
100
AcDbEntity
  8
0
100
AcDbLine
 10
19.0
 20
101.0999999999999
 30
0.0
 11
34.5
 21
101.0999999999999
 31
0.0
  0
LINE
  5
D3
330
1E
100
AcDbEntity
  8
0
100
AcDbLine
 10
34.5
 20
101.0999999999999
 30
0.0
 11
34.5
 21
72.98
 31
0.0
  0
LINE
  5
D4
330
1E
100
AcDbEntity
  8
0
100
AcDbLine
 10
34.5
 20
72.98
 30
0.0
 11
34.5
 21
101.0999999999999
 31
0.0
  0
LINE
  5
D5
330
1E
100
AcDbEntity
  8
0
100
AcDbLine
 10
53.5
 20
100.16
 30
0.0
 11
53.5
 21
95.92
 31
0.0
  0
LINE
  5
D6
330
1E
100
AcDbEntity
  8
0
100
AcDbLine
 10
53.5
 20
100.16
 30
0.0
 11
53.5
 21
103.36
 31
0.0
  0
LINE
  5
D7
330
1E
100
AcDbEntity
  8
0
100
AcDbLine
 10
53.5
 20
98.03600000000001
 30
0.0
 11
53.5
 21
100.756
 31
0.0
  0
LINE
  5
D8
330
1E
100
AcDbEntity
  8
0
100
AcDbLine
 10
53.5
 20
98.03600000000001
 30
0.0
 11
53.5
 21
94.432
 31
0.0
  0
LINE
  5
D9
330
1E
100
AcDbEntity
  8
0
100
AcDbLine
 10
53.5
 20
100.756
 30
0.0
 11
53.5
 21
102.3879999999999
 31
0.0
  0
LINE
  5
DA
330
1E
100
AcDbEntity
  8
0
100
AcDbLine
 10
53.5
 20
100.756
 30
0.0
 11
53.5
 21
98.03600000000001
 31
0.0
  0
LINE
  5
DB
330
1E
100
AcDbEntity
  8
0
100
AcDbLine
 10
53.5
 20
101.0
 30
0.0
 11
53.5
 21
102.3879999999999
 31
0.0
  0
LINE
  5
DC
330
1E
100
AcDbEntity
  8
0
100
AcDbLine
 10
53.5
 20
101.0
 30
0.0
 11
53.5
 21
103.36
 31
0.0
  0
LINE
  5
DD
330
1E
100
AcDbEntity
  8
0
100
AcDbLine
 10
34.5
 20
101.0
 30
0.0
 11
53.5
 21
101.0
 31
0.0
  0
LINE
  5
DE
330
1E
100
AcDbEntity
  8
0
100
AcDbLine
 10
53.5
 20
103.0
 30
0.0
 11
53.5
 21
102.3879999999999
 31
0.0
  0
LINE
  5
DF
330
1E
100
AcDbEntity
  8
0
100
AcDbLine
 10
53.5
 20
102.3879999999999
 30
0.0
 11
53.5
 21
103.0
 31
0.0
  0
LINE
  5
E0
330
1E
100
AcDbEntity
  8
0
100
AcDbLine
 10
53.5
 20
102.3879999999999
 30
0.0
 11
53.5
 21
101.0
 31
0.0
  0
LINE
  5
E1
330
1E
100
AcDbEntity
  8
0
100
AcDbLine
 10
53.5
 20
102.3879999999999
 30
0.0
 11
53.5
 21
100.756
 31
0.0
  0
LINE
  5
E2
330
1E
100
AcDbEntity
  8
0
100
AcDbLine
 10
53.5
 20
103.36
 30
0.0
 11
53.5
 21
101.0
 31
0.0
  0
LINE
  5
E3
330
1E
100
AcDbEntity
  8
0
100
AcDbLine
 10
53.5
 20
103.36
 30
0.0
 11
53.5
 21
105.2799999999999
 31
0.0
  0
LINE
  5
E4
330
1E
100
AcDbEntity
  8
0
100
AcDbLine
 10
53.5
 20
103.36
 30
0.0
 11
53.5
 21
100.16
 31
0.0
  0
LINE
  5
E5
330
1E
100
AcDbEntity
  8
0
100
AcDbLine
 10
28.42399999999999
 20
102.492
 30
0.0
 11
30.26839999999999
 21
101.0999999999999
 31
0.0
  0
LINE
  5
E8
330
1E
100
AcDbEntity
  8
0
100
AcDbLine
 10
55.5
 20
95.92
 30
0.0
 11
55.5
 21
91.12
 31
0.0
  0
LINE
  5
E9
330
1E
100
AcDbEntity
  8
0
100
AcDbLine
 10
55.5
 20
100.16
 30
0.0
 11
55.5
 21
95.92
 31
0.0
  0
LINE
  5
EB
330
1E
100
AcDbEntity
  8
0
100
AcDbLine
 10
14.13599999999999
 20
104.316
 30
0.0
 11
19.0
 21
105.0
 31
0.0
  0
LINE
  5
EC
330
1E
100
AcDbEntity
  8
0
100
AcDbLine
 10
53.5
 20
105.2799999999999
 30
0.0
 11
53.5
 21
103.36
 31
0.0
  0
LINE
  5
ED
330
1E
100
AcDbEntity
  8
0
100
AcDbLine
 10
53.5
 20
105.2799999999999
 30
0.0
 11
53.5
 21
106.0
 31
0.0
  0
LINE
  5
EE
330
1E
100
AcDbEntity
  8
0
100
AcDbLine
 10
53.5
 20
106.0
 30
0.0
 11
53.5
 21
105.2799999999999
 31
0.0
  0
LINE
  5
EF
330
1E
100
AcDbEntity
  8
0
100
AcDbLine
 10
53.5
 20
106.0
 30
0.0
 11
55.5
 21
106.0
 31
0.0
  0
LINE
  5
F0
330
1E
100
AcDbEntity
  8
0
100
AcDbLine
 10
23.864
 20
104.316
 30
0.0
 11
28.42399999999999
 21
102.492
 31
0.0
  0
LINE
  5
F2
330
1E
100
AcDbEntity
  8
0
100
AcDbLine
 10
19.0
 20
105.0
 30
0.0
 11
23.864
 21
104.316
 31
0.0
  0
LINE
  5
F3
330
1E
100
AcDbEntity
  8
0
100
AcDbLine
 10
55.5
 20
103.36
 30
0.0
 11
55.5
 21
100.16
 31
0.0
  0
LINE
  5
F4
330
1E
100
AcDbEntity
  8
0
100
AcDbLine
 10
55.5
 20
105.2799999999999
 30
0.0
 11
55.5
 21
103.36
 31
0.0
  0
LINE
  5
F5
330
1E
100
AcDbEntity
  8
0
100
AcDbLine
 10
55.5
 20
35.0
 30
0.0
 11
55.5
 21
0.0
 31
0.0
  0
LINE
  5
F6
330
1E
100
AcDbEntity
  8
0
100
AcDbLine
 10
55.5
 20
66.0
 30
0.0
 11
55.90720000000001
 21
66.72
 31
0.0
  0
LINE
  5
F7
330
1E
100
AcDbEntity
  8
0
100
AcDbLine
 10
55.5
 20
66.0
 30
0.0
 11
55.5
 21
39.0
 31
0.0
  0
LINE
  5
F8
330
1E
100
AcDbEntity
  8
0
100
AcDbLine
 10
55.5
 20
108.0
 30
0.0
 11
55.5
 21
106.0
 31
0.0
  0
LINE
  5
F9
330
1E
100
AcDbEntity
  8
0
100
AcDbLine
 10
55.5
 20
108.0
 30
0.0
 11
56.14209999999999
 21
108.0
 31
0.0
  0
LINE
  5
FA
330
1E
100
AcDbEntity
  8
0
100
AcDbLine
 10
55.5
 20
106.0
 30
0.0
 11
55.5
 21
108.0
 31
0.0
  0
LINE
  5
FB
330
1E
100
AcDbEntity
  8
0
100
AcDbLine
 10
55.5
 20
106.0
 30
0.0
 11
55.90720000000001
 21
105.2799999999999
 31
0.0
  0
LINE
  5
FC
330
1E
100
AcDbEntity
  8
0
100
AcDbLine
 10
55.5
 20
106.0
 30
0.0
 11
55.5
 21
105.2799999999999
 31
0.0
  0
LINE
  5
FD
330
1E
100
AcDbEntity
  8
0
100
AcDbLine
 10
55.768
 20
35.0
 30
0.0
 11
58.54
 21
35.0
 31
0.0
  0
LINE
  5
FE
330
1E
100
AcDbEntity
  8
0
100
AcDbLine
 10
55.90720000000001
 20
105.2799999999999
 30
0.0
 11
56.5876
 21
103.36
 31
0.0
  0
LINE
  5
102
330
1E
100
AcDbEntity
  8
0
100
AcDbLine
 10
57.3896
 20
100.16
 30
0.0
 11
58.2401
 21
95.92
 31
0.0
  0
LINE
  5
103
330
1E
100
AcDbEntity
  8
0
100
AcDbLine
 10
57.17907499999999
 20
101.0
 30
0.0
 11
57.3896
 21
100.16
 31
0.0
  0
LINE
  5
104
330
1E
100
AcDbEntity
  8
0
100
AcDbLine
 10
57.1587
 20
108.0
 30
0.0
 11
57.8307
 21
108.0
 31
0.0
  0
LINE
  5
106
330
1E
100
AcDbEntity
  8
0
100
AcDbLine
 10
56.9067
 20
108.0
 30
0.0
 11
57.1587
 21
108.0
 31
0.0
  0
LINE
  5
107
330
1E
100
AcDbEntity
  8
0
100
AcDbLine
 10
56.14209999999999
 20
108.0
 30
0.0
 11
56.9067
 21
108.0
 31
0.0
  0
LINE
  5
108
330
1E
100
AcDbEntity
  8
0
100
AcDbLine
 10
56.5876
 20
103.36
 30
0.0
 11
57.17907499999999
 21
101.0
 31
0.0
  0
LINE
  5
109
330
1E
100
AcDbEntity
  8
0
100
AcDbLine
 10
57.3896
 20
71.84000000000001
 30
0.0
 11
58.2401
 21
76.08
 31
0.0
  0
LINE
  5
10A
330
1E
100
AcDbEntity
  8
0
100
AcDbLine
 10
56.5876
 20
68.64
 30
0.0
 11
57.3896
 21
71.84000000000001
 31
0.0
  0
LINE
  5
10B
330
1E
100
AcDbEntity
  8
0
100
AcDbLine
 10
55.90720000000001
 20
66.72
 30
0.0
 11
56.5876
 21
68.64
 31
0.0
  0
LINE
  5
10C
330
1E
100
AcDbEntity
  8
0
100
AcDbLine
 10
56.14209999999999
 20
0.0000000000000051
 30
0.0
 11
57.6832
 21
0.0000000000000056
 31
0.0
  0
LINE
  5
10D
330
1E
100
AcDbEntity
  8
0
100
AcDbLine
 10
55.5
 20
39.0
 30
0.0
 11
55.5
 21
66.0
 31
0.0
  0
LINE
  5
10E
330
1E
100
AcDbEntity
  8
0
100
AcDbLine
 10
55.5
 20
0.0000000000000046
 30
0.0
 11
56.14209999999999
 21
0.0000000000000041
 31
0.0
  0
LINE
  5
10F
330
1E
100
AcDbEntity
  8
0
100
AcDbLine
 10
55.5
 20
0.0000000000000046
 30
0.0
 11
55.5
 21
35.0
 31
0.0
  0
LINE
  5
110
330
1E
100
AcDbEntity
  8
0
100
AcDbLine
 10
55.5
 20
0.0000000000000046
 30
0.0
 11
56.14209999999999
 21
0.0000000000000051
 31
0.0
  0
LINE
  5
111
330
1E
100
AcDbEntity
  8
0
100
AcDbLine
 10
57.6832
 20
0.0000000000000037
 30
0.0
 11
60.2516
 21
0.0000000000000032
 31
0.0
  0
LINE
  5
112
330
1E
100
AcDbEntity
  8
0
100
AcDbLine
 10
63.6547
 20
0.0000000000000028
 30
0.0
 11
68.2137
 21
0.0000000000000024
 31
0.0
  0
LINE
  5
113
330
1E
100
AcDbEntity
  8
0
100
AcDbLine
 10
60.2516
 20
0.0000000000000032
 30
0.0
 11
63.6547
 21
0.0000000000000028
 31
0.0
  0
LINE
  5
114
330
1E
100
AcDbEntity
  8
0
100
AcDbLine
 10
100.7679999999999
 20
0.000000000000001
 30
0.0
 11
108.538
 21
0.0000000000000009
 31
0.0
  0
LINE
  5
115
330
1E
100
AcDbEntity
  8
0
100
AcDbLine
 10
108.538
 20
0.0000000000000009
 30
0.0
 11
116.5
 21
0.0000000000000009
 31
0.0
  0
LINE
  5
116
330
1E
100
AcDbEntity
  8
0
100
AcDbLine
 10
93.1916
 20
0.0000000000000012
 30
0.0
 11
100.7679999999999
 21
0.000000000000001
 31
0.0
  0
LINE
  5
117
330
1E
100
AcDbEntity
  8
0
100
AcDbLine
 10
93.9558
 20
0.0000000000000013
 30
0.0
 11
101.2839999999999
 21
0.0000000000000011
 31
0.0
  0
LINE
  5
118
330
1E
100
AcDbEntity
  8
0
100
AcDbLine
 10
101.2839999999999
 20
0.0000000000000011
 30
0.0
 11
108.799
 21
0.000000000000001
 31
0.0
  0
LINE
  5
119
330
1E
100
AcDbEntity
  8
0
100
AcDbLine
 10
124.462
 20
0.0000000000000009
 30
0.0
 11
132.2319999999999
 21
0.000000000000001
 31
0.0
  0
LINE
  5
11A
330
1E
100
AcDbEntity
  8
0
100
AcDbLine
 10
116.5
 20
0.0000000000000009
 30
0.0
 11
124.462
 21
0.0000000000000009
 31
0.0
  0
LINE
  5
11B
330
1E
100
AcDbEntity
  8
0
100
AcDbLine
 10
132.2319999999999
 20
0.000000000000001
 30
0.0
 11
139.8079999999999
 21
0.0000000000000012
 31
0.0
  0
LINE
  5
11C
330
1E
100
AcDbEntity
  8
0
100
AcDbLine
 10
146.872
 20
0.0000000000000014
 30
0.0
 11
153.614
 21
0.0000000000000017
 31
0.0
  0
LINE
  5
11D
330
1E
100
AcDbEntity
  8
0
100
AcDbLine
 10
139.8079999999999
 20
0.0000000000000012
 30
0.0
 11
146.872
 21
0.0000000000000014
 31
0.0
  0
LINE
  5
11E
330
1E
100
AcDbEntity
  8
0
100
AcDbLine
 10
139.0439999999999
 20
0.0000000000000013
 30
0.0
 11
145.876
 21
0.0000000000000015
 31
0.0
  0
LINE
  5
11F
330
1E
100
AcDbEntity
  8
0
100
AcDbLine
 10
131.716
 20
0.0000000000000011
 30
0.0
 11
139.0439999999999
 21
0.0000000000000013
 31
0.0
  0
LINE
  5
120
330
1E
100
AcDbEntity
  8
0
100
AcDbLine
 10
124.201
 20
0.000000000000001
 30
0.0
 11
131.716
 21
0.0000000000000011
 31
0.0
  0
LINE
  5
121
330
1E
100
AcDbEntity
  8
0
100
AcDbLine
 10
116.5
 20
0.000000000000001
 30
0.0
 11
124.201
 21
0.000000000000001
 31
0.0
  0
LINE
  5
122
330
1E
100
AcDbEntity
  8
0
100
AcDbLine
 10
108.799
 20
0.000000000000001
 30
0.0
 11
116.5
 21
0.000000000000001
 31
0.0
  0
LINE
  5
123
330
1E
100
AcDbEntity
  8
0
100
AcDbLine
 10
74.82739999999999
 20
0.0000000000000021
 30
0.0
 11
80.6032
 21
0.0000000000000018
 31
0.0
  0
LINE
  5
124
330
1E
100
AcDbEntity
  8
0
100
AcDbLine
 10
73.4147
 20
0.000000000000002
 30
0.0
 11
79.3863
 21
0.0000000000000017
 31
0.0
  0
LINE
  5
125
330
1E
100
AcDbEntity
  8
0
100
AcDbLine
 10
145.876
 20
0.0000000000000015
 30
0.0
 11
152.397
 21
0.0000000000000018
 31
0.0
  0
LINE
  5
126
330
1E
100
AcDbEntity
  8
0
100
AcDbLine
 10
153.614
 20
0.0000000000000017
 30
0.0
 11
159.585
 21
0.000000000000002
 31
0.0
  0
LINE
  5
127
330
1E
100
AcDbEntity
  8
0
100
AcDbLine
 10
158.173
 20
0.0000000000000021
 30
0.0
 11
163.203
 21
0.0000000000000024
 31
0.0
  0
LINE
  5
128
330
1E
100
AcDbEntity
  8
0
100
AcDbLine
 10
163.203
 20
0.0000000000000024
 30
0.0
 11
167.613
 21
0.0000000000000028
 31
0.0
  0
LINE
  5
129
330
1E
100
AcDbEntity
  8
0
100
AcDbLine
 10
159.585
 20
0.000000000000002
 30
0.0
 11
164.7859999999999
 21
0.0000000000000024
 31
0.0
  0
LINE
  5
12A
330
1E
100
AcDbEntity
  8
0
100
AcDbLine
 10
164.7859999999999
 20
0.0000000000000024
 30
0.0
 11
169.345
 21
0.0000000000000028
 31
0.0
  0
LINE
  5
12B
330
1E
100
AcDbEntity
  8
0
100
AcDbLine
 10
152.397
 20
0.0000000000000018
 30
0.0
 11
158.173
 21
0.0000000000000021
 31
0.0
  0
LINE
  5
12C
330
1E
100
AcDbEntity
  8
0
100
AcDbLine
 10
80.6032
 20
0.0000000000000018
 30
0.0
 11
87.12419999999999
 21
0.0000000000000015
 31
0.0
  0
LINE
  5
12D
330
1E
100
AcDbEntity
  8
0
100
AcDbLine
 10
87.12419999999999
 20
0.0000000000000015
 30
0.0
 11
93.9558
 21
0.0000000000000013
 31
0.0
  0
LINE
  5
12E
330
1E
100
AcDbEntity
  8
0
100
AcDbLine
 10
79.3863
 20
0.0000000000000017
 30
0.0
 11
86.1284
 21
0.0000000000000014
 31
0.0
  0
LINE
  5
12F
330
1E
100
AcDbEntity
  8
0
100
AcDbLine
 10
86.1284
 20
0.0000000000000014
 30
0.0
 11
93.1916
 21
0.0000000000000012
 31
0.0
  0
LINE
  5
130
330
1E
100
AcDbEntity
  8
0
100
AcDbLine
 10
68.2137
 20
0.0000000000000024
 30
0.0
 11
73.4147
 21
0.000000000000002
 31
0.0
  0
LINE
  5
131
330
1E
100
AcDbEntity
  8
0
100
AcDbLine
 10
167.613
 20
0.0000000000000028
 30
0.0
 11
170.904
 21
0.0000000000000032
 31
0.0
  0
LINE
  5
132
330
1E
100
AcDbEntity
  8
0
100
AcDbLine
 10
172.7479999999999
 20
0.0000000000000032
 30
0.0
 11
175.317
 21
0.0000000000000037
 31
0.0
  0
LINE
  5
133
330
1E
100
AcDbEntity
  8
0
100
AcDbLine
 10
170.904
 20
0.0000000000000032
 30
0.0
 11
173.388
 21
0.0000000000000037
 31
0.0
  0
LINE
  5
134
330
1E
100
AcDbEntity
  8
0
100
AcDbLine
 10
169.345
 20
0.0000000000000028
 30
0.0
 11
172.7479999999999
 21
0.0000000000000032
 31
0.0
  0
LINE
  5
135
330
1E
100
AcDbEntity
  8
0
100
AcDbLine
 10
69.7968
 20
0.0000000000000024
 30
0.0
 11
74.82739999999999
 21
0.0000000000000021
 31
0.0
  0
LINE
  5
136
330
1E
100
AcDbEntity
  8
0
100
AcDbLine
 10
65.3874
 20
0.0000000000000028
 30
0.0
 11
69.7968
 21
0.0000000000000024
 31
0.0
  0
LINE
  5
137
330
1E
100
AcDbEntity
  8
0
100
AcDbLine
 10
173.388
 20
0.0000000000000037
 30
0.0
 11
174.879
 21
0.0000000000000042
 31
0.0
  0
LINE
  5
138
330
1E
100
AcDbEntity
  8
0
100
AcDbLine
 10
175.317
 20
0.0000000000000037
 30
0.0
 11
176.858
 21
0.0000000000000041
 31
0.0
  0
LINE
  5
139
330
1E
100
AcDbEntity
  8
0
100
AcDbLine
 10
176.858
 20
0.0000000000000041
 30
0.0
 11
177.5
 21
0.0000000000000046
 31
0.0
  0
LINE
  5
13A
330
1E
100
AcDbEntity
  8
0
100
AcDbLine
 10
174.879
 20
0.0000000000000042
 30
0.0
 11
175.5
 21
0.0000000000000046
 31
0.0
  0
LINE
  5
13B
330
1E
100
AcDbEntity
  8
0
100
AcDbLine
 10
62.09579999999999
 20
0.0000000000000032
 30
0.0
 11
65.3874
 21
0.0000000000000028
 31
0.0
  0
LINE
  5
13C
330
1E
100
AcDbEntity
  8
0
100
AcDbLine
 10
59.6116
 20
0.0000000000000037
 30
0.0
 11
62.09579999999999
 21
0.0000000000000032
 31
0.0
  0
LINE
  5
13D
330
1E
100
AcDbEntity
  8
0
100
AcDbLine
 10
57.6832
 20
0.0000000000000056
 30
0.0
 11
60.2516
 21
0.0000000000000061
 31
0.0
  0
LINE
  5
13E
330
1E
100
AcDbEntity
  8
0
100
AcDbLine
 10
62.09579999999999
 20
0.000000000000006
 30
0.0
 11
65.3874
 21
0.0000000000000064
 31
0.0
  0
LINE
  5
13F
330
1E
100
AcDbEntity
  8
0
100
AcDbLine
 10
59.6116
 20
0.0000000000000056
 30
0.0
 11
62.09579999999999
 21
0.000000000000006
 31
0.0
  0
LINE
  5
140
330
1E
100
AcDbEntity
  8
0
100
AcDbLine
 10
58.121
 20
0.0000000000000051
 30
0.0
 11
59.6116
 21
0.0000000000000056
 31
0.0
  0
LINE
  5
141
330
1E
100
AcDbEntity
  8
0
100
AcDbLine
 10
69.7968
 20
0.0000000000000068
 30
0.0
 11
74.82739999999999
 21
0.0000000000000072
 31
0.0
  0
LINE
  5
142
330
1E
100
AcDbEntity
  8
0
100
AcDbLine
 10
65.3874
 20
0.0000000000000064
 30
0.0
 11
69.7968
 21
0.0000000000000068
 31
0.0
  0
LINE
  5
143
330
1E
100
AcDbEntity
  8
0
100
AcDbLine
 10
68.2137
 20
0.0000000000000069
 30
0.0
 11
73.4147
 21
0.0000000000000073
 31
0.0
  0
LINE
  5
144
330
1E
100
AcDbEntity
  8
0
100
AcDbLine
 10
63.6547
 20
0.0000000000000065
 30
0.0
 11
68.2137
 21
0.0000000000000069
 31
0.0
  0
LINE
  5
145
330
1E
100
AcDbEntity
  8
0
100
AcDbLine
 10
60.2516
 20
0.0000000000000061
 30
0.0
 11
63.6547
 21
0.0000000000000065
 31
0.0
  0
LINE
  5
146
330
1E
100
AcDbEntity
  8
0
100
AcDbLine
 10
74.82739999999999
 20
0.0000000000000072
 30
0.0
 11
80.6032
 21
0.0000000000000075
 31
0.0
  0
LINE
  5
147
330
1E
100
AcDbEntity
  8
0
100
AcDbLine
 10
73.4147
 20
0.0000000000000073
 30
0.0
 11
79.3863
 21
0.0000000000000076
 31
0.0
  0
LINE
  5
148
330
1E
100
AcDbEntity
  8
0
100
AcDbLine
 10
80.6032
 20
0.0000000000000075
 30
0.0
 11
87.12419999999999
 21
0.0000000000000078
 31
0.0
  0
LINE
  5
149
330
1E
100
AcDbEntity
  8
0
100
AcDbLine
 10
79.3863
 20
0.0000000000000076
 30
0.0
 11
86.1284
 21
0.0000000000000079
 31
0.0
  0
LINE
  5
14A
330
1E
100
AcDbEntity
  8
0
100
AcDbLine
 10
87.12419999999999
 20
0.0000000000000078
 30
0.0
 11
93.9558
 21
0.000000000000008
 31
0.0
  0
LINE
  5
14B
330
1E
100
AcDbEntity
  8
0
100
AcDbLine
 10
86.1284
 20
0.0000000000000079
 30
0.0
 11
93.1916
 21
0.0000000000000081
 31
0.0
  0
LINE
  5
14C
330
1E
100
AcDbEntity
  8
0
100
AcDbLine
 10
93.9558
 20
0.000000000000008
 30
0.0
 11
101.2839999999999
 21
0.0000000000000081
 31
0.0
  0
LINE
  5
14D
330
1E
100
AcDbEntity
  8
0
100
AcDbLine
 10
58.04619999999999
 20
35.0
 30
0.0
 11
58.855
 21
35.0
 31
0.0
  0
LINE
  5
14E
330
1E
100
AcDbEntity
  8
0
100
AcDbLine
 10
66.3138
 20
35.0
 30
0.0
 11
67.6618
 21
35.0
 31
0.0
  0
LINE
  5
14F
330
1E
100
AcDbEntity
  8
0
100
AcDbLine
 10
66.2787
 20
35.0
 30
0.0
 11
66.9187
 21
35.0
 31
0.0
  0
LINE
  5
150
330
1E
100
AcDbEntity
  8
0
100
AcDbLine
 10
65.8947
 20
35.0
 30
0.0
 11
66.2787
 21
35.0
 31
0.0
  0
LINE
  5
151
330
1E
100
AcDbEntity
  8
0
100
AcDbLine
 10
65.7507
 20
35.0
 30
0.0
 11
65.8947
 21
35.0
 31
0.0
  0
LINE
  5
152
330
1E
100
AcDbEntity
  8
0
100
AcDbLine
 10
69.75069999999999
 20
35.0
 30
0.0
 11
70.77469999999999
 21
35.0
 31
0.0
  0
LINE
  5
153
330
1E
100
AcDbEntity
  8
0
100
AcDbLine
 10
70.77469999999999
 20
35.0
 30
0.0
 11
71.7347
 21
35.0
 31
0.0
  0
LINE
  5
154
330
1E
100
AcDbEntity
  8
0
100
AcDbLine
 10
71.7347
 20
35.0
 30
0.0
 11
72.5827
 21
35.0
 31
0.0
  0
LINE
  5
155
330
1E
100
AcDbEntity
  8
0
100
AcDbLine
 10
72.5827
 20
35.0
 30
0.0
 11
73.2227
 21
35.0
 31
0.0
  0
LINE
  5
156
330
1E
100
AcDbEntity
  8
0
100
AcDbLine
 10
73.2227
 20
35.0
 30
0.0
 11
73.6067
 21
35.0
 31
0.0
  0
LINE
  5
157
330
1E
100
AcDbEntity
  8
0
100
AcDbLine
 10
73.6067
 20
35.0
 30
0.0
 11
73.7507
 21
35.0
 31
0.0
  0
LINE
  5
158
330
1E
100
AcDbEntity
  8
0
100
AcDbLine
 10
68.72669999999999
 20
35.0
 30
0.0
 11
69.75069999999999
 21
35.0
 31
0.0
  0
LINE
  5
159
330
1E
100
AcDbEntity
  8
0
100
AcDbLine
 10
67.7667
 20
35.0
 30
0.0
 11
68.72669999999999
 21
35.0
 31
0.0
  0
LINE
  5
15A
330
1E
100
AcDbEntity
  8
0
100
AcDbLine
 10
66.9187
 20
35.0
 30
0.0
 11
67.7667
 21
35.0
 31
0.0
  0
LINE
  5
15B
330
1E
100
AcDbEntity
  8
0
100
AcDbLine
 10
66.604
 20
35.0
 30
0.0
 11
72.148
 21
35.0
 31
0.0
  0
LINE
  5
15C
330
1E
100
AcDbEntity
  8
0
100
AcDbLine
 10
61.816
 20
35.0
 30
0.0
 11
66.604
 21
35.0
 31
0.0
  0
LINE
  5
15D
330
1E
100
AcDbEntity
  8
0
100
AcDbLine
 10
58.54
 20
35.0
 30
0.0
 11
61.816
 21
35.0
 31
0.0
  0
LINE
  5
15E
330
1E
100
AcDbEntity
  8
0
100
AcDbLine
 10
72.148
 20
35.0
 30
0.0
 11
78.196
 21
35.0
 31
0.0
  0
LINE
  5
15F
330
1E
100
AcDbEntity
  8
0
100
AcDbLine
 10
89.81799999999999
 20
35.0
 30
0.0
 11
90.66599999999999
 21
35.0
 31
0.0
  0
LINE
  5
160
330
1E
100
AcDbEntity
  8
0
100
AcDbLine
 10
89.17799999999999
 20
35.0
 30
0.0
 11
89.81799999999999
 21
35.0
 31
0.0
  0
LINE
  5
161
330
1E
100
AcDbEntity
  8
0
100
AcDbLine
 10
88.794
 20
35.0
 30
0.0
 11
89.17799999999999
 21
35.0
 31
0.0
  0
LINE
  5
162
330
1E
100
AcDbEntity
  8
0
100
AcDbLine
 10
81.3391
 20
35.0
 30
0.0
 11
90.33039999999999
 21
35.0
 31
0.0
  0
LINE
  5
163
330
1E
100
AcDbEntity
  8
0
100
AcDbLine
 10
91.62600000000001
 20
35.0
 30
0.0
 11
92.65
 21
35.0
 31
0.0
  0
LINE
  5
164
330
1E
100
AcDbEntity
  8
0
100
AcDbLine
 10
90.66599999999999
 20
35.0
 30
0.0
 11
91.62600000000001
 21
35.0
 31
0.0
  0
LINE
  5
165
330
1E
100
AcDbEntity
  8
0
100
AcDbLine
 10
78.6417
 20
35.0
 30
0.0
 11
89.07160000000001
 21
35.0
 31
0.0
  0
LINE
  5
166
330
1E
100
AcDbEntity
  8
0
100
AcDbLine
 10
78.6417
 20
35.0
 30
0.0
 11
81.3391
 21
35.0
 31
0.0
  0
LINE
  5
167
330
1E
100
AcDbEntity
  8
0
100
AcDbLine
 10
78.196
 20
35.0
 30
0.0
 11
85.25200000000001
 21
35.0
 31
0.0
  0
LINE
  5
168
330
1E
100
AcDbEntity
  8
0
100
AcDbLine
 10
88.65
 20
35.0
 30
0.0
 11
88.794
 21
35.0
 31
0.0
  0
LINE
  5
169
330
1E
100
AcDbEntity
  8
0
100
AcDbLine
 10
89.07160000000001
 20
35.0
 30
0.0
 11
90.33039999999999
 21
35.0
 31
0.0
  0
LINE
  5
16A
330
1E
100
AcDbEntity
  8
0
100
AcDbLine
 10
88.794
 20
35.0
 30
0.0
 11
89.07160000000001
 21
35.0
 31
0.0
  0
LINE
  5
16B
330
1E
100
AcDbEntity
  8
0
100
AcDbLine
 10
90.33039999999999
 20
35.0
 30
0.0
 11
91.79999999999999
 21
35.0
 31
0.0
  0
LINE
  5
16C
330
1E
100
AcDbEntity
  8
0
100
AcDbLine
 10
78.9115
 20
39.0
 30
0.0
 11
88.65
 21
39.0
 31
0.0
  0
LINE
  5
16D
330
1E
100
AcDbEntity
  8
0
100
AcDbLine
 10
90.66599999999999
 20
39.0
 30
0.0
 11
91.0
 21
39.0
 31
0.0
  0
LINE
  5
16E
330
1E
100
AcDbEntity
  8
0
100
AcDbLine
 10
89.81799999999999
 20
39.0
 30
0.0
 11
90.66599999999999
 21
39.0
 31
0.0
  0
LINE
  5
16F
330
1E
100
AcDbEntity
  8
0
100
AcDbLine
 10
89.17799999999999
 20
39.0
 30
0.0
 11
89.81799999999999
 21
39.0
 31
0.0
  0
LINE
  5
170
330
1E
100
AcDbEntity
  8
0
100
AcDbLine
 10
88.794
 20
39.0
 30
0.0
 11
89.17799999999999
 21
39.0
 31
0.0
  0
LINE
  5
171
330
1E
100
AcDbEntity
  8
0
100
AcDbLine
 10
88.65
 20
39.0
 30
0.0
 11
88.794
 21
39.0
 31
0.0
  0
LINE
  5
172
330
1E
100
AcDbEntity
  8
0
100
AcDbLine
 10
91.0
 20
39.0
 30
0.0
 11
91.0
 21
35.0
 31
0.0
  0
LINE
  5
173
330
1E
100
AcDbEntity
  8
0
100
AcDbLine
 10
91.0
 20
39.0
 30
0.0
 11
142.0
 21
39.0
 31
0.0
  0
LINE
  5
174
330
1E
100
AcDbEntity
  8
0
100
AcDbLine
 10
68.72669999999999
 20
35.0
 30
0.0
 11
88.65
 21
35.0
 31
0.0
  0
LINE
  5
175
330
1E
100
AcDbEntity
  8
0
100
AcDbLine
 10
91.62600000000001
 20
35.0
 30
0.0
 11
92.65
 21
35.0
 31
0.0
  0
LINE
  5
176
330
1E
100
AcDbEntity
  8
0
100
AcDbLine
 10
91.79999999999999
 20
35.0
 30
0.0
 11
141.1999999999999
 21
35.0
 31
0.0
  0
LINE
  5
177
330
1E
100
AcDbEntity
  8
0
100
AcDbLine
 10
91.0
 20
35.0
 30
0.0
 11
91.0
 21
39.0
 31
0.0
  0
LINE
  5
178
330
1E
100
AcDbEntity
  8
0
100
AcDbLine
 10
91.0
 20
35.0
 30
0.0
 11
91.79999999999999
 21
35.0
 31
0.0
  0
LINE
  5
179
330
1E
100
AcDbEntity
  8
0
100
AcDbLine
 10
91.0
 20
35.0
 30
0.0
 11
142.0
 21
35.0
 31
0.0
  0
LINE
  5
17A
330
1E
100
AcDbEntity
  8
0
100
AcDbLine
 10
91.0
 20
35.0
 30
0.0
 11
91.62600000000001
 21
35.0
 31
0.0
  0
LINE
  5
17B
330
1E
100
AcDbEntity
  8
0
100
AcDbLine
 10
85.25200000000001
 20
35.0
 30
0.0
 11
92.56
 21
35.0
 31
0.0
  0
LINE
  5
17C
330
1E
100
AcDbEntity
  8
0
100
AcDbLine
 10
93.0539
 20
35.0
 30
0.0
 11
95.0243
 21
35.0
 31
0.0
  0
LINE
  5
17D
330
1E
100
AcDbEntity
  8
0
100
AcDbLine
 10
93.0539
 20
35.0
 30
0.0
 11
94.916
 21
35.0
 31
0.0
  0
LINE
  5
17E
330
1E
100
AcDbEntity
  8
0
100
AcDbLine
 10
92.65
 20
35.0
 30
0.0
 11
93.67399999999999
 21
35.0
 31
0.0
  0
LINE
  5
17F
330
1E
100
AcDbEntity
  8
0
100
AcDbLine
 10
93.67399999999999
 20
35.0
 30
0.0
 11
94.634
 21
35.0
 31
0.0
  0
LINE
  5
180
330
1E
100
AcDbEntity
  8
0
100
AcDbLine
 10
92.65
 20
35.0
 30
0.0
 11
93.67399999999999
 21
35.0
 31
0.0
  0
LINE
  5
181
330
1E
100
AcDbEntity
  8
0
100
AcDbLine
 10
95.0243
 20
35.0
 30
0.0
 11
96.98399999999999
 21
35.0
 31
0.0
  0
LINE
  5
182
330
1E
100
AcDbEntity
  8
0
100
AcDbLine
 10
94.916
 20
35.0
 30
0.0
 11
96.98399999999999
 21
35.0
 31
0.0
  0
LINE
  5
183
330
1E
100
AcDbEntity
  8
0
100
AcDbLine
 10
94.634
 20
35.0
 30
0.0
 11
95.48200000000001
 21
35.0
 31
0.0
  0
LINE
  5
184
330
1E
100
AcDbEntity
  8
0
100
AcDbLine
 10
95.48200000000001
 20
35.0
 30
0.0
 11
96.12200000000001
 21
35.0
 31
0.0
  0
LINE
  5
185
330
1E
100
AcDbEntity
  8
0
100
AcDbLine
 10
93.67399999999999
 20
35.0
 30
0.0
 11
94.634
 21
35.0
 31
0.0
  0
LINE
  5
186
330
1E
100
AcDbEntity
  8
0
100
AcDbLine
 10
94.634
 20
35.0
 30
0.0
 11
95.48200000000001
 21
35.0
 31
0.0
  0
LINE
  5
187
330
1E
100
AcDbEntity
  8
0
100
AcDbLine
 10
96.12200000000001
 20
35.0
 30
0.0
 11
96.506
 21
35.0
 31
0.0
  0
LINE
  5
188
330
1E
100
AcDbEntity
  8
0
100
AcDbLine
 10
95.48200000000001
 20
35.0
 30
0.0
 11
96.12200000000001
 21
35.0
 31
0.0
  0
LINE
  5
189
330
1E
100
AcDbEntity
  8
0
100
AcDbLine
 10
96.12200000000001
 20
35.0
 30
0.0
 11
96.506
 21
35.0
 31
0.0
  0
LINE
  5
18A
330
1E
100
AcDbEntity
  8
0
100
AcDbLine
 10
92.56
 20
35.0
 30
0.0
 11
100.372
 21
35.0
 31
0.0
  0
LINE
  5
18B
330
1E
100
AcDbEntity
  8
0
100
AcDbLine
 10
58.8963
 20
80.87999999999999
 30
0.0
 11
59.15
 21
86.0
 31
0.0
  0
LINE
  5
18C
330
1E
100
AcDbEntity
  8
0
100
AcDbLine
 10
58.2401
 20
76.08
 30
0.0
 11
58.8963
 21
80.87999999999999
 31
0.0
  0
LINE
  5
18D
330
1E
100
AcDbEntity
  8
0
100
AcDbLine
 10
93.1916
 20
0.0000000000000081
 30
0.0
 11
100.7679999999999
 21
0.0000000000000082
 31
0.0
  0
LINE
  5
18E
330
1E
100
AcDbEntity
  8
0
100
AcDbLine
 10
96.506
 20
35.0
 30
0.0
 11
96.65
 21
35.0
 31
0.0
  0
LINE
  5
18F
330
1E
100
AcDbEntity
  8
0
100
AcDbLine
 10
96.506
 20
35.0
 30
0.0
 11
96.65
 21
35.0
 31
0.0
  0
LINE
  5
190
330
1E
100
AcDbEntity
  8
0
100
AcDbLine
 10
100.372
 20
35.0
 30
0.0
 11
108.1839999999999
 21
35.0
 31
0.0
  0
LINE
  5
192
330
1E
100
AcDbEntity
  8
0
100
AcDbLine
 10
100.112
 20
81.64799999999999
 30
0.0
 11
101.744
 21
77.568
 31
0.0
  0
LINE
  5
194
330
1E
100
AcDbEntity
  8
0
100
AcDbLine
 10
97.1958
 20
80.87999999999999
 30
0.0
 11
99.13890000000002
 21
76.08
 31
0.0
  0
LINE
  5
195
330
1E
100
AcDbEntity
  8
0
100
AcDbLine
 10
99.13890000000002
 20
76.08
 30
0.0
 11
102.3209999999999
 21
71.84000000000001
 31
0.0
  0
LINE
  5
196
330
1E
100
AcDbEntity
  8
0
100
AcDbLine
 10
101.744
 20
77.568
 30
0.0
 11
104.464
 21
73.96399999999999
 31
0.0
  0
LINE
  5
197
330
1E
100
AcDbEntity
  8
0
100
AcDbLine
 10
102.3209999999999
 20
71.84000000000001
 30
0.0
 11
106.5709999999999
 21
68.64
 31
0.0
  0
LINE
  5
198
330
1E
100
AcDbEntity
  8
0
100
AcDbLine
 10
101.2839999999999
 20
0.0000000000000081
 30
0.0
 11
108.799
 21
0.0000000000000082
 31
0.0
  0
LINE
  5
199
330
1E
100
AcDbEntity
  8
0
100
AcDbLine
 10
100.7679999999999
 20
0.0000000000000082
 30
0.0
 11
108.538
 21
0.0000000000000083
 31
0.0
  0
LINE
  5
19A
330
1E
100
AcDbEntity
  8
0
100
AcDbLine
 10
58.8963
 20
91.12
 30
0.0
 11
59.15
 21
86.0
 31
0.0
  0
LINE
  5
1B8
330
1E
100
AcDbEntity
  8
0
100
AcDbLine
 10
63.9067
 20
108.0
 30
0.0
 11
65.6987
 21
108.0
 31
0.0
  0
LINE
  5
1B9
330
1E
100
AcDbEntity
  8
0
100
AcDbLine
 10
65.6987
 20
108.0
 30
0.0
 11
67.3787
 21
108.0
 31
0.0
  0
LINE
  5
1BA
330
1E
100
AcDbEntity
  8
0
100
AcDbLine
 10
67.3787
 20
108.0
 30
0.0
 11
68.8627
 21
108.0
 31
0.0
  0
LINE
  5
1BB
330
1E
100
AcDbEntity
  8
0
100
AcDbLine
 10
68.8627
 20
108.0
 30
0.0
 11
69.98269999999999
 21
108.0
 31
0.0
  0
LINE
  5
1BC
330
1E
100
AcDbEntity
  8
0
100
AcDbLine
 10
62.1147
 20
108.0
 30
0.0
 11
63.9067
 21
108.0
 31
0.0
  0
LINE
  5
1BD
330
1E
100
AcDbEntity
  8
0
100
AcDbLine
 10
60.4347
 20
108.0
 30
0.0
 11
62.1147
 21
108.0
 31
0.0
  0
LINE
  5
1BE
330
1E
100
AcDbEntity
  8
0
100
AcDbLine
 10
58.9507
 20
108.0
 30
0.0
 11
60.4347
 21
108.0
 31
0.0
  0
LINE
  5
1BF
330
1E
100
AcDbEntity
  8
0
100
AcDbLine
 10
57.8307
 20
108.0
 30
0.0
 11
58.9507
 21
108.0
 31
0.0
  0
LINE
  5
1C2
330
1E
100
AcDbEntity
  8
0
100
AcDbLine
 10
69.98269999999999
 20
108.0
 30
0.0
 11
85.9105
 21
108.0
 31
0.0
  0
LINE
  5
1C3
330
1E
100
AcDbEntity
  8
0
100
AcDbLine
 10
58.2401
 20
95.92
 30
0.0
 11
58.8963
 21
91.12
 31
0.0
  0
LINE
  5
1C4
330
1E
100
AcDbEntity
  8
0
100
AcDbLine
 10
97.1958
 20
91.12
 30
0.0
 11
99.13890000000002
 21
95.92
 31
0.0
  0
LINE
  5
1C5
330
1E
100
AcDbEntity
  8
0
100
AcDbLine
 10
93.1916
 20
108.0
 30
0.0
 11
100.7679999999999
 21
108.0
 31
0.0
  0
LINE
  5
1C7
330
1E
100
AcDbEntity
  8
0
100
AcDbLine
 10
99.13890000000002
 20
95.92
 30
0.0
 11
102.3209999999999
 21
100.16
 31
0.0
  0
LINE
  5
1C8
330
1E
100
AcDbEntity
  8
0
100
AcDbLine
 10
96.5
 20
86.0
 30
0.0
 11
97.1958
 21
80.87999999999999
 31
0.0
  0
LINE
  5
1CB
330
1E
100
AcDbEntity
  8
0
100
AcDbLine
 10
96.5
 20
86.0
 30
0.0
 11
97.1958
 21
91.12
 31
0.0
  0
LINE
  5
1CC
330
1E
100
AcDbEntity
  8
0
100
AcDbLine
 10
85.9105
 20
108.0
 30
0.0
 11
86.1284
 21
108.0
 31
0.0
  0
LINE
  5
1CD
330
1E
100
AcDbEntity
  8
0
100
AcDbLine
 10
86.1284
 20
108.0
 30
0.0
 11
93.1916
 21
108.0
 31
0.0
  0
LINE
  5
1CE
330
1E
100
AcDbEntity
  8
0
100
AcDbLine
 10
99.14000000000001
 20
95.92
 30
0.0
 11
102.34
 21
100.16
 31
0.0
  0
LINE
  5
1CF
330
1E
100
AcDbEntity
  8
0
100
AcDbLine
 10
99.50000000000001
 20
86.0
 30
0.0
 11
100.112
 21
90.35200000000001
 31
0.0
  0
LINE
  5
1D0
330
1E
100
AcDbEntity
  8
0
100
AcDbLine
 10
99.50000000000001
 20
86.0
 30
0.0
 11
100.112
 21
81.64799999999999
 31
0.0
  0
LINE
  5
1D1
330
1E
100
AcDbEntity
  8
0
100
AcDbLine
 10
101.929
 20
86.0
 30
0.0
 11
102.4529999999999
 21
89.73029999999999
 31
0.0
  0
LINE
  5
1D2
330
1E
100
AcDbEntity
  8
0
100
AcDbLine
 10
101.929
 20
86.0
 30
0.0
 11
102.4529999999999
 21
82.26969999999999
 31
0.0
  0
LINE
  5
1D3
330
1E
100
AcDbEntity
  8
0
100
AcDbLine
 10
101.744
 20
94.432
 30
0.0
 11
104.464
 21
98.03600000000001
 31
0.0
  0
LINE
  5
1D4
330
1E
100
AcDbEntity
  8
0
100
AcDbLine
 10
100.112
 20
90.35200000000001
 30
0.0
 11
101.744
 21
94.432
 31
0.0
  0
LINE
  5
1D5
330
1E
100
AcDbEntity
  8
0
100
AcDbLine
 10
99.14000000000001
 20
95.92
 30
0.0
 11
102.34
 21
100.16
 31
0.0
  0
LINE
  5
1D6
330
1E
100
AcDbEntity
  8
0
100
AcDbLine
 10
100.7679999999999
 20
108.0
 30
0.0
 11
108.538
 21
108.0
 31
0.0
  0
LINE
  5
1D7
330
1E
100
AcDbEntity
  8
0
100
AcDbLine
 10
102.3209999999999
 20
100.16
 30
0.0
 11
106.5709999999999
 21
103.36
 31
0.0
  0
LINE
  5
1D9
330
1E
100
AcDbEntity
  8
0
100
AcDbLine
 10
108.1839999999999
 20
35.0
 30
0.0
 11
116.5
 21
35.0
 31
0.0
  0
LINE
  5
1DA
330
1E
100
AcDbEntity
  8
0
100
AcDbLine
 10
108.068
 20
71.244
 30
0.0
 11
112.148
 21
69.61199999999999
 31
0.0
  0
LINE
  5
1DB
330
1E
100
AcDbEntity
  8
0
100
AcDbLine
 10
106.5709999999999
 20
68.64
 30
0.0
 11
111.356
 21
66.72
 31
0.0
  0
LINE
  5
1DC
330
1E
100
AcDbEntity
  8
0
100
AcDbLine
 10
114.6109999999999
 20
35.0
 30
0.0
 11
115.571
 21
35.0
 31
0.0
  0
LINE
  5
1DD
330
1E
100
AcDbEntity
  8
0
100
AcDbLine
 10
113.7629999999999
 20
35.0
 30
0.0
 11
114.6109999999999
 21
35.0
 31
0.0
  0
LINE
  5
1DE
330
1E
100
AcDbEntity
  8
0
100
AcDbLine
 10
113.1229999999999
 20
35.0
 30
0.0
 11
113.7629999999999
 21
35.0
 31
0.0
  0
LINE
  5
1DF
330
1E
100
AcDbEntity
  8
0
100
AcDbLine
 10
112.7389999999999
 20
35.0
 30
0.0
 11
113.1229999999999
 21
35.0
 31
0.0
  0
LINE
  5
1E0
330
1E
100
AcDbEntity
  8
0
100
AcDbLine
 10
112.595
 20
35.0
 30
0.0
 11
112.7389999999999
 21
35.0
 31
0.0
  0
LINE
  5
1E1
330
1E
100
AcDbEntity
  8
0
100
AcDbLine
 10
115.5
 20
35.0
 30
0.0
 11
117.5
 21
35.0
 31
0.0
  0
LINE
  5
1E2
330
1E
100
AcDbEntity
  8
0
100
AcDbLine
 10
115.571
 20
35.0
 30
0.0
 11
116.595
 21
35.0
 31
0.0
  0
LINE
  5
1E3
330
1E
100
AcDbEntity
  8
0
100
AcDbLine
 10
115.5
 20
35.0
 30
0.0
 11
117.5
 21
35.0
 31
0.0
  0
LINE
  5
1E4
330
1E
100
AcDbEntity
  8
0
100
AcDbLine
 10
112.148
 20
69.61199999999999
 30
0.0
 11
116.5
 21
69.0
 31
0.0
  0
LINE
  5
1E6
330
1E
100
AcDbEntity
  8
0
100
AcDbLine
 10
111.356
 20
66.72
 30
0.0
 11
116.5
 21
66.0
 31
0.0
  0
LINE
  5
1E7
330
1E
100
AcDbEntity
  8
0
100
AcDbLine
 10
108.799
 20
0.0000000000000082
 30
0.0
 11
116.5
 21
0.0000000000000082
 31
0.0
  0
LINE
  5
1E8
330
1E
100
AcDbEntity
  8
0
100
AcDbLine
 10
108.538
 20
0.0000000000000083
 30
0.0
 11
116.5
 21
0.0000000000000084
 31
0.0
  0
LINE
  5
1E9
330
1E
100
AcDbEntity
  8
0
100
AcDbLine
 10
102.4529999999999
 20
89.73029999999999
 30
0.0
 11
103.852
 21
93.22740000000001
 31
0.0
  0
LINE
  5
1EA
330
1E
100
AcDbEntity
  8
0
100
AcDbLine
 10
102.4529999999999
 20
82.26969999999999
 30
0.0
 11
103.852
 21
78.77259999999999
 31
0.0
  0
LINE
  5
1EB
330
1E
100
AcDbEntity
  8
0
100
AcDbLine
 10
104.464
 20
73.96399999999999
 30
0.0
 11
108.068
 21
71.244
 31
0.0
  0
LINE
  5
1EC
330
1E
100
AcDbEntity
  8
0
100
AcDbLine
 10
103.852
 20
78.77259999999999
 30
0.0
 11
106.183
 21
75.6834
 31
0.0
  0
LINE
  5
1ED
330
1E
100
AcDbEntity
  8
0
100
AcDbLine
 10
106.183
 20
75.6834
 30
0.0
 11
109.2729999999999
 21
73.352
 31
0.0
  0
LINE
  5
1EE
330
1E
100
AcDbEntity
  8
0
100
AcDbLine
 10
102.4529999999999
 20
89.73029999999999
 30
0.0
 11
103.852
 21
93.22740000000001
 31
0.0
  0
LINE
  5
1EF
330
1E
100
AcDbEntity
  8
0
100
AcDbLine
 10
103.852
 20
93.22740000000001
 30
0.0
 11
106.183
 21
96.3166
 31
0.0
  0
LINE
  5
1F0
330
1E
100
AcDbEntity
  8
0
100
AcDbLine
 10
106.183
 20
96.3166
 30
0.0
 11
109.2729999999999
 21
98.648
 31
0.0
  0
LINE
  5
1F1
330
1E
100
AcDbEntity
  8
0
100
AcDbLine
 10
103.852
 20
93.22740000000001
 30
0.0
 11
106.183
 21
96.3166
 31
0.0
  0
LINE
  5
1F2
330
1E
100
AcDbEntity
  8
0
100
AcDbLine
 10
109.2729999999999
 20
73.352
 30
0.0
 11
112.7699999999999
 21
71.9531
 31
0.0
  0
LINE
  5
1F3
330
1E
100
AcDbEntity
  8
0
100
AcDbLine
 10
112.7699999999999
 20
71.9531
 30
0.0
 11
116.5
 21
71.4286
 31
0.0
  0
LINE
  5
1F4
330
1E
100
AcDbEntity
  8
0
100
AcDbLine
 10
106.183
 20
96.3166
 30
0.0
 11
109.2729999999999
 21
98.648
 31
0.0
  0
LINE
  5
1F5
330
1E
100
AcDbEntity
  8
0
100
AcDbLine
 10
104.464
 20
98.03600000000001
 30
0.0
 11
108.068
 21
100.756
 31
0.0
  0
LINE
  5
1F6
330
1E
100
AcDbEntity
  8
0
100
AcDbLine
 10
109.2729999999999
 20
98.648
 30
0.0
 11
112.7699999999999
 21
100.047
 31
0.0
  0
LINE
  5
1F7
330
1E
100
AcDbEntity
  8
0
100
AcDbLine
 10
112.7699999999999
 20
100.047
 30
0.0
 11
116.5
 21
100.571
 31
0.0
  0
LINE
  5
1F8
330
1E
100
AcDbEntity
  8
0
100
AcDbLine
 10
109.2729999999999
 20
98.648
 30
0.0
 11
112.7699999999999
 21
100.047
 31
0.0
  0
LINE
  5
1F9
330
1E
100
AcDbEntity
  8
0
100
AcDbLine
 10
112.7699999999999
 20
100.047
 30
0.0
 11
116.5
 21
100.571
 31
0.0
  0
LINE
  5
1FB
330
1E
100
AcDbEntity
  8
0
100
AcDbLine
 10
177.5
 20
0.0000000000000046
 30
0.0
 11
177.5
 21
35.0
 31
0.0
  0
LINE
  5
1FC
330
1E
100
AcDbEntity
  8
0
100
AcDbLine
 10
145.876
 20
0.0000000000000078
 30
0.0
 11
152.397
 21
0.0000000000000075
 31
0.0
  0
LINE
  5
1FD
330
1E
100
AcDbEntity
  8
0
100
AcDbLine
 10
139.0439999999999
 20
0.000000000000008
 30
0.0
 11
145.876
 21
0.0000000000000078
 31
0.0
  0
LINE
  5
1FE
330
1E
100
AcDbEntity
  8
0
100
AcDbLine
 10
152.397
 20
0.0000000000000075
 30
0.0
 11
158.173
 21
0.0000000000000072
 31
0.0
  0
LINE
  5
1FF
330
1E
100
AcDbEntity
  8
0
100
AcDbLine
 10
153.614
 20
0.0000000000000076
 30
0.0
 11
159.585
 21
0.0000000000000073
 31
0.0
  0
LINE
  5
200
330
1E
100
AcDbEntity
  8
0
100
AcDbLine
 10
146.872
 20
0.0000000000000079
 30
0.0
 11
153.614
 21
0.0000000000000076
 31
0.0
  0
LINE
  5
201
330
1E
100
AcDbEntity
  8
0
100
AcDbLine
 10
116.5
 20
69.0
 30
0.0
 11
120.852
 21
69.61199999999999
 31
0.0
  0
LINE
  5
202
330
1E
100
AcDbEntity
  8
0
100
AcDbLine
 10
116.5
 20
71.4286
 30
0.0
 11
120.23
 21
71.9531
 31
0.0
  0
LINE
  5
203
330
1E
100
AcDbEntity
  8
0
100
AcDbLine
 10
116.5
 20
35.0
 30
0.0
 11
124.816
 21
35.0
 31
0.0
  0
LINE
  5
204
330
1E
100
AcDbEntity
  8
0
100
AcDbLine
 10
116.5
 20
66.0
 30
0.0
 11
121.6439999999999
 21
66.72
 31
0.0
  0
LINE
  5
206
330
1E
100
AcDbEntity
  8
0
100
AcDbLine
 10
116.5
 20
0.0000000000000084
 30
0.0
 11
124.462
 21
0.0000000000000083
 31
0.0
  0
LINE
  5
207
330
1E
100
AcDbEntity
  8
0
100
AcDbLine
 10
131.716
 20
0.0000000000000081
 30
0.0
 11
139.0439999999999
 21
0.000000000000008
 31
0.0
  0
LINE
  5
208
330
1E
100
AcDbEntity
  8
0
100
AcDbLine
 10
116.595
 20
35.0
 30
0.0
 11
117.619
 21
35.0
 31
0.0
  0
LINE
  5
209
330
1E
100
AcDbEntity
  8
0
100
AcDbLine
 10
117.619
 20
35.0
 30
0.0
 11
118.5789999999999
 21
35.0
 31
0.0
  0
LINE
  5
20A
330
1E
100
AcDbEntity
  8
0
100
AcDbLine
 10
118.5789999999999
 20
35.0
 30
0.0
 11
119.427
 21
35.0
 31
0.0
  0
LINE
  5
20B
330
1E
100
AcDbEntity
  8
0
100
AcDbLine
 10
119.427
 20
35.0
 30
0.0
 11
120.067
 21
35.0
 31
0.0
  0
LINE
  5
20C
330
1E
100
AcDbEntity
  8
0
100
AcDbLine
 10
120.067
 20
35.0
 30
0.0
 11
120.451
 21
35.0
 31
0.0
  0
LINE
  5
20E
330
1E
100
AcDbEntity
  8
0
100
AcDbLine
 10
120.451
 20
35.0
 30
0.0
 11
120.595
 21
35.0
 31
0.0
  0
LINE
  5
20F
330
1E
100
AcDbEntity
  8
0
100
AcDbLine
 10
123.727
 20
98.648
 30
0.0
 11
126.817
 21
96.3166
 31
0.0
  0
LINE
  5
210
330
1E
100
AcDbEntity
  8
0
100
AcDbLine
 10
123.727
 20
73.352
 30
0.0
 11
126.817
 21
75.6834
 31
0.0
  0
LINE
  5
211
330
1E
100
AcDbEntity
  8
0
100
AcDbLine
 10
120.23
 20
71.9531
 30
0.0
 11
123.727
 21
73.352
 31
0.0
  0
LINE
  5
212
330
1E
100
AcDbEntity
  8
0
100
AcDbLine
 10
120.852
 20
69.61199999999999
 30
0.0
 11
124.9319999999999
 21
71.244
 31
0.0
  0
LINE
  5
213
330
1E
100
AcDbEntity
  8
0
100
AcDbLine
 10
123.727
 20
98.648
 30
0.0
 11
126.817
 21
96.3166
 31
0.0
  0
LINE
  5
214
330
1E
100
AcDbEntity
  8
0
100
AcDbLine
 10
120.23
 20
100.047
 30
0.0
 11
123.727
 21
98.648
 31
0.0
  0
LINE
  5
215
330
1E
100
AcDbEntity
  8
0
100
AcDbLine
 10
120.23
 20
100.047
 30
0.0
 11
123.727
 21
98.648
 31
0.0
  0
LINE
  5
216
330
1E
100
AcDbEntity
  8
0
100
AcDbLine
 10
123.727
 20
73.352
 30
0.0
 11
126.817
 21
75.6834
 31
0.0
  0
LINE
  5
217
330
1E
100
AcDbEntity
  8
0
100
AcDbLine
 10
121.6439999999999
 20
66.72
 30
0.0
 11
126.429
 21
68.64
 31
0.0
  0
LINE
  5
219
330
1E
100
AcDbEntity
  8
0
100
AcDbLine
 10
124.816
 20
35.0
 30
0.0
 11
132.6279999999999
 21
35.0
 31
0.0
  0
LINE
  5
21A
330
1E
100
AcDbEntity
  8
0
100
AcDbLine
 10
124.9319999999999
 20
71.244
 30
0.0
 11
128.536
 21
73.96399999999999
 31
0.0
  0
LINE
  5
21C
330
1E
100
AcDbEntity
  8
0
100
AcDbLine
 10
130.6599999999999
 20
71.84000000000001
 30
0.0
 11
133.86
 21
76.08
 31
0.0
  0
LINE
  5
21D
330
1E
100
AcDbEntity
  8
0
100
AcDbLine
 10
136.016
 20
35.0
 30
0.0
 11
138.084
 21
35.0
 31
0.0
  0
LINE
  5
21E
330
1E
100
AcDbEntity
  8
0
100
AcDbLine
 10
136.016
 20
35.0
 30
0.0
 11
137.976
 21
35.0
 31
0.0
  0
LINE
  5
21F
330
1E
100
AcDbEntity
  8
0
100
AcDbLine
 10
138.084
 20
35.0
 30
0.0
 11
139.9459999999999
 21
35.0
 31
0.0
  0
LINE
  5
220
330
1E
100
AcDbEntity
  8
0
100
AcDbLine
 10
137.976
 20
35.0
 30
0.0
 11
139.9459999999999
 21
35.0
 31
0.0
  0
LINE
  5
221
330
1E
100
AcDbEntity
  8
0
100
AcDbLine
 10
140.35
 20
35.0
 30
0.0
 11
141.3739999999999
 21
35.0
 31
0.0
  0
LINE
  5
222
330
1E
100
AcDbEntity
  8
0
100
AcDbLine
 10
139.3259999999999
 20
35.0
 30
0.0
 11
140.35
 21
35.0
 31
0.0
  0
LINE
  5
223
330
1E
100
AcDbEntity
  8
0
100
AcDbLine
 10
138.366
 20
35.0
 30
0.0
 11
139.3259999999999
 21
35.0
 31
0.0
  0
LINE
  5
224
330
1E
100
AcDbEntity
  8
0
100
AcDbLine
 10
137.518
 20
35.0
 30
0.0
 11
138.366
 21
35.0
 31
0.0
  0
LINE
  5
225
330
1E
100
AcDbEntity
  8
0
100
AcDbLine
 10
136.8779999999999
 20
35.0
 30
0.0
 11
137.518
 21
35.0
 31
0.0
  0
LINE
  5
226
330
1E
100
AcDbEntity
  8
0
100
AcDbLine
 10
136.494
 20
35.0
 30
0.0
 11
136.8779999999999
 21
35.0
 31
0.0
  0
LINE
  5
227
330
1E
100
AcDbEntity
  8
0
100
AcDbLine
 10
141.3739999999999
 20
35.0
 30
0.0
 11
142.334
 21
35.0
 31
0.0
  0
LINE
  5
228
330
1E
100
AcDbEntity
  8
0
100
AcDbLine
 10
142.6699999999999
 20
35.0
 30
0.0
 11
143.9279999999999
 21
35.0
 31
0.0
  0
LINE
  5
229
330
1E
100
AcDbEntity
  8
0
100
AcDbLine
 10
142.6699999999999
 20
35.0
 30
0.0
 11
151.661
 21
35.0
 31
0.0
  0
LINE
  5
22A
330
1E
100
AcDbEntity
  8
0
100
AcDbLine
 10
142.334
 20
35.0
 30
0.0
 11
143.182
 21
35.0
 31
0.0
  0
LINE
  5
22B
330
1E
100
AcDbEntity
  8
0
100
AcDbLine
 10
143.182
 20
35.0
 30
0.0
 11
143.822
 21
35.0
 31
0.0
  0
LINE
  5
22C
330
1E
100
AcDbEntity
  8
0
100
AcDbLine
 10
151.661
 20
35.0
 30
0.0
 11
154.358
 21
35.0
 31
0.0
  0
LINE
  5
22D
330
1E
100
AcDbEntity
  8
0
100
AcDbLine
 10
143.822
 20
35.0
 30
0.0
 11
144.206
 21
35.0
 31
0.0
  0
LINE
  5
22E
330
1E
100
AcDbEntity
  8
0
100
AcDbLine
 10
144.206
 20
35.0
 30
0.0
 11
144.35
 21
35.0
 31
0.0
  0
LINE
  5
22F
330
1E
100
AcDbEntity
  8
0
100
AcDbLine
 10
159.393
 20
35.0
 30
0.0
 11
159.777
 21
35.0
 31
0.0
  0
LINE
  5
230
330
1E
100
AcDbEntity
  8
0
100
AcDbLine
 10
159.2489999999999
 20
35.0
 30
0.0
 11
159.393
 21
35.0
 31
0.0
  0
LINE
  5
231
330
1E
100
AcDbEntity
  8
0
100
AcDbLine
 10
154.804
 20
35.0
 30
0.0
 11
160.852
 21
35.0
 31
0.0
  0
LINE
  5
232
330
1E
100
AcDbEntity
  8
0
100
AcDbLine
 10
147.7479999999999
 20
35.0
 30
0.0
 11
154.804
 21
35.0
 31
0.0
  0
LINE
  5
233
330
1E
100
AcDbEntity
  8
0
100
AcDbLine
 10
140.44
 20
35.0
 30
0.0
 11
147.7479999999999
 21
35.0
 31
0.0
  0
LINE
  5
234
330
1E
100
AcDbEntity
  8
0
100
AcDbLine
 10
139.3259999999999
 20
35.0
 30
0.0
 11
140.35
 21
35.0
 31
0.0
  0
LINE
  5
235
330
1E
100
AcDbEntity
  8
0
100
AcDbLine
 10
138.366
 20
35.0
 30
0.0
 11
139.3259999999999
 21
35.0
 31
0.0
  0
LINE
  5
236
330
1E
100
AcDbEntity
  8
0
100
AcDbLine
 10
137.518
 20
35.0
 30
0.0
 11
138.366
 21
35.0
 31
0.0
  0
LINE
  5
237
330
1E
100
AcDbEntity
  8
0
100
AcDbLine
 10
136.8779999999999
 20
35.0
 30
0.0
 11
137.518
 21
35.0
 31
0.0
  0
LINE
  5
238
330
1E
100
AcDbEntity
  8
0
100
AcDbLine
 10
136.494
 20
35.0
 30
0.0
 11
136.8779999999999
 21
35.0
 31
0.0
  0
LINE
  5
239
330
1E
100
AcDbEntity
  8
0
100
AcDbLine
 10
136.3499999999999
 20
35.0
 30
0.0
 11
136.494
 21
35.0
 31
0.0
  0
LINE
  5
23A
330
1E
100
AcDbEntity
  8
0
100
AcDbLine
 10
136.3499999999999
 20
35.0
 30
0.0
 11
136.494
 21
35.0
 31
0.0
  0
LINE
  5
23B
330
1E
100
AcDbEntity
  8
0
100
AcDbLine
 10
140.35
 20
35.0
 30
0.0
 11
141.3739999999999
 21
35.0
 31
0.0
  0
LINE
  5
23C
330
1E
100
AcDbEntity
  8
0
100
AcDbLine
 10
141.3739999999999
 20
35.0
 30
0.0
 11
142.0
 21
35.0
 31
0.0
  0
LINE
  5
23D
330
1E
100
AcDbEntity
  8
0
100
AcDbLine
 10
141.1999999999999
 20
35.0
 30
0.0
 11
142.6699999999999
 21
35.0
 31
0.0
  0
LINE
  5
23E
330
1E
100
AcDbEntity
  8
0
100
AcDbLine
 10
141.1999999999999
 20
35.0
 30
0.0
 11
142.0
 21
35.0
 31
0.0
  0
LINE
  5
23F
330
1E
100
AcDbEntity
  8
0
100
AcDbLine
 10
142.0
 20
39.0
 30
0.0
 11
142.0
 21
35.0
 31
0.0
  0
LINE
  5
240
330
1E
100
AcDbEntity
  8
0
100
AcDbLine
 10
142.0
 20
39.0
 30
0.0
 11
192.0
 21
39.0
 31
0.0
  0
LINE
  5
241
330
1E
100
AcDbEntity
  8
0
100
AcDbLine
 10
142.0
 20
39.0
 30
0.0
 11
142.334
 21
39.0
 31
0.0
  0
LINE
  5
242
330
1E
100
AcDbEntity
  8
0
100
AcDbLine
 10
142.334
 20
39.0
 30
0.0
 11
143.182
 21
39.0
 31
0.0
  0
LINE
  5
243
330
1E
100
AcDbEntity
  8
0
100
AcDbLine
 10
143.182
 20
39.0
 30
0.0
 11
143.822
 21
39.0
 31
0.0
  0
LINE
  5
244
330
1E
100
AcDbEntity
  8
0
100
AcDbLine
 10
143.822
 20
39.0
 30
0.0
 11
144.206
 21
39.0
 31
0.0
  0
LINE
  5
245
330
1E
100
AcDbEntity
  8
0
100
AcDbLine
 10
144.35
 20
39.0
 30
0.0
 11
154.089
 21
39.0
 31
0.0
  0
LINE
  5
246
330
1E
100
AcDbEntity
  8
0
100
AcDbLine
 10
144.206
 20
39.0
 30
0.0
 11
144.35
 21
39.0
 31
0.0
  0
LINE
  5
247
330
1E
100
AcDbEntity
  8
0
100
AcDbLine
 10
143.9279999999999
 20
35.0
 30
0.0
 11
164.273
 21
35.0
 31
0.0
  0
LINE
  5
248
330
1E
100
AcDbEntity
  8
0
100
AcDbLine
 10
143.9279999999999
 20
35.0
 30
0.0
 11
154.358
 21
35.0
 31
0.0
  0
LINE
  5
249
330
1E
100
AcDbEntity
  8
0
100
AcDbLine
 10
142.0
 20
35.0
 30
0.0
 11
192.0
 21
35.0
 31
0.0
  0
LINE
  5
24A
330
1E
100
AcDbEntity
  8
0
100
AcDbLine
 10
142.0
 20
35.0
 30
0.0
 11
142.0
 21
39.0
 31
0.0
  0
LINE
  5
24B
330
1E
100
AcDbEntity
  8
0
100
AcDbLine
 10
132.6279999999999
 20
35.0
 30
0.0
 11
140.44
 21
35.0
 31
0.0
  0
LINE
  5
24C
330
1E
100
AcDbEntity
  8
0
100
AcDbLine
 10
130.679
 20
71.84000000000001
 30
0.0
 11
133.8609999999999
 21
76.08
 31
0.0
  0
LINE
  5
24D
330
1E
100
AcDbEntity
  8
0
100
AcDbLine
 10
128.536
 20
73.96399999999999
 30
0.0
 11
131.2559999999999
 21
77.568
 31
0.0
  0
LINE
  5
24E
330
1E
100
AcDbEntity
  8
0
100
AcDbLine
 10
129.1479999999999
 20
78.77259999999999
 30
0.0
 11
130.5469999999999
 21
82.26969999999999
 31
0.0
  0
LINE
  5
24F
330
1E
100
AcDbEntity
  8
0
100
AcDbLine
 10
126.817
 20
75.6834
 30
0.0
 11
129.1479999999999
 21
78.77259999999999
 31
0.0
  0
LINE
  5
250
330
1E
100
AcDbEntity
  8
0
100
AcDbLine
 10
129.1479999999999
 20
93.22740000000001
 30
0.0
 11
130.5469999999999
 21
89.73029999999999
 31
0.0
  0
LINE
  5
251
330
1E
100
AcDbEntity
  8
0
100
AcDbLine
 10
129.1479999999999
 20
93.22740000000001
 30
0.0
 11
130.5469999999999
 21
89.73029999999999
 31
0.0
  0
LINE
  5
252
330
1E
100
AcDbEntity
  8
0
100
AcDbLine
 10
133.86
 20
76.08
 30
0.0
 11
135.78
 21
80.87999999999999
 31
0.0
  0
LINE
  5
253
330
1E
100
AcDbEntity
  8
0
100
AcDbLine
 10
132.888
 20
81.64799999999999
 30
0.0
 11
133.4999999999999
 21
86.0
 31
0.0
  0
LINE
  5
254
330
1E
100
AcDbEntity
  8
0
100
AcDbLine
 10
131.2559999999999
 20
77.568
 30
0.0
 11
132.888
 21
81.64799999999999
 31
0.0
  0
LINE
  5
255
330
1E
100
AcDbEntity
  8
0
100
AcDbLine
 10
130.5469999999999
 20
82.26969999999999
 30
0.0
 11
131.071
 21
86.0
 31
0.0
  0
LINE
  5
256
330
1E
100
AcDbEntity
  8
0
100
AcDbLine
 10
130.5469999999999
 20
89.73029999999999
 30
0.0
 11
131.071
 21
86.0
 31
0.0
  0
LINE
  5
257
330
1E
100
AcDbEntity
  8
0
100
AcDbLine
 10
130.5469999999999
 20
89.73029999999999
 30
0.0
 11
131.071
 21
86.0
 31
0.0
  0
LINE
  5
258
330
1E
100
AcDbEntity
  8
0
100
AcDbLine
 10
133.86
 20
95.92
 30
0.0
 11
135.78
 21
91.12
 31
0.0
  0
LINE
  5
259
330
1E
100
AcDbEntity
  8
0
100
AcDbLine
 10
131.2559999999999
 20
94.432
 30
0.0
 11
132.888
 21
90.35200000000001
 31
0.0
  0
LINE
  5
25A
330
1E
100
AcDbEntity
  8
0
100
AcDbLine
 10
132.888
 20
90.35200000000001
 30
0.0
 11
133.4999999999999
 21
86.0
 31
0.0
  0
LINE
  5
25B
330
1E
100
AcDbEntity
  8
0
100
AcDbLine
 10
130.5469999999999
 20
82.26969999999999
 30
0.0
 11
131.071
 21
86.0
 31
0.0
  0
LINE
  5
25C
330
1E
100
AcDbEntity
  8
0
100
AcDbLine
 10
129.1479999999999
 20
78.77259999999999
 30
0.0
 11
130.5469999999999
 21
82.26969999999999
 31
0.0
  0
LINE
  5
25D
330
1E
100
AcDbEntity
  8
0
100
AcDbLine
 10
126.817
 20
75.6834
 30
0.0
 11
129.1479999999999
 21
78.77259999999999
 31
0.0
  0
LINE
  5
25E
330
1E
100
AcDbEntity
  8
0
100
AcDbLine
 10
133.8609999999999
 20
76.08
 30
0.0
 11
135.804
 21
80.87999999999999
 31
0.0
  0
LINE
  5
25F
330
1E
100
AcDbEntity
  8
0
100
AcDbLine
 10
128.536
 20
98.03600000000001
 30
0.0
 11
131.2559999999999
 21
94.432
 31
0.0
  0
LINE
  5
260
330
1E
100
AcDbEntity
  8
0
100
AcDbLine
 10
126.817
 20
96.3166
 30
0.0
 11
129.1479999999999
 21
93.22740000000001
 31
0.0
  0
LINE
  5
261
330
1E
100
AcDbEntity
  8
0
100
AcDbLine
 10
126.817
 20
96.3166
 30
0.0
 11
129.1479999999999
 21
93.22740000000001
 31
0.0
  0
LINE
  5
262
330
1E
100
AcDbEntity
  8
0
100
AcDbLine
 10
133.8609999999999
 20
95.92
 30
0.0
 11
135.804
 21
91.12
 31
0.0
  0
LINE
  5
263
330
1E
100
AcDbEntity
  8
0
100
AcDbLine
 10
135.78
 20
80.87999999999999
 30
0.0
 11
136.4999999999999
 21
86.0
 31
0.0
  0
LINE
  5
264
330
1E
100
AcDbEntity
  8
0
100
AcDbLine
 10
135.78
 20
91.12
 30
0.0
 11
136.4999999999999
 21
86.0
 31
0.0
  0
LINE
  5
265
330
1E
100
AcDbEntity
  8
0
100
AcDbLine
 10
135.804
 20
91.12
 30
0.0
 11
136.4999999999999
 21
86.0
 31
0.0
  0
LINE
  5
266
330
1E
100
AcDbEntity
  8
0
100
AcDbLine
 10
135.804
 20
80.87999999999999
 30
0.0
 11
136.4999999999999
 21
86.0
 31
0.0
  0
LINE
  5
267
330
1E
100
AcDbEntity
  8
0
100
AcDbLine
 10
133.8609999999999
 20
76.08
 30
0.0
 11
135.804
 21
80.87999999999999
 31
0.0
  0
LINE
  5
268
330
1E
100
AcDbEntity
  8
0
100
AcDbLine
 10
130.679
 20
71.84000000000001
 30
0.0
 11
133.8609999999999
 21
76.08
 31
0.0
  0
LINE
  5
269
330
1E
100
AcDbEntity
  8
0
100
AcDbLine
 10
126.429
 20
68.64
 30
0.0
 11
130.679
 21
71.84000000000001
 31
0.0
  0
LINE
  5
26A
330
1E
100
AcDbEntity
  8
0
100
AcDbLine
 10
132.2319999999999
 20
0.0000000000000082
 30
0.0
 11
139.8079999999999
 21
0.0000000000000081
 31
0.0
  0
LINE
  5
26B
330
1E
100
AcDbEntity
  8
0
100
AcDbLine
 10
124.462
 20
0.0000000000000083
 30
0.0
 11
132.2319999999999
 21
0.0000000000000082
 31
0.0
  0
LINE
  5
26C
330
1E
100
AcDbEntity
  8
0
100
AcDbLine
 10
124.201
 20
0.0000000000000082
 30
0.0
 11
131.716
 21
0.0000000000000081
 31
0.0
  0
LINE
  5
26D
330
1E
100
AcDbEntity
  8
0
100
AcDbLine
 10
116.5
 20
0.0000000000000082
 30
0.0
 11
124.201
 21
0.0000000000000082
 31
0.0
  0
LINE
  5
26E
330
1E
100
AcDbEntity
  8
0
100
AcDbLine
 10
139.8079999999999
 20
0.0000000000000081
 30
0.0
 11
146.872
 21
0.0000000000000079
 31
0.0
  0
LINE
  5
26F
330
1E
100
AcDbEntity
  8
0
100
AcDbLine
 10
162.225
 20
35.0
 30
0.0
 11
163.2489999999999
 21
35.0
 31
0.0
  0
LINE
  5
270
330
1E
100
AcDbEntity
  8
0
100
AcDbLine
 10
161.2649999999999
 20
35.0
 30
0.0
 11
162.225
 21
35.0
 31
0.0
  0
LINE
  5
271
330
1E
100
AcDbEntity
  8
0
100
AcDbLine
 10
160.417
 20
35.0
 30
0.0
 11
161.2649999999999
 21
35.0
 31
0.0
  0
LINE
  5
272
330
1E
100
AcDbEntity
  8
0
100
AcDbLine
 10
159.777
 20
35.0
 30
0.0
 11
160.417
 21
35.0
 31
0.0
  0
LINE
  5
273
330
1E
100
AcDbEntity
  8
0
100
AcDbLine
 10
160.852
 20
35.0
 30
0.0
 11
166.3959999999999
 21
35.0
 31
0.0
  0
LINE
  5
274
330
1E
100
AcDbEntity
  8
0
100
AcDbLine
 10
159.585
 20
0.0000000000000073
 30
0.0
 11
164.7859999999999
 21
0.0000000000000069
 31
0.0
  0
LINE
  5
275
330
1E
100
AcDbEntity
  8
0
100
AcDbLine
 10
158.173
 20
0.0000000000000072
 30
0.0
 11
163.203
 21
0.0000000000000068
 31
0.0
  0
LINE
  5
276
330
1E
100
AcDbEntity
  8
0
100
AcDbLine
 10
163.2489999999999
 20
35.0
 30
0.0
 11
164.273
 21
35.0
 31
0.0
  0
LINE
  5
277
330
1E
100
AcDbEntity
  8
0
100
AcDbLine
 10
164.273
 20
35.0
 30
0.0
 11
165.233
 21
35.0
 31
0.0
  0
LINE
  5
278
330
1E
100
AcDbEntity
  8
0
100
AcDbLine
 10
166.6859999999999
 20
35.0
 30
0.0
 11
187.804
 21
35.0
 31
0.0
  0
LINE
  5
279
330
1E
100
AcDbEntity
  8
0
100
AcDbLine
 10
165.338
 20
35.0
 30
0.0
 11
189.0629999999999
 21
35.0
 31
0.0
  0
LINE
  5
27A
330
1E
100
AcDbEntity
  8
0
100
AcDbLine
 10
165.338
 20
35.0
 30
0.0
 11
166.6859999999999
 21
35.0
 31
0.0
  0
LINE
  5
27B
330
1E
100
AcDbEntity
  8
0
100
AcDbLine
 10
165.233
 20
35.0
 30
0.0
 11
166.0809999999999
 21
35.0
 31
0.0
  0
LINE
  5
27C
330
1E
100
AcDbEntity
  8
0
100
AcDbLine
 10
166.0809999999999
 20
35.0
 30
0.0
 11
166.7209999999999
 21
35.0
 31
0.0
  0
LINE
  5
27D
330
1E
100
AcDbEntity
  8
0
100
AcDbLine
 10
166.7209999999999
 20
35.0
 30
0.0
 11
167.1049999999999
 21
35.0
 31
0.0
  0
LINE
  5
27E
330
1E
100
AcDbEntity
  8
0
100
AcDbLine
 10
167.1049999999999
 20
35.0
 30
0.0
 11
167.249
 21
35.0
 31
0.0
  0
LINE
  5
27F
330
1E
100
AcDbEntity
  8
0
100
AcDbLine
 10
165.233
 20
35.0
 30
0.0
 11
190.0
 21
35.0
 31
0.0
  0
LINE
  5
280
330
1E
100
AcDbEntity
  8
0
100
AcDbLine
 10
166.3959999999999
 20
35.0
 30
0.0
 11
171.184
 21
35.0
 31
0.0
  0
LINE
  5
281
330
1E
100
AcDbEntity
  8
0
100
AcDbLine
 10
164.7859999999999
 20
0.0000000000000069
 30
0.0
 11
169.345
 21
0.0000000000000065
 31
0.0
  0
LINE
  5
282
330
1E
100
AcDbEntity
  8
0
100
AcDbLine
 10
169.345
 20
0.0000000000000065
 30
0.0
 11
172.7479999999999
 21
0.0000000000000061
 31
0.0
  0
LINE
  5
283
330
1E
100
AcDbEntity
  8
0
100
AcDbLine
 10
163.203
 20
0.0000000000000068
 30
0.0
 11
167.613
 21
0.0000000000000064
 31
0.0
  0
LINE
  5
284
330
1E
100
AcDbEntity
  8
0
100
AcDbLine
 10
167.613
 20
0.0000000000000064
 30
0.0
 11
170.904
 21
0.000000000000006
 31
0.0
  0
LINE
  5
285
330
1E
100
AcDbEntity
  8
0
100
AcDbLine
 10
171.184
 20
35.0
 30
0.0
 11
174.46
 21
35.0
 31
0.0
  0
LINE
  5
286
330
1E
100
AcDbEntity
  8
0
100
AcDbLine
 10
174.145
 20
35.0
 30
0.0
 11
185.315
 21
35.0
 31
0.0
  0
LINE
  5
287
330
1E
100
AcDbEntity
  8
0
100
AcDbLine
 10
174.145
 20
35.0
 30
0.0
 11
174.954
 21
35.0
 31
0.0
  0
LINE
  5
288
330
1E
100
AcDbEntity
  8
0
100
AcDbLine
 10
174.954
 20
35.0
 30
0.0
 11
185.6579999999999
 21
35.0
 31
0.0
  0
LINE
  5
289
330
1E
100
AcDbEntity
  8
0
100
AcDbLine
 10
174.46
 20
35.0
 30
0.0
 11
177.232
 21
35.0
 31
0.0
  0
LINE
  5
28A
330
1E
100
AcDbEntity
  8
0
100
AcDbLine
 10
174.104
 20
91.12
 30
0.0
 11
174.76
 21
95.92
 31
0.0
  0
LINE
  5
28B
330
1E
100
AcDbEntity
  8
0
100
AcDbLine
 10
173.8499999999999
 20
86.0
 30
0.0
 11
174.104
 21
80.87999999999999
 31
0.0
  0
LINE
  5
28C
330
1E
100
AcDbEntity
  8
0
100
AcDbLine
 10
173.8499999999999
 20
86.0
 30
0.0
 11
174.104
 21
91.12
 31
0.0
  0
LINE
  5
28D
330
1E
100
AcDbEntity
  8
0
100
AcDbLine
 10
174.76
 20
95.92
 30
0.0
 11
175.61
 21
100.16
 31
0.0
  0
LINE
  5
28E
330
1E
100
AcDbEntity
  8
0
100
AcDbLine
 10
174.104
 20
80.87999999999999
 30
0.0
 11
174.76
 21
76.08
 31
0.0
  0
LINE
  5
28F
330
1E
100
AcDbEntity
  8
0
100
AcDbLine
 10
174.76
 20
76.08
 30
0.0
 11
175.61
 21
71.84000000000001
 31
0.0
  0
LINE
  5
290
330
1E
100
AcDbEntity
  8
0
100
AcDbLine
 10
172.7479999999999
 20
0.0000000000000061
 30
0.0
 11
175.317
 21
0.0000000000000056
 31
0.0
  0
LINE
  5
291
330
1E
100
AcDbEntity
  8
0
100
AcDbLine
 10
175.317
 20
0.0000000000000056
 30
0.0
 11
176.858
 21
0.0000000000000051
 31
0.0
  0
LINE
  5
292
330
1E
100
AcDbEntity
  8
0
100
AcDbLine
 10
170.904
 20
0.000000000000006
 30
0.0
 11
173.388
 21
0.0000000000000056
 31
0.0
  0
LINE
  5
293
330
1E
100
AcDbEntity
  8
0
100
AcDbLine
 10
173.388
 20
0.0000000000000056
 30
0.0
 11
174.879
 21
0.0000000000000051
 31
0.0
  0
LINE
  5
294
330
1E
100
AcDbEntity
  8
0
100
AcDbLine
 10
175.61
 20
100.16
 30
0.0
 11
176.0929999999999
 21
102.087182044888
 31
0.0
  0
LINE
  5
295
330
1E
100
AcDbEntity
  8
0
100
AcDbLine
 10
175.61
 20
71.84000000000001
 30
0.0
 11
176.412
 21
68.64
 31
0.0
  0
LINE
  5
296
330
1E
100
AcDbEntity
  8
0
100
AcDbLine
 10
176.412
 20
68.64
 30
0.0
 11
177.0929999999999
 21
66.72
 31
0.0
  0
LINE
  5
297
330
1E
100
AcDbEntity
  8
0
100
AcDbLine
 10
177.232
 20
35.0
 30
0.0
 11
178.744
 21
35.0
 31
0.0
  0
LINE
  5
298
330
1E
100
AcDbEntity
  8
0
100
AcDbLine
 10
177.5
 20
35.0
 30
0.0
 11
178.744
 21
35.0
 31
0.0
  0
LINE
  5
299
330
1E
100
AcDbEntity
  8
0
100
AcDbLine
 10
177.5
 20
35.0
 30
0.0
 11
185.315
 21
35.0
 31
0.0
  0
LINE
  5
29A
330
1E
100
AcDbEntity
  8
0
100
AcDbLine
 10
177.5
 20
35.0
 30
0.0
 11
185.6579999999999
 21
35.0
 31
0.0
  0
LINE
  5
29B
330
1E
100
AcDbEntity
  8
0
100
AcDbLine
 10
177.5
 20
35.0
 30
0.0
 11
185.1679999999999
 21
35.0
 31
0.0
  0
LINE
  5
29C
330
1E
100
AcDbEntity
  8
0
100
AcDbLine
 10
178.3899999999999
 20
35.0
 30
0.0
 11
178.534
 21
35.0
 31
0.0
  0
LINE
  5
29D
330
1E
100
AcDbEntity
  8
0
100
AcDbLine
 10
178.534
 20
35.0
 30
0.0
 11
178.9179999999999
 21
35.0
 31
0.0
  0
LINE
  5
29E
330
1E
100
AcDbEntity
  8
0
100
AcDbLine
 10
178.9179999999999
 20
35.0
 30
0.0
 11
179.5579999999999
 21
35.0
 31
0.0
  0
LINE
  5
29F
330
1E
100
AcDbEntity
  8
0
100
AcDbLine
 10
179.5579999999999
 20
35.0
 30
0.0
 11
180.4059999999999
 21
35.0
 31
0.0
  0
LINE
  5
2A0
330
1E
100
AcDbEntity
  8
0
100
AcDbLine
 10
180.4059999999999
 20
35.0
 30
0.0
 11
181.3659999999999
 21
35.0
 31
0.0
  0
LINE
  5
2A1
330
1E
100
AcDbEntity
  8
0
100
AcDbLine
 10
181.3659999999999
 20
35.0
 30
0.0
 11
182.3899999999999
 21
35.0
 31
0.0
  0
LINE
  5
2A2
330
1E
100
AcDbEntity
  8
0
100
AcDbLine
 10
183.414
 20
35.0
 30
0.0
 11
184.374
 21
35.0
 31
0.0
  0
LINE
  5
2A3
330
1E
100
AcDbEntity
  8
0
100
AcDbLine
 10
182.3899999999999
 20
35.0
 30
0.0
 11
183.414
 21
35.0
 31
0.0
  0
LINE
  5
2A4
330
1E
100
AcDbEntity
  8
0
100
AcDbLine
 10
184.374
 20
35.0
 30
0.0
 11
185.222
 21
35.0
 31
0.0
  0
LINE
  5
2A5
330
1E
100
AcDbEntity
  8
0
100
AcDbLine
 10
184.0
 20
35.0
 30
0.0
 11
184.144
 21
35.0
 31
0.0
  0
LINE
  5
2A6
330
1E
100
AcDbEntity
  8
0
100
AcDbLine
 10
184.144
 20
35.0
 30
0.0
 11
184.5279999999999
 21
35.0
 31
0.0
  0
LINE
  5
2A7
330
1E
100
AcDbEntity
  8
0
100
AcDbLine
 10
185.1679999999999
 20
35.0
 30
0.0
 11
186.016
 21
35.0
 31
0.0
  0
LINE
  5
2A8
330
1E
100
AcDbEntity
  8
0
100
AcDbLine
 10
186.016
 20
35.0
 30
0.0
 11
186.976
 21
35.0
 31
0.0
  0
LINE
  5
2A9
330
1E
100
AcDbEntity
  8
0
100
AcDbLine
 10
186.0
 20
35.0
 30
0.0
 11
191.0
 21
35.0
 31
0.0
  0
LINE
  5
2AA
330
1E
100
AcDbEntity
  8
0
100
AcDbLine
 10
185.8619999999999
 20
35.0
 30
0.0
 11
186.2459999999999
 21
35.0
 31
0.0
  0
LINE
  5
2AB
330
1E
100
AcDbEntity
  8
0
100
AcDbLine
 10
185.222
 20
35.0
 30
0.0
 11
185.8619999999999
 21
35.0
 31
0.0
  0
LINE
  5
2AC
330
1E
100
AcDbEntity
  8
0
100
AcDbLine
 10
185.315
 20
35.0
 30
0.0
 11
185.6579999999999
 21
35.0
 31
0.0
  0
LINE
  5
2AD
330
1E
100
AcDbEntity
  8
0
100
AcDbLine
 10
184.5279999999999
 20
35.0
 30
0.0
 11
185.1679999999999
 21
35.0
 31
0.0
  0
LINE
  5
2AE
330
1E
100
AcDbEntity
  8
0
100
AcDbLine
 10
184.5279999999999
 20
35.0
 30
0.0
 11
185.1679999999999
 21
35.0
 31
0.0
  0
LINE
  5
2AF
330
1E
100
AcDbEntity
  8
0
100
AcDbLine
 10
185.1679999999999
 20
35.0
 30
0.0
 11
186.016
 21
35.0
 31
0.0
  0
LINE
  5
2B0
330
1E
100
AcDbEntity
  8
0
100
AcDbLine
 10
186.976
 20
35.0
 30
0.0
 11
188.0
 21
35.0
 31
0.0
  0
LINE
  5
2B1
330
1E
100
AcDbEntity
  8
0
100
AcDbLine
 10
189.024
 20
35.0
 30
0.0
 11
189.984
 21
35.0
 31
0.0
  0
LINE
  5
2B2
330
1E
100
AcDbEntity
  8
0
100
AcDbLine
 10
188.0
 20
35.0
 30
0.0
 11
189.024
 21
35.0
 31
0.0
  0
LINE
  5
2B3
330
1E
100
AcDbEntity
  8
0
100
AcDbLine
 10
186.2459999999999
 20
35.0
 30
0.0
 11
186.3899999999999
 21
35.0
 31
0.0
  0
LINE
  5
2B4
330
1E
100
AcDbEntity
  8
0
100
AcDbLine
 10
187.804
 20
35.0
 30
0.0
 11
189.0629999999999
 21
35.0
 31
0.0
  0
LINE
  5
2B5
330
1E
100
AcDbEntity
  8
0
100
AcDbLine
 10
186.016
 20
35.0
 30
0.0
 11
186.976
 21
35.0
 31
0.0
  0
LINE
  5
2B6
330
1E
100
AcDbEntity
  8
0
100
AcDbLine
 10
186.016
 20
35.0
 30
0.0
 11
187.804
 21
35.0
 31
0.0
  0
LINE
  5
2B7
330
1E
100
AcDbEntity
  8
0
100
AcDbLine
 10
186.976
 20
35.0
 30
0.0
 11
188.0
 21
35.0
 31
0.0
  0
LINE
  5
2B8
330
1E
100
AcDbEntity
  8
0
100
AcDbLine
 10
189.024
 20
35.0
 30
0.0
 11
189.984
 21
35.0
 31
0.0
  0
LINE
  5
2B9
330
1E
100
AcDbEntity
  8
0
100
AcDbLine
 10
188.0
 20
35.0
 30
0.0
 11
189.024
 21
35.0
 31
0.0
  0
LINE
  5
2BA
330
1E
100
AcDbEntity
  8
0
100
AcDbLine
 10
190.8319999999999
 20
35.0
 30
0.0
 11
191.472
 21
35.0
 31
0.0
  0
LINE
  5
2BB
330
1E
100
AcDbEntity
  8
0
100
AcDbLine
 10
189.984
 20
35.0
 30
0.0
 11
190.8319999999999
 21
35.0
 31
0.0
  0
LINE
  5
2BC
330
1E
100
AcDbEntity
  8
0
100
AcDbLine
 10
190.8319999999999
 20
35.0
 30
0.0
 11
191.472
 21
35.0
 31
0.0
  0
LINE
  5
2BD
330
1E
100
AcDbEntity
  8
0
100
AcDbLine
 10
189.984
 20
35.0
 30
0.0
 11
190.8319999999999
 21
35.0
 31
0.0
  0
LINE
  5
2BE
330
1E
100
AcDbEntity
  8
0
100
AcDbLine
 10
189.0629999999999
 20
35.0
 30
0.0
 11
190.0
 21
35.0
 31
0.0
  0
LINE
  5
2BF
330
1E
100
AcDbEntity
  8
0
100
AcDbLine
 10
190.0
 20
35.0
 30
0.0
 11
192.0
 21
35.0
 31
0.0
  0
LINE
  5
2C0
330
1E
100
AcDbEntity
  8
0
100
AcDbLine
 10
191.856
 20
35.0
 30
0.0
 11
192.0
 21
35.0
 31
0.0
  0
LINE
  5
2C1
330
1E
100
AcDbEntity
  8
0
100
AcDbLine
 10
192.0
 20
35.0
 30
0.0
 11
192.0
 21
39.0
 31
0.0
  0
LINE
  5
2C2
330
1E
100
AcDbEntity
  8
0
100
AcDbLine
 10
191.472
 20
35.0
 30
0.0
 11
192.0
 21
35.0
 31
0.0
  0
LINE
  5
2C3
330
1E
100
AcDbEntity
  8
0
100
AcDbLine
 10
191.472
 20
35.0
 30
0.0
 11
191.856
 21
35.0
 31
0.0
  0
LINE
  5
2C4
330
1E
100
AcDbEntity
  8
0
100
AcDbLine
 10
192.0
 20
39.0
 30
0.0
 11
192.0
 21
35.0
 31
0.0
  0
LINE
  5
2C5
330
1E
100
AcDbEntity
  8
0
100
AcDbLine
 10
178.744
 20
35.0
 30
0.0
 11
179.4999999999999
 21
35.0
 31
0.0
  0
LINE
  5
2C6
330
1E
100
AcDbEntity
  8
0
100
AcDbLine
 10
177.5
 20
35.0
 30
0.0
 11
177.5
 21
0.0
 31
0.0
  0
LINE
  5
2C7
330
1E
100
AcDbEntity
  8
0
100
AcDbLine
 10
177.5
 20
35.0
 30
0.0
 11
189.0629999999999
 21
35.0
 31
0.0
  0
LINE
  5
2C8
330
1E
100
AcDbEntity
  8
0
100
AcDbLine
 10
177.5
 20
86.0
 30
0.0
 11
177.5
 21
91.12
 31
0.0
  0
LINE
  5
2C9
330
1E
100
AcDbEntity
  8
0
100
AcDbLine
 10
177.5
 20
86.0
 30
0.0
 11
177.5
 21
80.87999999999999
 31
0.0
  0
LINE
  5
2CA
330
1E
100
AcDbEntity
  8
0
100
AcDbLine
 10
177.5
 20
91.12
 30
0.0
 11
177.5
 21
95.92
 31
0.0
  0
LINE
  5
2CB
330
1E
100
AcDbEntity
  8
0
100
AcDbLine
 10
177.5
 20
91.12
 30
0.0
 11
177.5
 21
86.0
 31
0.0
  0
LINE
  5
2CC
330
1E
100
AcDbEntity
  8
0
100
AcDbLine
 10
177.5
 20
95.92
 30
0.0
 11
177.5
 21
100.16
 31
0.0
  0
LINE
  5
2CD
330
1E
100
AcDbEntity
  8
0
100
AcDbLine
 10
177.5
 20
95.92
 30
0.0
 11
177.5
 21
91.12
 31
0.0
  0
LINE
  5
2CE
330
1E
100
AcDbEntity
  8
0
100
AcDbLine
 10
177.5
 20
100.16
 30
0.0
 11
177.5
 21
103.36
 31
0.0
  0
LINE
  5
2CF
330
1E
100
AcDbEntity
  8
0
100
AcDbLine
 10
177.5
 20
100.16
 30
0.0
 11
177.5
 21
95.92
 31
0.0
  0
LINE
  5
2D0
330
1E
100
AcDbEntity
  8
0
100
AcDbLine
 10
177.5
 20
80.87999999999999
 30
0.0
 11
177.5
 21
86.0
 31
0.0
  0
LINE
  5
2D1
330
1E
100
AcDbEntity
  8
0
100
AcDbLine
 10
177.5
 20
80.87999999999999
 30
0.0
 11
177.5
 21
76.08
 31
0.0
  0
LINE
  5
2D2
330
1E
100
AcDbEntity
  8
0
100
AcDbLine
 10
177.5
 20
76.08
 30
0.0
 11
177.5
 21
80.87999999999999
 31
0.0
  0
LINE
  5
2D3
330
1E
100
AcDbEntity
  8
0
100
AcDbLine
 10
177.5
 20
76.08
 30
0.0
 11
177.5
 21
71.84000000000001
 31
0.0
  0
LINE
  5
2D4
330
1E
100
AcDbEntity
  8
0
100
AcDbLine
 10
177.5
 20
71.84000000000001
 30
0.0
 11
177.5
 21
76.08
 31
0.0
  0
LINE
  5
2D5
330
1E
100
AcDbEntity
  8
0
100
AcDbLine
 10
177.5
 20
71.84000000000001
 30
0.0
 11
177.5
 21
68.64
 31
0.0
  0
LINE
  5
2D6
330
1E
100
AcDbEntity
  8
0
100
AcDbLine
 10
177.5
 20
68.64
 30
0.0
 11
177.5
 21
71.84000000000001
 31
0.0
  0
LINE
  5
2D7
330
1E
100
AcDbEntity
  8
0
100
AcDbLine
 10
177.5
 20
68.64
 30
0.0
 11
177.5
 21
66.72
 31
0.0
  0
LINE
  5
2D8
330
1E
100
AcDbEntity
  8
0
100
AcDbLine
 10
177.5
 20
66.72
 30
0.0
 11
177.5
 21
68.64
 31
0.0
  0
LINE
  5
2D9
330
1E
100
AcDbEntity
  8
0
100
AcDbLine
 10
177.5
 20
66.72
 30
0.0
 11
177.5
 21
66.0
 31
0.0
  0
LINE
  5
2DA
330
1E
100
AcDbEntity
  8
0
100
AcDbLine
 10
179.4999999999999
 20
66.72
 30
0.0
 11
179.4999999999999
 21
68.64
 31
0.0
  0
LINE
  5
2DB
330
1E
100
AcDbEntity
  8
0
100
AcDbLine
 10
179.4999999999999
 20
66.72
 30
0.0
 11
179.4999999999999
 21
66.0
 31
0.0
  0
LINE
  5
2DC
330
1E
100
AcDbEntity
  8
0
100
AcDbLine
 10
179.4999999999999
 20
66.0
 30
0.0
 11
179.4999999999999
 21
66.72
 31
0.0
  0
LINE
  5
2DD
330
1E
100
AcDbEntity
  8
0
100
AcDbLine
 10
179.4999999999999
 20
68.64
 30
0.0
 11
179.4999999999999
 21
71.84000000000001
 31
0.0
  0
LINE
  5
2DE
330
1E
100
AcDbEntity
  8
0
100
AcDbLine
 10
179.4999999999999
 20
68.64
 30
0.0
 11
179.4999999999999
 21
66.72
 31
0.0
  0
LINE
  5
2DF
330
1E
100
AcDbEntity
  8
0
100
AcDbLine
 10
198.5
 20
70.9
 30
0.0
 11
198.5
 21
71.0
 31
0.0
  0
LINE
  5
2E0
330
1E
100
AcDbEntity
  8
0
100
AcDbLine
 10
198.5
 20
70.9
 30
0.0
 11
207.0
 21
70.9
 31
0.0
  0
LINE
  5
2E1
330
1E
100
AcDbEntity
  8
0
100
AcDbLine
 10
198.5
 20
70.9
 30
0.0
 11
214.0
 21
70.9
 31
0.0
  0
LINE
  5
2E2
330
1E
100
AcDbEntity
  8
0
100
AcDbLine
 10
198.5
 20
70.9
 30
0.0
 11
198.5
 21
72.98
 31
0.0
  0
LINE
  5
2E3
330
1E
100
AcDbEntity
  8
0
100
AcDbLine
 10
198.5
 20
71.0
 30
0.0
 11
198.5
 21
70.9
 31
0.0
  0
LINE
  5
2E4
330
1E
100
AcDbEntity
  8
0
100
AcDbLine
 10
202.7315999999999
 20
70.9
 30
0.0
 11
204.576
 21
69.508
 31
0.0
  0
LINE
  5
2E5
330
1E
100
AcDbEntity
  8
0
100
AcDbLine
 10
207.0
 20
70.9
 30
0.0
 11
221.0
 21
70.9
 31
0.0
  0
LINE
  5
2E7
330
1E
100
AcDbEntity
  8
0
100
AcDbLine
 10
214.0
 20
70.9
 30
0.0
 11
215.702
 21
70.9
 31
0.0
  0
LINE
  5
2E8
330
1E
100
AcDbEntity
  8
0
100
AcDbLine
 10
204.576
 20
69.508
 30
0.0
 11
209.1359999999999
 21
67.68399999999999
 31
0.0
  0
LINE
  5
2EA
330
1E
100
AcDbEntity
  8
0
100
AcDbLine
 10
209.1359999999999
 20
67.68399999999999
 30
0.0
 11
214.0
 21
67.0
 31
0.0
  0
LINE
  5
2EC
330
1E
100
AcDbEntity
  8
0
100
AcDbLine
 10
215.702
 20
70.9
 30
0.0
 11
217.485
 21
70.9
 31
0.0
  0
LINE
  5
2ED
330
1E
100
AcDbEntity
  8
0
100
AcDbLine
 10
217.485
 20
70.9
 30
0.0
 11
219.0
 21
70.9
 31
0.0
  0
LINE
  5
2EE
330
1E
100
AcDbEntity
  8
0
100
AcDbLine
 10
221.0
 20
70.9
 30
0.0
 11
221.0
 21
72.82
 31
0.0
  0
LINE
  5
2EF
330
1E
100
AcDbEntity
  8
0
100
AcDbLine
 10
220.8029999999999
 20
70.9
 30
0.0
 11
221.0
 21
70.9
 31
0.0
  0
LINE
  5
2F0
330
1E
100
AcDbEntity
  8
0
100
AcDbLine
 10
220.018
 20
70.9
 30
0.0
 11
220.8029999999999
 21
70.9
 31
0.0
  0
LINE
  5
2F1
330
1E
100
AcDbEntity
  8
0
100
AcDbLine
 10
219.0
 20
70.9
 30
0.0
 11
220.018
 21
70.9
 31
0.0
  0
LINE
  5
2F3
330
1E
100
AcDbEntity
  8
0
100
AcDbLine
 10
223.424
 20
69.508
 30
0.0
 11
227.4519999999999
 21
72.548
 31
0.0
  0
LINE
  5
2F4
330
1E
100
AcDbEntity
  8
0
100
AcDbLine
 10
218.8639999999999
 20
67.68399999999999
 30
0.0
 11
223.424
 21
69.508
 31
0.0
  0
LINE
  5
2F5
330
1E
100
AcDbEntity
  8
0
100
AcDbLine
 10
214.0
 20
67.0
 30
0.0
 11
218.8639999999999
 21
67.68399999999999
 31
0.0
  0
LINE
  5
2F7
330
1E
100
AcDbEntity
  8
0
100
AcDbLine
 10
179.4999999999999
 20
71.84000000000001
 30
0.0
 11
179.4999999999999
 21
76.08
 31
0.0
  0
LINE
  5
2F8
330
1E
100
AcDbEntity
  8
0
100
AcDbLine
 10
179.4999999999999
 20
71.84000000000001
 30
0.0
 11
179.4999999999999
 21
68.64
 31
0.0
  0
LINE
  5
2F9
330
1E
100
AcDbEntity
  8
0
100
AcDbLine
 10
179.4999999999999
 20
91.12
 30
0.0
 11
179.4999999999999
 21
86.0
 31
0.0
  0
LINE
  5
2FA
330
1E
100
AcDbEntity
  8
0
100
AcDbLine
 10
179.4999999999999
 20
91.12
 30
0.0
 11
179.4999999999999
 21
95.92
 31
0.0
  0
LINE
  5
2FB
330
1E
100
AcDbEntity
  8
0
100
AcDbLine
 10
179.4999999999999
 20
95.92
 30
0.0
 11
179.4999999999999
 21
91.12
 31
0.0
  0
LINE
  5
2FC
330
1E
100
AcDbEntity
  8
0
100
AcDbLine
 10
179.4999999999999
 20
95.92
 30
0.0
 11
179.4999999999999
 21
100.16
 31
0.0
  0
LINE
  5
2FD
330
1E
100
AcDbEntity
  8
0
100
AcDbLine
 10
179.4999999999999
 20
86.0
 30
0.0
 11
179.4999999999999
 21
80.87999999999999
 31
0.0
  0
LINE
  5
2FE
330
1E
100
AcDbEntity
  8
0
100
AcDbLine
 10
179.4999999999999
 20
86.0
 30
0.0
 11
179.4999999999999
 21
91.12
 31
0.0
  0
LINE
  5
2FF
330
1E
100
AcDbEntity
  8
0
100
AcDbLine
 10
179.4999999999999
 20
80.87999999999999
 30
0.0
 11
179.4999999999999
 21
86.0
 31
0.0
  0
LINE
  5
300
330
1E
100
AcDbEntity
  8
0
100
AcDbLine
 10
179.4999999999999
 20
80.87999999999999
 30
0.0
 11
179.4999999999999
 21
76.08
 31
0.0
  0
LINE
  5
301
330
1E
100
AcDbEntity
  8
0
100
AcDbLine
 10
179.4999999999999
 20
76.08
 30
0.0
 11
179.4999999999999
 21
80.87999999999999
 31
0.0
  0
LINE
  5
302
330
1E
100
AcDbEntity
  8
0
100
AcDbLine
 10
179.4999999999999
 20
76.08
 30
0.0
 11
179.4999999999999
 21
71.84000000000001
 31
0.0
  0
LINE
  5
303
330
1E
100
AcDbEntity
  8
0
100
AcDbLine
 10
198.5
 20
72.98
 30
0.0
 11
198.5
 21
70.9
 31
0.0
  0
LINE
  5
304
330
1E
100
AcDbEntity
  8
0
100
AcDbLine
 10
221.0
 20
72.82
 30
0.0
 11
221.0
 21
70.9
 31
0.0
  0
LINE
  5
305
330
1E
100
AcDbEntity
  8
0
100
AcDbLine
 10
198.5
 20
72.98
 30
0.0
 11
198.5
 21
101.0999999999999
 31
0.0
  0
LINE
  5
306
330
1E
100
AcDbEntity
  8
0
100
AcDbLine
 10
221.0
 20
99.18000000000001
 30
0.0
 11
221.0
 21
101.0999999999999
 31
0.0
  0
LINE
  5
308
330
1E
100
AcDbEntity
  8
0
100
AcDbLine
 10
221.4399999999999
 20
99.02000000000001
 30
0.0
 11
224.6199999999999
 21
96.62
 31
0.0
  0
LINE
  5
309
330
1E
100
AcDbEntity
  8
0
100
AcDbLine
 10
179.4999999999999
 20
100.16
 30
0.0
 11
179.4999999999999
 21
95.92
 31
0.0
  0
LINE
  5
30A
330
1E
100
AcDbEntity
  8
0
100
AcDbLine
 10
179.4999999999999
 20
100.16
 30
0.0
 11
179.4999999999999
 21
103.36
 31
0.0
  0
LINE
  5
30B
330
1E
100
AcDbEntity
  8
0
100
AcDbLine
 10
221.0
 20
99.196
 30
0.0
 11
221.4399999999999
 21
99.02000000000001
 31
0.0
  0
LINE
  5
30C
330
1E
100
AcDbEntity
  8
0
100
AcDbLine
 10
227.0
 20
78.56
 30
0.0
 11
228.5
 21
82.15999999999999
 31
0.0
  0
LINE
  5
30D
330
1E
100
AcDbEntity
  8
0
100
AcDbLine
 10
227.0
 20
93.43999999999999
 30
0.0
 11
228.5
 21
89.83999999999999
 31
0.0
  0
LINE
  5
30F
330
1E
100
AcDbEntity
  8
0
100
AcDbLine
 10
227.0199999999999
 20
93.43999999999999
 30
0.0
 11
227.4999999999999
 21
92.23999999999902
 31
0.0
  0
LINE
  5
311
330
1E
100
AcDbEntity
  8
0
100
AcDbLine
 10
224.6199999999999
 20
96.62
 30
0.0
 11
227.0199999999999
 21
93.43999999999999
 31
0.0
  0
LINE
  5
312
330
1E
100
AcDbEntity
  8
0
100
AcDbLine
 10
227.4519999999999
 20
99.45200000000001
 30
0.0
 11
230.492
 21
95.42399999999998
 31
0.0
  0
LINE
  5
314
330
1E
100
AcDbEntity
  8
0
100
AcDbLine
 10
227.0199999999999
 20
78.56
 30
0.0
 11
227.4999999999999
 21
79.760000000001
 31
0.0
  0
LINE
  5
316
330
1E
100
AcDbEntity
  8
0
100
AcDbLine
 10
224.6199999999999
 20
75.38
 30
0.0
 11
227.0199999999999
 21
78.56
 31
0.0
  0
LINE
  5
318
330
1E
100
AcDbEntity
  8
0
100
AcDbLine
 10
221.4399999999999
 20
72.98
 30
0.0
 11
224.6199999999999
 21
75.38
 31
0.0
  0
LINE
  5
319
330
1E
100
AcDbEntity
  8
0
100
AcDbLine
 10
221.0
 20
72.804
 30
0.0
 11
221.4399999999999
 21
72.98
 31
0.0
  0
LINE
  5
31A
330
1E
100
AcDbEntity
  8
0
100
AcDbLine
 10
228.5
 20
82.15999999999999
 30
0.0
 11
229.0
 21
86.0
 31
0.0
  0
LINE
  5
31B
330
1E
100
AcDbEntity
  8
0
100
AcDbLine
 10
228.5
 20
89.83999999999999
 30
0.0
 11
229.0
 21
86.0
 31
0.0
  0
LINE
  5
31E
330
1E
100
AcDbEntity
  8
0
100
AcDbLine
 10
232.3159999999999
 20
90.86399999999999
 30
0.0
 11
233.0
 21
86.0
 31
0.0
  0
LINE
  5
31F
330
1E
100
AcDbEntity
  8
0
100
AcDbLine
 10
230.492
 20
95.42399999999998
 30
0.0
 11
232.3159999999999
 21
90.86399999999999
 31
0.0
  0
LINE
  5
323
330
1E
100
AcDbEntity
  8
0
100
AcDbLine
 10
232.3159999999999
 20
81.13600000000001
 30
0.0
 11
233.0
 21
86.0
 31
0.0
  0
LINE
  5
324
330
1E
100
AcDbEntity
  8
0
100
AcDbLine
 10
230.492
 20
76.57600000000001
 30
0.0
 11
232.3159999999999
 21
81.13600000000001
 31
0.0
  0
LINE
  5
325
330
1E
100
AcDbEntity
  8
0
100
AcDbLine
 10
227.4519999999999
 20
72.548
 30
0.0
 11
230.492
 21
76.57600000000001
 31
0.0
  0
LINE
  5
326
330
1E
100
AcDbEntity
  8
0
100
AcDbLine
 10
179.4999999999999
 20
71.0
 30
0.0
 11
198.5
 21
71.0
 31
0.0
  0
LINE
  5
327
330
1E
100
AcDbEntity
  8
0
100
AcDbLine
 10
177.5
 20
66.0
 30
0.0
 11
177.5
 21
39.0
 31
0.0
  0
LINE
  5
328
330
1E
100
AcDbEntity
  8
0
100
AcDbLine
 10
177.5
 20
66.0
 30
0.0
 11
177.5
 21
66.72
 31
0.0
  0
LINE
  5
329
330
1E
100
AcDbEntity
  8
0
100
AcDbLine
 10
177.5
 20
66.0
 30
0.0
 11
179.4999999999999
 21
66.0
 31
0.0
  0
LINE
  5
32A
330
1E
100
AcDbEntity
  8
0
100
AcDbLine
 10
177.5
 20
39.0
 30
0.0
 11
177.5
 21
66.0
 31
0.0
  0
LINE
  5
32B
330
1E
100
AcDbEntity
  8
0
100
AcDbLine
 10
177.0929999999999
 20
66.72
 30
0.0
 11
177.5
 21
66.0
 31
0.0
  0
LINE
  5
32C
330
1E
100
AcDbEntity
  8
0
100
AcDbLine
 10
176.858
 20
0.0000000000000051
 30
0.0
 11
177.5
 21
0.0000000000000046
 31
0.0
  0
LINE
  5
32D
330
1E
100
AcDbEntity
  8
0
100
AcDbLine
 10
174.879
 20
0.0000000000000051
 30
0.0
 11
175.5
 21
0.0000000000000046
 31
0.0
  0
LINE
  5
32E
330
1E
100
AcDbEntity
  8
0
100
AcDbLine
 10
130.6599999999999
 20
100.16
 30
0.0
 11
133.86
 21
95.92
 31
0.0
  0
LINE
  5
32F
330
1E
100
AcDbEntity
  8
0
100
AcDbLine
 10
130.679
 20
100.16
 30
0.0
 11
133.8609999999999
 21
95.92
 31
0.0
  0
LINE
  5
330
330
1E
100
AcDbEntity
  8
0
100
AcDbLine
 10
102.34
 20
100.16
 30
0.0
 11
106.58
 21
103.36
 31
0.0
  0
LINE
  5
331
330
1E
100
AcDbEntity
  8
0
100
AcDbLine
 10
102.3209999999999
 20
100.16
 30
0.0
 11
106.5709999999999
 21
103.36
 31
0.0
  0
LINE
  5
332
330
1E
100
AcDbEntity
  8
0
100
AcDbLine
 10
106.58
 20
103.36
 30
0.0
 11
111.3799999999999
 21
105.2799999999999
 31
0.0
  0
LINE
  5
333
330
1E
100
AcDbEntity
  8
0
100
AcDbLine
 10
106.5709999999999
 20
103.36
 30
0.0
 11
111.356
 21
105.2799999999999
 31
0.0
  0
LINE
  5
334
330
1E
100
AcDbEntity
  8
0
100
AcDbLine
 10
108.068
 20
100.756
 30
0.0
 11
112.148
 21
102.3879999999999
 31
0.0
  0
LINE
  5
335
330
1E
100
AcDbEntity
  8
0
100
AcDbLine
 10
112.148
 20
102.3879999999999
 30
0.0
 11
116.5
 21
103.0
 31
0.0
  0
LINE
  5
336
330
1E
100
AcDbEntity
  8
0
100
AcDbLine
 10
120.852
 20
102.3879999999999
 30
0.0
 11
124.9319999999999
 21
100.756
 31
0.0
  0
LINE
  5
337
330
1E
100
AcDbEntity
  8
0
100
AcDbLine
 10
116.5
 20
103.0
 30
0.0
 11
120.852
 21
102.3879999999999
 31
0.0
  0
LINE
  5
338
330
1E
100
AcDbEntity
  8
0
100
AcDbLine
 10
116.5
 20
100.571
 30
0.0
 11
120.23
 21
100.047
 31
0.0
  0
LINE
  5
339
330
1E
100
AcDbEntity
  8
0
100
AcDbLine
 10
126.4199999999999
 20
103.36
 30
0.0
 11
130.6599999999999
 21
100.16
 31
0.0
  0
LINE
  5
33A
330
1E
100
AcDbEntity
  8
0
100
AcDbLine
 10
124.9319999999999
 20
100.756
 30
0.0
 11
128.536
 21
98.03600000000001
 31
0.0
  0
LINE
  5
33B
330
1E
100
AcDbEntity
  8
0
100
AcDbLine
 10
116.5
 20
100.571
 30
0.0
 11
120.23
 21
100.047
 31
0.0
  0
LINE
  5
33C
330
1E
100
AcDbEntity
  8
0
100
AcDbLine
 10
121.62
 20
105.2799999999999
 30
0.0
 11
126.4199999999999
 21
103.36
 31
0.0
  0
LINE
  5
360
330
1E
100
AcDbEntity
  8
0
100
AcDbLine
 10
176.0929999999999
 20
102.087182044888
 30
0.0
 11
176.412
 21
103.36
 31
0.0
  0
LINE
  5
361
330
1E
100
AcDbEntity
  8
0
100
AcDbLine
 10
198.5
 20
101.0999999999999
 30
0.0
 11
198.5
 21
72.98
 31
0.0
  0
LINE
  5
362
330
1E
100
AcDbEntity
  8
0
100
AcDbLine
 10
198.5
 20
101.0999999999999
 30
0.0
 11
214.0
 21
101.0999999999999
 31
0.0
  0
LINE
  5
363
330
1E
100
AcDbEntity
  8
0
100
AcDbLine
 10
198.5
 20
101.0999999999999
 30
0.0
 11
198.5
 21
101.0
 31
0.0
  0
LINE
  5
364
330
1E
100
AcDbEntity
  8
0
100
AcDbLine
 10
202.7315999999999
 20
101.0999999999999
 30
0.0
 11
204.576
 21
102.492
 31
0.0
  0
LINE
  5
365
330
1E
100
AcDbEntity
  8
0
100
AcDbLine
 10
179.4999999999999
 20
103.36
 30
0.0
 11
179.4999999999999
 21
100.16
 31
0.0
  0
LINE
  5
366
330
1E
100
AcDbEntity
  8
0
100
AcDbLine
 10
179.4999999999999
 20
103.36
 30
0.0
 11
179.4999999999999
 21
105.2799999999999
 31
0.0
  0
LINE
  5
367
330
1E
100
AcDbEntity
  8
0
100
AcDbLine
 10
179.4999999999999
 20
105.2799999999999
 30
0.0
 11
179.4999999999999
 21
103.36
 31
0.0
  0
LINE
  5
368
330
1E
100
AcDbEntity
  8
0
100
AcDbLine
 10
179.4999999999999
 20
105.2799999999999
 30
0.0
 11
179.4999999999999
 21
106.0
 31
0.0
  0
LINE
  5
369
330
1E
100
AcDbEntity
  8
0
100
AcDbLine
 10
204.576
 20
102.492
 30
0.0
 11
209.1359999999999
 21
104.316
 31
0.0
  0
LINE
  5
36B
330
1E
100
AcDbEntity
  8
0
100
AcDbLine
 10
215.702
 20
101.0999999999999
 30
0.0
 11
217.485
 21
101.0999999999999
 31
0.0
  0
LINE
  5
36C
330
1E
100
AcDbEntity
  8
0
100
AcDbLine
 10
217.485
 20
101.0999999999999
 30
0.0
 11
219.0
 21
101.0999999999999
 31
0.0
  0
LINE
  5
36D
330
1E
100
AcDbEntity
  8
0
100
AcDbLine
 10
221.0
 20
101.0999999999999
 30
0.0
 11
221.0
 21
99.18000000000001
 31
0.0
  0
LINE
  5
36E
330
1E
100
AcDbEntity
  8
0
100
AcDbLine
 10
220.8029999999999
 20
101.0999999999999
 30
0.0
 11
221.0
 21
101.0999999999999
 31
0.0
  0
LINE
  5
36F
330
1E
100
AcDbEntity
  8
0
100
AcDbLine
 10
220.018
 20
101.0999999999999
 30
0.0
 11
220.8029999999999
 21
101.0999999999999
 31
0.0
  0
LINE
  5
370
330
1E
100
AcDbEntity
  8
0
100
AcDbLine
 10
219.0
 20
101.0999999999999
 30
0.0
 11
220.018
 21
101.0999999999999
 31
0.0
  0
LINE
  5
371
330
1E
100
AcDbEntity
  8
0
100
AcDbLine
 10
223.424
 20
102.492
 30
0.0
 11
227.4519999999999
 21
99.45200000000001
 31
0.0
  0
LINE
  5
372
330
1E
100
AcDbEntity
  8
0
100
AcDbLine
 10
218.8639999999999
 20
104.316
 30
0.0
 11
223.424
 21
102.492
 31
0.0
  0
LINE
  5
375
330
1E
100
AcDbEntity
  8
0
100
AcDbLine
 10
214.0
 20
101.0999999999999
 30
0.0
 11
215.702
 21
101.0999999999999
 31
0.0
  0
LINE
  5
377
330
1E
100
AcDbEntity
  8
0
100
AcDbLine
 10
214.0
 20
105.0
 30
0.0
 11
218.8639999999999
 21
104.316
 31
0.0
  0
LINE
  5
378
330
1E
100
AcDbEntity
  8
0
100
AcDbLine
 10
209.1359999999999
 20
104.316
 30
0.0
 11
214.0
 21
105.0
 31
0.0
  0
LINE
  5
37A
330
1E
100
AcDbEntity
  8
0
100
AcDbLine
 10
179.4999999999999
 20
101.0
 30
0.0
 11
198.5
 21
101.0
 31
0.0
  0
LINE
  5
37B
330
1E
100
AcDbEntity
  8
0
100
AcDbLine
 10
177.5
 20
103.36
 30
0.0
 11
177.5
 21
105.2799999999999
 31
0.0
  0
LINE
  5
37C
330
1E
100
AcDbEntity
  8
0
100
AcDbLine
 10
177.5
 20
103.36
 30
0.0
 11
177.5
 21
100.16
 31
0.0
  0
LINE
  5
37D
330
1E
100
AcDbEntity
  8
0
100
AcDbLine
 10
177.5
 20
105.2799999999999
 30
0.0
 11
177.5
 21
106.0
 31
0.0
  0
LINE
  5
37E
330
1E
100
AcDbEntity
  8
0
100
AcDbLine
 10
177.5
 20
105.2799999999999
 30
0.0
 11
177.5
 21
103.36
 31
0.0
  0
LINE
  5
37F
330
1E
100
AcDbEntity
  8
0
100
AcDbLine
 10
176.412
 20
103.36
 30
0.0
 11
177.0929999999999
 21
105.2799999999999
 31
0.0
  0
LINE
  5
380
330
1E
100
AcDbEntity
  8
0
100
AcDbLine
 10
177.0929999999999
 20
105.2799999999999
 30
0.0
 11
177.5
 21
106.0
 31
0.0
  0
LINE
  5
381
330
1E
100
AcDbEntity
  8
0
100
AcDbLine
 10
126.429
 20
103.36
 30
0.0
 11
130.679
 21
100.16
 31
0.0
  0
LINE
  5
382
330
1E
100
AcDbEntity
  8
0
100
AcDbLine
 10
121.6439999999999
 20
105.2799999999999
 30
0.0
 11
126.429
 21
103.36
 31
0.0
  0
LINE
  5
383
330
1E
100
AcDbEntity
  8
0
100
AcDbLine
 10
111.3799999999999
 20
105.2799999999999
 30
0.0
 11
116.5
 21
106.0
 31
0.0
  0
LINE
  5
384
330
1E
100
AcDbEntity
  8
0
100
AcDbLine
 10
132.2319999999999
 20
108.0
 30
0.0
 11
139.8079999999999
 21
108.0
 31
0.0
  0
LINE
  5
385
330
1E
100
AcDbEntity
  8
0
100
AcDbLine
 10
124.462
 20
108.0
 30
0.0
 11
132.2319999999999
 21
108.0
 31
0.0
  0
LINE
  5
386
330
1E
100
AcDbEntity
  8
0
100
AcDbLine
 10
116.5
 20
108.0
 30
0.0
 11
124.462
 21
108.0
 31
0.0
  0
LINE
  5
387
330
1E
100
AcDbEntity
  8
0
100
AcDbLine
 10
116.5
 20
106.0
 30
0.0
 11
121.6439999999999
 21
105.2799999999999
 31
0.0
  0
LINE
  5
388
330
1E
100
AcDbEntity
  8
0
100
AcDbLine
 10
116.5
 20
106.0
 30
0.0
 11
121.62
 21
105.2799999999999
 31
0.0
  0
LINE
  5
389
330
1E
100
AcDbEntity
  8
0
100
AcDbLine
 10
179.4999999999999
 20
106.0
 30
0.0
 11
179.4999999999999
 21
105.2799999999999
 31
0.0
  0
LINE
  5
38A
330
1E
100
AcDbEntity
  8
0
100
AcDbLine
 10
147.09
 20
108.0
 30
0.0
 11
163.0169999999999
 21
108.0
 31
0.0
  0
LINE
  5
38B
330
1E
100
AcDbEntity
  8
0
100
AcDbLine
 10
167.3009999999999
 20
108.0
 30
0.0
 11
169.0929999999999
 21
108.0
 31
0.0
  0
LINE
  5
38C
330
1E
100
AcDbEntity
  8
0
100
AcDbLine
 10
165.6209999999999
 20
108.0
 30
0.0
 11
167.3009999999999
 21
108.0
 31
0.0
  0
LINE
  5
38D
330
1E
100
AcDbEntity
  8
0
100
AcDbLine
 10
164.137
 20
108.0
 30
0.0
 11
165.6209999999999
 21
108.0
 31
0.0
  0
LINE
  5
38E
330
1E
100
AcDbEntity
  8
0
100
AcDbLine
 10
163.0169999999999
 20
108.0
 30
0.0
 11
164.137
 21
108.0
 31
0.0
  0
LINE
  5
38F
330
1E
100
AcDbEntity
  8
0
100
AcDbLine
 10
169.0929999999999
 20
108.0
 30
0.0
 11
170.8849999999999
 21
108.0
 31
0.0
  0
LINE
  5
390
330
1E
100
AcDbEntity
  8
0
100
AcDbLine
 10
170.8849999999999
 20
108.0
 30
0.0
 11
172.5649999999999
 21
108.0
 31
0.0
  0
LINE
  5
391
330
1E
100
AcDbEntity
  8
0
100
AcDbLine
 10
172.5649999999999
 20
108.0
 30
0.0
 11
174.049
 21
108.0
 31
0.0
  0
LINE
  5
392
330
1E
100
AcDbEntity
  8
0
100
AcDbLine
 10
174.049
 20
108.0
 30
0.0
 11
175.169
 21
108.0
 31
0.0
  0
LINE
  5
393
330
1E
100
AcDbEntity
  8
0
100
AcDbLine
 10
175.169
 20
108.0
 30
0.0
 11
175.8409999999999
 21
108.0
 31
0.0
  0
LINE
  5
394
330
1E
100
AcDbEntity
  8
0
100
AcDbLine
 10
175.8409999999999
 20
108.0
 30
0.0
 11
176.0929999999999
 21
108.0
 31
0.0
  0
LINE
  5
395
330
1E
100
AcDbEntity
  8
0
100
AcDbLine
 10
176.0929999999999
 20
108.0
 30
0.0
 11
176.858
 21
108.0
 31
0.0
  0
LINE
  5
397
330
1E
100
AcDbEntity
  8
0
100
AcDbLine
 10
177.5
 20
108.0
 30
0.0
 11
177.5
 21
106.0
 31
0.0
  0
LINE
  5
398
330
1E
100
AcDbEntity
  8
0
100
AcDbLine
 10
176.858
 20
108.0
 30
0.0
 11
177.5
 21
108.0
 31
0.0
  0
LINE
  5
399
330
1E
100
AcDbEntity
  8
0
100
AcDbLine
 10
177.5
 20
106.0
 30
0.0
 11
177.5
 21
108.0
 31
0.0
  0
LINE
  5
39A
330
1E
100
AcDbEntity
  8
0
100
AcDbLine
 10
177.5
 20
106.0
 30
0.0
 11
179.4999999999999
 21
106.0
 31
0.0
  0
LINE
  5
39B
330
1E
100
AcDbEntity
  8
0
100
AcDbLine
 10
177.5
 20
106.0
 30
0.0
 11
177.5
 21
105.2799999999999
 31
0.0
  0
LINE
  5
39C
330
1E
100
AcDbEntity
  8
0
100
AcDbLine
 10
146.872
 20
108.0
 30
0.0
 11
147.09
 21
108.0
 31
0.0
  0
LINE
  5
39D
330
1E
100
AcDbEntity
  8
0
100
AcDbLine
 10
139.8079999999999
 20
108.0
 30
0.0
 11
146.872
 21
108.0
 31
0.0
  0
LINE
  5
39E
330
1E
100
AcDbEntity
  8
0
100
AcDbLine
 10
108.538
 20
108.0
 30
0.0
 11
116.5
 21
108.0
 31
0.0
  0
LINE
  5
39F
330
1E
100
AcDbEntity
  8
0
100
AcDbLine
 10
111.356
 20
105.2799999999999
 30
0.0
 11
116.5
 21
106.0
 31
0.0
  0
LINE
  5
3A0
330
1E
100
AcDbEntity
  8
0
100
AcDbLine
 10
58.121
 20
0.0000000000000042
 30
0.0
 11
59.6116
 21
0.0000000000000037
 31
0.0
  0
LINE
  5
3A1
330
1E
100
AcDbEntity
  8
0
100
AcDbLine
 10
57.5
 20
0.0000000000000046
 30
0.0
 11
58.121
 21
0.0000000000000042
 31
0.0
  0
LINE
  5
3A2
330
1E
100
AcDbEntity
  8
0
100
AcDbLine
 10
57.5
 20
0.0000000000000046
 30
0.0
 11
58.121
 21
0.0000000000000051
 31
0.0
  0
ENDSEC
  0
SECTION
  2
OBJECTS
  0
DICTIONARY
  5
C
330
0
100
AcDbDictionary
  3
ACAD_GROUP
350
D
  3
ACAD_LAYOUT
350
19
  3
ACAD_MLINESTYLE
350
16
  3
ACAD_PLOTSETTINGS
350
18
  3
ACAD_PLOTSTYLENAME
350
E
  3
ACDBHEADERROUNDTRIPXREC
350
3AC
  3
ACDBVARIABLEDICTIONARY
350
3A9
  0
DICTIONARY
  5
3CE
330
1E
100
AcDbDictionary
280
     1
  3
ACAD_LAYOUTSELFREF
360
3CF
  0
DICTIONARY
  5
3CC
330
1A
100
AcDbDictionary
280
     1
  3
ACAD_LAYOUTSELFREF
360
3CD
  0
DICTIONARY
  5
D
102
{ACAD_REACTORS
330
C
102
}
330
C
100
AcDbDictionary
  0
DICTIONARY
  5
19
102
{ACAD_REACTORS
330
C
102
}
330
C
100
AcDbDictionary
  0
DICTIONARY
  5
16
102
{ACAD_REACTORS
330
C
102
}
330
C
100
AcDbDictionary
  3
STANDARD
350
17
  0
DICTIONARY
  5
18
102
{ACAD_REACTORS
330
C
102
}
330
C
100
AcDbDictionary
  0
ACDBDICTIONARYWDFLT
  5
E
102
{ACAD_REACTORS
330
C
102
}
330
C
100
AcDbDictionary
281
     1
  3
Normal
350
F
100
AcDbDictionaryWithDefault
340
F
  0
DICTIONARY
  5
3AC
102
{ACAD_REACTORS
330
C
102
}
330
C
100
AcDbDictionary
  3
CEPSNTYPE
350
3B6
  3
FINGERPRINTGUID
350
3B7
  3
HYPERLINKBASE
350
3AF
  3
INSUNITS
350
3B5
  3
LAYOUTDICT
350
3B1
  3
LWETCUNION
350
3B4
  3
PLOTSETDICT
350
3B2
  3
PLOTSTYLNAMDICT
350
3B3
  3
PSVPSCALE
350
3B9
  3
PUCSBASE
350
3BC
  3
PUCSORGBACK
350
3C2
  3
PUCSORGBOTTOM
350
3BE
  3
PUCSORGFRONT
350
3C1
  3
PUCSORGLEFT
350
3BF
  3
PUCSORGRIGHT
350
3C0
  3
PUCSORGTOP
350
3BD
  3
PUCSORTHOREF
350
3BA
  3
PUCSORTHOVIEW
350
3BB
  3
STYLESHEET
350
3B0
  3
TSTACKALIGN
350
3AD
  3
TSTACKSIZE
350
3AE
  3
UCSBASE
350
3C5
  3
UCSORGBACK
350
3CB
  3
UCSORGBOTTOM
350
3C7
  3
UCSORGFRONT
350
3CA
  3
UCSORGLEFT
350
3C8
  3
UCSORGRIGHT
350
3C9
  3
UCSORGTOP
350
3C6
  3
UCSORTHOREF
350
3C3
  3
UCSORTHOVIEW
350
3C4
  3
VERSIONGUID
350
3B8
  0
DICTIONARY
  5
3A9
102
{ACAD_REACTORS
330
C
102
}
330
C
100
AcDbDictionary
  3
DIMASSOC
350
3AA
  0
XRECORD
  5
3CF
102
{ACAD_REACTORS
330
3CE
102
}
330
3CE
100
AcDbXrecord
340
1E
  0
XRECORD
  5
3CD
102
{ACAD_REACTORS
330
3CC
102
}
330
3CC
100
AcDbXrecord
340
1A
  0
MLINESTYLE
  5
17
102
{ACAD_REACTORS
330
16
102
}
330
16
100
AcDbMlineStyle
  2
STANDARD
 70
     0
  3

 62
   256
 51
90.0
 52
90.0
 71
     2
 49
0.5
 62
   256
  6
BYLAYER
 49
-0.5
 62
   256
  6
BYLAYER
  0
ACDBPLACEHOLDER
  5
F
102
{ACAD_REACTORS
330
E
102
}
330
E
100
AcDbPlaceHolder
280
     0
  0
XRECORD
  5
3B6
102
{ACAD_REACTORS
330
3AC
102
}
330
3AC
100
AcDbXrecord
 90
        0
  0
XRECORD
  5
3B7
102
{ACAD_REACTORS
330
3AC
102
}
330
3AC
100
AcDbXrecord
  1
{6A96754F-81B6-4393-834B-B9586FFBE6AF}
  0
XRECORD
  5
3AF
102
{ACAD_REACTORS
330
3AC
102
}
330
3AC
100
AcDbXrecord
  1

  0
XRECORD
  5
3B5
102
{ACAD_REACTORS
330
3AC
102
}
330
3AC
100
AcDbXrecord
 90
        0
  0
XRECORD
  5
3B1
102
{ACAD_REACTORS
330
3AC
102
}
330
3AC
100
AcDbXrecord
340
19
  0
XRECORD
  5
3B4
102
{ACAD_REACTORS
330
3AC
102
}
330
3AC
100
AcDbXrecord
 90
    10781
  0
XRECORD
  5
3B2
102
{ACAD_REACTORS
330
3AC
102
}
330
3AC
100
AcDbXrecord
340
18
  0
XRECORD
  5
3B3
102
{ACAD_REACTORS
330
3AC
102
}
330
3AC
100
AcDbXrecord
340
E
  0
XRECORD
  5
3B9
102
{ACAD_REACTORS
330
3AC
102
}
330
3AC
100
AcDbXrecord
 40
0.0
  0
XRECORD
  5
3BC
102
{ACAD_REACTORS
330
3AC
102
}
330
3AC
100
AcDbXrecord
340
0
  0
XRECORD
  5
3C2
102
{ACAD_REACTORS
330
3AC
102
}
330
3AC
100
AcDbXrecord
 10
0.0
 20
0.0
 30
0.0
  0
XRECORD
  5
3BE
102
{ACAD_REACTORS
330
3AC
102
}
330
3AC
100
AcDbXrecord
 10
0.0
 20
0.0
 30
0.0
  0
XRECORD
  5
3C1
102
{ACAD_REACTORS
330
3AC
102
}
330
3AC
100
AcDbXrecord
 10
0.0
 20
0.0
 30
0.0
  0
XRECORD
  5
3BF
102
{ACAD_REACTORS
330
3AC
102
}
330
3AC
100
AcDbXrecord
 10
0.0
 20
0.0
 30
0.0
  0
XRECORD
  5
3C0
102
{ACAD_REACTORS
330
3AC
102
}
330
3AC
100
AcDbXrecord
 10
0.0
 20
0.0
 30
0.0
  0
XRECORD
  5
3BD
102
{ACAD_REACTORS
330
3AC
102
}
330
3AC
100
AcDbXrecord
 10
0.0
 20
0.0
 30
0.0
  0
XRECORD
  5
3BA
102
{ACAD_REACTORS
330
3AC
102
}
330
3AC
100
AcDbXrecord
340
0
  0
XRECORD
  5
3BB
102
{ACAD_REACTORS
330
3AC
102
}
330
3AC
100
AcDbXrecord
 70
     0
  0
XRECORD
  5
3B0
102
{ACAD_REACTORS
330
3AC
102
}
330
3AC
100
AcDbXrecord
  1

  0
XRECORD
  5
3AD
102
{ACAD_REACTORS
330
3AC
102
}
330
3AC
100
AcDbXrecord
 90
        1
  0
XRECORD
  5
3AE
102
{ACAD_REACTORS
330
3AC
102
}
330
3AC
100
AcDbXrecord
 90
       70
  0
XRECORD
  5
3C5
102
{ACAD_REACTORS
330
3AC
102
}
330
3AC
100
AcDbXrecord
340
0
  0
XRECORD
  5
3CB
102
{ACAD_REACTORS
330
3AC
102
}
330
3AC
100
AcDbXrecord
 10
0.0
 20
0.0
 30
0.0
  0
XRECORD
  5
3C7
102
{ACAD_REACTORS
330
3AC
102
}
330
3AC
100
AcDbXrecord
 10
0.0
 20
0.0
 30
0.0
  0
XRECORD
  5
3CA
102
{ACAD_REACTORS
330
3AC
102
}
330
3AC
100
AcDbXrecord
 10
0.0
 20
0.0
 30
0.0
  0
XRECORD
  5
3C8
102
{ACAD_REACTORS
330
3AC
102
}
330
3AC
100
AcDbXrecord
 10
0.0
 20
0.0
 30
0.0
  0
XRECORD
  5
3C9
102
{ACAD_REACTORS
330
3AC
102
}
330
3AC
100
AcDbXrecord
 10
0.0
 20
0.0
 30
0.0
  0
XRECORD
  5
3C6
102
{ACAD_REACTORS
330
3AC
102
}
330
3AC
100
AcDbXrecord
 10
0.0
 20
0.0
 30
0.0
  0
XRECORD
  5
3C3
102
{ACAD_REACTORS
330
3AC
102
}
330
3AC
100
AcDbXrecord
340
0
  0
XRECORD
  5
3C4
102
{ACAD_REACTORS
330
3AC
102
}
330
3AC
100
AcDbXrecord
 70
     1
  0
XRECORD
  5
3B8
102
{ACAD_REACTORS
330
3AC
102
}
330
3AC
100
AcDbXrecord
  1
{33EB4378-0F7D-466B-9BAA-3C727402AD76}
  0
DICTIONARYVAR
  5
3AA
102
{ACAD_REACTORS
330
3A9
102
}
330
3A9
100
DictionaryVariables
280
     0
  1
1
  0
ENDSEC
  0
EOF
