  0
SECTION
  2
HEADER
  9
$ACADVER
  1
AC1014
  9
$ACADMAINTVER
 70
     9
  9
$DWGCODEPAGE
  3
ANSI_1252
  9
$INSBASE
 10
0.0
 20
0.0
 30
0.0
  9
$EXTMIN
 10
0.0000000000000017
 20
0.0185000000000103
 30
0.0
  9
$EXTMAX
 10
48.0
 20
167.9815
 30
0.0
  9
$LIMMIN
 10
0.0
 20
0.0
  9
$LIMMAX
 10
12.0
 20
9.0
  9
$ORTHOMODE
 70
     0
  9
$REGENMODE
 70
     1
  9
$FILLMODE
 70
     1
  9
$QTEXTMODE
 70
     0
  9
$MIRRTEXT
 70
     1
  9
$DRAGMODE
 70
     2
  9
$LTSCALE
 40
1.0
  9
$OSMODE
 70
    37
  9
$ATTMODE
 70
     1
  9
$TEXTSIZE
 40
0.2
  9
$TRACEWID
 40
0.05
  9
$TEXTSTYLE
  7
STANDARD
  9
$CLAYER
  8
0
  9
$CELTYPE
  6
CONTINUOUS
  9
$CECOLOR
 62
   256
  9
$CELTSCALE
 40
1.0
  9
$DELOBJ
 70
     1
  9
$DISPSILH
 70
     0
  9
$DIMSCALE
 40
1.0
  9
$DIMASZ
 40
0.18
  9
$DIMEXO
 40
0.0625
  9
$DIMDLI
 40
0.38
  9
$DIMRND
 40
0.0
  9
$DIMDLE
 40
0.0
  9
$DIMEXE
 40
0.18
  9
$DIMTP
 40
0.0
  9
$DIMTM
 40
0.0
  9
$DIMTXT
 40
0.18
  9
$DIMCEN
 40
0.09
  9
$DIMTSZ
 40
0.0
  9
$DIMTOL
 70
     0
  9
$DIMLIM
 70
     0
  9
$DIMTIH
 70
     1
  9
$DIMTOH
 70
     1
  9
$DIMSE1
 70
     0
  9
$DIMSE2
 70
     0
  9
$DIMTAD
 70
     0
  9
$DIMZIN
 70
     0
  9
$DIMBLK
  1

  9
$DIMASO
 70
     1
  9
$DIMSHO
 70
     1
  9
$DIMPOST
  1

  9
$DIMAPOST
  1

  9
$DIMALT
 70
     0
  9
$DIMALTD
 70
     2
  9
$DIMALTF
 40
25.4
  9
$DIMLFAC
 40
1.0
  9
$DIMTOFL
 70
     0
  9
$DIMTVP
 40
0.0
  9
$DIMTIX
 70
     0
  9
$DIMSOXD
 70
     0
  9
$DIMSAH
 70
     0
  9
$DIMBLK1
  1

  9
$DIMBLK2
  1

  9
$DIMSTYLE
  2
STANDARD
  9
$DIMCLRD
 70
     0
  9
$DIMCLRE
 70
     0
  9
$DIMCLRT
 70
     0
  9
$DIMTFAC
 40
1.0
  9
$DIMGAP
 40
0.09
  9
$DIMJUST
 70
     0
  9
$DIMSD1
 70
     0
  9
$DIMSD2
 70
     0
  9
$DIMTOLJ
 70
     1
  9
$DIMTZIN
 70
     0
  9
$DIMALTZ
 70
     0
  9
$DIMALTTZ
 70
     0
  9
$DIMFIT
 70
     3
  9
$DIMUPT
 70
     0
  9
$DIMUNIT
 70
     2
  9
$DIMDEC
 70
     4
  9
$DIMTDEC
 70
     4
  9
$DIMALTU
 70
     2
  9
$DIMALTTD
 70
     2
  9
$DIMTXSTY
  7
STANDARD
  9
$DIMAUNIT
 70
     0
  9
$LUNITS
 70
     2
  9
$LUPREC
 70
     4
  9
$SKETCHINC
 40
0.1
  9
$FILLETRAD
 40
0.0
  9
$AUNITS
 70
     0
  9
$AUPREC
 70
     0
  9
$MENU
  1
.
  9
$ELEVATION
 40
0.0
  9
$PELEVATION
 40
0.0
  9
$THICKNESS
 40
0.0
  9
$LIMCHECK
 70
     0
  9
$BLIPMODE
 70
     0
  9
$CHAMFERA
 40
0.0
  9
$CHAMFERB
 40
0.0
  9
$CHAMFERC
 40
0.0
  9
$CHAMFERD
 40
0.0
  9
$SKPOLY
 70
     0
  9
$TDCREATE
 40
2455233.509895833
  9
$TDUPDATE
 40
2455233.518175092
  9
$TDINDWG
 40
0.0082792593
  9
$TDUSRTIMER
 40
0.0082792593
  9
$USRTIMER
 70
     1
  9
$ANGBASE
 50
0.0
  9
$ANGDIR
 70
     0
  9
$PDMODE
 70
     0
  9
$PDSIZE
 40
0.0
  9
$PLINEWID
 40
0.0
  9
$COORDS
 70
     1
  9
$SPLFRAME
 70
     0
  9
$SPLINETYPE
 70
     6
  9
$SPLINESEGS
 70
     8
  9
$ATTDIA
 70
     0
  9
$ATTREQ
 70
     1
  9
$HANDLING
 70
 22529
  9
$HANDSEED
  5
1D4
  9
$SURFTAB1
 70
     6
  9
$SURFTAB2
 70
     6
  9
$SURFTYPE
 70
     6
  9
$SURFU
 70
     6
  9
$SURFV
 70
     6
  9
$UCSNAME
  2

  9
$UCSORG
 10
0.0
 20
0.0
 30
0.0
  9
$UCSXDIR
 10
1.0
 20
0.0
 30
0.0
  9
$UCSYDIR
 10
0.0
 20
1.0
 30
0.0
  9
$PUCSNAME
  2

  9
$PUCSORG
 10
0.0
 20
0.0
 30
0.0
  9
$PUCSXDIR
 10
1.0
 20
0.0
 30
0.0
  9
$PUCSYDIR
 10
0.0
 20
1.0
 30
0.0
  9
$USERI1
 70
     0
  9
$USERI2
 70
     0
  9
$USERI3
 70
     0
  9
$USERI4
 70
     0
  9
$USERI5
 70
     0
  9
$USERR1
 40
0.0
  9
$USERR2
 40
0.0
  9
$USERR3
 40
0.0
  9
$USERR4
 40
0.0
  9
$USERR5
 40
0.0
  9
$WORLDVIEW
 70
     1
  9
$SHADEDGE
 70
     3
  9
$SHADEDIF
 70
    70
  9
$TILEMODE
 70
     1
  9
$MAXACTVP
 70
    64
  9
$PINSBASE
 10
0.0
 20
0.0
 30
0.0
  9
$PLIMCHECK
 70
     0
  9
$PEXTMIN
 10
1.000000000000000E+20
 20
1.000000000000000E+20
 30
1.000000000000000E+20
  9
$PEXTMAX
 10
-1.000000000000000E+20
 20
-1.000000000000000E+20
 30
-1.000000000000000E+20
  9
$PLIMMIN
 10
0.0
 20
0.0
  9
$PLIMMAX
 10
12.0
 20
9.0
  9
$UNITMODE
 70
     0
  9
$VISRETAIN
 70
     1
  9
$PLINEGEN
 70
     0
  9
$PSLTSCALE
 70
     1
  9
$TREEDEPTH
 70
  3020
  9
$PICKSTYLE
 70
     1
  9
$CMLSTYLE
  2
STANDARD
  9
$CMLJUST
 70
     0
  9
$CMLSCALE
 40
1.0
  9
$PROXYGRAPHICS
 70
     1
  9
$MEASUREMENT
 70
     0
  0
ENDSEC
  0
SECTION
  2
CLASSES
  0
CLASS
  1
ACDBDICTIONARYWDFLT
  2
AcDbDictionaryWithDefault
  3
AutoCAD 2000
 90
        0
280
     0
281
     0
  0
CLASS
  1
ACDBPLACEHOLDER
  2
AcDbPlaceHolder
  3
AutoCAD 2000
 90
        0
280
     0
281
     0
  0
CLASS
  1
LAYOUT
  2
AcDbLayout
  3
AutoCAD 2000
 90
        0
280
     0
281
     0
  0
CLASS
  1
DICTIONARYVAR
  2
AcDbDictionaryVar
  3
AutoCAD 2000
 90
        0
280
     0
281
     0
  0
CLASS
  1
LONG_TRANSACTION
  2
AcDbLongTransaction
  3
AutoCAD 2000
 90
        0
280
     0
281
     0
  0
CLASS
  1
LWPOLYLINE
  2
AcDbPolyline
  3
AutoCAD 2000
 90
        0
280
     0
281
     1
  0
CLASS
  1
HATCH
  2
AcDbHatch
  3
AutoCAD 2000
 90
        0
280
     0
281
     1
  0
CLASS
  1
XRECORD
  2
AcDbXrecord
  3
AutoCAD 2000
 90
        0
280
     0
281
     0
  0
ENDSEC
  0
SECTION
  2
TABLES
  0
TABLE
  2
VPORT
  5
8
330
0
100
AcDbSymbolTable
 70
     3
  0
VPORT
  5
1AF
330
8
100
AcDbSymbolTableRecord
100
AcDbViewportTableRecord
  2
*ACTIVE
 70
     0
 10
0.0
 20
0.0
 11
1.0
 21
1.0
 12
24.0
 22
84.00000000000002
 13
0.0
 23
0.0
 14
1.0
 24
1.0
 15
0.0
 25
0.0
 16
0.0
 26
0.0
 36
1.0
 17
0.0
 27
0.0
 37
0.0
 40
169.065601750547
 41
2.041621029572836
 42
50.0
 43
0.0
 44
0.0
 50
0.0
 51
0.0
 71
     0
 72
   100
 73
     1
 74
     3
 75
     0
 76
     0
 77
     0
 78
     0
  0
ENDTAB
  0
TABLE
  2
LTYPE
  5
5
330
0
100
AcDbSymbolTable
 70
     1
  0
LTYPE
  5
13
330
5
100
AcDbSymbolTableRecord
100
AcDbLinetypeTableRecord
  2
BYBLOCK
 70
     0
  3

 72
    65
 73
     0
 40
0.0
  0
LTYPE
  5
14
330
5
100
AcDbSymbolTableRecord
100
AcDbLinetypeTableRecord
  2
BYLAYER
 70
     0
  3

 72
    65
 73
     0
 40
0.0
  0
LTYPE
  5
15
330
5
100
AcDbSymbolTableRecord
100
AcDbLinetypeTableRecord
  2
CONTINUOUS
 70
     0
  3
Solid line
 72
    65
 73
     0
 40
0.0
  0
ENDTAB
  0
TABLE
  2
LAYER
  5
2
330
0
100
AcDbSymbolTable
 70
     1
  0
LAYER
  5
10
330
2
100
AcDbSymbolTableRecord
100
AcDbLayerTableRecord
  2
0
 70
     0
 62
     7
  6
CONTINUOUS
  0
ENDTAB
  0
TABLE
  2
STYLE
  5
3
330
0
100
AcDbSymbolTable
 70
     1
  0
STYLE
  5
11
330
3
100
AcDbSymbolTableRecord
100
AcDbTextStyleTableRecord
  2
STANDARD
 70
     0
 40
0.0
 41
1.0
 50
0.0
 71
     0
 42
0.2
  3
txt
  4

  0
ENDTAB
  0
TABLE
  2
VIEW
  5
6
330
0
100
AcDbSymbolTable
 70
     0
  0
ENDTAB
  0
TABLE
  2
UCS
  5
7
330
0
100
AcDbSymbolTable
 70
     0
  0
ENDTAB
  0
TABLE
  2
APPID
  5
9
330
0
100
AcDbSymbolTable
 70
     1
  0
APPID
  5
12
330
9
100
AcDbSymbolTableRecord
100
AcDbRegAppTableRecord
  2
ACAD
 70
     0
  0
ENDTAB
  0
TABLE
  2
DIMSTYLE
  5
A
330
0
100
AcDbSymbolTable
 70
     1
  0
DIMSTYLE
105
155
330
A
100
AcDbSymbolTableRecord
100
AcDbDimStyleTableRecord
  2
STANDARD
 70
     0
  3

  4

  5

  6

  7

 40
1.0
 41
0.18
 42
0.0625
 43
0.38
 44
0.18
 45
0.0
 46
0.0
 47
0.0
 48
0.0
140
0.18
141
0.09
142
0.0
143
25.4
144
1.0
145
0.0
146
1.0
147
0.09
 71
     0
 72
     0
 73
     1
 74
     1
 75
     0
 76
     0
 77
     0
 78
     0
170
     0
171
     2
172
     0
173
     0
174
     0
175
     0
176
     0
177
     0
178
     0
270
     2
271
     4
272
     4
273
     2
274
     2
340
11
275
     0
280
     0
281
     0
282
     0
283
     1
284
     0
285
     0
286
     0
287
     3
288
     0
  0
ENDTAB
  0
TABLE
  2
BLOCK_RECORD
  5
1
330
0
100
AcDbSymbolTable
 70
     0
  0
BLOCK_RECORD
  5
1E
102
{ACAD_XDICTIONARY
360
1D2
102
}
330
1
100
AcDbSymbolTableRecord
100
AcDbBlockTableRecord
  2
*MODEL_SPACE
  0
BLOCK_RECORD
  5
1A
102
{ACAD_XDICTIONARY
360
1D0
102
}
330
1
100
AcDbSymbolTableRecord
100
AcDbBlockTableRecord
  2
*PAPER_SPACE
  0
ENDTAB
  0
ENDSEC
  0
SECTION
  2
BLOCKS
  0
BLOCK
  5
1F
330
1E
100
AcDbEntity
  8
0
100
AcDbBlockBegin
  2
*MODEL_SPACE
 70
     0
 10
0.0
 20
0.0
 30
0.0
  3
*MODEL_SPACE
  1

  0
ENDBLK
  5
20
330
1E
100
AcDbEntity
  8
0
100
AcDbBlockEnd
  0
BLOCK
  5
1B
330
1A
100
AcDbEntity
 67
     1
  8
0
100
AcDbBlockBegin
  2
*PAPER_SPACE
 70
     0
 10
0.0
 20
0.0
 30
0.0
  3
*PAPER_SPACE
  1

  0
ENDBLK
  5
1C
330
1A
100
AcDbEntity
 67
     1
  8
0
100
AcDbBlockEnd
  0
ENDSEC
  0
SECTION
  2
ENTITIES
  0
LINE
  5
22
330
1E
100
AcDbEntity
  8
0
100
AcDbLine
 10
3.73595923608341
 20
84.2124729858847
 30
0.0
 11
4.338809999999999
 21
36.9328
 31
0.0
  0
LINE
  5
23
330
1E
100
AcDbEntity
  8
0
100
AcDbLine
 10
4.724599999999999
 20
85.4465
 30
0.0
 11
5.237199999999999
 21
83.1489
 31
0.0
  0
LINE
  5
24
330
1E
100
AcDbEntity
  8
0
100
AcDbLine
 10
4.519499999999999
 20
87.8405
 30
0.0
 11
4.724599999999999
 21
85.4465
 31
0.0
  0
LINE
  5
27
330
1E
100
AcDbEntity
  8
0
100
AcDbLine
 10
4.338809999999999
 20
36.9328
 30
0.0
 11
4.639019999999999
 21
28.1672
 31
0.0
  0
LINE
  5
28
330
1E
100
AcDbEntity
  8
0
100
AcDbLine
 10
4.639019999999999
 20
28.1672
 30
0.0
 11
5.0
 21
19.01849999999999
 31
0.0
  0
LINE
  5
29
330
1E
100
AcDbEntity
  8
0
100
AcDbLine
 10
3.73595923608341
 20
84.2124729858847
 30
0.0
 11
4.338809999999999
 21
36.9328
 31
0.0
  0
LINE
  5
2A
330
1E
100
AcDbEntity
  8
0
100
AcDbLine
 10
0.8640000000000021
 20
137.8375
 30
0.0
 11
1.62357253979144
 21
135.6968864787699
 31
0.0
  0
LINE
  5
2B
330
1E
100
AcDbEntity
  8
0
100
AcDbLine
 10
0.8640000000000021
 20
150.1255
 30
0.0
 11
1.919999999999999
 21
153.1015
 31
0.0
  0
LINE
  5
2C
330
1E
100
AcDbEntity
  8
0
100
AcDbLine
 10
0.288000000000002
 20
147.1494999999999
 30
0.0
 11
0.8640000000000021
 21
150.1255
 31
0.0
  0
LINE
  5
2D
330
1E
100
AcDbEntity
  8
0
100
AcDbLine
 10
0.288000000000002
 20
140.8135
 30
0.0
 11
0.8640000000000021
 21
137.8375
 31
0.0
  0
LINE
  5
2E
330
1E
100
AcDbEntity
  8
0
100
AcDbLine
 10
0.0000000000000017
 20
143.9815
 30
0.0
 11
0.288000000000002
 21
140.8135
 31
0.0
  0
LINE
  5
2F
330
1E
100
AcDbEntity
  8
0
100
AcDbLine
 10
0.0000000000000017
 20
143.9815
 30
0.0
 11
0.288000000000002
 21
147.1494999999999
 31
0.0
  0
LINE
  5
31
330
1E
100
AcDbEntity
  8
0
100
AcDbLine
 10
1.52951
 20
138.7264999999999
 30
0.0
 11
1.635599999999999
 21
135.3095
 31
0.0
  0
LINE
  5
32
330
1E
100
AcDbEntity
  8
0
100
AcDbLine
 10
1.635599999999999
 20
135.3095
 30
0.0
 11
1.803099999999999
 21
131.3135
 31
0.0
  0
LINE
  5
33
330
1E
100
AcDbEntity
  8
0
100
AcDbLine
 10
1.803099999999999
 20
131.3135
 30
0.0
 11
1.9913
 21
127.1754999999999
 31
0.0
  0
LINE
  5
34
330
1E
100
AcDbEntity
  8
0
100
AcDbLine
 10
1.9913
 20
127.1754999999999
 30
0.0
 11
2.200337961556079
 21
123.5429043780279
 31
0.0
  0
LINE
  5
35
330
1E
100
AcDbEntity
  8
0
100
AcDbLine
 10
2.200337961556079
 20
123.5429043780279
 30
0.0
 11
2.6419
 21
111.6414999999999
 31
0.0
  0
LINE
  5
36
330
1E
100
AcDbEntity
  8
0
100
AcDbLine
 10
2.6419
 20
111.6414999999999
 30
0.0
 11
4.519499999999999
 21
87.8405
 31
0.0
  0
LINE
  5
37
330
1E
100
AcDbEntity
  8
0
100
AcDbLine
 10
1.919999999999999
 20
153.1015
 30
0.0
 11
3.168
 21
155.8855
 31
0.0
  0
LINE
  5
38
330
1E
100
AcDbEntity
  8
0
100
AcDbLine
 10
4.903999999999999
 20
154.7705
 30
0.0
 11
6.576
 21
157.2214999999999
 31
0.0
  0
LINE
  5
39
330
1E
100
AcDbEntity
  8
0
100
AcDbLine
 10
4.416999999999999
 20
154.0885
 30
0.0
 11
6.16
 21
156.3865
 31
0.0
  0
LINE
  5
3A
330
1E
100
AcDbEntity
  8
0
100
AcDbLine
 10
4.416999999999999
 20
154.0885
 30
0.0
 11
4.903999999999999
 21
154.7705
 31
0.0
  0
LINE
  5
3B
330
1E
100
AcDbEntity
  8
0
100
AcDbLine
 10
3.186599999999999
 20
151.5985
 30
0.0
 11
4.416999999999999
 21
154.0885
 31
0.0
  0
LINE
  5
3C
330
1E
100
AcDbEntity
  8
0
100
AcDbLine
 10
2.2639
 20
149.0134999999999
 30
0.0
 11
3.186599999999999
 21
151.5985
 31
0.0
  0
LINE
  5
3D
330
1E
100
AcDbEntity
  8
0
100
AcDbLine
 10
1.6487
 20
146.3325
 30
0.0
 11
2.2639
 21
149.0134999999999
 31
0.0
  0
LINE
  5
3E
330
1E
100
AcDbEntity
  8
0
100
AcDbLine
 10
1.443599999999999
 20
143.5554999999999
 30
0.0
 11
1.6487
 21
146.3325
 31
0.0
  0
LINE
  5
40
330
1E
100
AcDbEntity
  8
0
100
AcDbLine
 10
1.443599999999999
 20
143.5554999999999
 30
0.0
 11
1.52951
 21
138.7264999999999
 31
0.0
  0
LINE
  5
44
330
1E
100
AcDbEntity
  8
0
100
AcDbLine
 10
14.5
 20
2.518500000000009
 30
0.0
 11
16.69999999999999
 21
1.51850000000001
 31
0.0
  0
LINE
  5
45
330
1E
100
AcDbEntity
  8
0
100
AcDbLine
 10
10.6
 20
5.618500000000009
 30
0.0
 11
12.4
 21
4.018500000000009
 31
0.0
  0
LINE
  5
46
330
1E
100
AcDbEntity
  8
0
100
AcDbLine
 10
12.4
 20
4.018500000000009
 30
0.0
 11
14.5
 21
2.518500000000009
 31
0.0
  0
LINE
  5
47
330
1E
100
AcDbEntity
  8
0
100
AcDbLine
 10
5.2
 20
16.5185
 30
0.0
 11
5.7
 21
14.1185
 31
0.0
  0
LINE
  5
48
330
1E
100
AcDbEntity
  8
0
100
AcDbLine
 10
5.237199999999999
 20
83.1489
 30
0.0
 11
6.0574
 21
80.85089999999999
 31
0.0
  0
LINE
  5
4A
330
1E
100
AcDbEntity
  8
0
100
AcDbLine
 10
5.0
 20
19.01849999999999
 30
0.0
 11
5.2
 21
16.5185
 31
0.0
  0
LINE
  5
4B
330
1E
100
AcDbEntity
  8
0
100
AcDbLine
 10
5.7
 20
14.1185
 30
0.0
 11
6.5
 21
11.7185
 31
0.0
  0
LINE
  5
4C
330
1E
100
AcDbEntity
  8
0
100
AcDbLine
 10
7.5
 20
9.51850000000001
 30
0.0
 11
9.0
 21
7.418500000000009
 31
0.0
  0
LINE
  5
4D
330
1E
100
AcDbEntity
  8
0
100
AcDbLine
 10
6.5
 20
11.7185
 30
0.0
 11
7.5
 21
9.51850000000001
 31
0.0
  0
LINE
  5
4E
330
1E
100
AcDbEntity
  8
0
100
AcDbLine
 10
9.0
 20
7.418500000000009
 30
0.0
 11
10.6
 21
5.618500000000009
 31
0.0
  0
LINE
  5
53
330
1E
100
AcDbEntity
  8
0
100
AcDbLine
 10
10.2611
 20
75.01009999999999
 30
0.0
 11
12.1066
 21
73.47809999999999
 31
0.0
  0
LINE
  5
54
330
1E
100
AcDbEntity
  8
0
100
AcDbLine
 10
12.1066
 20
73.47809999999999
 30
0.0
 11
14.2598
 21
72.0418
 31
0.0
  0
LINE
  5
55
330
1E
100
AcDbEntity
  8
0
100
AcDbLine
 10
6.0574
 20
80.85089999999999
 30
0.0
 11
7.082699999999999
 21
78.74439999999999
 31
0.0
  0
LINE
  5
56
330
1E
100
AcDbEntity
  8
0
100
AcDbLine
 10
8.620699999999999
 20
76.73359999999999
 30
0.0
 11
10.2611
 21
75.01009999999999
 31
0.0
  0
LINE
  5
57
330
1E
100
AcDbEntity
  8
0
100
AcDbLine
 10
7.082699999999999
 20
78.74439999999999
 30
0.0
 11
8.620699999999999
 21
76.73359999999999
 31
0.0
  0
LINE
  5
76
330
1E
100
AcDbEntity
  8
0
100
AcDbLine
 10
14.2598
 20
72.0418
 30
0.0
 11
16.51539999999999
 21
71.0843
 31
0.0
  0
LINE
  5
85
330
1E
100
AcDbEntity
  8
0
100
AcDbLine
 10
3.168
 20
155.8855
 30
0.0
 11
4.991999999999999
 21
158.5734999999999
 31
0.0
  0
LINE
  5
86
330
1E
100
AcDbEntity
  8
0
100
AcDbLine
 10
4.991999999999999
 20
158.5734999999999
 30
0.0
 11
7.104
 21
160.8775
 31
0.0
  0
LINE
  5
87
330
1E
100
AcDbEntity
  8
0
100
AcDbLine
 10
6.576
 20
157.2214999999999
 30
0.0
 11
8.512
 21
159.3015
 31
0.0
  0
LINE
  5
88
330
1E
100
AcDbEntity
  8
0
100
AcDbLine
 10
6.16
 20
156.3865
 30
0.0
 11
8.107999999999998
 21
158.3965
 31
0.0
  0
LINE
  5
89
330
1E
100
AcDbEntity
  8
0
100
AcDbLine
 10
8.512
 20
159.3015
 30
0.0
 11
10.624
 21
161.2475
 31
0.0
  0
LINE
  5
8A
330
1E
100
AcDbEntity
  8
0
100
AcDbLine
 10
8.107999999999998
 20
158.3965
 30
0.0
 11
10.2611
 21
160.2165
 31
0.0
  0
LINE
  5
8B
330
1E
100
AcDbEntity
  8
0
100
AcDbLine
 10
7.104
 20
160.8775
 30
0.0
 11
9.407999999999999
 21
162.9894999999999
 31
0.0
  0
LINE
  5
8C
330
1E
100
AcDbEntity
  8
0
100
AcDbLine
 10
9.407999999999999
 20
162.9894999999999
 30
0.0
 11
12.096
 21
164.8135
 31
0.0
  0
LINE
  5
8D
330
1E
100
AcDbEntity
  8
0
100
AcDbLine
 10
10.624
 20
161.2475
 30
0.0
 11
13.08799999999999
 21
162.8565
 31
0.0
  0
LINE
  5
8E
330
1E
100
AcDbEntity
  8
0
100
AcDbLine
 10
10.2611
 20
160.2165
 30
0.0
 11
12.7218
 21
161.8435
 31
0.0
  0
LINE
  5
8F
330
1E
100
AcDbEntity
  8
0
100
AcDbLine
 10
13.08799999999999
 20
162.8565
 30
0.0
 11
15.64
 21
163.9745
 31
0.0
  0
LINE
  5
90
330
1E
100
AcDbEntity
  8
0
100
AcDbLine
 10
12.7218
 20
161.8435
 30
0.0
 11
15.3876
 21
162.9925
 31
0.0
  0
LINE
  5
93
330
1E
100
AcDbEntity
  8
0
100
AcDbLine
 10
15.0
 20
67.32649999999999
 30
0.0
 11
15.3176
 21
69.6294
 31
0.0
  0
LINE
  5
94
330
1E
100
AcDbEntity
  8
0
100
AcDbLine
 10
15.0
 20
67.32649999999999
 30
0.0
 11
15.3176
 21
65.0236
 31
0.0
  0
LINE
  5
96
330
1E
100
AcDbEntity
  8
0
100
AcDbLine
 10
15.3176
 20
65.0236
 30
0.0
 11
16.2176
 21
62.853
 31
0.0
  0
LINE
  5
98
330
1E
100
AcDbEntity
  8
0
100
AcDbLine
 10
15.3176
 20
69.6294
 30
0.0
 11
16.0098331875525
 21
71.29891261877929
 31
0.0
  0
LINE
  5
99
330
1E
100
AcDbEntity
  8
0
100
AcDbLine
 10
15.3876
 20
162.9925
 30
0.0
 11
18.15579999999999
 21
163.8545
 31
0.0
  0
LINE
  5
9B
330
1E
100
AcDbEntity
  8
0
100
AcDbLine
 10
12.096
 20
164.8135
 30
0.0
 11
14.88
 21
166.0614999999999
 31
0.0
  0
LINE
  5
9C
330
1E
100
AcDbEntity
  8
0
100
AcDbLine
 10
15.64
 20
163.9745
 30
0.0
 11
18.368
 21
164.9205
 31
0.0
  0
LINE
  5
9E
330
1E
100
AcDbEntity
  8
0
100
AcDbLine
 10
19.1
 20
0.7185000000000079
 30
0.0
 11
21.49999999999999
 21
0.21850000000001
 31
0.0
  0
LINE
  5
A0
330
1E
100
AcDbEntity
  8
0
100
AcDbLine
 10
16.2176
 20
62.853
 30
0.0
 11
17.6471
 21
60.9736
 31
0.0
  0
LINE
  5
A1
330
1E
100
AcDbEntity
  8
0
100
AcDbLine
 10
16.51539999999999
 20
71.0843
 30
0.0
 11
18.9761
 21
70.31829999999999
 31
0.0
  0
LINE
  5
A3
330
1E
100
AcDbEntity
  8
0
100
AcDbLine
 10
16.69999999999999
 20
1.51850000000001
 30
0.0
 11
19.1
 21
0.7185000000000079
 31
0.0
  0
LINE
  5
A5
330
1E
100
AcDbEntity
  8
0
100
AcDbLine
 10
17.6471
 20
60.9736
 30
0.0
 11
19.5265
 21
59.5441
 31
0.0
  0
LINE
  5
A7
330
1E
100
AcDbEntity
  8
0
100
AcDbLine
 10
19.5265
 20
59.5441
 30
0.0
 11
21.69709999999999
 21
58.6441
 31
0.0
  0
LINE
  5
A8
330
1E
100
AcDbEntity
  8
0
100
AcDbLine
 10
18.9761
 20
70.31829999999999
 30
0.0
 11
21.4368
 21
69.8396
 31
0.0
  0
LINE
  5
AA
330
1E
100
AcDbEntity
  8
0
100
AcDbLine
 10
18.15579999999999
 20
163.8545
 30
0.0
 11
21.0267
 21
164.4294999999999
 31
0.0
  0
LINE
  5
AB
330
1E
100
AcDbEntity
  8
0
100
AcDbLine
 10
18.368
 20
164.9205
 30
0.0
 11
21.09599999999999
 21
165.4725
 31
0.0
  0
LINE
  5
AC
330
1E
100
AcDbEntity
  8
0
100
AcDbLine
 10
21.0267
 20
164.4294999999999
 30
0.0
 11
24.0
 21
164.6204999999999
 31
0.0
  0
LINE
  5
B0
330
1E
100
AcDbEntity
  8
0
100
AcDbLine
 10
14.88
 20
166.0614999999999
 30
0.0
 11
17.85599999999999
 21
167.1175
 31
0.0
  0
LINE
  5
B1
330
1E
100
AcDbEntity
  8
0
100
AcDbLine
 10
17.85599999999999
 20
167.1175
 30
0.0
 11
20.83199999999999
 21
167.6935
 31
0.0
  0
LINE
  5
B2
330
1E
100
AcDbEntity
  8
0
100
AcDbLine
 10
20.83199999999999
 20
167.6935
 30
0.0
 11
24.0
 21
167.9815
 31
0.0
  0
LINE
  5
B3
330
1E
100
AcDbEntity
  8
0
100
AcDbLine
 10
21.09599999999999
 20
165.4725
 30
0.0
 11
24.0
 21
165.7084999999999
 31
0.0
  0
LINE
  5
BA
330
1E
100
AcDbEntity
  8
0
100
AcDbLine
 10
21.49999999999999
 20
0.21850000000001
 30
0.0
 11
24.0
 21
0.0185000000000103
 31
0.0
  0
LINE
  5
BB
330
1E
100
AcDbEntity
  8
0
100
AcDbLine
 10
21.4368
 20
69.8396
 30
0.0
 11
24.0
 21
69.64809999999999
 31
0.0
  0
LINE
  5
BD
330
1E
100
AcDbEntity
  8
0
100
AcDbLine
 10
21.69709999999999
 20
58.6441
 30
0.0
 11
24.0
 21
58.32650000000001
 31
0.0
  0
LINE
  5
153
330
1E
100
AcDbEntity
  8
0
100
AcDbLine
 10
21.2
 20
165.4815
 30
0.0
 11
21.25571999999989
 21
165.48548
 31
0.0
  0
LINE
  5
154
330
1E
100
AcDbEntity
  8
0
100
AcDbLine
 10
21.2
 20
165.4815
 30
0.0
 11
21.25571999999989
 21
165.48548
 31
0.0
  0
LINE
  5
159
330
1E
100
AcDbEntity
  8
0
100
AcDbLine
 10
3.73595923608341
 20
84.2124729858847
 30
0.0
 11
1.623572539791421
 21
135.69688647877
 31
0.0
  0
LINE
  5
15A
330
1E
100
AcDbEntity
  8
0
100
AcDbLine
 10
44.26404076391659
 20
84.2124729858847
 30
0.0
 11
43.66119
 21
36.9328
 31
0.0
  0
LINE
  5
15B
330
1E
100
AcDbEntity
  8
0
100
AcDbLine
 10
43.27539999999999
 20
85.4465
 30
0.0
 11
42.76279999999999
 21
83.1489
 31
0.0
  0
LINE
  5
15C
330
1E
100
AcDbEntity
  8
0
100
AcDbLine
 10
44.26404076391659
 20
84.2124729858847
 30
0.0
 11
43.66119
 21
36.9328
 31
0.0
  0
LINE
  5
15D
330
1E
100
AcDbEntity
  8
0
100
AcDbLine
 10
39.0
 20
7.418500000000009
 30
0.0
 11
37.4
 21
5.618500000000009
 31
0.0
  0
LINE
  5
15E
330
1E
100
AcDbEntity
  8
0
100
AcDbLine
 10
39.3793
 20
76.73359999999999
 30
0.0
 11
37.7389
 21
75.01009999999999
 31
0.0
  0
LINE
  5
15F
330
1E
100
AcDbEntity
  8
0
100
AcDbLine
 10
43.66119
 20
36.9328
 30
0.0
 11
43.36097999999999
 21
28.1672
 31
0.0
  0
LINE
  5
160
330
1E
100
AcDbEntity
  8
0
100
AcDbLine
 10
42.8
 20
16.5185
 30
0.0
 11
42.29999999999999
 21
14.1185
 31
0.0
  0
LINE
  5
161
330
1E
100
AcDbEntity
  8
0
100
AcDbLine
 10
43.0
 20
19.01849999999999
 30
0.0
 11
42.8
 21
16.5185
 31
0.0
  0
LINE
  5
162
330
1E
100
AcDbEntity
  8
0
100
AcDbLine
 10
43.36097999999999
 20
28.1672
 30
0.0
 11
43.0
 21
19.01849999999999
 31
0.0
  0
LINE
  5
163
330
1E
100
AcDbEntity
  8
0
100
AcDbLine
 10
41.5
 20
11.7185
 30
0.0
 11
40.49999999999999
 21
9.51850000000001
 31
0.0
  0
LINE
  5
164
330
1E
100
AcDbEntity
  8
0
100
AcDbLine
 10
42.29999999999999
 20
14.1185
 30
0.0
 11
41.5
 21
11.7185
 31
0.0
  0
LINE
  5
165
330
1E
100
AcDbEntity
  8
0
100
AcDbLine
 10
40.49999999999999
 20
9.51850000000001
 30
0.0
 11
39.0
 21
7.418500000000009
 31
0.0
  0
LINE
  5
166
330
1E
100
AcDbEntity
  8
0
100
AcDbLine
 10
42.76279999999999
 20
83.1489
 30
0.0
 11
41.94259999999999
 21
80.85089999999999
 31
0.0
  0
LINE
  5
167
330
1E
100
AcDbEntity
  8
0
100
AcDbLine
 10
40.9173
 20
78.74439999999999
 30
0.0
 11
39.3793
 21
76.73359999999999
 31
0.0
  0
LINE
  5
168
330
1E
100
AcDbEntity
  8
0
100
AcDbLine
 10
41.94259999999999
 20
80.85089999999999
 30
0.0
 11
40.9173
 21
78.74439999999999
 31
0.0
  0
LINE
  5
169
330
1E
100
AcDbEntity
  8
0
100
AcDbLine
 10
33.5
 20
2.518500000000009
 30
0.0
 11
31.3
 21
1.51850000000001
 31
0.0
  0
LINE
  5
16A
330
1E
100
AcDbEntity
  8
0
100
AcDbLine
 10
37.4
 20
5.618500000000009
 30
0.0
 11
35.6
 21
4.018500000000009
 31
0.0
  0
LINE
  5
16B
330
1E
100
AcDbEntity
  8
0
100
AcDbLine
 10
35.6
 20
4.018500000000009
 30
0.0
 11
33.5
 21
2.518500000000009
 31
0.0
  0
LINE
  5
16C
330
1E
100
AcDbEntity
  8
0
100
AcDbLine
 10
28.9
 20
0.7185000000000079
 30
0.0
 11
26.5
 21
0.21850000000001
 31
0.0
  0
LINE
  5
16D
330
1E
100
AcDbEntity
  8
0
100
AcDbLine
 10
31.3
 20
1.51850000000001
 30
0.0
 11
28.9
 21
0.7185000000000079
 31
0.0
  0
LINE
  5
16E
330
1E
100
AcDbEntity
  8
0
100
AcDbLine
 10
26.5
 20
0.21850000000001
 30
0.0
 11
24.0
 21
0.0185000000000103
 31
0.0
  0
LINE
  5
16F
330
1E
100
AcDbEntity
  8
0
100
AcDbLine
 10
31.7824
 20
62.853
 30
0.0
 11
30.3529
 21
60.9736
 31
0.0
  0
LINE
  5
170
330
1E
100
AcDbEntity
  8
0
100
AcDbLine
 10
33.7402
 20
72.0418
 30
0.0
 11
31.4846
 21
71.0843
 31
0.0
  0
LINE
  5
171
330
1E
100
AcDbEntity
  8
0
100
AcDbLine
 10
35.89339999999999
 20
73.47809999999999
 30
0.0
 11
33.7402
 21
72.0418
 31
0.0
  0
LINE
  5
172
330
1E
100
AcDbEntity
  8
0
100
AcDbLine
 10
37.7389
 20
75.01009999999999
 30
0.0
 11
35.89339999999999
 21
73.47809999999999
 31
0.0
  0
LINE
  5
173
330
1E
100
AcDbEntity
  8
0
100
AcDbLine
 10
32.6824
 20
69.6294
 30
0.0
 11
31.9901668124475
 21
71.29891261877929
 31
0.0
  0
LINE
  5
174
330
1E
100
AcDbEntity
  8
0
100
AcDbLine
 10
32.6824
 20
65.0236
 30
0.0
 11
31.7824
 21
62.853
 31
0.0
  0
LINE
  5
175
330
1E
100
AcDbEntity
  8
0
100
AcDbLine
 10
33.0
 20
67.32649999999999
 30
0.0
 11
32.6824
 21
69.6294
 31
0.0
  0
LINE
  5
176
330
1E
100
AcDbEntity
  8
0
100
AcDbLine
 10
33.0
 20
67.32649999999999
 30
0.0
 11
32.6824
 21
65.0236
 31
0.0
  0
LINE
  5
177
330
1E
100
AcDbEntity
  8
0
100
AcDbLine
 10
29.0239
 20
70.31829999999999
 30
0.0
 11
26.5632
 21
69.8396
 31
0.0
  0
LINE
  5
178
330
1E
100
AcDbEntity
  8
0
100
AcDbLine
 10
28.4735
 20
59.5441
 30
0.0
 11
26.3029
 21
58.6441
 31
0.0
  0
LINE
  5
179
330
1E
100
AcDbEntity
  8
0
100
AcDbLine
 10
31.4846
 20
71.0843
 30
0.0
 11
29.0239
 21
70.31829999999999
 31
0.0
  0
LINE
  5
17A
330
1E
100
AcDbEntity
  8
0
100
AcDbLine
 10
30.3529
 20
60.9736
 30
0.0
 11
28.4735
 21
59.5441
 31
0.0
  0
LINE
  5
17B
330
1E
100
AcDbEntity
  8
0
100
AcDbLine
 10
26.3029
 20
58.6441
 30
0.0
 11
24.0
 21
58.32650000000001
 31
0.0
  0
LINE
  5
17C
330
1E
100
AcDbEntity
  8
0
100
AcDbLine
 10
26.5632
 20
69.8396
 30
0.0
 11
24.0
 21
69.64809999999999
 31
0.0
  0
LINE
  5
17D
330
1E
100
AcDbEntity
  8
0
100
AcDbLine
 10
40.89599999999999
 20
160.8775
 30
0.0
 11
38.59199999999999
 21
162.9894999999999
 31
0.0
  0
LINE
  5
17E
330
1E
100
AcDbEntity
  8
0
100
AcDbLine
 10
39.892
 20
158.3965
 30
0.0
 11
37.7389
 21
160.2165
 31
0.0
  0
LINE
  5
17F
330
1E
100
AcDbEntity
  8
0
100
AcDbLine
 10
39.488
 20
159.3015
 30
0.0
 11
37.376
 21
161.2475
 31
0.0
  0
LINE
  5
180
330
1E
100
AcDbEntity
  8
0
100
AcDbLine
 10
46.47048999999999
 20
138.7264999999999
 30
0.0
 11
46.3644
 21
135.3095
 31
0.0
  0
LINE
  5
181
330
1E
100
AcDbEntity
  8
0
100
AcDbLine
 10
47.13599999999999
 20
137.8375
 30
0.0
 11
46.37642746020856
 21
135.6968864787699
 31
0.0
  0
LINE
  5
182
330
1E
100
AcDbEntity
  8
0
100
AcDbLine
 10
44.26404076391659
 20
84.2124729858847
 30
0.0
 11
46.37642746020858
 21
135.69688647877
 31
0.0
  0
LINE
  5
183
330
1E
100
AcDbEntity
  8
0
100
AcDbLine
 10
45.3581
 20
111.6414999999999
 30
0.0
 11
43.48049999999999
 21
87.8405
 31
0.0
  0
LINE
  5
184
330
1E
100
AcDbEntity
  8
0
100
AcDbLine
 10
43.48049999999999
 20
87.8405
 30
0.0
 11
43.27539999999999
 21
85.4465
 31
0.0
  0
LINE
  5
185
330
1E
100
AcDbEntity
  8
0
100
AcDbLine
 10
45.79966203844391
 20
123.5429043780279
 30
0.0
 11
45.3581
 21
111.6414999999999
 31
0.0
  0
LINE
  5
186
330
1E
100
AcDbEntity
  8
0
100
AcDbLine
 10
46.1969
 20
131.3135
 30
0.0
 11
46.00869999999999
 21
127.1754999999999
 31
0.0
  0
LINE
  5
187
330
1E
100
AcDbEntity
  8
0
100
AcDbLine
 10
46.00869999999999
 20
127.1754999999999
 30
0.0
 11
45.79966203844391
 21
123.5429043780279
 31
0.0
  0
LINE
  5
188
330
1E
100
AcDbEntity
  8
0
100
AcDbLine
 10
46.3644
 20
135.3095
 30
0.0
 11
46.1969
 21
131.3135
 31
0.0
  0
LINE
  5
189
330
1E
100
AcDbEntity
  8
0
100
AcDbLine
 10
46.5564
 20
143.5554999999999
 30
0.0
 11
46.47048999999999
 21
138.7264999999999
 31
0.0
  0
LINE
  5
18A
330
1E
100
AcDbEntity
  8
0
100
AcDbLine
 10
46.5564
 20
143.5554999999999
 30
0.0
 11
46.3513
 21
146.3325
 31
0.0
  0
LINE
  5
18B
330
1E
100
AcDbEntity
  8
0
100
AcDbLine
 10
47.13599999999999
 20
150.1255
 30
0.0
 11
46.07999999999999
 21
153.1015
 31
0.0
  0
LINE
  5
18C
330
1E
100
AcDbEntity
  8
0
100
AcDbLine
 10
47.71199999999999
 20
147.1494999999999
 30
0.0
 11
47.13599999999999
 21
150.1255
 31
0.0
  0
LINE
  5
18D
330
1E
100
AcDbEntity
  8
0
100
AcDbLine
 10
48.0
 20
143.9815
 30
0.0
 11
47.71199999999999
 21
140.8135
 31
0.0
  0
LINE
  5
18E
330
1E
100
AcDbEntity
  8
0
100
AcDbLine
 10
47.71199999999999
 20
140.8135
 30
0.0
 11
47.13599999999999
 21
137.8375
 31
0.0
  0
LINE
  5
18F
330
1E
100
AcDbEntity
  8
0
100
AcDbLine
 10
48.0
 20
143.9815
 30
0.0
 11
47.71199999999999
 21
147.1494999999999
 31
0.0
  0
LINE
  5
190
330
1E
100
AcDbEntity
  8
0
100
AcDbLine
 10
43.008
 20
158.5734999999999
 30
0.0
 11
40.89599999999999
 21
160.8775
 31
0.0
  0
LINE
  5
191
330
1E
100
AcDbEntity
  8
0
100
AcDbLine
 10
43.58299999999999
 20
154.0885
 30
0.0
 11
41.84
 21
156.3865
 31
0.0
  0
LINE
  5
192
330
1E
100
AcDbEntity
  8
0
100
AcDbLine
 10
43.096
 20
154.7705
 30
0.0
 11
41.424
 21
157.2214999999999
 31
0.0
  0
LINE
  5
193
330
1E
100
AcDbEntity
  8
0
100
AcDbLine
 10
45.7361
 20
149.0134999999999
 30
0.0
 11
44.8134
 21
151.5985
 31
0.0
  0
LINE
  5
194
330
1E
100
AcDbEntity
  8
0
100
AcDbLine
 10
46.3513
 20
146.3325
 30
0.0
 11
45.7361
 21
149.0134999999999
 31
0.0
  0
LINE
  5
195
330
1E
100
AcDbEntity
  8
0
100
AcDbLine
 10
44.832
 20
155.8855
 30
0.0
 11
43.008
 21
158.5734999999999
 31
0.0
  0
LINE
  5
196
330
1E
100
AcDbEntity
  8
0
100
AcDbLine
 10
44.8134
 20
151.5985
 30
0.0
 11
43.58299999999999
 21
154.0885
 31
0.0
  0
LINE
  5
197
330
1E
100
AcDbEntity
  8
0
100
AcDbLine
 10
46.07999999999999
 20
153.1015
 30
0.0
 11
44.832
 21
155.8855
 31
0.0
  0
LINE
  5
198
330
1E
100
AcDbEntity
  8
0
100
AcDbLine
 10
43.58299999999999
 20
154.0885
 30
0.0
 11
43.096
 21
154.7705
 31
0.0
  0
LINE
  5
199
330
1E
100
AcDbEntity
  8
0
100
AcDbLine
 10
41.84
 20
156.3865
 30
0.0
 11
39.892
 21
158.3965
 31
0.0
  0
LINE
  5
19A
330
1E
100
AcDbEntity
  8
0
100
AcDbLine
 10
41.424
 20
157.2214999999999
 30
0.0
 11
39.488
 21
159.3015
 31
0.0
  0
LINE
  5
19B
330
1E
100
AcDbEntity
  8
0
100
AcDbLine
 10
33.11999999999999
 20
166.0614999999999
 30
0.0
 11
30.144
 21
167.1175
 31
0.0
  0
LINE
  5
19C
330
1E
100
AcDbEntity
  8
0
100
AcDbLine
 10
32.36
 20
163.9745
 30
0.0
 11
29.632
 21
164.9205
 31
0.0
  0
LINE
  5
19D
330
1E
100
AcDbEntity
  8
0
100
AcDbLine
 10
32.6124
 20
162.9925
 30
0.0
 11
29.8442
 21
163.8545
 31
0.0
  0
LINE
  5
19E
330
1E
100
AcDbEntity
  8
0
100
AcDbLine
 10
35.2782
 20
161.8435
 30
0.0
 11
32.6124
 21
162.9925
 31
0.0
  0
LINE
  5
19F
330
1E
100
AcDbEntity
  8
0
100
AcDbLine
 10
37.376
 20
161.2475
 30
0.0
 11
34.912
 21
162.8565
 31
0.0
  0
LINE
  5
1A0
330
1E
100
AcDbEntity
  8
0
100
AcDbLine
 10
37.7389
 20
160.2165
 30
0.0
 11
35.2782
 21
161.8435
 31
0.0
  0
LINE
  5
1A1
330
1E
100
AcDbEntity
  8
0
100
AcDbLine
 10
35.904
 20
164.8135
 30
0.0
 11
33.11999999999999
 21
166.0614999999999
 31
0.0
  0
LINE
  5
1A2
330
1E
100
AcDbEntity
  8
0
100
AcDbLine
 10
38.59199999999999
 20
162.9894999999999
 30
0.0
 11
35.904
 21
164.8135
 31
0.0
  0
LINE
  5
1A3
330
1E
100
AcDbEntity
  8
0
100
AcDbLine
 10
34.912
 20
162.8565
 30
0.0
 11
32.36
 21
163.9745
 31
0.0
  0
LINE
  5
1A4
330
1E
100
AcDbEntity
  8
0
100
AcDbLine
 10
30.144
 20
167.1175
 30
0.0
 11
27.168
 21
167.6935
 31
0.0
  0
LINE
  5
1A5
330
1E
100
AcDbEntity
  8
0
100
AcDbLine
 10
29.632
 20
164.9205
 30
0.0
 11
26.904
 21
165.4725
 31
0.0
  0
LINE
  5
1A6
330
1E
100
AcDbEntity
  8
0
100
AcDbLine
 10
29.8442
 20
163.8545
 30
0.0
 11
26.9733
 21
164.4294999999999
 31
0.0
  0
LINE
  5
1A7
330
1E
100
AcDbEntity
  8
0
100
AcDbLine
 10
26.904
 20
165.4725
 30
0.0
 11
24.0
 21
165.7084999999999
 31
0.0
  0
LINE
  5
1A8
330
1E
100
AcDbEntity
  8
0
100
AcDbLine
 10
27.168
 20
167.6935
 30
0.0
 11
24.0
 21
167.9815
 31
0.0
  0
LINE
  5
1A9
330
1E
100
AcDbEntity
  8
0
100
AcDbLine
 10
26.9733
 20
164.4294999999999
 30
0.0
 11
24.0
 21
164.6204999999999
 31
0.0
  0
LINE
  5
1AA
330
1E
100
AcDbEntity
  8
0
100
AcDbLine
 10
26.8
 20
165.4815
 30
0.0
 11
26.7442800000001
 21
165.48548
 31
0.0
  0
LINE
  5
1AB
330
1E
100
AcDbEntity
  8
0
100
AcDbLine
 10
26.8
 20
165.4815
 30
0.0
 11
26.7442800000001
 21
165.48548
 31
0.0
  0
ENDSEC
  0
SECTION
  2
OBJECTS
  0
DICTIONARY
  5
C
330
0
100
AcDbDictionary
  3
ACAD_GROUP
350
D
  3
ACAD_LAYOUT
350
19
  3
ACAD_MLINESTYLE
350
16
  3
ACAD_PLOTSETTINGS
350
18
  3
ACAD_PLOTSTYLENAME
350
E
  3
ACDBHEADERROUNDTRIPXREC
350
1B0
  3
ACDBVARIABLEDICTIONARY
350
1AD
  0
DICTIONARY
  5
1D2
330
1E
100
AcDbDictionary
280
     1
  3
ACAD_LAYOUTSELFREF
360
1D3
  0
DICTIONARY
  5
1D0
330
1A
100
AcDbDictionary
280
     1
  3
ACAD_LAYOUTSELFREF
360
1D1
  0
DICTIONARY
  5
D
102
{ACAD_REACTORS
330
C
102
}
330
C
100
AcDbDictionary
  0
DICTIONARY
  5
19
102
{ACAD_REACTORS
330
C
102
}
330
C
100
AcDbDictionary
  0
DICTIONARY
  5
16
102
{ACAD_REACTORS
330
C
102
}
330
C
100
AcDbDictionary
  3
STANDARD
350
17
  0
DICTIONARY
  5
18
102
{ACAD_REACTORS
330
C
102
}
330
C
100
AcDbDictionary
  0
ACDBDICTIONARYWDFLT
  5
E
102
{ACAD_REACTORS
330
C
102
}
330
C
100
AcDbDictionary
281
     1
  3
Normal
350
F
100
AcDbDictionaryWithDefault
340
F
  0
DICTIONARY
  5
1B0
102
{ACAD_REACTORS
330
C
102
}
330
C
100
AcDbDictionary
  3
CEPSNTYPE
350
1BA
  3
FINGERPRINTGUID
350
1BB
  3
HYPERLINKBASE
350
1B3
  3
INSUNITS
350
1B9
  3
LAYOUTDICT
350
1B5
  3
LWETCUNION
350
1B8
  3
PLOTSETDICT
350
1B6
  3
PLOTSTYLNAMDICT
350
1B7
  3
PSVPSCALE
350
1BD
  3
PUCSBASE
350
1C0
  3
PUCSORGBACK
350
1C6
  3
PUCSORGBOTTOM
350
1C2
  3
PUCSORGFRONT
350
1C5
  3
PUCSORGLEFT
350
1C3
  3
PUCSORGRIGHT
350
1C4
  3
PUCSORGTOP
350
1C1
  3
PUCSORTHOREF
350
1BE
  3
PUCSORTHOVIEW
350
1BF
  3
STYLESHEET
350
1B4
  3
TSTACKALIGN
350
1B1
  3
TSTACKSIZE
350
1B2
  3
UCSBASE
350
1C9
  3
UCSORGBACK
350
1CF
  3
UCSORGBOTTOM
350
1CB
  3
UCSORGFRONT
350
1CE
  3
UCSORGLEFT
350
1CC
  3
UCSORGRIGHT
350
1CD
  3
UCSORGTOP
350
1CA
  3
UCSORTHOREF
350
1C7
  3
UCSORTHOVIEW
350
1C8
  3
VERSIONGUID
350
1BC
  0
DICTIONARY
  5
1AD
102
{ACAD_REACTORS
330
C
102
}
330
C
100
AcDbDictionary
  3
DIMASSOC
350
1AE
  0
XRECORD
  5
1D3
102
{ACAD_REACTORS
330
1D2
102
}
330
1D2
100
AcDbXrecord
340
1E
  0
XRECORD
  5
1D1
102
{ACAD_REACTORS
330
1D0
102
}
330
1D0
100
AcDbXrecord
340
1A
  0
MLINESTYLE
  5
17
102
{ACAD_REACTORS
330
16
102
}
330
16
100
AcDbMlineStyle
  2
STANDARD
 70
     0
  3

 62
   256
 51
90.0
 52
90.0
 71
     2
 49
0.5
 62
   256
  6
BYLAYER
 49
-0.5
 62
   256
  6
BYLAYER
  0
ACDBPLACEHOLDER
  5
F
102
{ACAD_REACTORS
330
E
102
}
330
E
100
AcDbPlaceHolder
280
     0
  0
XRECORD
  5
1BA
102
{ACAD_REACTORS
330
1B0
102
}
330
1B0
100
AcDbXrecord
 90
        0
  0
XRECORD
  5
1BB
102
{ACAD_REACTORS
330
1B0
102
}
330
1B0
100
AcDbXrecord
  1
{5EC59E0A-7AA5-4EDE-BBDF-15C01662226B}
  0
XRECORD
  5
1B3
102
{ACAD_REACTORS
330
1B0
102
}
330
1B0
100
AcDbXrecord
  1

  0
XRECORD
  5
1B9
102
{ACAD_REACTORS
330
1B0
102
}
330
1B0
100
AcDbXrecord
 90
        0
  0
XRECORD
  5
1B5
102
{ACAD_REACTORS
330
1B0
102
}
330
1B0
100
AcDbXrecord
340
19
  0
XRECORD
  5
1B8
102
{ACAD_REACTORS
330
1B0
102
}
330
1B0
100
AcDbXrecord
 90
    10781
  0
XRECORD
  5
1B6
102
{ACAD_REACTORS
330
1B0
102
}
330
1B0
100
AcDbXrecord
340
18
  0
XRECORD
  5
1B7
102
{ACAD_REACTORS
330
1B0
102
}
330
1B0
100
AcDbXrecord
340
E
  0
XRECORD
  5
1BD
102
{ACAD_REACTORS
330
1B0
102
}
330
1B0
100
AcDbXrecord
 40
0.0
  0
XRECORD
  5
1C0
102
{ACAD_REACTORS
330
1B0
102
}
330
1B0
100
AcDbXrecord
340
0
  0
XRECORD
  5
1C6
102
{ACAD_REACTORS
330
1B0
102
}
330
1B0
100
AcDbXrecord
 10
0.0
 20
0.0
 30
0.0
  0
XRECORD
  5
1C2
102
{ACAD_REACTORS
330
1B0
102
}
330
1B0
100
AcDbXrecord
 10
0.0
 20
0.0
 30
0.0
  0
XRECORD
  5
1C5
102
{ACAD_REACTORS
330
1B0
102
}
330
1B0
100
AcDbXrecord
 10
0.0
 20
0.0
 30
0.0
  0
XRECORD
  5
1C3
102
{ACAD_REACTORS
330
1B0
102
}
330
1B0
100
AcDbXrecord
 10
0.0
 20
0.0
 30
0.0
  0
XRECORD
  5
1C4
102
{ACAD_REACTORS
330
1B0
102
}
330
1B0
100
AcDbXrecord
 10
0.0
 20
0.0
 30
0.0
  0
XRECORD
  5
1C1
102
{ACAD_REACTORS
330
1B0
102
}
330
1B0
100
AcDbXrecord
 10
0.0
 20
0.0
 30
0.0
  0
XRECORD
  5
1BE
102
{ACAD_REACTORS
330
1B0
102
}
330
1B0
100
AcDbXrecord
340
0
  0
XRECORD
  5
1BF
102
{ACAD_REACTORS
330
1B0
102
}
330
1B0
100
AcDbXrecord
 70
     0
  0
XRECORD
  5
1B4
102
{ACAD_REACTORS
330
1B0
102
}
330
1B0
100
AcDbXrecord
  1

  0
XRECORD
  5
1B1
102
{ACAD_REACTORS
330
1B0
102
}
330
1B0
100
AcDbXrecord
 90
        1
  0
XRECORD
  5
1B2
102
{ACAD_REACTORS
330
1B0
102
}
330
1B0
100
AcDbXrecord
 90
       70
  0
XRECORD
  5
1C9
102
{ACAD_REACTORS
330
1B0
102
}
330
1B0
100
AcDbXrecord
340
0
  0
XRECORD
  5
1CF
102
{ACAD_REACTORS
330
1B0
102
}
330
1B0
100
AcDbXrecord
 10
0.0
 20
0.0
 30
0.0
  0
XRECORD
  5
1CB
102
{ACAD_REACTORS
330
1B0
102
}
330
1B0
100
AcDbXrecord
 10
0.0
 20
0.0
 30
0.0
  0
XRECORD
  5
1CE
102
{ACAD_REACTORS
330
1B0
102
}
330
1B0
100
AcDbXrecord
 10
0.0
 20
0.0
 30
0.0
  0
XRECORD
  5
1CC
102
{ACAD_REACTORS
330
1B0
102
}
330
1B0
100
AcDbXrecord
 10
0.0
 20
0.0
 30
0.0
  0
XRECORD
  5
1CD
102
{ACAD_REACTORS
330
1B0
102
}
330
1B0
100
AcDbXrecord
 10
0.0
 20
0.0
 30
0.0
  0
XRECORD
  5
1CA
102
{ACAD_REACTORS
330
1B0
102
}
330
1B0
100
AcDbXrecord
 10
0.0
 20
0.0
 30
0.0
  0
XRECORD
  5
1C7
102
{ACAD_REACTORS
330
1B0
102
}
330
1B0
100
AcDbXrecord
340
0
  0
XRECORD
  5
1C8
102
{ACAD_REACTORS
330
1B0
102
}
330
1B0
100
AcDbXrecord
 70
     1
  0
XRECORD
  5
1BC
102
{ACAD_REACTORS
330
1B0
102
}
330
1B0
100
AcDbXrecord
  1
{4ABF822A-CE0A-40D9-B506-8B9E1FFF7ED8}
  0
DICTIONARYVAR
  5
1AE
102
{ACAD_REACTORS
330
1AD
102
}
330
1AD
100
DictionaryVariables
280
     0
  1
1
  0
ENDSEC
  0
EOF
