  0
SECTION
  2
HEADER
  9
$ACADVER
  1
AC1014
  9
$ACADMAINTVER
 70
     9
  9
$DWGCODEPAGE
  3
ANSI_1252
  9
$INSBASE
 10
0.0
 20
0.0
 30
0.0
  9
$EXTMIN
 10
0.0185000000000103
 20
-0.238000000000022
 30
0.0
  9
$EXTMAX
 10
167.9815
 20
169.2379999999999
 30
0.0
  9
$LIMMIN
 10
0.0
 20
0.0
  9
$LIMMAX
 10
12.0
 20
9.0
  9
$ORTHOMODE
 70
     0
  9
$REGENMODE
 70
     1
  9
$FILLMODE
 70
     1
  9
$QTEXTMODE
 70
     0
  9
$MIRRTEXT
 70
     1
  9
$DRAGMODE
 70
     2
  9
$LTSCALE
 40
1.0
  9
$OSMODE
 70
    37
  9
$ATTMODE
 70
     1
  9
$TEXTSIZE
 40
0.2
  9
$TRACEWID
 40
0.05
  9
$TEXTSTYLE
  7
STANDARD
  9
$CLAYER
  8
0
  9
$CELTYPE
  6
CONTINUOUS
  9
$CECOLOR
 62
   256
  9
$CELTSCALE
 40
1.0
  9
$DELOBJ
 70
     1
  9
$DISPSILH
 70
     0
  9
$DIMSCALE
 40
1.0
  9
$DIMASZ
 40
0.18
  9
$DIMEXO
 40
0.0625
  9
$DIMDLI
 40
0.38
  9
$DIMRND
 40
0.0
  9
$DIMDLE
 40
0.0
  9
$DIMEXE
 40
0.18
  9
$DIMTP
 40
0.0
  9
$DIMTM
 40
0.0
  9
$DIMTXT
 40
0.18
  9
$DIMCEN
 40
0.09
  9
$DIMTSZ
 40
0.0
  9
$DIMTOL
 70
     0
  9
$DIMLIM
 70
     0
  9
$DIMTIH
 70
     1
  9
$DIMTOH
 70
     1
  9
$DIMSE1
 70
     0
  9
$DIMSE2
 70
     0
  9
$DIMTAD
 70
     0
  9
$DIMZIN
 70
     0
  9
$DIMBLK
  1

  9
$DIMASO
 70
     1
  9
$DIMSHO
 70
     1
  9
$DIMPOST
  1

  9
$DIMAPOST
  1

  9
$DIMALT
 70
     0
  9
$DIMALTD
 70
     2
  9
$DIMALTF
 40
25.4
  9
$DIMLFAC
 40
1.0
  9
$DIMTOFL
 70
     0
  9
$DIMTVP
 40
0.0
  9
$DIMTIX
 70
     0
  9
$DIMSOXD
 70
     0
  9
$DIMSAH
 70
     0
  9
$DIMBLK1
  1

  9
$DIMBLK2
  1

  9
$DIMSTYLE
  2
STANDARD
  9
$DIMCLRD
 70
     0
  9
$DIMCLRE
 70
     0
  9
$DIMCLRT
 70
     0
  9
$DIMTFAC
 40
1.0
  9
$DIMGAP
 40
0.09
  9
$DIMJUST
 70
     0
  9
$DIMSD1
 70
     0
  9
$DIMSD2
 70
     0
  9
$DIMTOLJ
 70
     1
  9
$DIMTZIN
 70
     0
  9
$DIMALTZ
 70
     0
  9
$DIMALTTZ
 70
     0
  9
$DIMFIT
 70
     3
  9
$DIMUPT
 70
     0
  9
$DIMUNIT
 70
     2
  9
$DIMDEC
 70
     4
  9
$DIMTDEC
 70
     4
  9
$DIMALTU
 70
     2
  9
$DIMALTTD
 70
     2
  9
$DIMTXSTY
  7
STANDARD
  9
$DIMAUNIT
 70
     0
  9
$LUNITS
 70
     2
  9
$LUPREC
 70
     4
  9
$SKETCHINC
 40
0.1
  9
$FILLETRAD
 40
0.0
  9
$AUNITS
 70
     0
  9
$AUPREC
 70
     0
  9
$MENU
  1
.
  9
$ELEVATION
 40
0.0
  9
$PELEVATION
 40
0.0
  9
$THICKNESS
 40
0.0
  9
$LIMCHECK
 70
     0
  9
$BLIPMODE
 70
     0
  9
$CHAMFERA
 40
0.0
  9
$CHAMFERB
 40
0.0
  9
$CHAMFERC
 40
0.0
  9
$CHAMFERD
 40
0.0
  9
$SKPOLY
 70
     0
  9
$TDCREATE
 40
2455233.509911921
  9
$TDUPDATE
 40
2455233.511402812
  9
$TDINDWG
 40
0.0014910648
  9
$TDUSRTIMER
 40
0.0014910648
  9
$USRTIMER
 70
     1
  9
$ANGBASE
 50
0.0
  9
$ANGDIR
 70
     0
  9
$PDMODE
 70
     0
  9
$PDSIZE
 40
0.0
  9
$PLINEWID
 40
0.0
  9
$COORDS
 70
     1
  9
$SPLFRAME
 70
     0
  9
$SPLINETYPE
 70
     6
  9
$SPLINESEGS
 70
     8
  9
$ATTDIA
 70
     0
  9
$ATTREQ
 70
     1
  9
$HANDLING
 70
 22529
  9
$HANDSEED
  5
22B
  9
$SURFTAB1
 70
     6
  9
$SURFTAB2
 70
     6
  9
$SURFTYPE
 70
     6
  9
$SURFU
 70
     6
  9
$SURFV
 70
     6
  9
$UCSNAME
  2

  9
$UCSORG
 10
0.0
 20
0.0
 30
0.0
  9
$UCSXDIR
 10
1.0
 20
0.0
 30
0.0
  9
$UCSYDIR
 10
0.0
 20
1.0
 30
0.0
  9
$PUCSNAME
  2

  9
$PUCSORG
 10
0.0
 20
0.0
 30
0.0
  9
$PUCSXDIR
 10
1.0
 20
0.0
 30
0.0
  9
$PUCSYDIR
 10
0.0
 20
1.0
 30
0.0
  9
$USERI1
 70
     0
  9
$USERI2
 70
     0
  9
$USERI3
 70
     0
  9
$USERI4
 70
     0
  9
$USERI5
 70
     0
  9
$USERR1
 40
0.0
  9
$USERR2
 40
0.0
  9
$USERR3
 40
0.0
  9
$USERR4
 40
0.0
  9
$USERR5
 40
0.0
  9
$WORLDVIEW
 70
     1
  9
$SHADEDGE
 70
     3
  9
$SHADEDIF
 70
    70
  9
$TILEMODE
 70
     1
  9
$MAXACTVP
 70
    64
  9
$PINSBASE
 10
0.0
 20
0.0
 30
0.0
  9
$PLIMCHECK
 70
     0
  9
$PEXTMIN
 10
1.000000000000000E+20
 20
1.000000000000000E+20
 30
1.000000000000000E+20
  9
$PEXTMAX
 10
-1.000000000000000E+20
 20
-1.000000000000000E+20
 30
-1.000000000000000E+20
  9
$PLIMMIN
 10
0.0
 20
0.0
  9
$PLIMMAX
 10
12.0
 20
9.0
  9
$UNITMODE
 70
     0
  9
$VISRETAIN
 70
     1
  9
$PLINEGEN
 70
     0
  9
$PSLTSCALE
 70
     1
  9
$TREEDEPTH
 70
  3020
  9
$PICKSTYLE
 70
     1
  9
$CMLSTYLE
  2
STANDARD
  9
$CMLJUST
 70
     0
  9
$CMLSCALE
 40
1.0
  9
$PROXYGRAPHICS
 70
     1
  9
$MEASUREMENT
 70
     0
  0
ENDSEC
  0
SECTION
  2
CLASSES
  0
CLASS
  1
ACDBDICTIONARYWDFLT
  2
AcDbDictionaryWithDefault
  3
AutoCAD 2000
 90
        0
280
     0
281
     0
  0
CLASS
  1
ACDBPLACEHOLDER
  2
AcDbPlaceHolder
  3
AutoCAD 2000
 90
        0
280
     0
281
     0
  0
CLASS
  1
LAYOUT
  2
AcDbLayout
  3
AutoCAD 2000
 90
        0
280
     0
281
     0
  0
CLASS
  1
DICTIONARYVAR
  2
AcDbDictionaryVar
  3
AutoCAD 2000
 90
        0
280
     0
281
     0
  0
CLASS
  1
LONG_TRANSACTION
  2
AcDbLongTransaction
  3
AutoCAD 2000
 90
        0
280
     0
281
     0
  0
CLASS
  1
LWPOLYLINE
  2
AcDbPolyline
  3
AutoCAD 2000
 90
        0
280
     0
281
     1
  0
CLASS
  1
HATCH
  2
AcDbHatch
  3
AutoCAD 2000
 90
        0
280
     0
281
     1
  0
CLASS
  1
XRECORD
  2
AcDbXrecord
  3
AutoCAD 2000
 90
        0
280
     0
281
     0
  0
ENDSEC
  0
SECTION
  2
TABLES
  0
TABLE
  2
VPORT
  5
8
330
0
100
AcDbSymbolTable
 70
     3
  0
VPORT
  5
206
330
8
100
AcDbSymbolTableRecord
100
AcDbViewportTableRecord
  2
*ACTIVE
 70
     0
 10
0.0
 20
0.0
 11
1.0
 21
1.0
 12
84.00000000000002
 22
84.49999999999999
 13
0.0
 23
0.0
 14
1.0
 24
1.0
 15
0.0
 25
0.0
 16
0.0
 26
0.0
 36
1.0
 17
0.0
 27
0.0
 37
0.0
 40
170.588533916849
 41
2.041621029572836
 42
50.0
 43
0.0
 44
0.0
 50
0.0
 51
0.0
 71
     0
 72
   100
 73
     1
 74
     3
 75
     0
 76
     0
 77
     0
 78
     0
  0
ENDTAB
  0
TABLE
  2
LTYPE
  5
5
330
0
100
AcDbSymbolTable
 70
     1
  0
LTYPE
  5
13
330
5
100
AcDbSymbolTableRecord
100
AcDbLinetypeTableRecord
  2
BYBLOCK
 70
     0
  3

 72
    65
 73
     0
 40
0.0
  0
LTYPE
  5
14
330
5
100
AcDbSymbolTableRecord
100
AcDbLinetypeTableRecord
  2
BYLAYER
 70
     0
  3

 72
    65
 73
     0
 40
0.0
  0
LTYPE
  5
15
330
5
100
AcDbSymbolTableRecord
100
AcDbLinetypeTableRecord
  2
CONTINUOUS
 70
     0
  3
Solid line
 72
    65
 73
     0
 40
0.0
  0
ENDTAB
  0
TABLE
  2
LAYER
  5
2
330
0
100
AcDbSymbolTable
 70
     1
  0
LAYER
  5
10
330
2
100
AcDbSymbolTableRecord
100
AcDbLayerTableRecord
  2
0
 70
     0
 62
     7
  6
CONTINUOUS
  0
ENDTAB
  0
TABLE
  2
STYLE
  5
3
330
0
100
AcDbSymbolTable
 70
     1
  0
STYLE
  5
11
330
3
100
AcDbSymbolTableRecord
100
AcDbTextStyleTableRecord
  2
STANDARD
 70
     0
 40
0.0
 41
1.0
 50
0.0
 71
     0
 42
0.2
  3
txt
  4

  0
ENDTAB
  0
TABLE
  2
VIEW
  5
6
330
0
100
AcDbSymbolTable
 70
     0
  0
ENDTAB
  0
TABLE
  2
UCS
  5
7
330
0
100
AcDbSymbolTable
 70
     0
  0
ENDTAB
  0
TABLE
  2
APPID
  5
9
330
0
100
AcDbSymbolTable
 70
     1
  0
APPID
  5
12
330
9
100
AcDbSymbolTableRecord
100
AcDbRegAppTableRecord
  2
ACAD
 70
     0
  0
ENDTAB
  0
TABLE
  2
DIMSTYLE
  5
A
330
0
100
AcDbSymbolTable
 70
     1
  0
DIMSTYLE
105
1FA
330
A
100
AcDbSymbolTableRecord
100
AcDbDimStyleTableRecord
  2
STANDARD
 70
     0
  3

  4

  5

  6

  7

 40
1.0
 41
0.18
 42
0.0625
 43
0.38
 44
0.18
 45
0.0
 46
0.0
 47
0.0
 48
0.0
140
0.18
141
0.09
142
0.0
143
25.4
144
1.0
145
0.0
146
1.0
147
0.09
 71
     0
 72
     0
 73
     1
 74
     1
 75
     0
 76
     0
 77
     0
 78
     0
170
     0
171
     2
172
     0
173
     0
174
     0
175
     0
176
     0
177
     0
178
     0
270
     2
271
     4
272
     4
273
     2
274
     2
340
11
275
     0
280
     0
281
     0
282
     0
283
     1
284
     0
285
     0
286
     0
287
     3
288
     0
  0
ENDTAB
  0
TABLE
  2
BLOCK_RECORD
  5
1
330
0
100
AcDbSymbolTable
 70
     0
  0
BLOCK_RECORD
  5
1E
102
{ACAD_XDICTIONARY
360
229
102
}
330
1
100
AcDbSymbolTableRecord
100
AcDbBlockTableRecord
  2
*MODEL_SPACE
  0
BLOCK_RECORD
  5
1A
102
{ACAD_XDICTIONARY
360
227
102
}
330
1
100
AcDbSymbolTableRecord
100
AcDbBlockTableRecord
  2
*PAPER_SPACE
  0
ENDTAB
  0
ENDSEC
  0
SECTION
  2
BLOCKS
  0
BLOCK
  5
1F
330
1E
100
AcDbEntity
  8
0
100
AcDbBlockBegin
  2
*MODEL_SPACE
 70
     0
 10
0.0
 20
0.0
 30
0.0
  3
*MODEL_SPACE
  1

  0
ENDBLK
  5
20
330
1E
100
AcDbEntity
  8
0
100
AcDbBlockEnd
  0
BLOCK
  5
1B
330
1A
100
AcDbEntity
 67
     1
  8
0
100
AcDbBlockBegin
  2
*PAPER_SPACE
 70
     0
 10
0.0
 20
0.0
 30
0.0
  3
*PAPER_SPACE
  1

  0
ENDBLK
  5
1C
330
1A
100
AcDbEntity
 67
     1
  8
0
100
AcDbBlockEnd
  0
ENDSEC
  0
SECTION
  2
ENTITIES
  0
LINE
  5
22
330
1E
100
AcDbEntity
  8
0
100
AcDbLine
 10
0.0185000000000103
 20
102.9039999999999
 30
0.0
 11
0.112300000000009
 21
106.862
 31
0.0
  0
LINE
  5
23
330
1E
100
AcDbEntity
  8
0
100
AcDbLine
 10
0.0185000000000103
 20
102.9039999999999
 30
0.0
 11
0.5983000000000109
 21
98.17160000000001
 31
0.0
  0
LINE
  5
27
330
1E
100
AcDbEntity
  8
0
100
AcDbLine
 10
0.5983000000000109
 20
98.17160000000001
 30
0.0
 11
2.152099999999999
 21
94.3585
 31
0.0
  0
LINE
  5
28
330
1E
100
AcDbEntity
  8
0
100
AcDbLine
 10
1.91780000000001
 20
90.0272
 30
0.0
 11
2.301100000000009
 21
89.7588
 31
0.0
  0
LINE
  5
29
330
1E
100
AcDbEntity
  8
0
100
AcDbLine
 10
1.91780000000001
 20
90.0272
 30
0.0
 11
2.00630000000001
 21
90.6976
 31
0.0
  0
LINE
  5
2A
330
1E
100
AcDbEntity
  8
0
100
AcDbLine
 10
22.3212
 20
75.7406
 30
0.0
 11
22.70459999999999
 21
75.47209999999999
 31
0.0
  0
LINE
  5
2B
330
1E
100
AcDbEntity
  8
0
100
AcDbLine
 10
22.70459999999999
 20
75.47209999999999
 30
0.0
 11
23.3043
 21
75.7847
 31
0.0
  0
LINE
  5
2C
330
1E
100
AcDbEntity
  8
0
100
AcDbLine
 10
21.2989
 20
76.4564
 30
0.0
 11
22.3212
 21
75.7406
 31
0.0
  0
LINE
  5
2D
330
1E
100
AcDbEntity
  8
0
100
AcDbLine
 10
19.6377
 20
77.61960000000001
 30
0.0
 11
21.2989
 21
76.4564
 31
0.0
  0
LINE
  5
2E
330
1E
100
AcDbEntity
  8
0
100
AcDbLine
 10
17.46529999999999
 20
79.14069999999999
 30
0.0
 11
19.6377
 21
77.61960000000001
 31
0.0
  0
LINE
  5
2F
330
1E
100
AcDbEntity
  8
0
100
AcDbLine
 10
12.31119999999999
 20
82.74970000000001
 30
0.0
 11
14.9947
 21
80.87059999999999
 31
0.0
  0
LINE
  5
30
330
1E
100
AcDbEntity
  8
0
100
AcDbLine
 10
14.9947
 20
80.87059999999999
 30
0.0
 11
17.46529999999999
 21
79.14069999999999
 31
0.0
  0
LINE
  5
31
330
1E
100
AcDbEntity
  8
0
100
AcDbLine
 10
61.6625
 20
5.54829999999999
 30
0.0
 11
63.3585
 21
4.88769999999999
 31
0.0
  0
LINE
  5
32
330
1E
100
AcDbEntity
  8
0
100
AcDbLine
 10
60.3825
 20
6.42369999999999
 30
0.0
 11
61.6625
 21
5.54829999999999
 31
0.0
  0
LINE
  5
33
330
1E
100
AcDbEntity
  8
0
100
AcDbLine
 10
59.6145
 20
7.41459999999999
 30
0.0
 11
60.3825
 21
6.42369999999999
 31
0.0
  0
LINE
  5
34
330
1E
100
AcDbEntity
  8
0
100
AcDbLine
 10
61.6625
 20
54.762
 30
0.0
 11
63.3585
 21
54.762
 31
0.0
  0
LINE
  5
35
330
1E
100
AcDbEntity
  8
0
100
AcDbLine
 10
61.6625
 20
11.39499999999999
 30
0.0
 11
63.3585
 21
12.0557
 31
0.0
  0
LINE
  5
36
330
1E
100
AcDbEntity
  8
0
100
AcDbLine
 10
60.3825
 20
10.5197
 30
0.0
 11
61.6625
 21
11.39499999999999
 31
0.0
  0
LINE
  5
37
330
1E
100
AcDbEntity
  8
0
100
AcDbLine
 10
59.6145
 20
9.528699999999989
 30
0.0
 11
60.3825
 21
10.5197
 31
0.0
  0
LINE
  5
38
330
1E
100
AcDbEntity
  8
0
100
AcDbLine
 10
59.3265
 20
8.471699999999991
 30
0.0
 11
59.3265
 21
54.762
 31
0.0
  0
LINE
  5
39
330
1E
100
AcDbEntity
  8
0
100
AcDbLine
 10
59.3265
 20
8.471699999999991
 30
0.0
 11
59.6145
 21
9.528699999999989
 31
0.0
  0
LINE
  5
3A
330
1E
100
AcDbEntity
  8
0
100
AcDbLine
 10
59.3265
 20
8.471699999999991
 30
0.0
 11
59.6145
 21
7.41459999999999
 31
0.0
  0
LINE
  5
3B
330
1E
100
AcDbEntity
  8
0
100
AcDbLine
 10
63.3585
 20
4.88769999999999
 30
0.0
 11
65.27849999999999
 21
4.49129999999999
 31
0.0
  0
LINE
  5
3C
330
1E
100
AcDbEntity
  8
0
100
AcDbLine
 10
63.3585
 20
54.762
 30
0.0
 11
65.27849999999999
 21
54.762
 31
0.0
  0
LINE
  5
3D
330
1E
100
AcDbEntity
  8
0
100
AcDbLine
 10
65.27849999999999
 20
4.49129999999999
 30
0.0
 11
67.32649999999999
 21
4.34259999999999
 31
0.0
  0
LINE
  5
3E
330
1E
100
AcDbEntity
  8
0
100
AcDbLine
 10
65.27849999999999
 20
12.4521
 30
0.0
 11
67.32649999999999
 21
12.6007
 31
0.0
  0
LINE
  5
3F
330
1E
100
AcDbEntity
  8
0
100
AcDbLine
 10
65.27849999999999
 20
54.762
 30
0.0
 11
67.32649999999999
 21
54.762
 31
0.0
  0
LINE
  5
40
330
1E
100
AcDbEntity
  8
0
100
AcDbLine
 10
63.3585
 20
12.0557
 30
0.0
 11
65.27849999999999
 21
12.4521
 31
0.0
  0
LINE
  5
41
330
1E
100
AcDbEntity
  8
0
100
AcDbLine
 10
67.32649999999999
 20
4.34259999999999
 30
0.0
 11
69.3745
 21
4.49129999999999
 31
0.0
  0
LINE
  5
42
330
1E
100
AcDbEntity
  8
0
100
AcDbLine
 10
69.3745
 20
4.49129999999999
 30
0.0
 11
71.2945
 21
4.88769999999999
 31
0.0
  0
LINE
  5
43
330
1E
100
AcDbEntity
  8
0
100
AcDbLine
 10
67.32649999999999
 20
12.6007
 30
0.0
 11
69.3745
 21
12.4521
 31
0.0
  0
LINE
  5
44
330
1E
100
AcDbEntity
  8
0
100
AcDbLine
 10
69.3745
 20
54.762
 30
0.0
 11
71.2945
 21
54.762
 31
0.0
  0
LINE
  5
45
330
1E
100
AcDbEntity
  8
0
100
AcDbLine
 10
69.3745
 20
12.4521
 30
0.0
 11
71.2945
 21
12.0557
 31
0.0
  0
LINE
  5
46
330
1E
100
AcDbEntity
  8
0
100
AcDbLine
 10
64.8065
 20
54.762
 30
0.0
 11
67.32649999999999
 21
54.762
 31
0.0
  0
LINE
  5
47
330
1E
100
AcDbEntity
  8
0
100
AcDbLine
 10
62.4865
 20
54.762
 30
0.0
 11
64.8065
 21
54.762
 31
0.0
  0
LINE
  5
48
330
1E
100
AcDbEntity
  8
0
100
AcDbLine
 10
57.3265
 20
55.3005
 30
0.0
 11
57.5665
 21
54.762
 31
0.0
  0
LINE
  5
49
330
1E
100
AcDbEntity
  8
0
100
AcDbLine
 10
57.3265
 20
55.3005
 30
0.0
 11
57.3265
 21
74.2235
 31
0.0
  0
LINE
  5
4A
330
1E
100
AcDbEntity
  8
0
100
AcDbLine
 10
59.6145
 20
54.762
 30
0.0
 11
60.3825
 21
54.762
 31
0.0
  0
LINE
  5
4B
330
1E
100
AcDbEntity
  8
0
100
AcDbLine
 10
59.3265
 20
54.762
 30
0.0
 11
59.6145
 21
54.762
 31
0.0
  0
LINE
  5
4C
330
1E
100
AcDbEntity
  8
0
100
AcDbLine
 10
59.3265
 20
54.762
 30
0.0
 11
59.3265
 21
8.471699999999991
 31
0.0
  0
LINE
  5
4D
330
1E
100
AcDbEntity
  8
0
100
AcDbLine
 10
60.3825
 20
54.762
 30
0.0
 11
60.4465
 21
54.762
 31
0.0
  0
LINE
  5
4E
330
1E
100
AcDbEntity
  8
0
100
AcDbLine
 10
60.4465
 20
54.762
 30
0.0
 11
62.4865
 21
54.762
 31
0.0
  0
LINE
  5
4F
330
1E
100
AcDbEntity
  8
0
100
AcDbLine
 10
60.4465
 20
54.762
 30
0.0
 11
61.6625
 21
54.762
 31
0.0
  0
LINE
  5
50
330
1E
100
AcDbEntity
  8
0
100
AcDbLine
 10
58.8865
 20
54.762
 30
0.0
 11
60.4465
 21
54.762
 31
0.0
  0
LINE
  5
51
330
1E
100
AcDbEntity
  8
0
100
AcDbLine
 10
58.8865
 20
54.762
 30
0.0
 11
59.3265
 21
54.762
 31
0.0
  0
LINE
  5
52
330
1E
100
AcDbEntity
  8
0
100
AcDbLine
 10
57.9265
 20
54.762
 30
0.0
 11
58.8865
 21
54.762
 31
0.0
  0
LINE
  5
53
330
1E
100
AcDbEntity
  8
0
100
AcDbLine
 10
61.1324
 20
74.762
 30
0.0
 11
64.1147
 21
74.762
 31
0.0
  0
LINE
  5
54
330
1E
100
AcDbEntity
  8
0
100
AcDbLine
 10
64.1147
 20
74.762
 30
0.0
 11
67.32649999999999
 21
74.762
 31
0.0
  0
LINE
  5
55
330
1E
100
AcDbEntity
  8
0
100
AcDbLine
 10
64.8065
 20
74.762
 30
0.0
 11
67.32649999999999
 21
74.762
 31
0.0
  0
LINE
  5
56
330
1E
100
AcDbEntity
  8
0
100
AcDbLine
 10
62.4865
 20
74.762
 30
0.0
 11
64.8065
 21
74.762
 31
0.0
  0
LINE
  5
57
330
1E
100
AcDbEntity
  8
0
100
AcDbLine
 10
57.5665
 20
54.762
 30
0.0
 11
57.9265
 21
54.762
 31
0.0
  0
LINE
  5
58
330
1E
100
AcDbEntity
  8
0
100
AcDbLine
 10
57.3265
 20
74.2235
 30
0.0
 11
57.3265
 21
55.3005
 31
0.0
  0
LINE
  5
59
330
1E
100
AcDbEntity
  8
0
100
AcDbLine
 10
57.3265
 20
74.2235
 30
0.0
 11
57.5665
 21
74.762
 31
0.0
  0
LINE
  5
5A
330
1E
100
AcDbEntity
  8
0
100
AcDbLine
 10
67.32649999999999
 20
54.762
 30
0.0
 11
69.84650000000001
 21
54.762
 31
0.0
  0
LINE
  5
5B
330
1E
100
AcDbEntity
  8
0
100
AcDbLine
 10
67.32649999999999
 20
54.762
 30
0.0
 11
69.3745
 21
54.762
 31
0.0
  0
LINE
  5
5C
330
1E
100
AcDbEntity
  8
0
100
AcDbLine
 10
69.84650000000001
 20
54.762
 30
0.0
 11
72.1665
 21
54.762
 31
0.0
  0
LINE
  5
5D
330
1E
100
AcDbEntity
  8
0
100
AcDbLine
 10
67.32649999999999
 20
74.762
 30
0.0
 11
69.84650000000001
 21
74.762
 31
0.0
  0
LINE
  5
5E
330
1E
100
AcDbEntity
  8
0
100
AcDbLine
 10
67.32649999999999
 20
74.762
 30
0.0
 11
70.53830000000001
 21
74.762
 31
0.0
  0
LINE
  5
5F
330
1E
100
AcDbEntity
  8
0
100
AcDbLine
 10
71.2945
 20
4.88769999999999
 30
0.0
 11
72.9905
 21
5.54829999999999
 31
0.0
  0
LINE
  5
60
330
1E
100
AcDbEntity
  8
0
100
AcDbLine
 10
71.2945
 20
54.762
 30
0.0
 11
72.9905
 21
54.762
 31
0.0
  0
LINE
  5
61
330
1E
100
AcDbEntity
  8
0
100
AcDbLine
 10
71.2945
 20
12.0557
 30
0.0
 11
72.9905
 21
11.39499999999999
 31
0.0
  0
LINE
  5
62
330
1E
100
AcDbEntity
  8
0
100
AcDbLine
 10
72.9905
 20
5.54829999999999
 30
0.0
 11
74.2705
 21
6.42369999999999
 31
0.0
  0
LINE
  5
63
330
1E
100
AcDbEntity
  8
0
100
AcDbLine
 10
72.9905
 20
54.762
 30
0.0
 11
74.2705
 21
54.762
 31
0.0
  0
LINE
  5
64
330
1E
100
AcDbEntity
  8
0
100
AcDbLine
 10
72.9905
 20
11.39499999999999
 30
0.0
 11
74.2705
 21
10.5197
 31
0.0
  0
LINE
  5
65
330
1E
100
AcDbEntity
  8
0
100
AcDbLine
 10
72.1665
 20
54.762
 30
0.0
 11
74.20650000000001
 21
54.762
 31
0.0
  0
LINE
  5
66
330
1E
100
AcDbEntity
  8
0
100
AcDbLine
 10
73.5206
 20
74.762
 30
0.0
 11
76.12059999999999
 21
74.762
 31
0.0
  0
LINE
  5
67
330
1E
100
AcDbEntity
  8
0
100
AcDbLine
 10
70.53830000000001
 20
74.762
 30
0.0
 11
73.5206
 21
74.762
 31
0.0
  0
LINE
  5
68
330
1E
100
AcDbEntity
  8
0
100
AcDbLine
 10
74.20650000000001
 20
54.762
 30
0.0
 11
75.76649999999999
 21
54.762
 31
0.0
  0
LINE
  5
69
330
1E
100
AcDbEntity
  8
0
100
AcDbLine
 10
69.84650000000001
 20
74.762
 30
0.0
 11
72.1665
 21
74.762
 31
0.0
  0
LINE
  5
6A
330
1E
100
AcDbEntity
  8
0
100
AcDbLine
 10
72.1665
 20
74.762
 30
0.0
 11
74.20650000000001
 21
74.762
 31
0.0
  0
LINE
  5
6B
330
1E
100
AcDbEntity
  8
0
100
AcDbLine
 10
74.2705
 20
6.42369999999999
 30
0.0
 11
75.03849999999999
 21
7.41459999999999
 31
0.0
  0
LINE
  5
6C
330
1E
100
AcDbEntity
  8
0
100
AcDbLine
 10
74.2705
 20
54.762
 30
0.0
 11
75.03849999999999
 21
54.762
 31
0.0
  0
LINE
  5
6D
330
1E
100
AcDbEntity
  8
0
100
AcDbLine
 10
75.03849999999999
 20
7.41459999999999
 30
0.0
 11
75.3265
 21
8.471699999999991
 31
0.0
  0
LINE
  5
6E
330
1E
100
AcDbEntity
  8
0
100
AcDbLine
 10
74.2705
 20
10.5197
 30
0.0
 11
75.03849999999999
 21
9.528699999999989
 31
0.0
  0
LINE
  5
6F
330
1E
100
AcDbEntity
  8
0
100
AcDbLine
 10
75.03849999999999
 20
54.762
 30
0.0
 11
75.3265
 21
54.762
 31
0.0
  0
LINE
  5
70
330
1E
100
AcDbEntity
  8
0
100
AcDbLine
 10
75.3265
 20
8.471699999999991
 30
0.0
 11
75.3265
 21
54.762
 31
0.0
  0
LINE
  5
71
330
1E
100
AcDbEntity
  8
0
100
AcDbLine
 10
75.03849999999999
 20
9.528699999999989
 30
0.0
 11
75.3265
 21
8.471699999999991
 31
0.0
  0
LINE
  5
72
330
1E
100
AcDbEntity
  8
0
100
AcDbLine
 10
75.3265
 20
54.762
 30
0.0
 11
75.76649999999999
 21
54.762
 31
0.0
  0
LINE
  5
73
330
1E
100
AcDbEntity
  8
0
100
AcDbLine
 10
75.3265
 20
54.762
 30
0.0
 11
75.3265
 21
8.471699999999991
 31
0.0
  0
LINE
  5
74
330
1E
100
AcDbEntity
  8
0
100
AcDbLine
 10
75.76649999999999
 20
54.762
 30
0.0
 11
76.7265
 21
54.762
 31
0.0
  0
LINE
  5
75
330
1E
100
AcDbEntity
  8
0
100
AcDbLine
 10
76.12059999999999
 20
74.762
 30
0.0
 11
78.07059999999999
 21
74.762
 31
0.0
  0
LINE
  5
76
330
1E
100
AcDbEntity
  8
0
100
AcDbLine
 10
76.7265
 20
54.762
 30
0.0
 11
77.0865
 21
54.762
 31
0.0
  0
LINE
  5
77
330
1E
100
AcDbEntity
  8
0
100
AcDbLine
 10
74.20650000000001
 20
74.762
 30
0.0
 11
75.76649999999999
 21
74.762
 31
0.0
  0
LINE
  5
78
330
1E
100
AcDbEntity
  8
0
100
AcDbLine
 10
75.76649999999999
 20
74.762
 30
0.0
 11
76.7265
 21
74.762
 31
0.0
  0
LINE
  5
79
330
1E
100
AcDbEntity
  8
0
100
AcDbLine
 10
77.0865
 20
54.762
 30
0.0
 11
77.32649999999999
 21
55.3005
 31
0.0
  0
LINE
  5
7A
330
1E
100
AcDbEntity
  8
0
100
AcDbLine
 10
78.07059999999999
 20
74.762
 30
0.0
 11
79.2942
 21
74.762
 31
0.0
  0
LINE
  5
7B
330
1E
100
AcDbEntity
  8
0
100
AcDbLine
 10
79.2942
 20
74.762
 30
0.0
 11
79.753
 21
74.762
 31
0.0
  0
LINE
  5
7C
330
1E
100
AcDbEntity
  8
0
100
AcDbLine
 10
79.753
 20
74.762
 30
0.0
 11
80.13530000000001
 21
75.0505
 31
0.0
  0
LINE
  5
7D
330
1E
100
AcDbEntity
  8
0
100
AcDbLine
 10
77.32649999999999
 20
74.2235
 30
0.0
 11
77.32649999999999
 21
55.3005
 31
0.0
  0
LINE
  5
7E
330
1E
100
AcDbEntity
  8
0
100
AcDbLine
 10
77.32649999999999
 20
55.3005
 30
0.0
 11
77.32649999999999
 21
74.2235
 31
0.0
  0
LINE
  5
7F
330
1E
100
AcDbEntity
  8
0
100
AcDbLine
 10
76.7265
 20
74.762
 30
0.0
 11
77.0865
 21
74.762
 31
0.0
  0
LINE
  5
80
330
1E
100
AcDbEntity
  8
0
100
AcDbLine
 10
55.3589
 20
74.762
 30
0.0
 11
56.5824
 21
74.762
 31
0.0
  0
LINE
  5
81
330
1E
100
AcDbEntity
  8
0
100
AcDbLine
 10
54.9
 20
74.762
 30
0.0
 11
55.3589
 21
74.762
 31
0.0
  0
LINE
  5
82
330
1E
100
AcDbEntity
  8
0
100
AcDbLine
 10
56.5824
 20
74.762
 30
0.0
 11
58.5324
 21
74.762
 31
0.0
  0
LINE
  5
83
330
1E
100
AcDbEntity
  8
0
100
AcDbLine
 10
56.5824
 20
74.762
 30
0.0
 11
57.5665
 21
74.762
 31
0.0
  0
LINE
  5
84
330
1E
100
AcDbEntity
  8
0
100
AcDbLine
 10
56.2383
 20
75.0505
 30
0.0
 11
58.2647
 21
75.0505
 31
0.0
  0
LINE
  5
85
330
1E
100
AcDbEntity
  8
0
100
AcDbLine
 10
54.9765
 20
75.0505
 30
0.0
 11
56.2383
 21
75.0505
 31
0.0
  0
LINE
  5
86
330
1E
100
AcDbEntity
  8
0
100
AcDbLine
 10
54.51769999999999
 20
75.0505
 30
0.0
 11
54.9765
 21
75.0505
 31
0.0
  0
LINE
  5
87
330
1E
100
AcDbEntity
  8
0
100
AcDbLine
 10
54.51769999999999
 20
75.0505
 30
0.0
 11
54.9
 21
74.762
 31
0.0
  0
LINE
  5
88
330
1E
100
AcDbEntity
  8
0
100
AcDbLine
 10
54.3265
 20
75.62739999999999
 30
0.0
 11
54.3265
 21
80.19730180620699
 31
0.0
  0
LINE
  5
89
330
1E
100
AcDbEntity
  8
0
100
AcDbLine
 10
54.3265
 20
75.62739999999999
 30
0.0
 11
54.51769999999999
 21
75.0505
 31
0.0
  0
LINE
  5
8A
330
1E
100
AcDbEntity
  8
0
100
AcDbLine
 10
58.5324
 20
74.762
 30
0.0
 11
61.1324
 21
74.762
 31
0.0
  0
LINE
  5
8B
330
1E
100
AcDbEntity
  8
0
100
AcDbLine
 10
61.1324
 20
74.762
 30
0.0
 11
62.4865
 21
74.762
 31
0.0
  0
LINE
  5
8C
330
1E
100
AcDbEntity
  8
0
100
AcDbLine
 10
60.9412
 20
75.0505
 30
0.0
 11
64.03830000000001
 21
75.0505
 31
0.0
  0
LINE
  5
8D
330
1E
100
AcDbEntity
  8
0
100
AcDbLine
 10
64.03830000000001
 20
75.0505
 30
0.0
 11
67.32649999999999
 21
75.0505
 31
0.0
  0
LINE
  5
8E
330
1E
100
AcDbEntity
  8
0
100
AcDbLine
 10
73.71179999999999
 20
75.0505
 30
0.0
 11
76.3883
 21
75.0505
 31
0.0
  0
LINE
  5
8F
330
1E
100
AcDbEntity
  8
0
100
AcDbLine
 10
70.61469999999999
 20
75.0505
 30
0.0
 11
73.71179999999999
 21
75.0505
 31
0.0
  0
LINE
  5
90
330
1E
100
AcDbEntity
  8
0
100
AcDbLine
 10
67.32649999999999
 20
75.0505
 30
0.0
 11
70.61469999999999
 21
75.0505
 31
0.0
  0
LINE
  5
91
330
1E
100
AcDbEntity
  8
0
100
AcDbLine
 10
76.3883
 20
75.0505
 30
0.0
 11
78.4147
 21
75.0505
 31
0.0
  0
LINE
  5
92
330
1E
100
AcDbEntity
  8
0
100
AcDbLine
 10
78.4147
 20
75.0505
 30
0.0
 11
79.6765
 21
75.0505
 31
0.0
  0
LINE
  5
93
330
1E
100
AcDbEntity
  8
0
100
AcDbLine
 10
79.6765
 20
75.0505
 30
0.0
 11
80.13530000000001
 21
75.0505
 31
0.0
  0
LINE
  5
94
330
1E
100
AcDbEntity
  8
0
100
AcDbLine
 10
58.2647
 20
75.0505
 30
0.0
 11
60.9412
 21
75.0505
 31
0.0
  0
LINE
  5
95
330
1E
100
AcDbEntity
  8
0
100
AcDbLine
 10
80.13530000000001
 20
75.0505
 30
0.0
 11
80.3265
 21
75.62739999999999
 31
0.0
  0
LINE
  5
96
330
1E
100
AcDbEntity
  8
0
100
AcDbLine
 10
80.3265
 20
75.62739999999999
 30
0.0
 11
80.3265
 21
79.18438892326109
 31
0.0
  0
LINE
  5
97
330
1E
100
AcDbEntity
  8
0
100
AcDbLine
 10
57.9265
 20
74.762
 30
0.0
 11
58.5324
 21
74.762
 31
0.0
  0
LINE
  5
98
330
1E
100
AcDbEntity
  8
0
100
AcDbLine
 10
57.5665
 20
74.762
 30
0.0
 11
57.9265
 21
74.762
 31
0.0
  0
LINE
  5
99
330
1E
100
AcDbEntity
  8
0
100
AcDbLine
 10
77.0865
 20
74.762
 30
0.0
 11
77.32649999999999
 21
74.2235
 31
0.0
  0
LINE
  5
9A
330
1E
100
AcDbEntity
  8
0
100
AcDbLine
 10
77.0865
 20
74.762
 30
0.0
 11
78.07059999999999
 21
74.762
 31
0.0
  0
LINE
  5
9B
330
1E
100
AcDbEntity
  8
0
100
AcDbLine
 10
116.9415
 20
71.5965
 30
0.0
 11
118.3605
 21
69.451
 31
0.0
  0
LINE
  5
9C
330
1E
100
AcDbEntity
  8
0
100
AcDbLine
 10
115.6064999999999
 20
73.1072
 30
0.0
 11
116.9415
 21
71.5965
 31
0.0
  0
LINE
  5
9D
330
1E
100
AcDbEntity
  8
0
100
AcDbLine
 10
113.8724999999999
 20
74.6696
 30
0.0
 11
115.6064999999999
 21
73.1072
 31
0.0
  0
LINE
  5
9E
330
1E
100
AcDbEntity
  8
0
100
AcDbLine
 10
111.8944999999999
 20
75.9884
 30
0.0
 11
113.8724999999999
 21
74.6696
 31
0.0
  0
LINE
  5
9F
330
1E
100
AcDbEntity
  8
0
100
AcDbLine
 10
109.3785
 20
77.0615
 30
0.0
 11
111.8944999999999
 21
75.9884
 31
0.0
  0
LINE
  5
A0
330
1E
100
AcDbEntity
  8
0
100
AcDbLine
 10
106.9355
 20
77.85039999999999
 30
0.0
 11
109.3785
 21
77.0615
 31
0.0
  0
LINE
  5
A1
330
1E
100
AcDbEntity
  8
0
100
AcDbLine
 10
100.6094999999999
 20
78.3942
 30
0.0
 11
106.9355
 21
77.85039999999999
 31
0.0
  0
LINE
  5
A2
330
1E
100
AcDbEntity
  8
0
100
AcDbLine
 10
119.2975
 20
66.8234
 30
0.0
 11
119.7645
 21
64.2951
 31
0.0
  0
LINE
  5
A3
330
1E
100
AcDbEntity
  8
0
100
AcDbLine
 10
118.3605
 20
69.451
 30
0.0
 11
119.2975
 21
66.8234
 31
0.0
  0
LINE
  5
A4
330
1E
100
AcDbEntity
  8
0
100
AcDbLine
 10
27.6581433323435
 20
82.00263042121909
 30
0.0
 11
35.47299999999999
 21
80.9318
 31
0.0
  0
LINE
  5
A5
330
1E
100
AcDbEntity
  8
0
100
AcDbLine
 10
54.3265
 20
80.19730180620699
 30
0.0
 11
54.3265
 21
75.62739999999999
 31
0.0
  0
LINE
  5
A6
330
1E
100
AcDbEntity
  8
0
100
AcDbLine
 10
35.47299999999999
 20
80.9318
 30
0.0
 11
54.3265
 21
80.19730180620699
 31
0.0
  0
LINE
  5
A7
330
1E
100
AcDbEntity
  8
0
100
AcDbLine
 10
80.3265
 20
79.18438892326109
 30
0.0
 11
100.6094999999999
 21
78.3942
 31
0.0
  0
LINE
  5
A8
330
1E
100
AcDbEntity
  8
0
100
AcDbLine
 10
80.3265
 20
79.18438892326109
 30
0.0
 11
80.3265
 21
75.62739999999999
 31
0.0
  0
LINE
  5
A9
330
1E
100
AcDbEntity
  8
0
100
AcDbLine
 10
153.1015
 20
-0.238000000000014
 30
0.0
 11
155.8855
 21
-0.238000000000014
 31
0.0
  0
LINE
  5
AA
330
1E
100
AcDbEntity
  8
0
100
AcDbLine
 10
162.9894999999999
 20
-0.238000000000015
 30
0.0
 11
164.8135
 21
-0.238000000000015
 31
0.0
  0
LINE
  5
AB
330
1E
100
AcDbEntity
  8
0
100
AcDbLine
 10
160.8775
 20
-0.238000000000014
 30
0.0
 11
162.9894999999999
 21
-0.238000000000015
 31
0.0
  0
LINE
  5
AC
330
1E
100
AcDbEntity
  8
0
100
AcDbLine
 10
164.8135
 20
-0.238000000000015
 30
0.0
 11
166.0614999999999
 21
-0.238000000000015
 31
0.0
  0
LINE
  5
AD
330
1E
100
AcDbEntity
  8
0
100
AcDbLine
 10
158.5734999999999
 20
-0.238000000000014
 30
0.0
 11
160.8775
 21
-0.238000000000014
 31
0.0
  0
LINE
  5
AE
330
1E
100
AcDbEntity
  8
0
100
AcDbLine
 10
155.8855
 20
-0.238000000000014
 30
0.0
 11
158.5734999999999
 21
-0.238000000000014
 31
0.0
  0
LINE
  5
AF
330
1E
100
AcDbEntity
  8
0
100
AcDbLine
 10
147.1494999999999
 20
-0.238000000000014
 30
0.0
 11
150.1255
 21
-0.238000000000014
 31
0.0
  0
LINE
  5
B0
330
1E
100
AcDbEntity
  8
0
100
AcDbLine
 10
150.1255
 20
-0.238000000000014
 30
0.0
 11
153.1015
 21
-0.238000000000014
 31
0.0
  0
LINE
  5
B1
330
1E
100
AcDbEntity
  8
0
100
AcDbLine
 10
143.9815
 20
-0.238000000000013
 30
0.0
 11
147.1494999999999
 21
-0.238000000000014
 31
0.0
  0
LINE
  5
B2
330
1E
100
AcDbEntity
  8
0
100
AcDbLine
 10
134.8615
 20
-0.238000000000013
 30
0.0
 11
137.8375
 21
-0.238000000000013
 31
0.0
  0
LINE
  5
B3
330
1E
100
AcDbEntity
  8
0
100
AcDbLine
 10
127.0855
 20
-0.238000000000012
 30
0.0
 11
129.3895
 21
-0.238000000000012
 31
0.0
  0
LINE
  5
B4
330
1E
100
AcDbEntity
  8
0
100
AcDbLine
 10
129.3895
 20
-0.238000000000012
 30
0.0
 11
132.0774999999999
 21
-0.238000000000013
 31
0.0
  0
LINE
  5
B5
330
1E
100
AcDbEntity
  8
0
100
AcDbLine
 10
124.9735
 20
-0.238000000000012
 30
0.0
 11
127.0855
 21
-0.238000000000012
 31
0.0
  0
LINE
  5
B6
330
1E
100
AcDbEntity
  8
0
100
AcDbLine
 10
123.1495
 20
-0.238000000000012
 30
0.0
 11
124.9735
 21
-0.238000000000012
 31
0.0
  0
LINE
  5
B7
330
1E
100
AcDbEntity
  8
0
100
AcDbLine
 10
121.9014999999999
 20
-0.238000000000012
 30
0.0
 11
123.1495
 21
-0.238000000000012
 31
0.0
  0
LINE
  5
B8
330
1E
100
AcDbEntity
  8
0
100
AcDbLine
 10
120.8455
 20
-0.238000000000012
 30
0.0
 11
121.9014999999999
 21
-0.238000000000012
 31
0.0
  0
LINE
  5
B9
330
1E
100
AcDbEntity
  8
0
100
AcDbLine
 10
120.2695
 20
-0.238000000000012
 30
0.0
 11
120.8455
 21
-0.238000000000012
 31
0.0
  0
LINE
  5
BA
330
1E
100
AcDbEntity
  8
0
100
AcDbLine
 10
119.9815
 20
-0.238000000000012
 30
0.0
 11
120.2695
 21
-0.238000000000012
 31
0.0
  0
LINE
  5
BB
330
1E
100
AcDbEntity
  8
0
100
AcDbLine
 10
119.7845
 20
63.9627
 30
0.0
 11
119.9815
 21
-0.238000000000012
 31
0.0
  0
LINE
  5
BC
330
1E
100
AcDbEntity
  8
0
100
AcDbLine
 10
119.7845
 20
63.9627
 30
0.0
 11
119.9815
 21
-0.238000000000013
 31
0.0
  0
LINE
  5
BD
330
1E
100
AcDbEntity
  8
0
100
AcDbLine
 10
132.0774999999999
 20
-0.238000000000013
 30
0.0
 11
134.8615
 21
-0.238000000000013
 31
0.0
  0
LINE
  5
BE
330
1E
100
AcDbEntity
  8
0
100
AcDbLine
 10
137.8375
 20
-0.238000000000013
 30
0.0
 11
140.8135
 21
-0.238000000000013
 31
0.0
  0
LINE
  5
BF
330
1E
100
AcDbEntity
  8
0
100
AcDbLine
 10
140.8135
 20
-0.238000000000013
 30
0.0
 11
143.9815
 21
-0.238000000000013
 31
0.0
  0
LINE
  5
C0
330
1E
100
AcDbEntity
  8
0
100
AcDbLine
 10
119.7645
 20
64.2951
 30
0.0
 11
119.7845
 21
63.9627
 31
0.0
  0
LINE
  5
C1
330
1E
100
AcDbEntity
  8
0
100
AcDbLine
 10
23.3043
 20
75.7847
 30
0.0
 11
27.6581433323435
 21
82.00263042121909
 31
0.0
  0
LINE
  5
C3
330
1E
100
AcDbEntity
  8
0
100
AcDbLine
 10
2.152099999999999
 20
94.3585
 30
0.0
 11
3.44951965741109
 21
92.7587190689451
 31
0.0
  0
LINE
  5
C4
330
1E
100
AcDbEntity
  8
0
100
AcDbLine
 10
2.152099999999999
 20
94.3585
 30
0.0
 11
3.44951965741109
 21
92.7587190689451
 31
0.0
  0
LINE
  5
C5
330
1E
100
AcDbEntity
  8
0
100
AcDbLine
 10
2.301100000000009
 20
89.7588
 30
0.0
 11
3.323400000000009
 21
89.04290000000001
 31
0.0
  0
LINE
  5
C8
330
1E
100
AcDbEntity
  8
0
100
AcDbLine
 10
3.323400000000009
 20
89.04290000000001
 30
0.0
 11
4.984700000000009
 21
87.87969999999999
 31
0.0
  0
LINE
  5
C9
330
1E
100
AcDbEntity
  8
0
100
AcDbLine
 10
4.984700000000009
 20
87.87969999999999
 30
0.0
 11
7.157100000000009
 21
86.35859999999999
 31
0.0
  0
LINE
  5
D3
330
1E
100
AcDbEntity
  8
0
100
AcDbLine
 10
7.157100000000009
 20
86.35859999999999
 30
0.0
 11
9.627600000000009
 21
84.6287
 31
0.0
  0
LINE
  5
D4
330
1E
100
AcDbEntity
  8
0
100
AcDbLine
 10
9.627600000000009
 20
84.6287
 30
0.0
 11
12.31119999999999
 21
82.74970000000001
 31
0.0
  0
LINE
  5
D5
330
1E
100
AcDbEntity
  8
0
100
AcDbLine
 10
2.00630000000001
 20
90.6976
 30
0.0
 11
3.44951965741109
 21
92.7587190689451
 31
0.0
  0
LINE
  5
D6
330
1E
100
AcDbEntity
  8
0
100
AcDbLine
 10
1.11230000000001
 20
107.862
 30
0.0
 11
1.31230000000001
 21
107.862
 31
0.0
  0
LINE
  5
D7
330
1E
100
AcDbEntity
  8
0
100
AcDbLine
 10
1.31230000000001
 20
107.862
 30
0.0
 11
1.81230000000001
 21
107.862
 31
0.0
  0
LINE
  5
D8
330
1E
100
AcDbEntity
  8
0
100
AcDbLine
 10
1.81230000000001
 20
107.862
 30
0.0
 11
2.512300000000009
 21
107.862
 31
0.0
  0
LINE
  5
D9
330
1E
100
AcDbEntity
  8
0
100
AcDbLine
 10
2.512300000000009
 20
107.862
 30
0.0
 11
3.512300000000009
 21
107.862
 31
0.0
  0
LINE
  5
DA
330
1E
100
AcDbEntity
  8
0
100
AcDbLine
 10
3.512300000000009
 20
107.862
 30
0.0
 11
4.912300000000009
 21
107.862
 31
0.0
  0
LINE
  5
DB
330
1E
100
AcDbEntity
  8
0
100
AcDbLine
 10
4.912300000000009
 20
107.862
 30
0.0
 11
6.4123
 21
107.862
 31
0.0
  0
LINE
  5
DC
330
1E
100
AcDbEntity
  8
0
100
AcDbLine
 10
6.4123
 20
107.862
 30
0.0
 11
8.212300000000009
 21
107.862
 31
0.0
  0
LINE
  5
DD
330
1E
100
AcDbEntity
  8
0
100
AcDbLine
 10
8.212300000000009
 20
107.862
 30
0.0
 11
10.2123
 21
107.862
 31
0.0
  0
LINE
  5
DE
330
1E
100
AcDbEntity
  8
0
100
AcDbLine
 10
10.2123
 20
107.862
 30
0.0
 11
12.3123
 21
107.862
 31
0.0
  0
LINE
  5
DF
330
1E
100
AcDbEntity
  8
0
100
AcDbLine
 10
12.3123
 20
107.862
 30
0.0
 11
14.51229999999999
 21
107.862
 31
0.0
  0
LINE
  5
E0
330
1E
100
AcDbEntity
  8
0
100
AcDbLine
 10
14.51229999999999
 20
107.862
 30
0.0
 11
16.8123
 21
107.862
 31
0.0
  0
LINE
  5
E1
330
1E
100
AcDbEntity
  8
0
100
AcDbLine
 10
16.8123
 20
107.862
 30
0.0
 11
19.1123
 21
107.862
 31
0.0
  0
LINE
  5
E2
330
1E
100
AcDbEntity
  8
0
100
AcDbLine
 10
61.3265
 20
107.855238652926
 30
0.0
 11
61.3265
 21
114.762
 31
0.0
  0
LINE
  5
E3
330
1E
100
AcDbEntity
  8
0
100
AcDbLine
 10
73.3265
 20
107.853316641734
 30
0.0
 11
73.3265
 21
114.762
 31
0.0
  0
LINE
  5
E4
330
1E
100
AcDbEntity
  8
0
100
AcDbLine
 10
19.1123
 20
107.862
 30
0.0
 11
166.1032331217929
 21
107.843110972668
 31
0.0
  0
LINE
  5
E5
330
1E
100
AcDbEntity
  8
0
100
AcDbLine
 10
61.3265
 20
114.762
 30
0.0
 11
61.3265
 21
107.855238652926
 31
0.0
  0
LINE
  5
E6
330
1E
100
AcDbEntity
  8
0
100
AcDbLine
 10
61.6794
 20
114.762
 30
0.0
 11
63.35
 21
114.762
 31
0.0
  0
LINE
  5
E7
330
1E
100
AcDbEntity
  8
0
100
AcDbLine
 10
63.35
 20
114.762
 30
0.0
 11
65.2794
 21
114.762
 31
0.0
  0
LINE
  5
E8
330
1E
100
AcDbEntity
  8
0
100
AcDbLine
 10
65.2794
 20
114.762
 30
0.0
 11
67.32649999999999
 21
114.762
 31
0.0
  0
LINE
  5
E9
330
1E
100
AcDbEntity
  8
0
100
AcDbLine
 10
60.4089
 20
114.762
 30
0.0
 11
61.6794
 21
114.762
 31
0.0
  0
LINE
  5
EA
330
1E
100
AcDbEntity
  8
0
100
AcDbLine
 10
60.4089
 20
114.762
 30
0.0
 11
61.3265
 21
114.762
 31
0.0
  0
LINE
  5
EB
330
1E
100
AcDbEntity
  8
0
100
AcDbLine
 10
59.6089
 20
114.762
 30
0.0
 11
60.4089
 21
114.762
 31
0.0
  0
LINE
  5
EC
330
1E
100
AcDbEntity
  8
0
100
AcDbLine
 10
59.3265
 20
114.762
 30
0.0
 11
59.6089
 21
114.762
 31
0.0
  0
LINE
  5
ED
330
1E
100
AcDbEntity
  8
0
100
AcDbLine
 10
59.3265
 20
114.762
 30
0.0
 11
59.3265
 21
124.7619999999999
 31
0.0
  0
LINE
  5
EE
330
1E
100
AcDbEntity
  8
0
100
AcDbLine
 10
71.303
 20
114.762
 30
0.0
 11
72.97360000000001
 21
114.762
 31
0.0
  0
LINE
  5
EF
330
1E
100
AcDbEntity
  8
0
100
AcDbLine
 10
69.37359999999999
 20
114.762
 30
0.0
 11
71.303
 21
114.762
 31
0.0
  0
LINE
  5
F0
330
1E
100
AcDbEntity
  8
0
100
AcDbLine
 10
67.32649999999999
 20
114.762
 30
0.0
 11
69.37359999999999
 21
114.762
 31
0.0
  0
LINE
  5
F1
330
1E
100
AcDbEntity
  8
0
100
AcDbLine
 10
72.97360000000001
 20
114.762
 30
0.0
 11
74.2441
 21
114.762
 31
0.0
  0
LINE
  5
F2
330
1E
100
AcDbEntity
  8
0
100
AcDbLine
 10
73.3265
 20
114.762
 30
0.0
 11
74.2441
 21
114.762
 31
0.0
  0
LINE
  5
F3
330
1E
100
AcDbEntity
  8
0
100
AcDbLine
 10
73.3265
 20
114.762
 30
0.0
 11
73.3265
 21
107.853316641734
 31
0.0
  0
LINE
  5
F4
330
1E
100
AcDbEntity
  8
0
100
AcDbLine
 10
74.2441
 20
114.762
 30
0.0
 11
75.0442
 21
114.762
 31
0.0
  0
LINE
  5
F5
330
1E
100
AcDbEntity
  8
0
100
AcDbLine
 10
75.3265
 20
114.762
 30
0.0
 11
75.3265
 21
124.7619999999999
 31
0.0
  0
LINE
  5
F6
330
1E
100
AcDbEntity
  8
0
100
AcDbLine
 10
75.0442
 20
114.762
 30
0.0
 11
75.3265
 21
114.762
 31
0.0
  0
LINE
  5
F7
330
1E
100
AcDbEntity
  8
0
100
AcDbLine
 10
19.1123
 20
107.862
 30
0.0
 11
166.1032331217929
 21
107.843110972668
 31
0.0
  0
LINE
  5
F8
330
1E
100
AcDbEntity
  8
0
100
AcDbLine
 10
120.288362792844
 20
107.8457948729079
 30
0.0
 11
121.9815
 21
114.8479999999999
 31
0.0
  0
LINE
  5
FA
330
1E
100
AcDbEntity
  8
0
100
AcDbLine
 10
122.2814999999999
 20
115.5479999999999
 30
0.0
 11
122.913833333333
 21
115.819
 31
0.0
  0
LINE
  5
FC
330
1E
100
AcDbEntity
  8
0
100
AcDbLine
 10
121.9815
 20
114.8479999999999
 30
0.0
 11
122.2814999999999
 21
115.5479999999999
 31
0.0
  0
LINE
  5
106
330
1E
100
AcDbEntity
  8
0
100
AcDbLine
 10
127.0594999999999
 20
115.819
 30
0.0
 11
128.8735
 21
115.819
 31
0.0
  0
LINE
  5
107
330
1E
100
AcDbEntity
  8
0
100
AcDbLine
 10
125.4375
 20
115.819
 30
0.0
 11
127.0594999999999
 21
115.819
 31
0.0
  0
LINE
  5
108
330
1E
100
AcDbEntity
  8
0
100
AcDbLine
 10
124.2914999999999
 20
115.819
 30
0.0
 11
125.4375
 21
115.819
 31
0.0
  0
LINE
  5
109
330
1E
100
AcDbEntity
  8
0
100
AcDbLine
 10
123.4325
 20
115.819
 30
0.0
 11
124.2914999999999
 21
115.819
 31
0.0
  0
LINE
  5
10A
330
1E
100
AcDbEntity
  8
0
100
AcDbLine
 10
128.8735
 20
115.819
 30
0.0
 11
130.8785
 21
115.819
 31
0.0
  0
LINE
  5
10B
330
1E
100
AcDbEntity
  8
0
100
AcDbLine
 10
130.8785
 20
115.819
 30
0.0
 11
133.1685
 21
115.819
 31
0.0
  0
LINE
  5
10C
330
1E
100
AcDbEntity
  8
0
100
AcDbLine
 10
133.1685
 20
115.819
 30
0.0
 11
135.6505
 21
115.819
 31
0.0
  0
LINE
  5
10D
330
1E
100
AcDbEntity
  8
0
100
AcDbLine
 10
135.6505
 20
115.819
 30
0.0
 11
138.2284999999999
 21
115.819
 31
0.0
  0
LINE
  5
10E
330
1E
100
AcDbEntity
  8
0
100
AcDbLine
 10
138.2284999999999
 20
115.819
 30
0.0
 11
140.9005
 21
115.819
 31
0.0
  0
LINE
  5
11C
330
1E
100
AcDbEntity
  8
0
100
AcDbLine
 10
140.9005
 20
115.819
 30
0.0
 11
143.6684999999999
 21
115.819
 31
0.0
  0
LINE
  5
11D
330
1E
100
AcDbEntity
  8
0
100
AcDbLine
 10
143.9815
 20
115.8479999999999
 30
0.0
 11
146.6814999999999
 21
115.8479999999999
 31
0.0
  0
LINE
  5
11E
330
1E
100
AcDbEntity
  8
0
100
AcDbLine
 10
146.6814999999999
 20
115.8479999999999
 30
0.0
 11
149.3814999999999
 21
115.8479999999999
 31
0.0
  0
LINE
  5
11F
330
1E
100
AcDbEntity
  8
0
100
AcDbLine
 10
149.3814999999999
 20
115.8479999999999
 30
0.0
 11
151.9815
 21
115.8479999999999
 31
0.0
  0
LINE
  5
120
330
1E
100
AcDbEntity
  8
0
100
AcDbLine
 10
151.9815
 20
115.8479999999999
 30
0.0
 11
154.4815
 21
115.8479999999999
 31
0.0
  0
LINE
  5
121
330
1E
100
AcDbEntity
  8
0
100
AcDbLine
 10
154.4815
 20
115.8479999999999
 30
0.0
 11
156.7814999999999
 21
115.8479999999999
 31
0.0
  0
LINE
  5
122
330
1E
100
AcDbEntity
  8
0
100
AcDbLine
 10
156.7814999999999
 20
115.8479999999999
 30
0.0
 11
158.7814999999999
 21
115.8479999999999
 31
0.0
  0
LINE
  5
123
330
1E
100
AcDbEntity
  8
0
100
AcDbLine
 10
158.7814999999999
 20
115.8479999999999
 30
0.0
 11
160.5814999999999
 21
115.8479999999999
 31
0.0
  0
LINE
  5
124
330
1E
100
AcDbEntity
  8
0
100
AcDbLine
 10
160.5814999999999
 20
115.8479999999999
 30
0.0
 11
162.1814999999999
 21
115.8479999999999
 31
0.0
  0
LINE
  5
125
330
1E
100
AcDbEntity
  8
0
100
AcDbLine
 10
162.1814999999999
 20
115.8479999999999
 30
0.0
 11
163.3815
 21
115.8479999999999
 31
0.0
  0
LINE
  5
126
330
1E
100
AcDbEntity
  8
0
100
AcDbLine
 10
163.3815
 20
115.8479999999999
 30
0.0
 11
164.1815
 21
115.8479999999999
 31
0.0
  0
LINE
  5
127
330
1E
100
AcDbEntity
  8
0
100
AcDbLine
 10
164.1815
 20
115.8479999999999
 30
0.0
 11
164.7815
 21
115.8479999999999
 31
0.0
  0
LINE
  5
128
330
1E
100
AcDbEntity
  8
0
100
AcDbLine
 10
143.7086504999999
 20
115.8479999999999
 30
0.0
 11
143.9815
 21
115.8479999999999
 31
0.0
  0
LINE
  5
129
330
1E
100
AcDbEntity
  8
0
100
AcDbLine
 10
164.7815
 20
115.8479999999999
 30
0.0
 11
164.9815
 21
115.8479999999999
 31
0.0
  0
LINE
  5
12A
330
1E
100
AcDbEntity
  8
0
100
AcDbLine
 10
164.6684999999999
 20
115.8479999999999
 30
0.0
 11
164.6684999999999
 21
117.819
 31
0.0
  0
LINE
  5
12B
330
1E
100
AcDbEntity
  8
0
100
AcDbLine
 10
122.8595
 20
115.819
 30
0.0
 11
122.913833333333
 21
115.819
 31
0.0
  0
LINE
  5
12C
330
1E
100
AcDbEntity
  8
0
100
AcDbLine
 10
122.8595
 20
115.819
 30
0.0
 11
123.4325
 21
115.819
 31
0.0
  0
LINE
  5
12D
330
1E
100
AcDbEntity
  8
0
100
AcDbLine
 10
122.6685
 20
115.819
 30
0.0
 11
122.8595
 21
115.819
 31
0.0
  0
LINE
  5
12E
330
1E
100
AcDbEntity
  8
0
100
AcDbLine
 10
122.6685
 20
115.819
 30
0.0
 11
122.6685
 21
117.282
 31
0.0
  0
LINE
  5
12F
330
1E
100
AcDbEntity
  8
0
100
AcDbLine
 10
0.4123000000000081
 20
107.562
 30
0.0
 11
1.11230000000001
 21
107.862
 31
0.0
  0
LINE
  5
131
330
1E
100
AcDbEntity
  8
0
100
AcDbLine
 10
0.112300000000009
 20
106.862
 30
0.0
 11
0.4123000000000081
 21
107.562
 31
0.0
  0
LINE
  5
132
330
1E
100
AcDbEntity
  8
0
100
AcDbLine
 10
122.7465
 20
117.282
 30
0.0
 11
123.7144999999999
 21
117.282
 31
0.0
  0
LINE
  5
133
330
1E
100
AcDbEntity
  8
0
100
AcDbLine
 10
123.7144999999999
 20
117.282
 30
0.0
 11
124.8585
 21
117.282
 31
0.0
  0
LINE
  5
134
330
1E
100
AcDbEntity
  8
0
100
AcDbLine
 10
124.8585
 20
117.282
 30
0.0
 11
126.5305
 21
117.282
 31
0.0
  0
LINE
  5
135
330
1E
100
AcDbEntity
  8
0
100
AcDbLine
 10
126.5305
 20
117.282
 30
0.0
 11
128.4664999999999
 21
117.282
 31
0.0
  0
LINE
  5
136
330
1E
100
AcDbEntity
  8
0
100
AcDbLine
 10
128.4664999999999
 20
117.282
 30
0.0
 11
130.5784999999999
 21
117.282
 31
0.0
  0
LINE
  5
137
330
1E
100
AcDbEntity
  8
0
100
AcDbLine
 10
130.5784999999999
 20
117.282
 30
0.0
 11
133.0424999999999
 21
117.282
 31
0.0
  0
LINE
  5
138
330
1E
100
AcDbEntity
  8
0
100
AcDbLine
 10
133.0424999999999
 20
117.282
 30
0.0
 11
135.5945
 21
117.282
 31
0.0
  0
LINE
  5
139
330
1E
100
AcDbEntity
  8
0
100
AcDbLine
 10
135.5945
 20
117.282
 30
0.0
 11
138.3224999999999
 21
117.282
 31
0.0
  0
LINE
  5
13A
330
1E
100
AcDbEntity
  8
0
100
AcDbLine
 10
138.3224999999999
 20
117.282
 30
0.0
 11
141.0505
 21
117.282
 31
0.0
  0
LINE
  5
13B
330
1E
100
AcDbEntity
  8
0
100
AcDbLine
 10
143.9545
 20
117.282
 30
0.0
 11
146.8495
 21
118.181
 31
0.0
  0
LINE
  5
13C
330
1E
100
AcDbEntity
  8
0
100
AcDbLine
 10
141.0505
 20
117.282
 30
0.0
 11
143.9545
 21
117.282
 31
0.0
  0
LINE
  5
13D
330
1E
100
AcDbEntity
  8
0
100
AcDbLine
 10
122.6685
 20
117.282
 30
0.0
 11
122.6685
 21
115.819
 31
0.0
  0
LINE
  5
13E
330
1E
100
AcDbEntity
  8
0
100
AcDbLine
 10
121.9544999999999
 20
117.282
 30
0.0
 11
122.2185
 21
117.282
 31
0.0
  0
LINE
  5
13F
330
1E
100
AcDbEntity
  8
0
100
AcDbLine
 10
60.4089
 20
124.7619999999999
 30
0.0
 11
61.6794
 21
124.7619999999999
 31
0.0
  0
LINE
  5
140
330
1E
100
AcDbEntity
  8
0
100
AcDbLine
 10
59.6089
 20
124.7619999999999
 30
0.0
 11
60.4089
 21
124.7619999999999
 31
0.0
  0
LINE
  5
141
330
1E
100
AcDbEntity
  8
0
100
AcDbLine
 10
59.3265
 20
124.7619999999999
 30
0.0
 11
59.3265
 21
114.762
 31
0.0
  0
LINE
  5
142
330
1E
100
AcDbEntity
  8
0
100
AcDbLine
 10
59.3265
 20
124.7619999999999
 30
0.0
 11
59.6089
 21
124.7619999999999
 31
0.0
  0
LINE
  5
143
330
1E
100
AcDbEntity
  8
0
100
AcDbLine
 10
61.6794
 20
124.7619999999999
 30
0.0
 11
63.35
 21
124.7619999999999
 31
0.0
  0
LINE
  5
144
330
1E
100
AcDbEntity
  8
0
100
AcDbLine
 10
63.35
 20
124.7619999999999
 30
0.0
 11
65.2794
 21
124.7619999999999
 31
0.0
  0
LINE
  5
145
330
1E
100
AcDbEntity
  8
0
100
AcDbLine
 10
60.9736
 20
124.7619999999999
 30
0.0
 11
62.853
 21
124.7619999999999
 31
0.0
  0
LINE
  5
146
330
1E
100
AcDbEntity
  8
0
100
AcDbLine
 10
62.853
 20
124.7619999999999
 30
0.0
 11
65.0236
 21
124.7619999999999
 31
0.0
  0
LINE
  5
147
330
1E
100
AcDbEntity
  8
0
100
AcDbLine
 10
65.2794
 20
124.7619999999999
 30
0.0
 11
67.32649999999999
 21
124.7619999999999
 31
0.0
  0
LINE
  5
148
330
1E
100
AcDbEntity
  8
0
100
AcDbLine
 10
65.0236
 20
124.7619999999999
 30
0.0
 11
67.32649999999999
 21
124.7619999999999
 31
0.0
  0
LINE
  5
149
330
1E
100
AcDbEntity
  8
0
100
AcDbLine
 10
59.5441
 20
124.7619999999999
 30
0.0
 11
60.9736
 21
124.7619999999999
 31
0.0
  0
LINE
  5
14A
330
1E
100
AcDbEntity
  8
0
100
AcDbLine
 10
58.6441
 20
124.7619999999999
 30
0.0
 11
59.5441
 21
124.7619999999999
 31
0.0
  0
LINE
  5
14B
330
1E
100
AcDbEntity
  8
0
100
AcDbLine
 10
58.6441
 20
124.7619999999999
 30
0.0
 11
59.3265
 21
124.7619999999999
 31
0.0
  0
LINE
  5
14C
330
1E
100
AcDbEntity
  8
0
100
AcDbLine
 10
58.32650000000001
 20
124.7619999999999
 30
0.0
 11
58.6441
 21
124.7619999999999
 31
0.0
  0
LINE
  5
14D
330
1E
100
AcDbEntity
  8
0
100
AcDbLine
 10
58.32650000000001
 20
124.7619999999999
 30
0.0
 11
58.32650000000001
 21
132.3
 31
0.0
  0
LINE
  5
14E
330
1E
100
AcDbEntity
  8
0
100
AcDbLine
 10
71.303
 20
124.7619999999999
 30
0.0
 11
72.97360000000001
 21
124.7619999999999
 31
0.0
  0
LINE
  5
14F
330
1E
100
AcDbEntity
  8
0
100
AcDbLine
 10
69.37359999999999
 20
124.7619999999999
 30
0.0
 11
71.303
 21
124.7619999999999
 31
0.0
  0
LINE
  5
150
330
1E
100
AcDbEntity
  8
0
100
AcDbLine
 10
72.97360000000001
 20
124.7619999999999
 30
0.0
 11
74.2441
 21
124.7619999999999
 31
0.0
  0
LINE
  5
151
330
1E
100
AcDbEntity
  8
0
100
AcDbLine
 10
74.2441
 20
124.7619999999999
 30
0.0
 11
75.0442
 21
124.7619999999999
 31
0.0
  0
LINE
  5
152
330
1E
100
AcDbEntity
  8
0
100
AcDbLine
 10
75.0442
 20
124.7619999999999
 30
0.0
 11
75.3265
 21
124.7619999999999
 31
0.0
  0
LINE
  5
153
330
1E
100
AcDbEntity
  8
0
100
AcDbLine
 10
71.79999999999999
 20
124.7619999999999
 30
0.0
 11
73.6794
 21
124.7619999999999
 31
0.0
  0
LINE
  5
154
330
1E
100
AcDbEntity
  8
0
100
AcDbLine
 10
69.6294
 20
124.7619999999999
 30
0.0
 11
71.79999999999999
 21
124.7619999999999
 31
0.0
  0
LINE
  5
155
330
1E
100
AcDbEntity
  8
0
100
AcDbLine
 10
67.32649999999999
 20
124.7619999999999
 30
0.0
 11
69.6294
 21
124.7619999999999
 31
0.0
  0
LINE
  5
156
330
1E
100
AcDbEntity
  8
0
100
AcDbLine
 10
67.32649999999999
 20
124.7619999999999
 30
0.0
 11
69.37359999999999
 21
124.7619999999999
 31
0.0
  0
LINE
  5
157
330
1E
100
AcDbEntity
  8
0
100
AcDbLine
 10
73.6794
 20
124.7619999999999
 30
0.0
 11
75.1088
 21
124.7619999999999
 31
0.0
  0
LINE
  5
158
330
1E
100
AcDbEntity
  8
0
100
AcDbLine
 10
75.1088
 20
124.7619999999999
 30
0.0
 11
76.00889999999999
 21
124.7619999999999
 31
0.0
  0
LINE
  5
15F
330
1E
100
AcDbEntity
  8
0
100
AcDbLine
 10
58.4589
 20
132.608
 30
0.0
 11
58.7236
 21
132.762
 31
0.0
  0
LINE
  5
160
330
1E
100
AcDbEntity
  8
0
100
AcDbLine
 10
58.32650000000001
 20
132.3
 30
0.0
 11
58.32650000000001
 21
124.7619999999999
 31
0.0
  0
LINE
  5
161
330
1E
100
AcDbEntity
  8
0
100
AcDbLine
 10
58.32650000000001
 20
132.3
 30
0.0
 11
58.4589
 21
132.608
 31
0.0
  0
LINE
  5
167
330
1E
100
AcDbEntity
  8
0
100
AcDbLine
 10
61.2383
 20
132.762
 30
0.0
 11
63.0383
 21
132.762
 31
0.0
  0
LINE
  5
168
330
1E
100
AcDbEntity
  8
0
100
AcDbLine
 10
63.0383
 20
132.762
 30
0.0
 11
65.103
 21
132.762
 31
0.0
  0
LINE
  5
169
330
1E
100
AcDbEntity
  8
0
100
AcDbLine
 10
65.103
 20
132.762
 30
0.0
 11
67.32649999999999
 21
132.762
 31
0.0
  0
LINE
  5
16A
330
1E
100
AcDbEntity
  8
0
100
AcDbLine
 10
59.8883
 20
132.762
 30
0.0
 11
61.2383
 21
132.762
 31
0.0
  0
LINE
  5
16B
330
1E
100
AcDbEntity
  8
0
100
AcDbLine
 10
59.0412
 20
132.762
 30
0.0
 11
59.8883
 21
132.762
 31
0.0
  0
LINE
  5
16C
330
1E
100
AcDbEntity
  8
0
100
AcDbLine
 10
58.7236
 20
132.762
 30
0.0
 11
59.0412
 21
132.762
 31
0.0
  0
LINE
  5
16D
330
1E
100
AcDbEntity
  8
0
100
AcDbLine
 10
71.6147
 20
132.762
 30
0.0
 11
73.4147
 21
132.762
 31
0.0
  0
LINE
  5
16E
330
1E
100
AcDbEntity
  8
0
100
AcDbLine
 10
69.55
 20
132.762
 30
0.0
 11
71.6147
 21
132.762
 31
0.0
  0
LINE
  5
16F
330
1E
100
AcDbEntity
  8
0
100
AcDbLine
 10
67.32649999999999
 20
132.762
 30
0.0
 11
69.55
 21
132.762
 31
0.0
  0
LINE
  5
170
330
1E
100
AcDbEntity
  8
0
100
AcDbLine
 10
73.4147
 20
132.762
 30
0.0
 11
74.7647
 21
132.762
 31
0.0
  0
LINE
  5
171
330
1E
100
AcDbEntity
  8
0
100
AcDbLine
 10
74.7647
 20
132.762
 30
0.0
 11
75.6118
 21
132.762
 31
0.0
  0
LINE
  5
172
330
1E
100
AcDbEntity
  8
0
100
AcDbLine
 10
75.6118
 20
132.762
 30
0.0
 11
75.9294
 21
132.762
 31
0.0
  0
LINE
  5
174
330
1E
100
AcDbEntity
  8
0
100
AcDbLine
 10
75.9294
 20
132.762
 30
0.0
 11
76.19410000000001
 21
132.608
 31
0.0
  0
LINE
  5
175
330
1E
100
AcDbEntity
  8
0
100
AcDbLine
 10
75.3265
 20
124.7619999999999
 30
0.0
 11
76.00889999999999
 21
124.7619999999999
 31
0.0
  0
LINE
  5
176
330
1E
100
AcDbEntity
  8
0
100
AcDbLine
 10
75.3265
 20
124.7619999999999
 30
0.0
 11
75.3265
 21
114.762
 31
0.0
  0
LINE
  5
177
330
1E
100
AcDbEntity
  8
0
100
AcDbLine
 10
76.32649999999999
 20
124.7619999999999
 30
0.0
 11
76.32649999999999
 21
132.3
 31
0.0
  0
LINE
  5
178
330
1E
100
AcDbEntity
  8
0
100
AcDbLine
 10
76.19410000000001
 20
132.608
 30
0.0
 11
76.32649999999999
 21
132.3
 31
0.0
  0
LINE
  5
179
330
1E
100
AcDbEntity
  8
0
100
AcDbLine
 10
76.32649999999999
 20
132.3
 30
0.0
 11
76.32649999999999
 21
124.7619999999999
 31
0.0
  0
LINE
  5
17A
330
1E
100
AcDbEntity
  8
0
100
AcDbLine
 10
76.00889999999999
 20
124.7619999999999
 30
0.0
 11
76.32649999999999
 21
124.7619999999999
 31
0.0
  0
LINE
  5
17B
330
1E
100
AcDbEntity
  8
0
100
AcDbLine
 10
117.6965
 20
151.7369999999999
 30
0.0
 11
118.3654999999999
 21
150.5379999999999
 31
0.0
  0
LINE
  5
17C
330
1E
100
AcDbEntity
  8
0
100
AcDbLine
 10
116.8095
 20
152.742
 30
0.0
 11
117.6965
 21
151.7369999999999
 31
0.0
  0
LINE
  5
17D
330
1E
100
AcDbEntity
  8
0
100
AcDbLine
 10
118.3654999999999
 20
150.5379999999999
 30
0.0
 11
118.8074999999999
 21
149.1789999999999
 31
0.0
  0
LINE
  5
17E
330
1E
100
AcDbEntity
  8
0
100
AcDbLine
 10
120.5915
 20
130.587
 30
0.0
 11
120.6413221077759
 21
130.591957174543
 31
0.0
  0
LINE
  5
17F
330
1E
100
AcDbEntity
  8
0
100
AcDbLine
 10
146.8495
 20
118.181
 30
0.0
 11
149.5664999999999
 21
118.9729999999999
 31
0.0
  0
LINE
  5
180
330
1E
100
AcDbEntity
  8
0
100
AcDbLine
 10
149.5664999999999
 20
118.9729999999999
 30
0.0
 11
152.2515
 21
119.6949999999999
 31
0.0
  0
LINE
  5
181
330
1E
100
AcDbEntity
  8
0
100
AcDbLine
 10
152.2515
 20
119.6949999999999
 30
0.0
 11
154.7705
 21
120.428
 31
0.0
  0
LINE
  5
182
330
1E
100
AcDbEntity
  8
0
100
AcDbLine
 10
154.7705
 20
120.428
 30
0.0
 11
157.2214999999999
 21
121.117
 31
0.0
  0
LINE
  5
183
330
1E
100
AcDbEntity
  8
0
100
AcDbLine
 10
157.2214999999999
 20
121.117
 30
0.0
 11
159.3015
 21
121.6849999999999
 31
0.0
  0
LINE
  5
184
330
1E
100
AcDbEntity
  8
0
100
AcDbLine
 10
159.3015
 20
121.6849999999999
 30
0.0
 11
161.2475
 21
122.238
 31
0.0
  0
LINE
  5
185
330
1E
100
AcDbEntity
  8
0
100
AcDbLine
 10
161.2475
 20
122.238
 30
0.0
 11
162.8565
 21
122.6829999999999
 31
0.0
  0
LINE
  5
186
330
1E
100
AcDbEntity
  8
0
100
AcDbLine
 10
163.5391386273409
 20
122.870450857418
 30
0.0
 11
164.1915
 21
120.819
 31
0.0
  0
LINE
  5
187
330
1E
100
AcDbEntity
  8
0
100
AcDbLine
 10
162.8565
 20
122.6829999999999
 30
0.0
 11
163.9745
 21
122.9899999999999
 31
0.0
  0
LINE
  5
188
330
1E
100
AcDbEntity
  8
0
100
AcDbLine
 10
163.5391386273409
 20
122.870450857418
 30
0.0
 11
164.1915
 21
120.819
 31
0.0
  0
LINE
  5
189
330
1E
100
AcDbEntity
  8
0
100
AcDbLine
 10
120.2374273743009
 20
134.156659217886
 30
0.0
 11
120.313629263913
 21
133.390791741478
 31
0.0
  0
LINE
  5
18A
330
1E
100
AcDbEntity
  8
0
100
AcDbLine
 10
120.2374273743009
 20
134.156659217886
 30
0.0
 11
120.313629263913
 21
133.390791741478
 31
0.0
  0
LINE
  5
18B
330
1E
100
AcDbEntity
  8
0
100
AcDbLine
 10
120.1964999999999
 20
134.5679999999999
 30
0.0
 11
120.2045
 21
134.496
 31
0.0
  0
LINE
  5
18C
330
1E
100
AcDbEntity
  8
0
100
AcDbLine
 10
120.1964999999999
 20
134.5679999999999
 30
0.0
 11
120.219490990991
 21
134.336928928929
 31
0.0
  0
LINE
  5
18D
330
1E
100
AcDbEntity
  8
0
100
AcDbLine
 10
120.1964999999999
 20
134.5679999999999
 30
0.0
 11
120.248532544415
 21
134.573148373305
 31
0.0
  0
LINE
  5
18E
330
1E
100
AcDbEntity
  8
0
100
AcDbLine
 10
120.2045
 20
134.496
 30
0.0
 11
120.2225
 21
134.305
 31
0.0
  0
LINE
  5
18F
330
1E
100
AcDbEntity
  8
0
100
AcDbLine
 10
120.2225
 20
134.305
 30
0.0
 11
120.2544999999999
 21
133.9869999999999
 31
0.0
  0
LINE
  5
190
330
1E
100
AcDbEntity
  8
0
100
AcDbLine
 10
120.2225
 20
134.305
 30
0.0
 11
120.319753104106
 21
133.328510983769
 31
0.0
  0
LINE
  5
191
330
1E
100
AcDbEntity
  8
0
100
AcDbLine
 10
120.2544999999999
 20
133.9869999999999
 30
0.0
 11
120.2965
 21
133.565
 31
0.0
  0
LINE
  5
192
330
1E
100
AcDbEntity
  8
0
100
AcDbLine
 10
120.2965
 20
133.565
 30
0.0
 11
120.3435
 21
133.087
 31
0.0
  0
LINE
  5
193
330
1E
100
AcDbEntity
  8
0
100
AcDbLine
 10
120.5845
 20
130.6589999999999
 30
0.0
 11
120.5915
 21
130.587
 31
0.0
  0
LINE
  5
194
330
1E
100
AcDbEntity
  8
0
100
AcDbLine
 10
120.5654999999999
 20
130.8499999999999
 30
0.0
 11
120.5845
 21
130.6589999999999
 31
0.0
  0
LINE
  5
195
330
1E
100
AcDbEntity
  8
0
100
AcDbLine
 10
120.5335
 20
131.1689999999999
 30
0.0
 11
120.5654999999999
 21
130.8499999999999
 31
0.0
  0
LINE
  5
196
330
1E
100
AcDbEntity
  8
0
100
AcDbLine
 10
120.4914999999999
 20
131.59
 30
0.0
 11
120.5335
 21
131.1689999999999
 31
0.0
  0
LINE
  5
197
330
1E
100
AcDbEntity
  8
0
100
AcDbLine
 10
120.4444999999999
 20
132.0679999999999
 30
0.0
 11
120.4914999999999
 21
131.59
 31
0.0
  0
LINE
  5
199
330
1E
100
AcDbEntity
  8
0
100
AcDbLine
 10
120.3945
 20
132.5779999999999
 30
0.0
 11
120.4444999999999
 21
132.0679999999999
 31
0.0
  0
LINE
  5
19A
330
1E
100
AcDbEntity
  8
0
100
AcDbLine
 10
120.3435
 20
133.087
 30
0.0
 11
120.3945
 21
132.5779999999999
 31
0.0
  0
LINE
  5
19B
330
1E
100
AcDbEntity
  8
0
100
AcDbLine
 10
120.6413221077759
 20
130.591957174543
 30
0.0
 11
121.9544999999999
 21
117.282
 31
0.0
  0
LINE
  5
19C
330
1E
100
AcDbEntity
  8
0
100
AcDbLine
 10
118.8074999999999
 20
149.1789999999999
 30
0.0
 11
120.2487181727809
 21
134.571266902702
 31
0.0
  0
LINE
  5
19D
330
1E
100
AcDbEntity
  8
0
100
AcDbLine
 10
122.2185
 20
117.282
 30
0.0
 11
122.6685
 21
117.282
 31
0.0
  0
LINE
  5
19E
330
1E
100
AcDbEntity
  8
0
100
AcDbLine
 10
122.2185
 20
117.282
 30
0.0
 11
122.7465
 21
117.282
 31
0.0
  0
LINE
  5
19F
330
1E
100
AcDbEntity
  8
0
100
AcDbLine
 10
163.9745
 20
122.9899999999999
 30
0.0
 11
164.9205
 21
123.272
 31
0.0
  0
LINE
  5
1A1
330
1E
100
AcDbEntity
  8
0
100
AcDbLine
 10
164.1915
 20
120.819
 30
0.0
 11
164.6684999999999
 21
117.819
 31
0.0
  0
LINE
  5
1A2
330
1E
100
AcDbEntity
  8
0
100
AcDbLine
 10
163.6965
 20
152.804
 30
0.0
 11
164.3565
 21
152.6289999999999
 31
0.0
  0
LINE
  5
1A8
330
1E
100
AcDbEntity
  8
0
100
AcDbLine
 10
79.7972
 20
163.548
 30
0.0
 11
86.10049999999999
 21
161.888
 31
0.0
  0
LINE
  5
1A9
330
1E
100
AcDbEntity
  8
0
100
AcDbLine
 10
74.1596
 20
165.244
 30
0.0
 11
79.7972
 21
163.548
 31
0.0
  0
LINE
  5
1B1
330
1E
100
AcDbEntity
  8
0
100
AcDbLine
 10
71.40640000000001
 20
166.4509999999999
 30
0.0
 11
74.1596
 21
165.244
 31
0.0
  0
LINE
  5
1B2
330
1E
100
AcDbEntity
  8
0
100
AcDbLine
 10
70.04559999999999
 20
167.4329999999999
 30
0.0
 11
71.40640000000001
 21
166.4509999999999
 31
0.0
  0
LINE
  5
1BB
330
1E
100
AcDbEntity
  8
0
100
AcDbLine
 10
69.64809999999999
 20
168.424
 30
0.0
 11
69.8696
 21
169.1559999999999
 31
0.0
  0
LINE
  5
1BC
330
1E
100
AcDbEntity
  8
0
100
AcDbLine
 10
69.64809999999999
 20
168.424
 30
0.0
 11
70.04559999999999
 21
167.4329999999999
 31
0.0
  0
LINE
  5
1C4
330
1E
100
AcDbEntity
  8
0
100
AcDbLine
 10
115.8565
 20
153.559
 30
0.0
 11
116.8095
 21
152.742
 31
0.0
  0
LINE
  5
1C5
330
1E
100
AcDbEntity
  8
0
100
AcDbLine
 10
114.7245
 20
154.307
 30
0.0
 11
115.8565
 21
153.559
 31
0.0
  0
LINE
  5
1CC
330
1E
100
AcDbEntity
  8
0
100
AcDbLine
 10
113.2284999999999
 20
155.1529999999999
 30
0.0
 11
114.7245
 21
154.307
 31
0.0
  0
LINE
  5
1CD
330
1E
100
AcDbEntity
  8
0
100
AcDbLine
 10
111.4454999999999
 20
155.8149999999999
 30
0.0
 11
113.2284999999999
 21
155.1529999999999
 31
0.0
  0
LINE
  5
1DF
330
1E
100
AcDbEntity
  8
0
100
AcDbLine
 10
109.0725
 20
156.442
 30
0.0
 11
111.4454999999999
 21
155.8149999999999
 31
0.0
  0
LINE
  5
1E0
330
1E
100
AcDbEntity
  8
0
100
AcDbLine
 10
106.7585
 20
157.0029999999999
 30
0.0
 11
109.0725
 21
156.442
 31
0.0
  0
LINE
  5
1E4
330
1E
100
AcDbEntity
  8
0
100
AcDbLine
 10
86.10049999999999
 20
161.888
 30
0.0
 11
106.7585
 21
157.0029999999999
 31
0.0
  0
LINE
  5
1E6
330
1E
100
AcDbEntity
  8
0
100
AcDbLine
 10
70.18019999999999
 20
169.2379999999999
 30
0.0
 11
70.8604
 21
169.1759999999999
 31
0.0
  0
LINE
  5
1E7
330
1E
100
AcDbEntity
  8
0
100
AcDbLine
 10
69.8696
 20
169.1559999999999
 30
0.0
 11
70.18019999999999
 21
169.2379999999999
 31
0.0
  0
LINE
  5
1EC
330
1E
100
AcDbEntity
  8
0
100
AcDbLine
 10
163.5045
 20
152.838
 30
0.0
 11
163.6965
 21
152.804
 31
0.0
  0
LINE
  5
1ED
330
1E
100
AcDbEntity
  8
0
100
AcDbLine
 10
164.6684999999999
 20
117.819
 30
0.0
 11
164.6684999999999
 21
115.8479999999999
 31
0.0
  0
LINE
  5
1EE
330
1E
100
AcDbEntity
  8
0
100
AcDbLine
 10
164.9205
 20
123.272
 30
0.0
 11
165.4725
 21
123.436
 31
0.0
  0
LINE
  5
1EF
330
1E
100
AcDbEntity
  8
0
100
AcDbLine
 10
165.4725
 20
123.436
 30
0.0
 11
165.7084999999999
 21
123.507
 31
0.0
  0
LINE
  5
1F1
330
1E
100
AcDbEntity
  8
0
100
AcDbLine
 10
164.6204999999999
 20
152.4459999999999
 30
0.0
 11
165.7084999999999
 21
123.507
 31
0.0
  0
LINE
  5
1F2
330
1E
100
AcDbEntity
  8
0
100
AcDbLine
 10
164.3565
 20
152.6289999999999
 30
0.0
 11
164.6204999999999
 21
152.4459999999999
 31
0.0
  0
LINE
  5
1F3
330
1E
100
AcDbEntity
  8
0
100
AcDbLine
 10
164.9815
 20
115.8479999999999
 30
0.0
 11
165.6814999999999
 21
115.5479999999999
 31
0.0
  0
LINE
  5
1F4
330
1E
100
AcDbEntity
  8
0
100
AcDbLine
 10
166.0614999999999
 20
-0.238000000000015
 30
0.0
 11
167.1175
 21
-0.238000000000015
 31
0.0
  0
LINE
  5
1F5
330
1E
100
AcDbEntity
  8
0
100
AcDbLine
 10
167.6935
 20
-0.238000000000015
 30
0.0
 11
167.9815
 21
-0.238000000000015
 31
0.0
  0
LINE
  5
1F6
330
1E
100
AcDbEntity
  8
0
100
AcDbLine
 10
167.1175
 20
-0.238000000000015
 30
0.0
 11
167.6935
 21
-0.238000000000015
 31
0.0
  0
LINE
  5
1F7
330
1E
100
AcDbEntity
  8
0
100
AcDbLine
 10
165.9815
 20
114.8479999999999
 30
0.0
 11
167.9815
 21
-0.238000000000022
 31
0.0
  0
LINE
  5
1F8
330
1E
100
AcDbEntity
  8
0
100
AcDbLine
 10
165.9815
 20
114.8479999999999
 30
0.0
 11
167.9815
 21
-0.238000000000015
 31
0.0
  0
LINE
  5
1F9
330
1E
100
AcDbEntity
  8
0
100
AcDbLine
 10
165.6814999999999
 20
115.5479999999999
 30
0.0
 11
165.9815
 21
114.8479999999999
 31
0.0
  0
LINE
  5
1FE
330
1E
100
AcDbEntity
  8
0
100
AcDbLine
 10
163.5045
 20
152.838
 30
0.0
 11
70.8604
 21
169.1759999999999
 31
0.0
  0
LINE
  5
1FF
330
1E
100
AcDbEntity
  8
0
100
AcDbLine
 10
27.6581433323435
 20
82.00263042121909
 30
0.0
 11
21.12038798106698
 21
84.17244825725418
 31
0.0
  0
LINE
  5
200
330
1E
100
AcDbEntity
  8
0
100
AcDbLine
 10
21.12038798106698
 20
84.17244825725418
 30
0.0
 11
12.27085799046597
 21
88.07006450581615
 31
0.0
  0
LINE
  5
201
330
1E
100
AcDbEntity
  8
0
100
AcDbLine
 10
12.27085799046597
 20
88.07006450581615
 30
0.0
 11
3.44951965741109
 21
92.7587190689451
 31
0.0
  0
LINE
  5
202
330
1E
100
AcDbEntity
  8
0
100
AcDbLine
 10
54.3265
 20
80.19730180620699
 30
0.0
 11
80.3265
 21
79.18438892326109
 31
0.0
  0
ENDSEC
  0
SECTION
  2
OBJECTS
  0
DICTIONARY
  5
C
330
0
100
AcDbDictionary
  3
ACAD_GROUP
350
D
  3
ACAD_LAYOUT
350
19
  3
ACAD_MLINESTYLE
350
16
  3
ACAD_PLOTSETTINGS
350
18
  3
ACAD_PLOTSTYLENAME
350
E
  3
ACDBHEADERROUNDTRIPXREC
350
207
  3
ACDBVARIABLEDICTIONARY
350
204
  0
DICTIONARY
  5
229
330
1E
100
AcDbDictionary
280
     1
  3
ACAD_LAYOUTSELFREF
360
22A
  0
DICTIONARY
  5
227
330
1A
100
AcDbDictionary
280
     1
  3
ACAD_LAYOUTSELFREF
360
228
  0
DICTIONARY
  5
D
102
{ACAD_REACTORS
330
C
102
}
330
C
100
AcDbDictionary
  0
DICTIONARY
  5
19
102
{ACAD_REACTORS
330
C
102
}
330
C
100
AcDbDictionary
  0
DICTIONARY
  5
16
102
{ACAD_REACTORS
330
C
102
}
330
C
100
AcDbDictionary
  3
STANDARD
350
17
  0
DICTIONARY
  5
18
102
{ACAD_REACTORS
330
C
102
}
330
C
100
AcDbDictionary
  0
ACDBDICTIONARYWDFLT
  5
E
102
{ACAD_REACTORS
330
C
102
}
330
C
100
AcDbDictionary
281
     1
  3
Normal
350
F
100
AcDbDictionaryWithDefault
340
F
  0
DICTIONARY
  5
207
102
{ACAD_REACTORS
330
C
102
}
330
C
100
AcDbDictionary
  3
CEPSNTYPE
350
211
  3
FINGERPRINTGUID
350
212
  3
HYPERLINKBASE
350
20A
  3
INSUNITS
350
210
  3
LAYOUTDICT
350
20C
  3
LWETCUNION
350
20F
  3
PLOTSETDICT
350
20D
  3
PLOTSTYLNAMDICT
350
20E
  3
PSVPSCALE
350
214
  3
PUCSBASE
350
217
  3
PUCSORGBACK
350
21D
  3
PUCSORGBOTTOM
350
219
  3
PUCSORGFRONT
350
21C
  3
PUCSORGLEFT
350
21A
  3
PUCSORGRIGHT
350
21B
  3
PUCSORGTOP
350
218
  3
PUCSORTHOREF
350
215
  3
PUCSORTHOVIEW
350
216
  3
STYLESHEET
350
20B
  3
TSTACKALIGN
350
208
  3
TSTACKSIZE
350
209
  3
UCSBASE
350
220
  3
UCSORGBACK
350
226
  3
UCSORGBOTTOM
350
222
  3
UCSORGFRONT
350
225
  3
UCSORGLEFT
350
223
  3
UCSORGRIGHT
350
224
  3
UCSORGTOP
350
221
  3
UCSORTHOREF
350
21E
  3
UCSORTHOVIEW
350
21F
  3
VERSIONGUID
350
213
  0
DICTIONARY
  5
204
102
{ACAD_REACTORS
330
C
102
}
330
C
100
AcDbDictionary
  3
DIMASSOC
350
205
  0
XRECORD
  5
22A
102
{ACAD_REACTORS
330
229
102
}
330
229
100
AcDbXrecord
340
1E
  0
XRECORD
  5
228
102
{ACAD_REACTORS
330
227
102
}
330
227
100
AcDbXrecord
340
1A
  0
MLINESTYLE
  5
17
102
{ACAD_REACTORS
330
16
102
}
330
16
100
AcDbMlineStyle
  2
STANDARD
 70
     0
  3

 62
   256
 51
90.0
 52
90.0
 71
     2
 49
0.5
 62
   256
  6
BYLAYER
 49
-0.5
 62
   256
  6
BYLAYER
  0
ACDBPLACEHOLDER
  5
F
102
{ACAD_REACTORS
330
E
102
}
330
E
100
AcDbPlaceHolder
280
     0
  0
XRECORD
  5
211
102
{ACAD_REACTORS
330
207
102
}
330
207
100
AcDbXrecord
 90
        0
  0
XRECORD
  5
212
102
{ACAD_REACTORS
330
207
102
}
330
207
100
AcDbXrecord
  1
{7E8337D4-CAEC-449B-8D76-24CB98F2927E}
  0
XRECORD
  5
20A
102
{ACAD_REACTORS
330
207
102
}
330
207
100
AcDbXrecord
  1

  0
XRECORD
  5
210
102
{ACAD_REACTORS
330
207
102
}
330
207
100
AcDbXrecord
 90
        0
  0
XRECORD
  5
20C
102
{ACAD_REACTORS
330
207
102
}
330
207
100
AcDbXrecord
340
19
  0
XRECORD
  5
20F
102
{ACAD_REACTORS
330
207
102
}
330
207
100
AcDbXrecord
 90
    10781
  0
XRECORD
  5
20D
102
{ACAD_REACTORS
330
207
102
}
330
207
100
AcDbXrecord
340
18
  0
XRECORD
  5
20E
102
{ACAD_REACTORS
330
207
102
}
330
207
100
AcDbXrecord
340
E
  0
XRECORD
  5
214
102
{ACAD_REACTORS
330
207
102
}
330
207
100
AcDbXrecord
 40
0.0
  0
XRECORD
  5
217
102
{ACAD_REACTORS
330
207
102
}
330
207
100
AcDbXrecord
340
0
  0
XRECORD
  5
21D
102
{ACAD_REACTORS
330
207
102
}
330
207
100
AcDbXrecord
 10
0.0
 20
0.0
 30
0.0
  0
XRECORD
  5
219
102
{ACAD_REACTORS
330
207
102
}
330
207
100
AcDbXrecord
 10
0.0
 20
0.0
 30
0.0
  0
XRECORD
  5
21C
102
{ACAD_REACTORS
330
207
102
}
330
207
100
AcDbXrecord
 10
0.0
 20
0.0
 30
0.0
  0
XRECORD
  5
21A
102
{ACAD_REACTORS
330
207
102
}
330
207
100
AcDbXrecord
 10
0.0
 20
0.0
 30
0.0
  0
XRECORD
  5
21B
102
{ACAD_REACTORS
330
207
102
}
330
207
100
AcDbXrecord
 10
0.0
 20
0.0
 30
0.0
  0
XRECORD
  5
218
102
{ACAD_REACTORS
330
207
102
}
330
207
100
AcDbXrecord
 10
0.0
 20
0.0
 30
0.0
  0
XRECORD
  5
215
102
{ACAD_REACTORS
330
207
102
}
330
207
100
AcDbXrecord
340
0
  0
XRECORD
  5
216
102
{ACAD_REACTORS
330
207
102
}
330
207
100
AcDbXrecord
 70
     0
  0
XRECORD
  5
20B
102
{ACAD_REACTORS
330
207
102
}
330
207
100
AcDbXrecord
  1

  0
XRECORD
  5
208
102
{ACAD_REACTORS
330
207
102
}
330
207
100
AcDbXrecord
 90
        1
  0
XRECORD
  5
209
102
{ACAD_REACTORS
330
207
102
}
330
207
100
AcDbXrecord
 90
       70
  0
XRECORD
  5
220
102
{ACAD_REACTORS
330
207
102
}
330
207
100
AcDbXrecord
340
0
  0
XRECORD
  5
226
102
{ACAD_REACTORS
330
207
102
}
330
207
100
AcDbXrecord
 10
0.0
 20
0.0
 30
0.0
  0
XRECORD
  5
222
102
{ACAD_REACTORS
330
207
102
}
330
207
100
AcDbXrecord
 10
0.0
 20
0.0
 30
0.0
  0
XRECORD
  5
225
102
{ACAD_REACTORS
330
207
102
}
330
207
100
AcDbXrecord
 10
0.0
 20
0.0
 30
0.0
  0
XRECORD
  5
223
102
{ACAD_REACTORS
330
207
102
}
330
207
100
AcDbXrecord
 10
0.0
 20
0.0
 30
0.0
  0
XRECORD
  5
224
102
{ACAD_REACTORS
330
207
102
}
330
207
100
AcDbXrecord
 10
0.0
 20
0.0
 30
0.0
  0
XRECORD
  5
221
102
{ACAD_REACTORS
330
207
102
}
330
207
100
AcDbXrecord
 10
0.0
 20
0.0
 30
0.0
  0
XRECORD
  5
21E
102
{ACAD_REACTORS
330
207
102
}
330
207
100
AcDbXrecord
340
0
  0
XRECORD
  5
21F
102
{ACAD_REACTORS
330
207
102
}
330
207
100
AcDbXrecord
 70
     1
  0
XRECORD
  5
213
102
{ACAD_REACTORS
330
207
102
}
330
207
100
AcDbXrecord
  1
{CF99FEBB-C1C6-4DE3-BA73-A90AD84B7A0A}
  0
DICTIONARYVAR
  5
205
102
{ACAD_REACTORS
330
204
102
}
330
204
100
DictionaryVariables
280
     0
  1
1
  0
ENDSEC
  0
EOF
