  0
SECTION
  2
HEADER
  9
$ACADVER
  1
AC1014
  9
$ACADMAINTVER
 70
     9
  9
$DWGCODEPAGE
  3
ANSI_1252
  9
$INSBASE
 10
0.0
 20
0.0
 30
0.0
  9
$EXTMIN
 10
-0.0000000000000058
 20
0.17399999999998
 30
0.0
  9
$EXTMAX
 10
52.0
 20
242.8259999999999
 30
0.0
  9
$LIMMIN
 10
0.0
 20
0.0
  9
$LIMMAX
 10
12.0
 20
9.0
  9
$ORTHOMODE
 70
     0
  9
$REGENMODE
 70
     1
  9
$FILLMODE
 70
     1
  9
$QTEXTMODE
 70
     0
  9
$MIRRTEXT
 70
     1
  9
$DRAGMODE
 70
     2
  9
$LTSCALE
 40
1.0
  9
$OSMODE
 70
    37
  9
$ATTMODE
 70
     1
  9
$TEXTSIZE
 40
0.2
  9
$TRACEWID
 40
0.05
  9
$TEXTSTYLE
  7
STANDARD
  9
$CLAYER
  8
0
  9
$CELTYPE
  6
CONTINUOUS
  9
$CECOLOR
 62
   256
  9
$CELTSCALE
 40
1.0
  9
$DELOBJ
 70
     1
  9
$DISPSILH
 70
     0
  9
$DIMSCALE
 40
1.0
  9
$DIMASZ
 40
0.18
  9
$DIMEXO
 40
0.0625
  9
$DIMDLI
 40
0.38
  9
$DIMRND
 40
0.0
  9
$DIMDLE
 40
0.0
  9
$DIMEXE
 40
0.18
  9
$DIMTP
 40
0.0
  9
$DIMTM
 40
0.0
  9
$DIMTXT
 40
0.18
  9
$DIMCEN
 40
0.09
  9
$DIMTSZ
 40
0.0
  9
$DIMTOL
 70
     0
  9
$DIMLIM
 70
     0
  9
$DIMTIH
 70
     1
  9
$DIMTOH
 70
     1
  9
$DIMSE1
 70
     0
  9
$DIMSE2
 70
     0
  9
$DIMTAD
 70
     0
  9
$DIMZIN
 70
     0
  9
$DIMBLK
  1

  9
$DIMASO
 70
     1
  9
$DIMSHO
 70
     1
  9
$DIMPOST
  1

  9
$DIMAPOST
  1

  9
$DIMALT
 70
     0
  9
$DIMALTD
 70
     2
  9
$DIMALTF
 40
25.4
  9
$DIMLFAC
 40
1.0
  9
$DIMTOFL
 70
     0
  9
$DIMTVP
 40
0.0
  9
$DIMTIX
 70
     0
  9
$DIMSOXD
 70
     0
  9
$DIMSAH
 70
     0
  9
$DIMBLK1
  1

  9
$DIMBLK2
  1

  9
$DIMSTYLE
  2
STANDARD
  9
$DIMCLRD
 70
     0
  9
$DIMCLRE
 70
     0
  9
$DIMCLRT
 70
     0
  9
$DIMTFAC
 40
1.0
  9
$DIMGAP
 40
0.09
  9
$DIMJUST
 70
     0
  9
$DIMSD1
 70
     0
  9
$DIMSD2
 70
     0
  9
$DIMTOLJ
 70
     1
  9
$DIMTZIN
 70
     0
  9
$DIMALTZ
 70
     0
  9
$DIMALTTZ
 70
     0
  9
$DIMFIT
 70
     3
  9
$DIMUPT
 70
     0
  9
$DIMUNIT
 70
     2
  9
$DIMDEC
 70
     4
  9
$DIMTDEC
 70
     4
  9
$DIMALTU
 70
     2
  9
$DIMALTTD
 70
     2
  9
$DIMTXSTY
  7
STANDARD
  9
$DIMAUNIT
 70
     0
  9
$LUNITS
 70
     2
  9
$LUPREC
 70
     4
  9
$SKETCHINC
 40
0.1
  9
$FILLETRAD
 40
0.0
  9
$AUNITS
 70
     0
  9
$AUPREC
 70
     0
  9
$MENU
  1
.
  9
$ELEVATION
 40
0.0
  9
$PELEVATION
 40
0.0
  9
$THICKNESS
 40
0.0
  9
$LIMCHECK
 70
     0
  9
$BLIPMODE
 70
     0
  9
$CHAMFERA
 40
0.0
  9
$CHAMFERB
 40
0.0
  9
$CHAMFERC
 40
0.0
  9
$CHAMFERD
 40
0.0
  9
$SKPOLY
 70
     0
  9
$TDCREATE
 40
2455236.852832384
  9
$TDUPDATE
 40
2455236.854376076
  9
$TDINDWG
 40
0.0015438773
  9
$TDUSRTIMER
 40
0.0015438773
  9
$USRTIMER
 70
     1
  9
$ANGBASE
 50
0.0
  9
$ANGDIR
 70
     0
  9
$PDMODE
 70
     0
  9
$PDSIZE
 40
0.0
  9
$PLINEWID
 40
0.0
  9
$COORDS
 70
     1
  9
$SPLFRAME
 70
     0
  9
$SPLINETYPE
 70
     6
  9
$SPLINESEGS
 70
     8
  9
$ATTDIA
 70
     0
  9
$ATTREQ
 70
     1
  9
$HANDLING
 70
 22529
  9
$HANDSEED
  5
35D
  9
$SURFTAB1
 70
     6
  9
$SURFTAB2
 70
     6
  9
$SURFTYPE
 70
     6
  9
$SURFU
 70
     6
  9
$SURFV
 70
     6
  9
$UCSNAME
  2

  9
$UCSORG
 10
0.0
 20
0.0
 30
0.0
  9
$UCSXDIR
 10
1.0
 20
0.0
 30
0.0
  9
$UCSYDIR
 10
0.0
 20
1.0
 30
0.0
  9
$PUCSNAME
  2

  9
$PUCSORG
 10
0.0
 20
0.0
 30
0.0
  9
$PUCSXDIR
 10
1.0
 20
0.0
 30
0.0
  9
$PUCSYDIR
 10
0.0
 20
1.0
 30
0.0
  9
$USERI1
 70
     0
  9
$USERI2
 70
     0
  9
$USERI3
 70
     0
  9
$USERI4
 70
     0
  9
$USERI5
 70
     0
  9
$USERR1
 40
0.0
  9
$USERR2
 40
0.0
  9
$USERR3
 40
0.0
  9
$USERR4
 40
0.0
  9
$USERR5
 40
0.0
  9
$WORLDVIEW
 70
     1
  9
$SHADEDGE
 70
     3
  9
$SHADEDIF
 70
    70
  9
$TILEMODE
 70
     1
  9
$MAXACTVP
 70
    64
  9
$PINSBASE
 10
0.0
 20
0.0
 30
0.0
  9
$PLIMCHECK
 70
     0
  9
$PEXTMIN
 10
1.000000000000000E+20
 20
1.000000000000000E+20
 30
1.000000000000000E+20
  9
$PEXTMAX
 10
-1.000000000000000E+20
 20
-1.000000000000000E+20
 30
-1.000000000000000E+20
  9
$PLIMMIN
 10
0.0
 20
0.0
  9
$PLIMMAX
 10
12.0
 20
9.0
  9
$UNITMODE
 70
     0
  9
$VISRETAIN
 70
     1
  9
$PLINEGEN
 70
     0
  9
$PSLTSCALE
 70
     1
  9
$TREEDEPTH
 70
  3020
  9
$PICKSTYLE
 70
     1
  9
$CMLSTYLE
  2
STANDARD
  9
$CMLJUST
 70
     0
  9
$CMLSCALE
 40
1.0
  9
$PROXYGRAPHICS
 70
     1
  9
$MEASUREMENT
 70
     0
  0
ENDSEC
  0
SECTION
  2
CLASSES
  0
CLASS
  1
ACDBDICTIONARYWDFLT
  2
AcDbDictionaryWithDefault
  3
AutoCAD 2000
 90
        0
280
     0
281
     0
  0
CLASS
  1
ACDBPLACEHOLDER
  2
AcDbPlaceHolder
  3
AutoCAD 2000
 90
        0
280
     0
281
     0
  0
CLASS
  1
LAYOUT
  2
AcDbLayout
  3
AutoCAD 2000
 90
        0
280
     0
281
     0
  0
CLASS
  1
DICTIONARYVAR
  2
AcDbDictionaryVar
  3
AutoCAD 2000
 90
        0
280
     0
281
     0
  0
CLASS
  1
LONG_TRANSACTION
  2
AcDbLongTransaction
  3
AutoCAD 2000
 90
        0
280
     0
281
     0
  0
CLASS
  1
LWPOLYLINE
  2
AcDbPolyline
  3
AutoCAD 2000
 90
        0
280
     0
281
     1
  0
CLASS
  1
HATCH
  2
AcDbHatch
  3
AutoCAD 2000
 90
        0
280
     0
281
     1
  0
CLASS
  1
XRECORD
  2
AcDbXrecord
  3
AutoCAD 2000
 90
        0
280
     0
281
     0
  0
ENDSEC
  0
SECTION
  2
TABLES
  0
TABLE
  2
VPORT
  5
8
330
0
100
AcDbSymbolTable
 70
     3
  0
VPORT
  5
338
330
8
100
AcDbSymbolTableRecord
100
AcDbViewportTableRecord
  2
*ACTIVE
 70
     0
 10
0.0
 20
0.0
 11
1.0
 21
1.0
 12
25.99999999999999
 22
121.4999999999999
 13
0.0
 23
0.0
 14
1.0
 24
1.0
 15
0.0
 25
0.0
 16
0.0
 26
0.0
 36
1.0
 17
0.0
 27
0.0
 37
0.0
 40
244.2449015317286
 41
2.041621029572836
 42
50.0
 43
0.0
 44
0.0
 50
0.0
 51
0.0
 71
     0
 72
   100
 73
     1
 74
     3
 75
     0
 76
     0
 77
     0
 78
     0
  0
ENDTAB
  0
TABLE
  2
LTYPE
  5
5
330
0
100
AcDbSymbolTable
 70
     1
  0
LTYPE
  5
13
330
5
100
AcDbSymbolTableRecord
100
AcDbLinetypeTableRecord
  2
BYBLOCK
 70
     0
  3

 72
    65
 73
     0
 40
0.0
  0
LTYPE
  5
14
330
5
100
AcDbSymbolTableRecord
100
AcDbLinetypeTableRecord
  2
BYLAYER
 70
     0
  3

 72
    65
 73
     0
 40
0.0
  0
LTYPE
  5
15
330
5
100
AcDbSymbolTableRecord
100
AcDbLinetypeTableRecord
  2
CONTINUOUS
 70
     0
  3
Solid line
 72
    65
 73
     0
 40
0.0
  0
ENDTAB
  0
TABLE
  2
LAYER
  5
2
330
0
100
AcDbSymbolTable
 70
     1
  0
LAYER
  5
10
330
2
100
AcDbSymbolTableRecord
100
AcDbLayerTableRecord
  2
0
 70
     0
 62
     7
  6
CONTINUOUS
  0
ENDTAB
  0
TABLE
  2
STYLE
  5
3
330
0
100
AcDbSymbolTable
 70
     1
  0
STYLE
  5
11
330
3
100
AcDbSymbolTableRecord
100
AcDbTextStyleTableRecord
  2
STANDARD
 70
     0
 40
0.0
 41
1.0
 50
0.0
 71
     0
 42
0.2
  3
txt
  4

  0
ENDTAB
  0
TABLE
  2
VIEW
  5
6
330
0
100
AcDbSymbolTable
 70
     0
  0
ENDTAB
  0
TABLE
  2
UCS
  5
7
330
0
100
AcDbSymbolTable
 70
     0
  0
ENDTAB
  0
TABLE
  2
APPID
  5
9
330
0
100
AcDbSymbolTable
 70
     1
  0
APPID
  5
12
330
9
100
AcDbSymbolTableRecord
100
AcDbRegAppTableRecord
  2
ACAD
 70
     0
  0
ENDTAB
  0
TABLE
  2
DIMSTYLE
  5
A
330
0
100
AcDbSymbolTable
 70
     1
  0
DIMSTYLE
105
330
330
A
100
AcDbSymbolTableRecord
100
AcDbDimStyleTableRecord
  2
STANDARD
 70
     0
  3

  4

  5

  6

  7

 40
1.0
 41
0.18
 42
0.0625
 43
0.38
 44
0.18
 45
0.0
 46
0.0
 47
0.0
 48
0.0
140
0.18
141
0.09
142
0.0
143
25.4
144
1.0
145
0.0
146
1.0
147
0.09
 71
     0
 72
     0
 73
     1
 74
     1
 75
     0
 76
     0
 77
     0
 78
     0
170
     0
171
     2
172
     0
173
     0
174
     0
175
     0
176
     0
177
     0
178
     0
270
     2
271
     4
272
     4
273
     2
274
     2
340
11
275
     0
280
     0
281
     0
282
     0
283
     1
284
     0
285
     0
286
     0
287
     3
288
     0
  0
ENDTAB
  0
TABLE
  2
BLOCK_RECORD
  5
1
330
0
100
AcDbSymbolTable
 70
     0
  0
BLOCK_RECORD
  5
1E
102
{ACAD_XDICTIONARY
360
35B
102
}
330
1
100
AcDbSymbolTableRecord
100
AcDbBlockTableRecord
  2
*MODEL_SPACE
  0
BLOCK_RECORD
  5
1A
102
{ACAD_XDICTIONARY
360
359
102
}
330
1
100
AcDbSymbolTableRecord
100
AcDbBlockTableRecord
  2
*PAPER_SPACE
  0
ENDTAB
  0
ENDSEC
  0
SECTION
  2
BLOCKS
  0
BLOCK
  5
1F
330
1E
100
AcDbEntity
  8
0
100
AcDbBlockBegin
  2
*MODEL_SPACE
 70
     0
 10
0.0
 20
0.0
 30
0.0
  3
*MODEL_SPACE
  1

  0
ENDBLK
  5
20
330
1E
100
AcDbEntity
  8
0
100
AcDbBlockEnd
  0
BLOCK
  5
1B
330
1A
100
AcDbEntity
 67
     1
  8
0
100
AcDbBlockBegin
  2
*PAPER_SPACE
 70
     0
 10
0.0
 20
0.0
 30
0.0
  3
*PAPER_SPACE
  1

  0
ENDBLK
  5
1C
330
1A
100
AcDbEntity
 67
     1
  8
0
100
AcDbBlockEnd
  0
ENDSEC
  0
SECTION
  2
ENTITIES
  0
LINE
  5
22
330
1E
100
AcDbEntity
  8
0
100
AcDbLine
 10
0.9999999999999939
 20
199.8259999999999
 30
0.0
 11
0.9999999999999939
 21
201.826
 31
0.0
  0
LINE
  5
23
330
1E
100
AcDbEntity
  8
0
100
AcDbLine
 10
0.9999999999999939
 20
199.8259999999999
 30
0.0
 11
1.899999999999989
 21
199.8259999999999
 31
0.0
  0
LINE
  5
24
330
1E
100
AcDbEntity
  8
0
100
AcDbLine
 10
0.9359999999999949
 20
211.8259999999999
 30
0.0
 11
3.431999999999999
 21
211.8259999999999
 31
0.0
  0
LINE
  5
25
330
1E
100
AcDbEntity
  8
0
100
AcDbLine
 10
-0.0000000000000058
 20
211.8259999999999
 30
0.0
 11
-0.0000000000000058
 21
210.826
 31
0.0
  0
LINE
  5
26
330
1E
100
AcDbEntity
  8
0
100
AcDbLine
 10
-0.0000000000000058
 20
211.8259999999999
 30
0.0
 11
0.9359999999999949
 21
211.8259999999999
 31
0.0
  0
LINE
  5
27
330
1E
100
AcDbEntity
  8
0
100
AcDbLine
 10
-0.0000000000000058
 20
210.826
 30
0.0
 11
0.9359999999999949
 21
210.826
 31
0.0
  0
LINE
  5
28
330
1E
100
AcDbEntity
  8
0
100
AcDbLine
 10
-0.0000000000000058
 20
210.826
 30
0.0
 11
-0.0000000000000058
 21
211.8259999999999
 31
0.0
  0
LINE
  5
29
330
1E
100
AcDbEntity
  8
0
100
AcDbLine
 10
0.9359999999999949
 20
210.826
 30
0.0
 11
3.431999999999999
 21
210.826
 31
0.0
  0
LINE
  5
2A
330
1E
100
AcDbEntity
  8
0
100
AcDbLine
 10
0.9999999999999939
 20
201.826
 30
0.0
 11
0.9999999999999939
 21
198.826
 31
0.0
  0
LINE
  5
2B
330
1E
100
AcDbEntity
  8
0
100
AcDbLine
 10
0.9999999999999939
 20
201.826
 30
0.0
 11
1.899999999999989
 21
201.826
 31
0.0
  0
LINE
  5
2C
330
1E
100
AcDbEntity
  8
0
100
AcDbLine
 10
0.9999999999999939
 20
201.826
 30
0.0
 11
0.9999999999999939
 21
199.8259999999999
 31
0.0
  0
LINE
  5
2D
330
1E
100
AcDbEntity
  8
0
100
AcDbLine
 10
0.9999999999999939
 20
198.826
 30
0.0
 11
1.899999999999989
 21
198.826
 31
0.0
  0
LINE
  5
2E
330
1E
100
AcDbEntity
  8
0
100
AcDbLine
 10
0.9999999999999939
 20
198.826
 30
0.0
 11
0.9999999999999939
 21
201.826
 31
0.0
  0
LINE
  5
2F
330
1E
100
AcDbEntity
  8
0
100
AcDbLine
 10
0.9999999999999939
 20
213.8259999999999
 30
0.0
 11
0.9999999999999939
 21
211.8259999999999
 31
0.0
  0
LINE
  5
30
330
1E
100
AcDbEntity
  8
0
100
AcDbLine
 10
0.9999999999999939
 20
213.8259999999999
 30
0.0
 11
1.899999999999989
 21
213.8259999999999
 31
0.0
  0
LINE
  5
31
330
1E
100
AcDbEntity
  8
0
100
AcDbLine
 10
3.99999999999999
 20
190.9734
 30
0.0
 11
4.791999999999999
 21
190.9734
 31
0.0
  0
LINE
  5
32
330
1E
100
AcDbEntity
  8
0
100
AcDbLine
 10
3.99999999999999
 20
190.9734
 30
0.0
 11
3.99999999999999
 21
195.9734
 31
0.0
  0
LINE
  5
33
330
1E
100
AcDbEntity
  8
0
100
AcDbLine
 10
1.899999999999989
 20
199.8259999999999
 30
0.0
 11
4.299999999999999
 21
199.8259999999999
 31
0.0
  0
LINE
  5
34
330
1E
100
AcDbEntity
  8
0
100
AcDbLine
 10
1.899999999999989
 20
198.826
 30
0.0
 11
4.299999999999999
 21
198.826
 31
0.0
  0
LINE
  5
35
330
1E
100
AcDbEntity
  8
0
100
AcDbLine
 10
4.791999999999999
 20
195.9734
 30
0.0
 11
6.903999999999999
 21
195.9734
 31
0.0
  0
LINE
  5
36
330
1E
100
AcDbEntity
  8
0
100
AcDbLine
 10
4.299999999999999
 20
199.8259999999999
 30
0.0
 11
8.3
 21
199.8259999999999
 31
0.0
  0
LINE
  5
37
330
1E
100
AcDbEntity
  8
0
100
AcDbLine
 10
4.299999999999999
 20
198.826
 30
0.0
 11
8.3
 21
198.826
 31
0.0
  0
LINE
  5
38
330
1E
100
AcDbEntity
  8
0
100
AcDbLine
 10
3.99999999999999
 20
195.9734
 30
0.0
 11
3.99999999999999
 21
190.9734
 31
0.0
  0
LINE
  5
39
330
1E
100
AcDbEntity
  8
0
100
AcDbLine
 10
3.99999999999999
 20
195.9734
 30
0.0
 11
4.791999999999999
 21
195.9734
 31
0.0
  0
LINE
  5
3A
330
1E
100
AcDbEntity
  8
0
100
AcDbLine
 10
4.791999999999999
 20
190.9734
 30
0.0
 11
6.903999999999999
 21
190.9734
 31
0.0
  0
LINE
  5
3B
330
1E
100
AcDbEntity
  8
0
100
AcDbLine
 10
7.99999999999999
 20
110.826
 30
0.0
 11
8.64799999999999
 21
110.826
 31
0.0
  0
LINE
  5
3C
330
1E
100
AcDbEntity
  8
0
100
AcDbLine
 10
7.99999999999999
 20
110.826
 30
0.0
 11
7.99999999999999
 21
160.826
 31
0.0
  0
LINE
  5
3D
330
1E
100
AcDbEntity
  8
0
100
AcDbLine
 10
7.99999999999999
 20
160.826
 30
0.0
 11
8.64799999999999
 21
160.826
 31
0.0
  0
LINE
  5
3E
330
1E
100
AcDbEntity
  8
0
100
AcDbLine
 10
6.903999999999999
 20
195.9734
 30
0.0
 11
10.424
 21
195.9734
 31
0.0
  0
LINE
  5
3F
330
1E
100
AcDbEntity
  8
0
100
AcDbLine
 10
6.903999999999999
 20
190.9734
 30
0.0
 11
9.999999999999991
 21
190.9734
 31
0.0
  0
LINE
  5
40
330
1E
100
AcDbEntity
  8
0
100
AcDbLine
 10
6.903999999999999
 20
190.9734
 30
0.0
 11
10.424
 21
190.9734
 31
0.0
  0
LINE
  5
41
330
1E
100
AcDbEntity
  8
0
100
AcDbLine
 10
6.0
 20
199.8259999999999
 30
0.0
 11
6.719999999999999
 21
199.8259999999999
 31
0.0
  0
LINE
  5
42
330
1E
100
AcDbEntity
  8
0
100
AcDbLine
 10
3.431999999999999
 20
211.8259999999999
 30
0.0
 11
7.592
 21
211.8259999999999
 31
0.0
  0
LINE
  5
43
330
1E
100
AcDbEntity
  8
0
100
AcDbLine
 10
3.431999999999999
 20
210.826
 30
0.0
 11
7.592
 21
210.826
 31
0.0
  0
LINE
  5
44
330
1E
100
AcDbEntity
  8
0
100
AcDbLine
 10
1.899999999999989
 20
201.826
 30
0.0
 11
4.299999999999999
 21
201.826
 31
0.0
  0
LINE
  5
45
330
1E
100
AcDbEntity
  8
0
100
AcDbLine
 10
4.299999999999999
 20
201.826
 30
0.0
 11
8.3
 21
201.826
 31
0.0
  0
LINE
  5
46
330
1E
100
AcDbEntity
  8
0
100
AcDbLine
 10
1.899999999999989
 20
213.8259999999999
 30
0.0
 11
4.299999999999999
 21
213.8259999999999
 31
0.0
  0
LINE
  5
47
330
1E
100
AcDbEntity
  8
0
100
AcDbLine
 10
4.99999999999999
 20
210.826
 30
0.0
 11
5.75599999999999
 21
210.826
 31
0.0
  0
LINE
  5
48
330
1E
100
AcDbEntity
  8
0
100
AcDbLine
 10
7.592
 20
210.826
 30
0.0
 11
10.0
 21
210.826
 31
0.0
  0
LINE
  5
49
330
1E
100
AcDbEntity
  8
0
100
AcDbLine
 10
7.592
 20
210.826
 30
0.0
 11
13.104
 21
210.826
 31
0.0
  0
LINE
  5
4A
330
1E
100
AcDbEntity
  8
0
100
AcDbLine
 10
5.75599999999999
 20
210.826
 30
0.0
 11
7.772
 21
210.826
 31
0.0
  0
LINE
  5
4B
330
1E
100
AcDbEntity
  8
0
100
AcDbLine
 10
7.592
 20
211.8259999999999
 30
0.0
 11
13.104
 21
211.8259999999999
 31
0.0
  0
LINE
  5
4C
330
1E
100
AcDbEntity
  8
0
100
AcDbLine
 10
7.772
 20
210.826
 30
0.0
 11
10.0
 21
210.826
 31
0.0
  0
LINE
  5
4D
330
1E
100
AcDbEntity
  8
0
100
AcDbLine
 10
4.299999999999999
 20
213.8259999999999
 30
0.0
 11
8.3
 21
213.8259999999999
 31
0.0
  0
LINE
  5
4E
330
1E
100
AcDbEntity
  8
0
100
AcDbLine
 10
6.719999999999999
 20
199.8259999999999
 30
0.0
 11
8.64
 21
199.8259999999999
 31
0.0
  0
LINE
  5
4F
330
1E
100
AcDbEntity
  8
0
100
AcDbLine
 10
14.9723
 20
90.174
 30
0.0
 11
16.07229999999999
 21
90.174
 31
0.0
  0
LINE
  5
50
330
1E
100
AcDbEntity
  8
0
100
AcDbLine
 10
14.5723
 20
90.174
 30
0.0
 11
15.5723
 21
60.174
 31
0.0
  0
LINE
  5
51
330
1E
100
AcDbEntity
  8
0
100
AcDbLine
 10
14.5723
 20
90.174
 30
0.0
 11
14.9723
 21
90.174
 31
0.0
  0
LINE
  5
52
330
1E
100
AcDbEntity
  8
0
100
AcDbLine
 10
15.5723
 20
60.174
 30
0.0
 11
15.9723
 21
60.174
 31
0.0
  0
LINE
  5
53
330
1E
100
AcDbEntity
  8
0
100
AcDbLine
 10
16.07229999999999
 20
90.174
 30
0.0
 11
17.9723
 21
90.174
 31
0.0
  0
LINE
  5
54
330
1E
100
AcDbEntity
  8
0
100
AcDbLine
 10
15.9723
 20
60.174
 30
0.0
 11
16.9723
 21
60.174
 31
0.0
  0
LINE
  5
55
330
1E
100
AcDbEntity
  8
0
100
AcDbLine
 10
15.0723
 20
90.53399999999999
 30
0.0
 11
15.46829999999999
 21
90.53399999999999
 31
0.0
  0
LINE
  5
56
330
1E
100
AcDbEntity
  8
0
100
AcDbLine
 10
15.0723
 20
90.53399999999999
 30
0.0
 11
15.3363
 21
90.174
 31
0.0
  0
LINE
  5
57
330
1E
100
AcDbEntity
  8
0
100
AcDbLine
 10
15.0723
 20
90.53399999999999
 30
0.0
 11
15.0723
 21
95.82600000000001
 31
0.0
  0
LINE
  5
58
330
1E
100
AcDbEntity
  8
0
100
AcDbLine
 10
15.46829999999999
 20
90.53399999999999
 30
0.0
 11
16.5243
 21
90.53399999999999
 31
0.0
  0
LINE
  5
59
330
1E
100
AcDbEntity
  8
0
100
AcDbLine
 10
18.6723
 20
60.174
 30
0.0
 11
20.87229999999999
 21
60.174
 31
0.0
  0
LINE
  5
5A
330
1E
100
AcDbEntity
  8
0
100
AcDbLine
 10
18.57229999999999
 20
60.174
 30
0.0
 11
18.87229999999999
 21
60.174
 31
0.0
  0
LINE
  5
5B
330
1E
100
AcDbEntity
  8
0
100
AcDbLine
 10
18.87229999999999
 20
5.78499999999999
 30
0.0
 11
19.5723
 21
6.985
 31
0.0
  0
LINE
  5
5C
330
1E
100
AcDbEntity
  8
0
100
AcDbLine
 10
18.87229999999999
 20
60.174
 30
0.0
 11
19.5723
 21
60.174
 31
0.0
  0
LINE
  5
5D
330
1E
100
AcDbEntity
  8
0
100
AcDbLine
 10
18.57229999999999
 20
4.43599999999998
 30
0.0
 11
18.87229999999999
 21
2.44899999999999
 31
0.0
  0
LINE
  5
5E
330
1E
100
AcDbEntity
  8
0
100
AcDbLine
 10
18.57229999999999
 20
4.43599999999998
 30
0.0
 11
18.57229999999999
 21
60.174
 31
0.0
  0
LINE
  5
5F
330
1E
100
AcDbEntity
  8
0
100
AcDbLine
 10
18.57229999999999
 20
4.43599999999998
 30
0.0
 11
18.87229999999999
 21
5.78499999999999
 31
0.0
  0
LINE
  5
60
330
1E
100
AcDbEntity
  8
0
100
AcDbLine
 10
19.5723
 20
6.985
 30
0.0
 11
20.7723
 21
8.184000000000009
 31
0.0
  0
LINE
  5
61
330
1E
100
AcDbEntity
  8
0
100
AcDbLine
 10
19.5723
 20
60.174
 30
0.0
 11
20.7723
 21
60.174
 31
0.0
  0
LINE
  5
62
330
1E
100
AcDbEntity
  8
0
100
AcDbLine
 10
20.7723
 20
8.184000000000009
 30
0.0
 11
22.37229999999999
 21
9.23399999999998
 31
0.0
  0
LINE
  5
63
330
1E
100
AcDbEntity
  8
0
100
AcDbLine
 10
18.87229999999999
 20
2.44899999999999
 30
0.0
 11
19.5723
 21
1.324999999999989
 31
0.0
  0
LINE
  5
64
330
1E
100
AcDbEntity
  8
0
100
AcDbLine
 10
19.5723
 20
1.324999999999989
 30
0.0
 11
20.7723
 21
0.650000000000023
 31
0.0
  0
LINE
  5
65
330
1E
100
AcDbEntity
  8
0
100
AcDbLine
 10
22.37229999999999
 20
9.23399999999998
 30
0.0
 11
24.17229999999999
 21
9.94599999999998
 31
0.0
  0
LINE
  5
66
330
1E
100
AcDbEntity
  8
0
100
AcDbLine
 10
20.87229999999999
 20
60.174
 30
0.0
 11
23.37229999999999
 21
60.174
 31
0.0
  0
LINE
  5
67
330
1E
100
AcDbEntity
  8
0
100
AcDbLine
 10
20.7723
 20
60.174
 30
0.0
 11
22.37229999999999
 21
60.174
 31
0.0
  0
LINE
  5
68
330
1E
100
AcDbEntity
  8
0
100
AcDbLine
 10
23.37229999999999
 20
60.174
 30
0.0
 11
26.07229999999999
 21
60.174
 31
0.0
  0
LINE
  5
69
330
1E
100
AcDbEntity
  8
0
100
AcDbLine
 10
22.37229999999999
 20
60.174
 30
0.0
 11
24.17229999999999
 21
60.174
 31
0.0
  0
LINE
  5
6A
330
1E
100
AcDbEntity
  8
0
100
AcDbLine
 10
24.17229999999999
 20
9.94599999999998
 30
0.0
 11
26.07229999999999
 21
10.174
 31
0.0
  0
LINE
  5
6B
330
1E
100
AcDbEntity
  8
0
100
AcDbLine
 10
20.7723
 20
0.650000000000023
 30
0.0
 11
22.37229999999999
 21
0.274999999999994
 31
0.0
  0
LINE
  5
6C
330
1E
100
AcDbEntity
  8
0
100
AcDbLine
 10
22.37229999999999
 20
0.274999999999994
 30
0.0
 11
24.17229999999999
 21
0.199999999999988
 31
0.0
  0
LINE
  5
6D
330
1E
100
AcDbEntity
  8
0
100
AcDbLine
 10
27.9723
 20
0.199999999999988
 30
0.0
 11
29.7723
 21
0.274999999999994
 31
0.0
  0
LINE
  5
6E
330
1E
100
AcDbEntity
  8
0
100
AcDbLine
 10
26.07229999999999
 20
0.17399999999998
 30
0.0
 11
27.9723
 21
0.199999999999988
 31
0.0
  0
LINE
  5
6F
330
1E
100
AcDbEntity
  8
0
100
AcDbLine
 10
27.9723
 20
9.94599999999998
 30
0.0
 11
29.7723
 21
9.23399999999998
 31
0.0
  0
LINE
  5
70
330
1E
100
AcDbEntity
  8
0
100
AcDbLine
 10
27.9723
 20
60.174
 30
0.0
 11
29.7723
 21
60.174
 31
0.0
  0
LINE
  5
71
330
1E
100
AcDbEntity
  8
0
100
AcDbLine
 10
26.07229999999999
 20
10.174
 30
0.0
 11
27.9723
 21
9.94599999999998
 31
0.0
  0
LINE
  5
72
330
1E
100
AcDbEntity
  8
0
100
AcDbLine
 10
29.7723
 20
0.274999999999994
 30
0.0
 11
31.3723
 21
0.650000000000023
 31
0.0
  0
LINE
  5
73
330
1E
100
AcDbEntity
  8
0
100
AcDbLine
 10
32.57229999999999
 20
1.324999999999989
 30
0.0
 11
33.2723
 21
2.44899999999999
 31
0.0
  0
LINE
  5
74
330
1E
100
AcDbEntity
  8
0
100
AcDbLine
 10
31.3723
 20
0.650000000000023
 30
0.0
 11
32.57229999999999
 21
1.324999999999989
 31
0.0
  0
LINE
  5
75
330
1E
100
AcDbEntity
  8
0
100
AcDbLine
 10
33.2723
 20
2.44899999999999
 30
0.0
 11
33.57229999999999
 21
4.43599999999998
 31
0.0
  0
LINE
  5
76
330
1E
100
AcDbEntity
  8
0
100
AcDbLine
 10
33.2723
 20
5.78499999999999
 30
0.0
 11
33.57229999999999
 21
4.43599999999998
 31
0.0
  0
LINE
  5
77
330
1E
100
AcDbEntity
  8
0
100
AcDbLine
 10
32.57229999999999
 20
6.985
 30
0.0
 11
33.2723
 21
5.78499999999999
 31
0.0
  0
LINE
  5
78
330
1E
100
AcDbEntity
  8
0
100
AcDbLine
 10
33.2723
 20
60.174
 30
0.0
 11
33.57229999999999
 21
60.174
 31
0.0
  0
LINE
  5
79
330
1E
100
AcDbEntity
  8
0
100
AcDbLine
 10
32.57229999999999
 20
60.174
 30
0.0
 11
33.2723
 21
60.174
 31
0.0
  0
LINE
  5
7A
330
1E
100
AcDbEntity
  8
0
100
AcDbLine
 10
31.3723
 20
60.174
 30
0.0
 11
32.57229999999999
 21
60.174
 31
0.0
  0
LINE
  5
7B
330
1E
100
AcDbEntity
  8
0
100
AcDbLine
 10
31.3723
 20
8.184000000000009
 30
0.0
 11
32.57229999999999
 21
6.985
 31
0.0
  0
LINE
  5
7C
330
1E
100
AcDbEntity
  8
0
100
AcDbLine
 10
29.7723
 20
9.23399999999998
 30
0.0
 11
31.3723
 21
8.184000000000009
 31
0.0
  0
LINE
  5
7D
330
1E
100
AcDbEntity
  8
0
100
AcDbLine
 10
29.7723
 20
60.174
 30
0.0
 11
31.3723
 21
60.174
 31
0.0
  0
LINE
  5
7E
330
1E
100
AcDbEntity
  8
0
100
AcDbLine
 10
33.57229999999999
 20
4.43599999999998
 30
0.0
 11
33.57229999999999
 21
60.174
 31
0.0
  0
LINE
  5
7F
330
1E
100
AcDbEntity
  8
0
100
AcDbLine
 10
33.47229999999999
 20
60.174
 30
0.0
 11
35.1723
 21
60.174
 31
0.0
  0
LINE
  5
80
330
1E
100
AcDbEntity
  8
0
100
AcDbLine
 10
31.2723
 20
60.174
 30
0.0
 11
33.47229999999999
 21
60.174
 31
0.0
  0
LINE
  5
81
330
1E
100
AcDbEntity
  8
0
100
AcDbLine
 10
28.7723
 20
60.174
 30
0.0
 11
31.2723
 21
60.174
 31
0.0
  0
LINE
  5
82
330
1E
100
AcDbEntity
  8
0
100
AcDbLine
 10
26.07229999999999
 20
60.174
 30
0.0
 11
28.7723
 21
60.174
 31
0.0
  0
LINE
  5
83
330
1E
100
AcDbEntity
  8
0
100
AcDbLine
 10
26.07229999999999
 20
60.174
 30
0.0
 11
27.9723
 21
60.174
 31
0.0
  0
LINE
  5
84
330
1E
100
AcDbEntity
  8
0
100
AcDbLine
 10
33.57229999999999
 20
60.174
 30
0.0
 11
35.1723
 21
60.174
 31
0.0
  0
LINE
  5
85
330
1E
100
AcDbEntity
  8
0
100
AcDbLine
 10
24.17229999999999
 20
60.174
 30
0.0
 11
26.07229999999999
 21
60.174
 31
0.0
  0
LINE
  5
86
330
1E
100
AcDbEntity
  8
0
100
AcDbLine
 10
24.17229999999999
 20
0.199999999999988
 30
0.0
 11
26.07229999999999
 21
0.17399999999998
 31
0.0
  0
LINE
  5
87
330
1E
100
AcDbEntity
  8
0
100
AcDbLine
 10
18.87229999999999
 20
70.785
 30
0.0
 11
19.5723
 21
71.985
 31
0.0
  0
LINE
  5
88
330
1E
100
AcDbEntity
  8
0
100
AcDbLine
 10
18.57229999999999
 20
69.436
 30
0.0
 11
18.87229999999999
 21
67.449
 31
0.0
  0
LINE
  5
89
330
1E
100
AcDbEntity
  8
0
100
AcDbLine
 10
18.57229999999999
 20
69.436
 30
0.0
 11
18.57229999999999
 21
125.1739999999999
 31
0.0
  0
LINE
  5
8A
330
1E
100
AcDbEntity
  8
0
100
AcDbLine
 10
18.57229999999999
 20
69.436
 30
0.0
 11
18.87229999999999
 21
70.785
 31
0.0
  0
LINE
  5
8B
330
1E
100
AcDbEntity
  8
0
100
AcDbLine
 10
19.5723
 20
71.985
 30
0.0
 11
20.7723
 21
73.184
 31
0.0
  0
LINE
  5
8C
330
1E
100
AcDbEntity
  8
0
100
AcDbLine
 10
18.87229999999999
 20
67.449
 30
0.0
 11
19.5723
 21
66.325
 31
0.0
  0
LINE
  5
8D
330
1E
100
AcDbEntity
  8
0
100
AcDbLine
 10
19.5723
 20
66.325
 30
0.0
 11
20.7723
 21
65.65000000000001
 31
0.0
  0
LINE
  5
8E
330
1E
100
AcDbEntity
  8
0
100
AcDbLine
 10
20.7723
 20
73.184
 30
0.0
 11
22.37229999999999
 21
74.23399999999999
 31
0.0
  0
LINE
  5
8F
330
1E
100
AcDbEntity
  8
0
100
AcDbLine
 10
22.37229999999999
 20
74.23399999999999
 30
0.0
 11
24.17229999999999
 21
74.946
 31
0.0
  0
LINE
  5
90
330
1E
100
AcDbEntity
  8
0
100
AcDbLine
 10
24.17229999999999
 20
74.946
 30
0.0
 11
26.07229999999999
 21
75.17399999999999
 31
0.0
  0
LINE
  5
91
330
1E
100
AcDbEntity
  8
0
100
AcDbLine
 10
20.7723
 20
65.65000000000001
 30
0.0
 11
22.37229999999999
 21
65.275
 31
0.0
  0
LINE
  5
92
330
1E
100
AcDbEntity
  8
0
100
AcDbLine
 10
22.37229999999999
 20
65.275
 30
0.0
 11
24.17229999999999
 21
65.2
 31
0.0
  0
LINE
  5
93
330
1E
100
AcDbEntity
  8
0
100
AcDbLine
 10
27.9723
 20
65.2
 30
0.0
 11
29.7723
 21
65.275
 31
0.0
  0
LINE
  5
94
330
1E
100
AcDbEntity
  8
0
100
AcDbLine
 10
26.07229999999999
 20
65.17399999999999
 30
0.0
 11
27.9723
 21
65.2
 31
0.0
  0
LINE
  5
95
330
1E
100
AcDbEntity
  8
0
100
AcDbLine
 10
31.3723
 20
65.65000000000001
 30
0.0
 11
32.57229999999999
 21
66.325
 31
0.0
  0
LINE
  5
96
330
1E
100
AcDbEntity
  8
0
100
AcDbLine
 10
29.7723
 20
65.275
 30
0.0
 11
31.3723
 21
65.65000000000001
 31
0.0
  0
LINE
  5
97
330
1E
100
AcDbEntity
  8
0
100
AcDbLine
 10
33.2723
 20
67.449
 30
0.0
 11
33.57229999999999
 21
69.436
 31
0.0
  0
LINE
  5
98
330
1E
100
AcDbEntity
  8
0
100
AcDbLine
 10
32.57229999999999
 20
66.325
 30
0.0
 11
33.2723
 21
67.449
 31
0.0
  0
LINE
  5
99
330
1E
100
AcDbEntity
  8
0
100
AcDbLine
 10
33.57229999999999
 20
69.436
 30
0.0
 11
33.57229999999999
 21
125.1739999999999
 31
0.0
  0
LINE
  5
9A
330
1E
100
AcDbEntity
  8
0
100
AcDbLine
 10
33.2723
 20
70.785
 30
0.0
 11
33.57229999999999
 21
69.436
 31
0.0
  0
LINE
  5
9B
330
1E
100
AcDbEntity
  8
0
100
AcDbLine
 10
32.57229999999999
 20
71.985
 30
0.0
 11
33.2723
 21
70.785
 31
0.0
  0
LINE
  5
9C
330
1E
100
AcDbEntity
  8
0
100
AcDbLine
 10
31.3723
 20
73.184
 30
0.0
 11
32.57229999999999
 21
71.985
 31
0.0
  0
LINE
  5
9D
330
1E
100
AcDbEntity
  8
0
100
AcDbLine
 10
29.7723
 20
74.23399999999999
 30
0.0
 11
31.3723
 21
73.184
 31
0.0
  0
LINE
  5
9E
330
1E
100
AcDbEntity
  8
0
100
AcDbLine
 10
27.9723
 20
74.946
 30
0.0
 11
29.7723
 21
74.23399999999999
 31
0.0
  0
LINE
  5
9F
330
1E
100
AcDbEntity
  8
0
100
AcDbLine
 10
26.07229999999999
 20
75.17399999999999
 30
0.0
 11
27.9723
 21
74.946
 31
0.0
  0
LINE
  5
A0
330
1E
100
AcDbEntity
  8
0
100
AcDbLine
 10
24.17229999999999
 20
65.2
 30
0.0
 11
26.07229999999999
 21
65.17399999999999
 31
0.0
  0
LINE
  5
A1
330
1E
100
AcDbEntity
  8
0
100
AcDbLine
 10
33.57229999999999
 20
90.174
 30
0.0
 11
34.17229999999999
 21
90.174
 31
0.0
  0
LINE
  5
A2
330
1E
100
AcDbEntity
  8
0
100
AcDbLine
 10
17.9723
 20
90.174
 30
0.0
 11
18.57229999999999
 21
90.174
 31
0.0
  0
LINE
  5
A3
330
1E
100
AcDbEntity
  8
0
100
AcDbLine
 10
16.9723
 20
60.174
 30
0.0
 11
18.57229999999999
 21
60.174
 31
0.0
  0
LINE
  5
A4
330
1E
100
AcDbEntity
  8
0
100
AcDbLine
 10
16.9723
 20
60.174
 30
0.0
 11
18.6723
 21
60.174
 31
0.0
  0
LINE
  5
A5
330
1E
100
AcDbEntity
  8
0
100
AcDbLine
 10
16.5243
 20
90.53399999999999
 30
0.0
 11
18.2843
 21
90.53399999999999
 31
0.0
  0
LINE
  5
A6
330
1E
100
AcDbEntity
  8
0
100
AcDbLine
 10
18.2843
 20
90.53399999999999
 30
0.0
 11
18.57229999999999
 21
90.53399999999999
 31
0.0
  0
LINE
  5
A7
330
1E
100
AcDbEntity
  8
0
100
AcDbLine
 10
36.5723
 20
60.174
 30
0.0
 11
37.57229999999999
 21
90.174
 31
0.0
  0
LINE
  5
A8
330
1E
100
AcDbEntity
  8
0
100
AcDbLine
 10
36.1723
 20
60.174
 30
0.0
 11
36.5723
 21
60.174
 31
0.0
  0
LINE
  5
A9
330
1E
100
AcDbEntity
  8
0
100
AcDbLine
 10
36.07229999999999
 20
90.174
 30
0.0
 11
37.1723
 21
90.174
 31
0.0
  0
LINE
  5
AA
330
1E
100
AcDbEntity
  8
0
100
AcDbLine
 10
34.17229999999999
 20
90.174
 30
0.0
 11
36.07229999999999
 21
90.174
 31
0.0
  0
LINE
  5
AB
330
1E
100
AcDbEntity
  8
0
100
AcDbLine
 10
35.1723
 20
60.174
 30
0.0
 11
36.1723
 21
60.174
 31
0.0
  0
LINE
  5
AC
330
1E
100
AcDbEntity
  8
0
100
AcDbLine
 10
36.67629999999999
 20
90.53399999999999
 30
0.0
 11
37.0723
 21
90.53399999999999
 31
0.0
  0
LINE
  5
AD
330
1E
100
AcDbEntity
  8
0
100
AcDbLine
 10
35.6203
 20
90.53399999999999
 30
0.0
 11
36.67629999999999
 21
90.53399999999999
 31
0.0
  0
LINE
  5
AE
330
1E
100
AcDbEntity
  8
0
100
AcDbLine
 10
33.8603
 20
90.53399999999999
 30
0.0
 11
35.6203
 21
90.53399999999999
 31
0.0
  0
LINE
  5
AF
330
1E
100
AcDbEntity
  8
0
100
AcDbLine
 10
15.0682
 20
95.82600000000001
 30
0.0
 11
15.4818
 21
95.82600000000001
 31
0.0
  0
LINE
  5
B0
330
1E
100
AcDbEntity
  8
0
100
AcDbLine
 10
15.4818
 20
95.82600000000001
 30
0.0
 11
18.57229999999999
 21
95.82600000000001
 31
0.0
  0
LINE
  5
B3
330
1E
100
AcDbEntity
  8
0
100
AcDbLine
 10
15.0723
 20
95.82600000000001
 30
0.0
 11
15.0723
 21
90.53399999999999
 31
0.0
  0
LINE
  5
B4
330
1E
100
AcDbEntity
  8
0
100
AcDbLine
 10
33.57229999999999
 20
90.53399999999999
 30
0.0
 11
33.8603
 21
90.53399999999999
 31
0.0
  0
LINE
  5
B5
330
1E
100
AcDbEntity
  8
0
100
AcDbLine
 10
37.1723
 20
90.174
 30
0.0
 11
37.57229999999999
 21
90.174
 31
0.0
  0
LINE
  5
B6
330
1E
100
AcDbEntity
  8
0
100
AcDbLine
 10
37.0723
 20
90.53399999999999
 30
0.0
 11
37.0723
 21
95.85992035198559
 31
0.0
  0
LINE
  5
B7
330
1E
100
AcDbEntity
  8
0
100
AcDbLine
 10
36.8083
 20
90.174
 30
0.0
 11
37.0723
 21
90.53399999999999
 31
0.0
  0
LINE
  5
B8
330
1E
100
AcDbEntity
  8
0
100
AcDbLine
 10
13.0
 20
97.255
 30
0.0
 11
13.2954
 21
96.54000000000001
 31
0.0
  0
LINE
  5
B9
330
1E
100
AcDbEntity
  8
0
100
AcDbLine
 10
13.0
 20
97.255
 30
0.0
 11
13.0
 21
109.397
 31
0.0
  0
LINE
  5
BA
330
1E
100
AcDbEntity
  8
0
100
AcDbLine
 10
13.4973
 20
96.54000000000001
 30
0.0
 11
14.45529999999999
 21
96.125
 31
0.0
  0
LINE
  5
BC
330
1E
100
AcDbEntity
  8
0
100
AcDbLine
 10
14.45529999999999
 20
96.125
 30
0.0
 11
16.02789999999999
 21
95.96999999999999
 31
0.0
  0
LINE
  5
BE
330
1E
100
AcDbEntity
  8
0
100
AcDbLine
 10
14.1818
 20
96.04
 30
0.0
 11
15.0682
 21
95.82600000000001
 31
0.0
  0
LINE
  5
BF
330
1E
100
AcDbEntity
  8
0
100
AcDbLine
 10
13.2954
 20
96.54000000000001
 30
0.0
 11
14.1818
 21
96.04
 31
0.0
  0
LINE
  5
C0
330
1E
100
AcDbEntity
  8
0
100
AcDbLine
 10
13.2954
 20
96.54000000000001
 30
0.0
 11
13.4973
 21
96.54000000000001
 31
0.0
  0
LINE
  5
C1
330
1E
100
AcDbEntity
  8
0
100
AcDbLine
 10
8.64799999999999
 20
110.826
 30
0.0
 11
10.376
 21
110.826
 31
0.0
  0
LINE
  5
C2
330
1E
100
AcDbEntity
  8
0
100
AcDbLine
 10
10.376
 20
110.826
 30
0.0
 11
13.25599999999999
 21
110.826
 31
0.0
  0
LINE
  5
C3
330
1E
100
AcDbEntity
  8
0
100
AcDbLine
 10
13.25599999999999
 20
110.826
 30
0.0
 11
16.0
 21
110.826
 31
0.0
  0
LINE
  5
C4
330
1E
100
AcDbEntity
  8
0
100
AcDbLine
 10
13.25599999999999
 20
110.826
 30
0.0
 11
15.0682
 21
110.826
 31
0.0
  0
LINE
  5
C5
330
1E
100
AcDbEntity
  8
0
100
AcDbLine
 10
15.4818
 20
110.826
 30
0.0
 11
16.0
 21
110.826
 31
0.0
  0
LINE
  5
C6
330
1E
100
AcDbEntity
  8
0
100
AcDbLine
 10
14.45529999999999
 20
110.5269999999999
 30
0.0
 11
16.0
 21
110.6792500953829
 31
0.0
  0
LINE
  5
C9
330
1E
100
AcDbEntity
  8
0
100
AcDbLine
 10
14.1818
 20
110.612
 30
0.0
 11
15.0682
 21
110.826
 31
0.0
  0
LINE
  5
CB
330
1E
100
AcDbEntity
  8
0
100
AcDbLine
 10
13.4973
 20
110.112
 30
0.0
 11
14.45529999999999
 21
110.5269999999999
 31
0.0
  0
LINE
  5
CD
330
1E
100
AcDbEntity
  8
0
100
AcDbLine
 10
13.2954
 20
110.112
 30
0.0
 11
14.1818
 21
110.612
 31
0.0
  0
LINE
  5
CE
330
1E
100
AcDbEntity
  8
0
100
AcDbLine
 10
13.2954
 20
110.112
 30
0.0
 11
13.4973
 21
110.112
 31
0.0
  0
LINE
  5
CF
330
1E
100
AcDbEntity
  8
0
100
AcDbLine
 10
13.0
 20
109.397
 30
0.0
 11
13.0
 21
97.255
 31
0.0
  0
LINE
  5
D0
330
1E
100
AcDbEntity
  8
0
100
AcDbLine
 10
13.0
 20
109.397
 30
0.0
 11
13.2954
 21
110.112
 31
0.0
  0
LINE
  5
D1
330
1E
100
AcDbEntity
  8
0
100
AcDbLine
 10
16.02789999999999
 20
95.96999999999999
 30
0.0
 11
17.6091
 21
96.086
 31
0.0
  0
LINE
  5
D4
330
1E
100
AcDbEntity
  8
0
100
AcDbLine
 10
16.0
 20
107.8259999999999
 30
0.0
 11
16.0
 21
125.1739999999999
 31
0.0
  0
LINE
  5
D5
330
1E
100
AcDbEntity
  8
0
100
AcDbLine
 10
16.0
 20
107.8259999999999
 30
0.0
 11
16.36
 21
107.8259999999999
 31
0.0
  0
LINE
  5
D6
330
1E
100
AcDbEntity
  8
0
100
AcDbLine
 10
16.0
 20
125.1739999999999
 30
0.0
 11
16.0
 21
107.8259999999999
 31
0.0
  0
LINE
  5
D7
330
1E
100
AcDbEntity
  8
0
100
AcDbLine
 10
16.36
 20
107.8259999999999
 30
0.0
 11
17.32
 21
107.8259999999999
 31
0.0
  0
LINE
  5
D8
330
1E
100
AcDbEntity
  8
0
100
AcDbLine
 10
15.5723
 20
125.1739999999999
 30
0.0
 11
15.9723
 21
125.1739999999999
 31
0.0
  0
LINE
  5
D9
330
1E
100
AcDbEntity
  8
0
100
AcDbLine
 10
12.0
 20
127.826
 30
0.0
 11
12.0
 21
160.826
 31
0.0
  0
LINE
  5
DA
330
1E
100
AcDbEntity
  8
0
100
AcDbLine
 10
12.0
 20
127.826
 30
0.0
 11
12.504
 21
127.826
 31
0.0
  0
LINE
  5
DB
330
1E
100
AcDbEntity
  8
0
100
AcDbLine
 10
12.504
 20
127.826
 30
0.0
 11
13.848
 21
127.826
 31
0.0
  0
LINE
  5
DC
330
1E
100
AcDbEntity
  8
0
100
AcDbLine
 10
13.848
 20
127.826
 30
0.0
 11
15.4839
 21
127.826
 31
0.0
  0
LINE
  5
DD
330
1E
100
AcDbEntity
  8
0
100
AcDbLine
 10
14.9723
 20
155.174
 30
0.0
 11
16.07229999999999
 21
155.174
 31
0.0
  0
LINE
  5
DE
330
1E
100
AcDbEntity
  8
0
100
AcDbLine
 10
16.07229999999999
 20
155.174
 30
0.0
 11
17.9723
 21
155.174
 31
0.0
  0
LINE
  5
DF
330
1E
100
AcDbEntity
  8
0
100
AcDbLine
 10
14.5723
 20
155.174
 30
0.0
 11
15.5723
 21
125.1739999999999
 31
0.0
  0
LINE
  5
E0
330
1E
100
AcDbEntity
  8
0
100
AcDbLine
 10
14.5723
 20
155.174
 30
0.0
 11
14.9723
 21
155.174
 31
0.0
  0
LINE
  5
E1
330
1E
100
AcDbEntity
  8
0
100
AcDbLine
 10
15.9723
 20
125.1739999999999
 30
0.0
 11
16.9723
 21
125.1739999999999
 31
0.0
  0
LINE
  5
E2
330
1E
100
AcDbEntity
  8
0
100
AcDbLine
 10
17.6091
 20
96.086
 30
0.0
 11
18.57229999999999
 21
96.48088242730722
 31
0.0
  0
LINE
  5
E3
330
1E
100
AcDbEntity
  8
0
100
AcDbLine
 10
17.32
 20
107.8259999999999
 30
0.0
 11
18.57229999999999
 21
107.8259999999999
 31
0.0
  0
LINE
  5
E4
330
1E
100
AcDbEntity
  8
0
100
AcDbLine
 10
18.6723
 20
125.1739999999999
 30
0.0
 11
20.87229999999999
 21
125.1739999999999
 31
0.0
  0
LINE
  5
E5
330
1E
100
AcDbEntity
  8
0
100
AcDbLine
 10
18.57229999999999
 20
125.1739999999999
 30
0.0
 11
18.87229999999999
 21
125.1739999999999
 31
0.0
  0
LINE
  5
E6
330
1E
100
AcDbEntity
  8
0
100
AcDbLine
 10
18.87229999999999
 20
125.1739999999999
 30
0.0
 11
19.5723
 21
125.1739999999999
 31
0.0
  0
LINE
  5
E7
330
1E
100
AcDbEntity
  8
0
100
AcDbLine
 10
20.87229999999999
 20
125.1739999999999
 30
0.0
 11
23.37229999999999
 21
125.1739999999999
 31
0.0
  0
LINE
  5
E8
330
1E
100
AcDbEntity
  8
0
100
AcDbLine
 10
19.5723
 20
125.1739999999999
 30
0.0
 11
20.7723
 21
125.1739999999999
 31
0.0
  0
LINE
  5
E9
330
1E
100
AcDbEntity
  8
0
100
AcDbLine
 10
20.7723
 20
125.1739999999999
 30
0.0
 11
22.37229999999999
 21
125.1739999999999
 31
0.0
  0
LINE
  5
EA
330
1E
100
AcDbEntity
  8
0
100
AcDbLine
 10
27.9723
 20
125.1739999999999
 30
0.0
 11
29.7723
 21
125.1739999999999
 31
0.0
  0
LINE
  5
EB
330
1E
100
AcDbEntity
  8
0
100
AcDbLine
 10
33.2723
 20
125.1739999999999
 30
0.0
 11
33.57229999999999
 21
125.1739999999999
 31
0.0
  0
LINE
  5
EC
330
1E
100
AcDbEntity
  8
0
100
AcDbLine
 10
32.57229999999999
 20
125.1739999999999
 30
0.0
 11
33.2723
 21
125.1739999999999
 31
0.0
  0
LINE
  5
ED
330
1E
100
AcDbEntity
  8
0
100
AcDbLine
 10
31.3723
 20
125.1739999999999
 30
0.0
 11
32.57229999999999
 21
125.1739999999999
 31
0.0
  0
LINE
  5
EE
330
1E
100
AcDbEntity
  8
0
100
AcDbLine
 10
29.7723
 20
125.1739999999999
 30
0.0
 11
31.3723
 21
125.1739999999999
 31
0.0
  0
LINE
  5
EF
330
1E
100
AcDbEntity
  8
0
100
AcDbLine
 10
33.57229999999999
 20
96.42160086689541
 30
0.0
 11
34.3909
 21
96.086
 31
0.0
  0
LINE
  5
F0
330
1E
100
AcDbEntity
  8
0
100
AcDbLine
 10
33.57229999999999
 20
107.8259999999999
 30
0.0
 11
34.67999999999999
 21
107.8259999999999
 31
0.0
  0
LINE
  5
F1
330
1E
100
AcDbEntity
  8
0
100
AcDbLine
 10
33.47229999999999
 20
125.1739999999999
 30
0.0
 11
35.1723
 21
125.1739999999999
 31
0.0
  0
LINE
  5
F2
330
1E
100
AcDbEntity
  8
0
100
AcDbLine
 10
31.2723
 20
125.1739999999999
 30
0.0
 11
33.47229999999999
 21
125.1739999999999
 31
0.0
  0
LINE
  5
F3
330
1E
100
AcDbEntity
  8
0
100
AcDbLine
 10
28.7723
 20
125.1739999999999
 30
0.0
 11
31.2723
 21
125.1739999999999
 31
0.0
  0
LINE
  5
F4
330
1E
100
AcDbEntity
  8
0
100
AcDbLine
 10
26.07229999999999
 20
125.1739999999999
 30
0.0
 11
28.7723
 21
125.1739999999999
 31
0.0
  0
LINE
  5
F5
330
1E
100
AcDbEntity
  8
0
100
AcDbLine
 10
26.07229999999999
 20
125.1739999999999
 30
0.0
 11
27.9723
 21
125.1739999999999
 31
0.0
  0
LINE
  5
F6
330
1E
100
AcDbEntity
  8
0
100
AcDbLine
 10
34.3909
 20
96.086
 30
0.0
 11
35.9721
 21
95.96999999999999
 31
0.0
  0
LINE
  5
F7
330
1E
100
AcDbEntity
  8
0
100
AcDbLine
 10
35.9721
 20
95.96999999999999
 30
0.0
 11
37.54469999999999
 21
96.125
 31
0.0
  0
LINE
  5
F9
330
1E
100
AcDbEntity
  8
0
100
AcDbLine
 10
36.0
 20
107.8259999999999
 30
0.0
 11
36.0
 21
125.1739999999999
 31
0.0
  0
LINE
  5
FA
330
1E
100
AcDbEntity
  8
0
100
AcDbLine
 10
35.64
 20
107.8259999999999
 30
0.0
 11
36.0
 21
107.8259999999999
 31
0.0
  0
LINE
  5
FC
330
1E
100
AcDbEntity
  8
0
100
AcDbLine
 10
36.0
 20
110.826
 30
0.0
 11
36.5182
 21
110.826
 31
0.0
  0
LINE
  5
FD
330
1E
100
AcDbEntity
  8
0
100
AcDbLine
 10
36.0
 20
110.826
 30
0.0
 11
38.74399999999999
 21
110.826
 31
0.0
  0
LINE
  5
FE
330
1E
100
AcDbEntity
  8
0
100
AcDbLine
 10
36.0
 20
110.6792500953829
 30
0.0
 11
37.54469999999999
 21
110.5269999999999
 31
0.0
  0
LINE
  5
FF
330
1E
100
AcDbEntity
  8
0
100
AcDbLine
 10
36.0
 20
125.1739999999999
 30
0.0
 11
36.0
 21
107.8259999999999
 31
0.0
  0
LINE
  5
100
330
1E
100
AcDbEntity
  8
0
100
AcDbLine
 10
34.67999999999999
 20
107.8259999999999
 30
0.0
 11
35.64
 21
107.8259999999999
 31
0.0
  0
LINE
  5
102
330
1E
100
AcDbEntity
  8
0
100
AcDbLine
 10
36.5182
 20
110.826
 30
0.0
 11
36.9318
 21
110.826
 31
0.0
  0
LINE
  5
103
330
1E
100
AcDbEntity
  8
0
100
AcDbLine
 10
36.9318
 20
110.826
 30
0.0
 11
37.81819999999999
 21
110.612
 31
0.0
  0
LINE
  5
104
330
1E
100
AcDbEntity
  8
0
100
AcDbLine
 10
36.9318
 20
110.826
 30
0.0
 11
38.74399999999999
 21
110.826
 31
0.0
  0
LINE
  5
105
330
1E
100
AcDbEntity
  8
0
100
AcDbLine
 10
36.5723
 20
125.1739999999999
 30
0.0
 11
37.57229999999999
 21
155.174
 31
0.0
  0
LINE
  5
106
330
1E
100
AcDbEntity
  8
0
100
AcDbLine
 10
36.1723
 20
125.1739999999999
 30
0.0
 11
36.5723
 21
125.1739999999999
 31
0.0
  0
LINE
  5
107
330
1E
100
AcDbEntity
  8
0
100
AcDbLine
 10
35.1723
 20
125.1739999999999
 30
0.0
 11
36.1723
 21
125.1739999999999
 31
0.0
  0
LINE
  5
108
330
1E
100
AcDbEntity
  8
0
100
AcDbLine
 10
33.57229999999999
 20
125.1739999999999
 30
0.0
 11
35.1723
 21
125.1739999999999
 31
0.0
  0
LINE
  5
109
330
1E
100
AcDbEntity
  8
0
100
AcDbLine
 10
23.37229999999999
 20
125.1739999999999
 30
0.0
 11
26.07229999999999
 21
125.1739999999999
 31
0.0
  0
LINE
  5
10A
330
1E
100
AcDbEntity
  8
0
100
AcDbLine
 10
22.37229999999999
 20
125.1739999999999
 30
0.0
 11
24.17229999999999
 21
125.1739999999999
 31
0.0
  0
LINE
  5
10B
330
1E
100
AcDbEntity
  8
0
100
AcDbLine
 10
17.9723
 20
155.174
 30
0.0
 11
20.3723
 21
155.174
 31
0.0
  0
LINE
  5
10C
330
1E
100
AcDbEntity
  8
0
100
AcDbLine
 10
20.3723
 20
155.174
 30
0.0
 11
23.0723
 21
155.174
 31
0.0
  0
LINE
  5
10D
330
1E
100
AcDbEntity
  8
0
100
AcDbLine
 10
36.66069999999999
 20
127.826
 30
0.0
 11
38.152
 21
127.826
 31
0.0
  0
LINE
  5
10E
330
1E
100
AcDbEntity
  8
0
100
AcDbLine
 10
36.07229999999999
 20
155.174
 30
0.0
 11
37.1723
 21
155.174
 31
0.0
  0
LINE
  5
10F
330
1E
100
AcDbEntity
  8
0
100
AcDbLine
 10
34.17229999999999
 20
155.174
 30
0.0
 11
36.07229999999999
 21
155.174
 31
0.0
  0
LINE
  5
110
330
1E
100
AcDbEntity
  8
0
100
AcDbLine
 10
31.7723
 20
155.174
 30
0.0
 11
34.17229999999999
 21
155.174
 31
0.0
  0
LINE
  5
111
330
1E
100
AcDbEntity
  8
0
100
AcDbLine
 10
29.0723
 20
155.174
 30
0.0
 11
31.7723
 21
155.174
 31
0.0
  0
LINE
  5
112
330
1E
100
AcDbEntity
  8
0
100
AcDbLine
 10
26.07229999999999
 20
155.174
 30
0.0
 11
29.0723
 21
155.174
 31
0.0
  0
LINE
  5
113
330
1E
100
AcDbEntity
  8
0
100
AcDbLine
 10
23.0723
 20
155.174
 30
0.0
 11
26.07229999999999
 21
155.174
 31
0.0
  0
LINE
  5
114
330
1E
100
AcDbEntity
  8
0
100
AcDbLine
 10
24.17229999999999
 20
125.1739999999999
 30
0.0
 11
26.07229999999999
 21
125.1739999999999
 31
0.0
  0
LINE
  5
115
330
1E
100
AcDbEntity
  8
0
100
AcDbLine
 10
16.9723
 20
125.1739999999999
 30
0.0
 11
18.57229999999999
 21
125.1739999999999
 31
0.0
  0
LINE
  5
116
330
1E
100
AcDbEntity
  8
0
100
AcDbLine
 10
16.9723
 20
125.1739999999999
 30
0.0
 11
18.6723
 21
125.1739999999999
 31
0.0
  0
LINE
  5
117
330
1E
100
AcDbEntity
  8
0
100
AcDbLine
 10
15.0723
 20
155.5339999999999
 30
0.0
 11
15.46829999999999
 21
155.5339999999999
 31
0.0
  0
LINE
  5
118
330
1E
100
AcDbEntity
  8
0
100
AcDbLine
 10
15.0723
 20
155.5339999999999
 30
0.0
 11
15.3363
 21
155.174
 31
0.0
  0
LINE
  5
119
330
1E
100
AcDbEntity
  8
0
100
AcDbLine
 10
15.0723
 20
155.5339999999999
 30
0.0
 11
15.0723
 21
160.826
 31
0.0
  0
LINE
  5
11A
330
1E
100
AcDbEntity
  8
0
100
AcDbLine
 10
15.46829999999999
 20
155.5339999999999
 30
0.0
 11
16.5243
 21
155.5339999999999
 31
0.0
  0
LINE
  5
11B
330
1E
100
AcDbEntity
  8
0
100
AcDbLine
 10
16.5243
 20
155.5339999999999
 30
0.0
 11
18.2843
 21
155.5339999999999
 31
0.0
  0
LINE
  5
11C
330
1E
100
AcDbEntity
  8
0
100
AcDbLine
 10
18.2843
 20
155.5339999999999
 30
0.0
 11
20.6163
 21
155.5339999999999
 31
0.0
  0
LINE
  5
11D
330
1E
100
AcDbEntity
  8
0
100
AcDbLine
 10
20.6163
 20
155.5339999999999
 30
0.0
 11
23.25629999999999
 21
155.5339999999999
 31
0.0
  0
LINE
  5
11E
330
1E
100
AcDbEntity
  8
0
100
AcDbLine
 10
9.999999999999991
 20
160.826
 30
0.0
 11
9.999999999999991
 21
190.9734
 31
0.0
  0
LINE
  5
11F
330
1E
100
AcDbEntity
  8
0
100
AcDbLine
 10
9.999999999999991
 20
160.826
 30
0.0
 11
10.57599999999999
 21
160.826
 31
0.0
  0
LINE
  5
120
330
1E
100
AcDbEntity
  8
0
100
AcDbLine
 10
8.64799999999999
 20
160.826
 30
0.0
 11
10.376
 21
160.826
 31
0.0
  0
LINE
  5
121
330
1E
100
AcDbEntity
  8
0
100
AcDbLine
 10
10.57599999999999
 20
160.826
 30
0.0
 11
12.112
 21
160.826
 31
0.0
  0
LINE
  5
122
330
1E
100
AcDbEntity
  8
0
100
AcDbLine
 10
12.112
 20
160.826
 30
0.0
 11
14.672
 21
160.826
 31
0.0
  0
LINE
  5
123
330
1E
100
AcDbEntity
  8
0
100
AcDbLine
 10
14.672
 20
160.826
 30
0.0
 11
18.064
 21
160.826
 31
0.0
  0
LINE
  5
124
330
1E
100
AcDbEntity
  8
0
100
AcDbLine
 10
14.672
 20
160.826
 30
0.0
 11
15.0723
 21
160.826
 31
0.0
  0
LINE
  5
125
330
1E
100
AcDbEntity
  8
0
100
AcDbLine
 10
10.376
 20
160.826
 30
0.0
 11
12.0
 21
160.826
 31
0.0
  0
LINE
  5
126
330
1E
100
AcDbEntity
  8
0
100
AcDbLine
 10
8.3
 20
199.8259999999999
 30
0.0
 11
13.6
 21
199.8259999999999
 31
0.0
  0
LINE
  5
127
330
1E
100
AcDbEntity
  8
0
100
AcDbLine
 10
8.3
 20
199.8259999999999
 30
0.0
 11
10.0
 21
199.8259999999999
 31
0.0
  0
LINE
  5
128
330
1E
100
AcDbEntity
  8
0
100
AcDbLine
 10
8.3
 20
201.826
 30
0.0
 11
13.6
 21
201.826
 31
0.0
  0
LINE
  5
129
330
1E
100
AcDbEntity
  8
0
100
AcDbLine
 10
8.3
 20
213.8259999999999
 30
0.0
 11
13.6
 21
213.8259999999999
 31
0.0
  0
LINE
  5
12A
330
1E
100
AcDbEntity
  8
0
100
AcDbLine
 10
8.3
 20
198.826
 30
0.0
 11
10.0
 21
198.826
 31
0.0
  0
LINE
  5
12B
330
1E
100
AcDbEntity
  8
0
100
AcDbLine
 10
9.0
 20
190.9734
 30
0.0
 11
9.612
 21
190.9734
 31
0.0
  0
LINE
  5
12C
330
1E
100
AcDbEntity
  8
0
100
AcDbLine
 10
10.424
 20
195.9734
 30
0.0
 11
15.08799999999999
 21
195.9734
 31
0.0
  0
LINE
  5
12D
330
1E
100
AcDbEntity
  8
0
100
AcDbLine
 10
13.6
 20
199.8259999999999
 30
0.0
 11
19.6
 21
199.8259999999999
 31
0.0
  0
LINE
  5
12E
330
1E
100
AcDbEntity
  8
0
100
AcDbLine
 10
13.6
 20
201.826
 30
0.0
 11
19.6
 21
201.826
 31
0.0
  0
LINE
  5
12F
330
1E
100
AcDbEntity
  8
0
100
AcDbLine
 10
10.424
 20
190.9734
 30
0.0
 11
15.08799999999999
 21
190.9734
 31
0.0
  0
LINE
  5
130
330
1E
100
AcDbEntity
  8
0
100
AcDbLine
 10
13.104
 20
210.826
 30
0.0
 11
19.344
 21
210.826
 31
0.0
  0
LINE
  5
131
330
1E
100
AcDbEntity
  8
0
100
AcDbLine
 10
10.57599999999999
 20
210.826
 30
0.0
 11
12.112
 21
210.826
 31
0.0
  0
LINE
  5
132
330
1E
100
AcDbEntity
  8
0
100
AcDbLine
 10
12.112
 20
210.826
 30
0.0
 11
14.672
 21
210.826
 31
0.0
  0
LINE
  5
133
330
1E
100
AcDbEntity
  8
0
100
AcDbLine
 10
14.672
 20
210.826
 30
0.0
 11
18.064
 21
210.826
 31
0.0
  0
LINE
  5
134
330
1E
100
AcDbEntity
  8
0
100
AcDbLine
 10
10.0
 20
201.826
 30
0.0
 11
10.0
 21
210.826
 31
0.0
  0
LINE
  5
135
330
1E
100
AcDbEntity
  8
0
100
AcDbLine
 10
9.999999999999991
 20
195.9734
 30
0.0
 11
10.0
 21
198.826
 31
0.0
  0
LINE
  5
136
330
1E
100
AcDbEntity
  8
0
100
AcDbLine
 10
9.999999999999991
 20
195.9734
 30
0.0
 11
10.0
 21
199.8259999999999
 31
0.0
  0
LINE
  5
137
330
1E
100
AcDbEntity
  8
0
100
AcDbLine
 10
13.104
 20
211.8259999999999
 30
0.0
 11
19.344
 21
211.8259999999999
 31
0.0
  0
LINE
  5
138
330
1E
100
AcDbEntity
  8
0
100
AcDbLine
 10
13.6
 20
213.8259999999999
 30
0.0
 11
19.6
 21
213.8259999999999
 31
0.0
  0
LINE
  5
139
330
1E
100
AcDbEntity
  8
0
100
AcDbLine
 10
10.0
 20
210.826
 30
0.0
 11
10.0
 21
201.826
 31
0.0
  0
LINE
  5
13A
330
1E
100
AcDbEntity
  8
0
100
AcDbLine
 10
10.0
 20
210.826
 30
0.0
 11
10.57599999999999
 21
210.826
 31
0.0
  0
LINE
  5
13B
330
1E
100
AcDbEntity
  8
0
100
AcDbLine
 10
9.612
 20
190.9734
 30
0.0
 11
9.999999999999991
 21
190.9734
 31
0.0
  0
LINE
  5
13C
330
1E
100
AcDbEntity
  8
0
100
AcDbLine
 10
11.0
 20
213.8259999999999
 30
0.0
 11
11.0
 21
215.8259999999999
 31
0.0
  0
LINE
  5
13D
330
1E
100
AcDbEntity
  8
0
100
AcDbLine
 10
8.64
 20
199.8259999999999
 30
0.0
 11
10.0
 21
199.8259999999999
 31
0.0
  0
LINE
  5
13E
330
1E
100
AcDbEntity
  8
0
100
AcDbLine
 10
15.0723
 20
160.826
 30
0.0
 11
15.0723
 21
155.5339999999999
 31
0.0
  0
LINE
  5
13F
330
1E
100
AcDbEntity
  8
0
100
AcDbLine
 10
18.064
 20
160.826
 30
0.0
 11
21.90399999999999
 21
160.826
 31
0.0
  0
LINE
  5
140
330
1E
100
AcDbEntity
  8
0
100
AcDbLine
 10
21.90399999999999
 20
160.826
 30
0.0
 11
26.0
 21
160.826
 31
0.0
  0
LINE
  5
141
330
1E
100
AcDbEntity
  8
0
100
AcDbLine
 10
26.0
 20
160.826
 30
0.0
 11
30.096
 21
160.826
 31
0.0
  0
LINE
  5
142
330
1E
100
AcDbEntity
  8
0
100
AcDbLine
 10
23.98359999999999
 20
186.826
 30
0.0
 11
24.04609999999999
 21
186.826
 31
0.0
  0
LINE
  5
143
330
1E
100
AcDbEntity
  8
0
100
AcDbLine
 10
23.98359999999999
 20
186.826
 30
0.0
 11
24.0482
 21
186.826
 31
0.0
  0
LINE
  5
144
330
1E
100
AcDbEntity
  8
0
100
AcDbLine
 10
23.98359999999999
 20
186.826
 30
0.0
 11
23.98359999999999
 21
190.826
 31
0.0
  0
LINE
  5
145
330
1E
100
AcDbEntity
  8
0
100
AcDbLine
 10
24.04609999999999
 20
186.826
 30
0.0
 11
24.2517
 21
186.826
 31
0.0
  0
LINE
  5
146
330
1E
100
AcDbEntity
  8
0
100
AcDbLine
 10
24.2517
 20
186.826
 30
0.0
 11
24.5886
 21
186.826
 31
0.0
  0
LINE
  5
147
330
1E
100
AcDbEntity
  8
0
100
AcDbLine
 10
24.0482
 20
186.826
 30
0.0
 11
24.2565
 21
186.826
 31
0.0
  0
LINE
  5
148
330
1E
100
AcDbEntity
  8
0
100
AcDbLine
 10
24.2565
 20
186.826
 30
0.0
 11
24.5762
 21
186.826
 31
0.0
  0
LINE
  5
149
330
1E
100
AcDbEntity
  8
0
100
AcDbLine
 10
25.5064
 20
186.826
 30
0.0
 11
26.0358
 21
186.826
 31
0.0
  0
LINE
  5
14A
330
1E
100
AcDbEntity
  8
0
100
AcDbLine
 10
24.5886
 20
186.826
 30
0.0
 11
25.01549999999999
 21
186.826
 31
0.0
  0
LINE
  5
14B
330
1E
100
AcDbEntity
  8
0
100
AcDbLine
 10
25.01549999999999
 20
186.826
 30
0.0
 11
25.5064
 21
186.826
 31
0.0
  0
LINE
  5
14C
330
1E
100
AcDbEntity
  8
0
100
AcDbLine
 10
24.5762
 20
186.826
 30
0.0
 11
25.0079
 21
186.826
 31
0.0
  0
LINE
  5
14D
330
1E
100
AcDbEntity
  8
0
100
AcDbLine
 10
23.98359999999999
 20
190.826
 30
0.0
 11
23.98359999999999
 21
186.826
 31
0.0
  0
LINE
  5
14E
330
1E
100
AcDbEntity
  8
0
100
AcDbLine
 10
23.98359999999999
 20
190.826
 30
0.0
 11
24.0482
 21
190.826
 31
0.0
  0
LINE
  5
14F
330
1E
100
AcDbEntity
  8
0
100
AcDbLine
 10
24.0482
 20
190.826
 30
0.0
 11
24.2565
 21
190.826
 31
0.0
  0
LINE
  5
150
330
1E
100
AcDbEntity
  8
0
100
AcDbLine
 10
24.2565
 20
190.826
 30
0.0
 11
24.5762
 21
190.826
 31
0.0
  0
LINE
  5
151
330
1E
100
AcDbEntity
  8
0
100
AcDbLine
 10
24.669
 20
190.826
 30
0.0
 11
24.669
 21
190.9734
 31
0.0
  0
LINE
  5
152
330
1E
100
AcDbEntity
  8
0
100
AcDbLine
 10
24.5762
 20
190.826
 30
0.0
 11
25.0079
 21
190.826
 31
0.0
  0
LINE
  5
153
330
1E
100
AcDbEntity
  8
0
100
AcDbLine
 10
15.08799999999999
 20
190.9734
 30
0.0
 11
18.047
 21
190.9734
 31
0.0
  0
LINE
  5
154
330
1E
100
AcDbEntity
  8
0
100
AcDbLine
 10
18.047
 20
190.9734
 30
0.0
 11
18.839
 21
190.9734
 31
0.0
  0
LINE
  5
155
330
1E
100
AcDbEntity
  8
0
100
AcDbLine
 10
18.839
 20
190.9734
 30
0.0
 11
20.159
 21
190.9734
 31
0.0
  0
LINE
  5
156
330
1E
100
AcDbEntity
  8
0
100
AcDbLine
 10
20.159
 20
190.9734
 30
0.0
 11
21.908
 21
190.9734
 31
0.0
  0
LINE
  5
157
330
1E
100
AcDbEntity
  8
0
100
AcDbLine
 10
21.908
 20
190.9734
 30
0.0
 11
23.888
 21
190.9734
 31
0.0
  0
LINE
  5
158
330
1E
100
AcDbEntity
  8
0
100
AcDbLine
 10
23.888
 20
190.9734
 30
0.0
 11
26.0
 21
190.9734
 31
0.0
  0
LINE
  5
159
330
1E
100
AcDbEntity
  8
0
100
AcDbLine
 10
15.08799999999999
 20
195.9734
 30
0.0
 11
18.047
 21
195.9734
 31
0.0
  0
LINE
  5
15A
330
1E
100
AcDbEntity
  8
0
100
AcDbLine
 10
18.047
 20
195.9734
 30
0.0
 11
18.839
 21
195.9734
 31
0.0
  0
LINE
  5
15B
330
1E
100
AcDbEntity
  8
0
100
AcDbLine
 10
18.839
 20
195.9734
 30
0.0
 11
20.159
 21
195.9734
 31
0.0
  0
LINE
  5
15C
330
1E
100
AcDbEntity
  8
0
100
AcDbLine
 10
20.159
 20
195.9734
 30
0.0
 11
21.908
 21
195.9734
 31
0.0
  0
LINE
  5
15D
330
1E
100
AcDbEntity
  8
0
100
AcDbLine
 10
21.908
 20
195.9734
 30
0.0
 11
23.888
 21
195.9734
 31
0.0
  0
LINE
  5
15E
330
1E
100
AcDbEntity
  8
0
100
AcDbLine
 10
19.344
 20
210.826
 30
0.0
 11
26.0
 21
210.826
 31
0.0
  0
LINE
  5
15F
330
1E
100
AcDbEntity
  8
0
100
AcDbLine
 10
19.344
 20
211.8259999999999
 30
0.0
 11
26.0
 21
211.8259999999999
 31
0.0
  0
LINE
  5
160
330
1E
100
AcDbEntity
  8
0
100
AcDbLine
 10
18.064
 20
210.826
 30
0.0
 11
19.344
 21
210.826
 31
0.0
  0
LINE
  5
161
330
1E
100
AcDbEntity
  8
0
100
AcDbLine
 10
19.6
 20
199.8259999999999
 30
0.0
 11
26.0
 21
199.8259999999999
 31
0.0
  0
LINE
  5
162
330
1E
100
AcDbEntity
  8
0
100
AcDbLine
 10
19.6
 20
201.826
 30
0.0
 11
26.0
 21
201.826
 31
0.0
  0
LINE
  5
163
330
1E
100
AcDbEntity
  8
0
100
AcDbLine
 10
23.888
 20
195.9734
 30
0.0
 11
26.0
 21
195.9734
 31
0.0
  0
LINE
  5
164
330
1E
100
AcDbEntity
  8
0
100
AcDbLine
 10
24.669
 20
195.9734
 30
0.0
 11
24.669
 21
199.8259999999999
 31
0.0
  0
LINE
  5
165
330
1E
100
AcDbEntity
  8
0
100
AcDbLine
 10
24.669
 20
190.9734
 30
0.0
 11
24.669
 21
190.826
 31
0.0
  0
LINE
  5
166
330
1E
100
AcDbEntity
  8
0
100
AcDbLine
 10
24.669
 20
199.8259999999999
 30
0.0
 11
24.669
 21
195.9734
 31
0.0
  0
LINE
  5
167
330
1E
100
AcDbEntity
  8
0
100
AcDbLine
 10
25.0079
 20
190.826
 30
0.0
 11
25.5153
 21
190.826
 31
0.0
  0
LINE
  5
168
330
1E
100
AcDbEntity
  8
0
100
AcDbLine
 10
25.5153
 20
190.826
 30
0.0
 11
26.0447
 21
190.826
 31
0.0
  0
LINE
  5
169
330
1E
100
AcDbEntity
  8
0
100
AcDbLine
 10
25.0079
 20
186.826
 30
0.0
 11
25.5153
 21
186.826
 31
0.0
  0
LINE
  5
16A
330
1E
100
AcDbEntity
  8
0
100
AcDbLine
 10
26.0
 20
199.8259999999999
 30
0.0
 11
32.4
 21
199.8259999999999
 31
0.0
  0
LINE
  5
16B
330
1E
100
AcDbEntity
  8
0
100
AcDbLine
 10
26.0
 20
211.8259999999999
 30
0.0
 11
32.656
 21
211.8259999999999
 31
0.0
  0
LINE
  5
16C
330
1E
100
AcDbEntity
  8
0
100
AcDbLine
 10
26.0
 20
210.826
 30
0.0
 11
30.096
 21
210.826
 31
0.0
  0
LINE
  5
16D
330
1E
100
AcDbEntity
  8
0
100
AcDbLine
 10
26.0
 20
210.826
 30
0.0
 11
32.656
 21
210.826
 31
0.0
  0
LINE
  5
16E
330
1E
100
AcDbEntity
  8
0
100
AcDbLine
 10
26.0
 20
201.826
 30
0.0
 11
32.4
 21
201.826
 31
0.0
  0
LINE
  5
16F
330
1E
100
AcDbEntity
  8
0
100
AcDbLine
 10
26.0
 20
195.9734
 30
0.0
 11
28.11199999999999
 21
195.9734
 31
0.0
  0
LINE
  5
170
330
1E
100
AcDbEntity
  8
0
100
AcDbLine
 10
26.0
 20
190.9734
 30
0.0
 11
28.11199999999999
 21
190.9734
 31
0.0
  0
LINE
  5
171
330
1E
100
AcDbEntity
  8
0
100
AcDbLine
 10
25.5153
 20
186.826
 30
0.0
 11
26.0447
 21
186.826
 31
0.0
  0
LINE
  5
172
330
1E
100
AcDbEntity
  8
0
100
AcDbLine
 10
19.6
 20
213.8259999999999
 30
0.0
 11
26.0
 21
213.8259999999999
 31
0.0
  0
LINE
  5
173
330
1E
100
AcDbEntity
  8
0
100
AcDbLine
 10
26.0358
 20
186.826
 30
0.0
 11
26.5651
 21
186.826
 31
0.0
  0
LINE
  5
174
330
1E
100
AcDbEntity
  8
0
100
AcDbLine
 10
26.0447
 20
190.826
 30
0.0
 11
26.5741
 21
190.826
 31
0.0
  0
LINE
  5
175
330
1E
100
AcDbEntity
  8
0
100
AcDbLine
 10
26.0447
 20
186.826
 30
0.0
 11
26.5741
 21
186.826
 31
0.0
  0
LINE
  5
176
330
1E
100
AcDbEntity
  8
0
100
AcDbLine
 10
26.0
 20
213.8259999999999
 30
0.0
 11
32.4
 21
213.8259999999999
 31
0.0
  0
LINE
  5
177
330
1E
100
AcDbEntity
  8
0
100
AcDbLine
 10
23.25629999999999
 20
155.5339999999999
 30
0.0
 11
26.07229999999999
 21
155.5339999999999
 31
0.0
  0
LINE
  5
178
330
1E
100
AcDbEntity
  8
0
100
AcDbLine
 10
37.0723
 20
155.5339999999999
 30
0.0
 11
37.0723
 21
160.826
 31
0.0
  0
LINE
  5
179
330
1E
100
AcDbEntity
  8
0
100
AcDbLine
 10
36.67629999999999
 20
155.5339999999999
 30
0.0
 11
37.0723
 21
155.5339999999999
 31
0.0
  0
LINE
  5
17A
330
1E
100
AcDbEntity
  8
0
100
AcDbLine
 10
35.6203
 20
155.5339999999999
 30
0.0
 11
36.67629999999999
 21
155.5339999999999
 31
0.0
  0
LINE
  5
17B
330
1E
100
AcDbEntity
  8
0
100
AcDbLine
 10
33.8603
 20
155.5339999999999
 30
0.0
 11
35.6203
 21
155.5339999999999
 31
0.0
  0
LINE
  5
17C
330
1E
100
AcDbEntity
  8
0
100
AcDbLine
 10
31.5283
 20
155.5339999999999
 30
0.0
 11
33.8603
 21
155.5339999999999
 31
0.0
  0
LINE
  5
17D
330
1E
100
AcDbEntity
  8
0
100
AcDbLine
 10
27.0649
 20
186.826
 30
0.0
 11
27.4919
 21
186.826
 31
0.0
  0
LINE
  5
17E
330
1E
100
AcDbEntity
  8
0
100
AcDbLine
 10
26.5741
 20
186.826
 30
0.0
 11
27.0649
 21
186.826
 31
0.0
  0
LINE
  5
17F
330
1E
100
AcDbEntity
  8
0
100
AcDbLine
 10
27.4919
 20
186.826
 30
0.0
 11
27.8288
 21
186.826
 31
0.0
  0
LINE
  5
180
330
1E
100
AcDbEntity
  8
0
100
AcDbLine
 10
28.0329
 20
186.826
 30
0.0
 11
28.0976
 21
186.826
 31
0.0
  0
LINE
  5
181
330
1E
100
AcDbEntity
  8
0
100
AcDbLine
 10
30.096
 20
160.826
 30
0.0
 11
33.936
 21
160.826
 31
0.0
  0
LINE
  5
182
330
1E
100
AcDbEntity
  8
0
100
AcDbLine
 10
28.0976
 20
186.826
 30
0.0
 11
28.0976
 21
190.826
 31
0.0
  0
LINE
  5
183
330
1E
100
AcDbEntity
  8
0
100
AcDbLine
 10
28.0343
 20
186.826
 30
0.0
 11
28.0976
 21
186.826
 31
0.0
  0
LINE
  5
184
330
1E
100
AcDbEntity
  8
0
100
AcDbLine
 10
27.8288
 20
186.826
 30
0.0
 11
28.0343
 21
186.826
 31
0.0
  0
LINE
  5
185
330
1E
100
AcDbEntity
  8
0
100
AcDbLine
 10
27.82389999999999
 20
186.826
 30
0.0
 11
28.0329
 21
186.826
 31
0.0
  0
LINE
  5
186
330
1E
100
AcDbEntity
  8
0
100
AcDbLine
 10
27.5049
 20
186.826
 30
0.0
 11
27.82389999999999
 21
186.826
 31
0.0
  0
LINE
  5
187
330
1E
100
AcDbEntity
  8
0
100
AcDbLine
 10
27.0732
 20
186.826
 30
0.0
 11
27.5049
 21
186.826
 31
0.0
  0
LINE
  5
188
330
1E
100
AcDbEntity
  8
0
100
AcDbLine
 10
27.4121
 20
190.826
 30
0.0
 11
27.4121
 21
190.9734
 31
0.0
  0
LINE
  5
189
330
1E
100
AcDbEntity
  8
0
100
AcDbLine
 10
28.0976
 20
190.826
 30
0.0
 11
28.0976
 21
186.826
 31
0.0
  0
LINE
  5
18A
330
1E
100
AcDbEntity
  8
0
100
AcDbLine
 10
28.0343
 20
190.826
 30
0.0
 11
28.0976
 21
190.826
 31
0.0
  0
LINE
  5
18B
330
1E
100
AcDbEntity
  8
0
100
AcDbLine
 10
27.8288
 20
190.826
 30
0.0
 11
28.0343
 21
190.826
 31
0.0
  0
LINE
  5
18C
330
1E
100
AcDbEntity
  8
0
100
AcDbLine
 10
27.4919
 20
190.826
 30
0.0
 11
27.8288
 21
190.826
 31
0.0
  0
LINE
  5
18D
330
1E
100
AcDbEntity
  8
0
100
AcDbLine
 10
27.4121
 20
195.9734
 30
0.0
 11
27.4121
 21
199.8259999999999
 31
0.0
  0
LINE
  5
18E
330
1E
100
AcDbEntity
  8
0
100
AcDbLine
 10
27.4121
 20
199.8259999999999
 30
0.0
 11
27.4121
 21
195.9734
 31
0.0
  0
LINE
  5
18F
330
1E
100
AcDbEntity
  8
0
100
AcDbLine
 10
31.84099999999999
 20
190.9734
 30
0.0
 11
33.161
 21
190.9734
 31
0.0
  0
LINE
  5
190
330
1E
100
AcDbEntity
  8
0
100
AcDbLine
 10
30.09199999999999
 20
190.9734
 30
0.0
 11
31.84099999999999
 21
190.9734
 31
0.0
  0
LINE
  5
191
330
1E
100
AcDbEntity
  8
0
100
AcDbLine
 10
31.84099999999999
 20
195.9734
 30
0.0
 11
33.161
 21
195.9734
 31
0.0
  0
LINE
  5
192
330
1E
100
AcDbEntity
  8
0
100
AcDbLine
 10
30.096
 20
210.826
 30
0.0
 11
33.936
 21
210.826
 31
0.0
  0
LINE
  5
193
330
1E
100
AcDbEntity
  8
0
100
AcDbLine
 10
32.4
 20
199.8259999999999
 30
0.0
 11
38.39999999999999
 21
199.8259999999999
 31
0.0
  0
LINE
  5
194
330
1E
100
AcDbEntity
  8
0
100
AcDbLine
 10
32.4
 20
201.826
 30
0.0
 11
38.39999999999999
 21
201.826
 31
0.0
  0
LINE
  5
195
330
1E
100
AcDbEntity
  8
0
100
AcDbLine
 10
30.09199999999999
 20
195.9734
 30
0.0
 11
31.84099999999999
 21
195.9734
 31
0.0
  0
LINE
  5
196
330
1E
100
AcDbEntity
  8
0
100
AcDbLine
 10
28.11199999999999
 20
195.9734
 30
0.0
 11
30.09199999999999
 21
195.9734
 31
0.0
  0
LINE
  5
197
330
1E
100
AcDbEntity
  8
0
100
AcDbLine
 10
28.11199999999999
 20
190.9734
 30
0.0
 11
30.09199999999999
 21
190.9734
 31
0.0
  0
LINE
  5
198
330
1E
100
AcDbEntity
  8
0
100
AcDbLine
 10
27.4121
 20
190.9734
 30
0.0
 11
27.4121
 21
190.826
 31
0.0
  0
LINE
  5
199
330
1E
100
AcDbEntity
  8
0
100
AcDbLine
 10
27.0649
 20
190.826
 30
0.0
 11
27.4919
 21
190.826
 31
0.0
  0
LINE
  5
19A
330
1E
100
AcDbEntity
  8
0
100
AcDbLine
 10
26.5741
 20
190.826
 30
0.0
 11
27.0649
 21
190.826
 31
0.0
  0
LINE
  5
19B
330
1E
100
AcDbEntity
  8
0
100
AcDbLine
 10
26.5651
 20
186.826
 30
0.0
 11
27.0732
 21
186.826
 31
0.0
  0
LINE
  5
19C
330
1E
100
AcDbEntity
  8
0
100
AcDbLine
 10
33.936
 20
160.826
 30
0.0
 11
37.328
 21
160.826
 31
0.0
  0
LINE
  5
19D
330
1E
100
AcDbEntity
  8
0
100
AcDbLine
 10
36.912
 20
190.9734
 30
0.0
 11
41.576
 21
190.9734
 31
0.0
  0
LINE
  5
19E
330
1E
100
AcDbEntity
  8
0
100
AcDbLine
 10
33.953
 20
190.9734
 30
0.0
 11
36.912
 21
190.9734
 31
0.0
  0
LINE
  5
19F
330
1E
100
AcDbEntity
  8
0
100
AcDbLine
 10
32.656
 20
210.826
 30
0.0
 11
38.896
 21
210.826
 31
0.0
  0
LINE
  5
1A0
330
1E
100
AcDbEntity
  8
0
100
AcDbLine
 10
32.656
 20
211.8259999999999
 30
0.0
 11
38.896
 21
211.8259999999999
 31
0.0
  0
LINE
  5
1A1
330
1E
100
AcDbEntity
  8
0
100
AcDbLine
 10
36.912
 20
195.9734
 30
0.0
 11
41.576
 21
195.9734
 31
0.0
  0
LINE
  5
1A2
330
1E
100
AcDbEntity
  8
0
100
AcDbLine
 10
33.936
 20
210.826
 30
0.0
 11
37.328
 21
210.826
 31
0.0
  0
LINE
  5
1A3
330
1E
100
AcDbEntity
  8
0
100
AcDbLine
 10
33.953
 20
195.9734
 30
0.0
 11
36.912
 21
195.9734
 31
0.0
  0
LINE
  5
1A4
330
1E
100
AcDbEntity
  8
0
100
AcDbLine
 10
33.161
 20
195.9734
 30
0.0
 11
33.953
 21
195.9734
 31
0.0
  0
LINE
  5
1A5
330
1E
100
AcDbEntity
  8
0
100
AcDbLine
 10
33.161
 20
190.9734
 30
0.0
 11
33.953
 21
190.9734
 31
0.0
  0
LINE
  5
1A6
330
1E
100
AcDbEntity
  8
0
100
AcDbLine
 10
32.4
 20
213.8259999999999
 30
0.0
 11
38.39999999999999
 21
213.8259999999999
 31
0.0
  0
LINE
  5
1A7
330
1E
100
AcDbEntity
  8
0
100
AcDbLine
 10
28.8883
 20
155.5339999999999
 30
0.0
 11
31.5283
 21
155.5339999999999
 31
0.0
  0
LINE
  5
1A8
330
1E
100
AcDbEntity
  8
0
100
AcDbLine
 10
26.07229999999999
 20
155.5339999999999
 30
0.0
 11
28.8883
 21
155.5339999999999
 31
0.0
  0
LINE
  5
1A9
330
1E
100
AcDbEntity
  8
0
100
AcDbLine
 10
36.8083
 20
155.174
 30
0.0
 11
37.0723
 21
155.5339999999999
 31
0.0
  0
LINE
  5
1AB
330
1E
100
AcDbEntity
  8
0
100
AcDbLine
 10
37.54469999999999
 20
96.125
 30
0.0
 11
38.5027
 21
96.54000000000001
 31
0.0
  0
LINE
  5
1AE
330
1E
100
AcDbEntity
  8
0
100
AcDbLine
 10
37.54469999999999
 20
110.5269999999999
 30
0.0
 11
38.5027
 21
110.112
 31
0.0
  0
LINE
  5
1AF
330
1E
100
AcDbEntity
  8
0
100
AcDbLine
 10
37.81819999999999
 20
110.612
 30
0.0
 11
38.7045
 21
110.112
 31
0.0
  0
LINE
  5
1B0
330
1E
100
AcDbEntity
  8
0
100
AcDbLine
 10
37.81819999999999
 20
96.04
 30
0.0
 11
38.7045
 21
96.54000000000001
 31
0.0
  0
LINE
  5
1B2
330
1E
100
AcDbEntity
  8
0
100
AcDbLine
 10
38.5027
 20
96.54000000000001
 30
0.0
 11
38.7045
 21
96.54000000000001
 31
0.0
  0
LINE
  5
1B3
330
1E
100
AcDbEntity
  8
0
100
AcDbLine
 10
38.5027
 20
110.112
 30
0.0
 11
38.7045
 21
110.112
 31
0.0
  0
LINE
  5
1B4
330
1E
100
AcDbEntity
  8
0
100
AcDbLine
 10
38.74399999999999
 20
110.826
 30
0.0
 11
41.62399999999999
 21
110.826
 31
0.0
  0
LINE
  5
1B5
330
1E
100
AcDbEntity
  8
0
100
AcDbLine
 10
39.0
 20
97.255
 30
0.0
 11
39.0
 21
109.397
 31
0.0
  0
LINE
  5
1B6
330
1E
100
AcDbEntity
  8
0
100
AcDbLine
 10
38.7045
 20
110.112
 30
0.0
 11
39.0
 21
109.397
 31
0.0
  0
LINE
  5
1B7
330
1E
100
AcDbEntity
  8
0
100
AcDbLine
 10
38.7045
 20
96.54000000000001
 30
0.0
 11
39.0
 21
97.255
 31
0.0
  0
LINE
  5
1B8
330
1E
100
AcDbEntity
  8
0
100
AcDbLine
 10
44.0
 20
110.826
 30
0.0
 11
44.0
 21
160.826
 31
0.0
  0
LINE
  5
1B9
330
1E
100
AcDbEntity
  8
0
100
AcDbLine
 10
43.35199999999999
 20
110.826
 30
0.0
 11
44.0
 21
110.826
 31
0.0
  0
LINE
  5
1BA
330
1E
100
AcDbEntity
  8
0
100
AcDbLine
 10
41.62399999999999
 20
110.826
 30
0.0
 11
43.35199999999999
 21
110.826
 31
0.0
  0
LINE
  5
1BB
330
1E
100
AcDbEntity
  8
0
100
AcDbLine
 10
40.0
 20
127.826
 30
0.0
 11
40.0
 21
160.826
 31
0.0
  0
LINE
  5
1BC
330
1E
100
AcDbEntity
  8
0
100
AcDbLine
 10
39.496
 20
127.826
 30
0.0
 11
40.0
 21
127.826
 31
0.0
  0
LINE
  5
1BD
330
1E
100
AcDbEntity
  8
0
100
AcDbLine
 10
38.152
 20
127.826
 30
0.0
 11
39.496
 21
127.826
 31
0.0
  0
LINE
  5
1BE
330
1E
100
AcDbEntity
  8
0
100
AcDbLine
 10
37.328
 20
160.826
 30
0.0
 11
39.888
 21
160.826
 31
0.0
  0
LINE
  5
1BF
330
1E
100
AcDbEntity
  8
0
100
AcDbLine
 10
37.328
 20
210.826
 30
0.0
 11
39.888
 21
210.826
 31
0.0
  0
LINE
  5
1C0
330
1E
100
AcDbEntity
  8
0
100
AcDbLine
 10
38.39999999999999
 20
199.8259999999999
 30
0.0
 11
43.7
 21
199.8259999999999
 31
0.0
  0
LINE
  5
1C1
330
1E
100
AcDbEntity
  8
0
100
AcDbLine
 10
38.896
 20
210.826
 30
0.0
 11
44.408
 21
210.826
 31
0.0
  0
LINE
  5
1C2
330
1E
100
AcDbEntity
  8
0
100
AcDbLine
 10
38.896
 20
211.8259999999999
 30
0.0
 11
44.408
 21
211.8259999999999
 31
0.0
  0
LINE
  5
1C3
330
1E
100
AcDbEntity
  8
0
100
AcDbLine
 10
39.888
 20
210.826
 30
0.0
 11
41.424
 21
210.826
 31
0.0
  0
LINE
  5
1C4
330
1E
100
AcDbEntity
  8
0
100
AcDbLine
 10
39.888
 20
160.826
 30
0.0
 11
41.424
 21
160.826
 31
0.0
  0
LINE
  5
1C5
330
1E
100
AcDbEntity
  8
0
100
AcDbLine
 10
38.39999999999999
 20
201.826
 30
0.0
 11
43.7
 21
201.826
 31
0.0
  0
LINE
  5
1C6
330
1E
100
AcDbEntity
  8
0
100
AcDbLine
 10
38.39999999999999
 20
213.8259999999999
 30
0.0
 11
43.7
 21
213.8259999999999
 31
0.0
  0
LINE
  5
1C7
330
1E
100
AcDbEntity
  8
0
100
AcDbLine
 10
42.0
 20
160.826
 30
0.0
 11
42.0
 21
190.9734
 31
0.0
  0
LINE
  5
1C8
330
1E
100
AcDbEntity
  8
0
100
AcDbLine
 10
41.424
 20
160.826
 30
0.0
 11
42.0
 21
160.826
 31
0.0
  0
LINE
  5
1C9
330
1E
100
AcDbEntity
  8
0
100
AcDbLine
 10
41.576
 20
190.9734
 30
0.0
 11
45.096
 21
190.9734
 31
0.0
  0
LINE
  5
1CA
330
1E
100
AcDbEntity
  8
0
100
AcDbLine
 10
41.62399999999999
 20
160.826
 30
0.0
 11
43.35199999999999
 21
160.826
 31
0.0
  0
LINE
  5
1CB
330
1E
100
AcDbEntity
  8
0
100
AcDbLine
 10
43.35199999999999
 20
160.826
 30
0.0
 11
44.0
 21
160.826
 31
0.0
  0
LINE
  5
1CC
330
1E
100
AcDbEntity
  8
0
100
AcDbLine
 10
42.388
 20
190.9734
 30
0.0
 11
43.0
 21
190.9734
 31
0.0
  0
LINE
  5
1CD
330
1E
100
AcDbEntity
  8
0
100
AcDbLine
 10
42.0
 20
195.9734
 30
0.0
 11
42.0
 21
199.8259999999999
 31
0.0
  0
LINE
  5
1CE
330
1E
100
AcDbEntity
  8
0
100
AcDbLine
 10
41.576
 20
195.9734
 30
0.0
 11
45.096
 21
195.9734
 31
0.0
  0
LINE
  5
1CF
330
1E
100
AcDbEntity
  8
0
100
AcDbLine
 10
42.0
 20
198.826
 30
0.0
 11
43.7
 21
198.826
 31
0.0
  0
LINE
  5
1D0
330
1E
100
AcDbEntity
  8
0
100
AcDbLine
 10
42.0
 20
190.9734
 30
0.0
 11
42.388
 21
190.9734
 31
0.0
  0
LINE
  5
1D1
330
1E
100
AcDbEntity
  8
0
100
AcDbLine
 10
42.0
 20
190.9734
 30
0.0
 11
45.096
 21
190.9734
 31
0.0
  0
LINE
  5
1D2
330
1E
100
AcDbEntity
  8
0
100
AcDbLine
 10
42.0
 20
190.9734
 30
0.0
 11
42.0
 21
160.826
 31
0.0
  0
LINE
  5
1D3
330
1E
100
AcDbEntity
  8
0
100
AcDbLine
 10
45.096
 20
195.9734
 30
0.0
 11
47.20799999999999
 21
195.9734
 31
0.0
  0
LINE
  5
1D4
330
1E
100
AcDbEntity
  8
0
100
AcDbLine
 10
43.7
 20
199.8259999999999
 30
0.0
 11
47.7
 21
199.8259999999999
 31
0.0
  0
LINE
  5
1D5
330
1E
100
AcDbEntity
  8
0
100
AcDbLine
 10
43.7
 20
198.826
 30
0.0
 11
47.7
 21
198.826
 31
0.0
  0
LINE
  5
1D6
330
1E
100
AcDbEntity
  8
0
100
AcDbLine
 10
48.0
 20
190.9734
 30
0.0
 11
48.0
 21
195.9734
 31
0.0
  0
LINE
  5
1D7
330
1E
100
AcDbEntity
  8
0
100
AcDbLine
 10
47.7
 20
199.8259999999999
 30
0.0
 11
50.1
 21
199.8259999999999
 31
0.0
  0
LINE
  5
1D8
330
1E
100
AcDbEntity
  8
0
100
AcDbLine
 10
47.20799999999999
 20
195.9734
 30
0.0
 11
48.0
 21
195.9734
 31
0.0
  0
LINE
  5
1D9
330
1E
100
AcDbEntity
  8
0
100
AcDbLine
 10
48.0
 20
195.9734
 30
0.0
 11
48.0
 21
190.9734
 31
0.0
  0
LINE
  5
1DA
330
1E
100
AcDbEntity
  8
0
100
AcDbLine
 10
51.0
 20
198.826
 30
0.0
 11
51.0
 21
199.8259999999999
 31
0.0
  0
LINE
  5
1DB
330
1E
100
AcDbEntity
  8
0
100
AcDbLine
 10
50.1
 20
199.8259999999999
 30
0.0
 11
51.0
 21
199.8259999999999
 31
0.0
  0
LINE
  5
1DC
330
1E
100
AcDbEntity
  8
0
100
AcDbLine
 10
51.0
 20
199.8259999999999
 30
0.0
 11
51.0
 21
198.826
 31
0.0
  0
LINE
  5
1DD
330
1E
100
AcDbEntity
  8
0
100
AcDbLine
 10
51.0
 20
199.8259999999999
 30
0.0
 11
51.0
 21
201.826
 31
0.0
  0
LINE
  5
1DE
330
1E
100
AcDbEntity
  8
0
100
AcDbLine
 10
50.1
 20
198.826
 30
0.0
 11
51.0
 21
198.826
 31
0.0
  0
LINE
  5
1DF
330
1E
100
AcDbEntity
  8
0
100
AcDbLine
 10
47.7
 20
198.826
 30
0.0
 11
50.1
 21
198.826
 31
0.0
  0
LINE
  5
1E0
330
1E
100
AcDbEntity
  8
0
100
AcDbLine
 10
47.20799999999999
 20
190.9734
 30
0.0
 11
48.0
 21
190.9734
 31
0.0
  0
LINE
  5
1E1
330
1E
100
AcDbEntity
  8
0
100
AcDbLine
 10
45.096
 20
190.9734
 30
0.0
 11
47.20799999999999
 21
190.9734
 31
0.0
  0
LINE
  5
1E2
330
1E
100
AcDbEntity
  8
0
100
AcDbLine
 10
45.28
 20
199.8259999999999
 30
0.0
 11
46.0
 21
199.8259999999999
 31
0.0
  0
LINE
  5
1E3
330
1E
100
AcDbEntity
  8
0
100
AcDbLine
 10
43.36
 20
199.8259999999999
 30
0.0
 11
45.28
 21
199.8259999999999
 31
0.0
  0
LINE
  5
1E4
330
1E
100
AcDbEntity
  8
0
100
AcDbLine
 10
42.0
 20
210.826
 30
0.0
 11
42.0
 21
201.826
 31
0.0
  0
LINE
  5
1E5
330
1E
100
AcDbEntity
  8
0
100
AcDbLine
 10
42.0
 20
210.826
 30
0.0
 11
44.228
 21
210.826
 31
0.0
  0
LINE
  5
1E6
330
1E
100
AcDbEntity
  8
0
100
AcDbLine
 10
42.0
 20
210.826
 30
0.0
 11
44.408
 21
210.826
 31
0.0
  0
LINE
  5
1E7
330
1E
100
AcDbEntity
  8
0
100
AcDbLine
 10
41.424
 20
210.826
 30
0.0
 11
42.0
 21
210.826
 31
0.0
  0
LINE
  5
1E8
330
1E
100
AcDbEntity
  8
0
100
AcDbLine
 10
42.0
 20
201.826
 30
0.0
 11
42.0
 21
210.826
 31
0.0
  0
LINE
  5
1E9
330
1E
100
AcDbEntity
  8
0
100
AcDbLine
 10
51.0
 20
201.826
 30
0.0
 11
51.0
 21
199.8259999999999
 31
0.0
  0
LINE
  5
1EA
330
1E
100
AcDbEntity
  8
0
100
AcDbLine
 10
50.1
 20
201.826
 30
0.0
 11
51.0
 21
201.826
 31
0.0
  0
LINE
  5
1EB
330
1E
100
AcDbEntity
  8
0
100
AcDbLine
 10
52.0
 20
210.826
 30
0.0
 11
52.0
 21
211.8259999999999
 31
0.0
  0
LINE
  5
1EC
330
1E
100
AcDbEntity
  8
0
100
AcDbLine
 10
51.06399999999999
 20
210.826
 30
0.0
 11
52.0
 21
210.826
 31
0.0
  0
LINE
  5
1ED
330
1E
100
AcDbEntity
  8
0
100
AcDbLine
 10
48.568
 20
210.826
 30
0.0
 11
51.06399999999999
 21
210.826
 31
0.0
  0
LINE
  5
1EE
330
1E
100
AcDbEntity
  8
0
100
AcDbLine
 10
44.408
 20
210.826
 30
0.0
 11
48.568
 21
210.826
 31
0.0
  0
LINE
  5
1EF
330
1E
100
AcDbEntity
  8
0
100
AcDbLine
 10
51.06399999999999
 20
211.8259999999999
 30
0.0
 11
52.0
 21
211.8259999999999
 31
0.0
  0
LINE
  5
1F0
330
1E
100
AcDbEntity
  8
0
100
AcDbLine
 10
48.568
 20
211.8259999999999
 30
0.0
 11
51.06399999999999
 21
211.8259999999999
 31
0.0
  0
LINE
  5
1F1
330
1E
100
AcDbEntity
  8
0
100
AcDbLine
 10
44.408
 20
211.8259999999999
 30
0.0
 11
48.568
 21
211.8259999999999
 31
0.0
  0
LINE
  5
1F2
330
1E
100
AcDbEntity
  8
0
100
AcDbLine
 10
52.0
 20
211.8259999999999
 30
0.0
 11
52.0
 21
210.826
 31
0.0
  0
LINE
  5
1F3
330
1E
100
AcDbEntity
  8
0
100
AcDbLine
 10
46.244
 20
210.826
 30
0.0
 11
47.0
 21
210.826
 31
0.0
  0
LINE
  5
1F4
330
1E
100
AcDbEntity
  8
0
100
AcDbLine
 10
44.228
 20
210.826
 30
0.0
 11
46.244
 21
210.826
 31
0.0
  0
LINE
  5
1F5
330
1E
100
AcDbEntity
  8
0
100
AcDbLine
 10
47.7
 20
201.826
 30
0.0
 11
50.1
 21
201.826
 31
0.0
  0
LINE
  5
1F6
330
1E
100
AcDbEntity
  8
0
100
AcDbLine
 10
43.7
 20
201.826
 30
0.0
 11
47.7
 21
201.826
 31
0.0
  0
LINE
  5
1F7
330
1E
100
AcDbEntity
  8
0
100
AcDbLine
 10
51.0
 20
213.8259999999999
 30
0.0
 11
51.0
 21
211.8259999999999
 31
0.0
  0
LINE
  5
1F8
330
1E
100
AcDbEntity
  8
0
100
AcDbLine
 10
50.1
 20
213.8259999999999
 30
0.0
 11
51.0
 21
213.8259999999999
 31
0.0
  0
LINE
  5
1F9
330
1E
100
AcDbEntity
  8
0
100
AcDbLine
 10
47.7
 20
213.8259999999999
 30
0.0
 11
50.1
 21
213.8259999999999
 31
0.0
  0
LINE
  5
1FA
330
1E
100
AcDbEntity
  8
0
100
AcDbLine
 10
43.7
 20
213.8259999999999
 30
0.0
 11
47.7
 21
213.8259999999999
 31
0.0
  0
LINE
  5
1FB
330
1E
100
AcDbEntity
  8
0
100
AcDbLine
 10
51.0
 20
211.8259999999999
 30
0.0
 11
51.0
 21
213.8259999999999
 31
0.0
  0
LINE
  5
1FC
330
1E
100
AcDbEntity
  8
0
100
AcDbLine
 10
41.0
 20
213.8259999999999
 30
0.0
 11
41.0
 21
215.8259999999999
 31
0.0
  0
LINE
  5
1FD
330
1E
100
AcDbEntity
  8
0
100
AcDbLine
 10
42.0
 20
199.8259999999999
 30
0.0
 11
43.36
 21
199.8259999999999
 31
0.0
  0
LINE
  5
1FE
330
1E
100
AcDbEntity
  8
0
100
AcDbLine
 10
42.0
 20
199.8259999999999
 30
0.0
 11
43.7
 21
199.8259999999999
 31
0.0
  0
LINE
  5
1FF
330
1E
100
AcDbEntity
  8
0
100
AcDbLine
 10
42.0
 20
199.8259999999999
 30
0.0
 11
42.0
 21
195.9734
 31
0.0
  0
LINE
  5
200
330
1E
100
AcDbEntity
  8
0
100
AcDbLine
 10
40.0
 20
160.826
 30
0.0
 11
40.0
 21
127.826
 31
0.0
  0
LINE
  5
201
330
1E
100
AcDbEntity
  8
0
100
AcDbLine
 10
40.0
 20
160.826
 30
0.0
 11
41.62399999999999
 21
160.826
 31
0.0
  0
LINE
  5
202
330
1E
100
AcDbEntity
  8
0
100
AcDbLine
 10
37.1723
 20
155.174
 30
0.0
 11
37.57229999999999
 21
155.174
 31
0.0
  0
LINE
  5
203
330
1E
100
AcDbEntity
  8
0
100
AcDbLine
 10
37.0723
 20
160.826
 30
0.0
 11
37.0723
 21
155.5339999999999
 31
0.0
  0
LINE
  5
204
330
1E
100
AcDbEntity
  8
0
100
AcDbLine
 10
37.0723
 20
160.826
 30
0.0
 11
37.328
 21
160.826
 31
0.0
  0
LINE
  5
205
330
1E
100
AcDbEntity
  8
0
100
AcDbLine
 10
37.0723
 20
95.85992035198559
 30
0.0
 11
37.0723
 21
90.53399999999999
 31
0.0
  0
LINE
  5
206
330
1E
100
AcDbEntity
  8
0
100
AcDbLine
 10
37.0723
 20
95.85992035198559
 30
0.0
 11
37.81819999999999
 21
96.04
 31
0.0
  0
LINE
  5
207
330
1E
100
AcDbEntity
  8
0
100
AcDbLine
 10
7.99999999999999
 20
213.8259999999999
 30
0.0
 11
7.99999999999999
 21
218.826
 31
0.0
  0
LINE
  5
208
330
1E
100
AcDbEntity
  8
0
100
AcDbLine
 10
10.0
 20
218.826
 30
0.0
 11
10.0
 21
222.826
 31
0.0
  0
LINE
  5
209
330
1E
100
AcDbEntity
  8
0
100
AcDbLine
 10
7.99999999999999
 20
218.826
 30
0.0
 11
8.64799999999999
 21
218.826
 31
0.0
  0
LINE
  5
20A
330
1E
100
AcDbEntity
  8
0
100
AcDbLine
 10
7.99999999999999
 20
218.826
 30
0.0
 11
7.99999999999999
 21
213.8259999999999
 31
0.0
  0
LINE
  5
20B
330
1E
100
AcDbEntity
  8
0
100
AcDbLine
 10
8.64799999999999
 20
218.826
 30
0.0
 11
10.376
 21
218.826
 31
0.0
  0
LINE
  5
20C
330
1E
100
AcDbEntity
  8
0
100
AcDbLine
 10
15.0
 20
215.8259999999999
 30
0.0
 11
15.0
 21
218.826
 31
0.0
  0
LINE
  5
20D
330
1E
100
AcDbEntity
  8
0
100
AcDbLine
 10
11.53999999999999
 20
215.8259999999999
 30
0.0
 11
12.98
 21
215.8259999999999
 31
0.0
  0
LINE
  5
20E
330
1E
100
AcDbEntity
  8
0
100
AcDbLine
 10
12.98
 20
215.8259999999999
 30
0.0
 11
15.38
 21
215.8259999999999
 31
0.0
  0
LINE
  5
20F
330
1E
100
AcDbEntity
  8
0
100
AcDbLine
 10
15.38
 20
215.8259999999999
 30
0.0
 11
18.55999999999999
 21
215.8259999999999
 31
0.0
  0
LINE
  5
210
330
1E
100
AcDbEntity
  8
0
100
AcDbLine
 10
18.55999999999999
 20
215.8259999999999
 30
0.0
 11
22.16
 21
215.8259999999999
 31
0.0
  0
LINE
  5
211
330
1E
100
AcDbEntity
  8
0
100
AcDbLine
 10
22.16
 20
215.8259999999999
 30
0.0
 11
26.0
 21
215.8259999999999
 31
0.0
  0
LINE
  5
212
330
1E
100
AcDbEntity
  8
0
100
AcDbLine
 10
11.0
 20
215.8259999999999
 30
0.0
 11
11.0
 21
213.8259999999999
 31
0.0
  0
LINE
  5
213
330
1E
100
AcDbEntity
  8
0
100
AcDbLine
 10
11.0
 20
215.8259999999999
 30
0.0
 11
11.53999999999999
 21
215.8259999999999
 31
0.0
  0
LINE
  5
214
330
1E
100
AcDbEntity
  8
0
100
AcDbLine
 10
37.0
 20
215.8259999999999
 30
0.0
 11
37.0
 21
218.826
 31
0.0
  0
LINE
  5
215
330
1E
100
AcDbEntity
  8
0
100
AcDbLine
 10
36.61999999999999
 20
215.8259999999999
 30
0.0
 11
39.02
 21
215.8259999999999
 31
0.0
  0
LINE
  5
216
330
1E
100
AcDbEntity
  8
0
100
AcDbLine
 10
33.43999999999999
 20
215.8259999999999
 30
0.0
 11
36.61999999999999
 21
215.8259999999999
 31
0.0
  0
LINE
  5
217
330
1E
100
AcDbEntity
  8
0
100
AcDbLine
 10
29.83999999999999
 20
215.8259999999999
 30
0.0
 11
33.43999999999999
 21
215.8259999999999
 31
0.0
  0
LINE
  5
218
330
1E
100
AcDbEntity
  8
0
100
AcDbLine
 10
16.0
 20
218.826
 30
0.0
 11
16.0
 21
221.8259999999999
 31
0.0
  0
LINE
  5
219
330
1E
100
AcDbEntity
  8
0
100
AcDbLine
 10
15.396
 20
218.826
 30
0.0
 11
16.452
 21
218.826
 31
0.0
  0
LINE
  5
21A
330
1E
100
AcDbEntity
  8
0
100
AcDbLine
 10
16.452
 20
218.826
 30
0.0
 11
18.212
 21
218.826
 31
0.0
  0
LINE
  5
21B
330
1E
100
AcDbEntity
  8
0
100
AcDbLine
 10
18.212
 20
218.826
 30
0.0
 11
20.544
 21
218.826
 31
0.0
  0
LINE
  5
21C
330
1E
100
AcDbEntity
  8
0
100
AcDbLine
 10
20.544
 20
218.826
 30
0.0
 11
23.184
 21
218.826
 31
0.0
  0
LINE
  5
21D
330
1E
100
AcDbEntity
  8
0
100
AcDbLine
 10
23.184
 20
218.826
 30
0.0
 11
26.0
 21
218.826
 31
0.0
  0
LINE
  5
21E
330
1E
100
AcDbEntity
  8
0
100
AcDbLine
 10
15.0
 20
218.826
 30
0.0
 11
15.0
 21
215.8259999999999
 31
0.0
  0
LINE
  5
21F
330
1E
100
AcDbEntity
  8
0
100
AcDbLine
 10
15.0
 20
218.826
 30
0.0
 11
15.396
 21
218.826
 31
0.0
  0
LINE
  5
220
330
1E
100
AcDbEntity
  8
0
100
AcDbLine
 10
36.0
 20
218.826
 30
0.0
 11
36.0
 21
221.8259999999999
 31
0.0
  0
LINE
  5
221
330
1E
100
AcDbEntity
  8
0
100
AcDbLine
 10
36.604
 20
218.826
 30
0.0
 11
37.0
 21
218.826
 31
0.0
  0
LINE
  5
222
330
1E
100
AcDbEntity
  8
0
100
AcDbLine
 10
35.548
 20
218.826
 30
0.0
 11
36.604
 21
218.826
 31
0.0
  0
LINE
  5
223
330
1E
100
AcDbEntity
  8
0
100
AcDbLine
 10
33.788
 20
218.826
 30
0.0
 11
35.548
 21
218.826
 31
0.0
  0
LINE
  5
224
330
1E
100
AcDbEntity
  8
0
100
AcDbLine
 10
31.45599999999999
 20
218.826
 30
0.0
 11
33.788
 21
218.826
 31
0.0
  0
LINE
  5
225
330
1E
100
AcDbEntity
  8
0
100
AcDbLine
 10
28.816
 20
218.826
 30
0.0
 11
31.45599999999999
 21
218.826
 31
0.0
  0
LINE
  5
226
330
1E
100
AcDbEntity
  8
0
100
AcDbLine
 10
26.0
 20
218.826
 30
0.0
 11
28.816
 21
218.826
 31
0.0
  0
LINE
  5
227
330
1E
100
AcDbEntity
  8
0
100
AcDbLine
 10
26.0
 20
215.8259999999999
 30
0.0
 11
29.83999999999999
 21
215.8259999999999
 31
0.0
  0
LINE
  5
228
330
1E
100
AcDbEntity
  8
0
100
AcDbLine
 10
10.376
 20
218.826
 30
0.0
 11
13.25599999999999
 21
218.826
 31
0.0
  0
LINE
  5
229
330
1E
100
AcDbEntity
  8
0
100
AcDbLine
 10
9.0
 20
222.826
 30
0.0
 11
9.0
 21
225.8259999999999
 31
0.0
  0
LINE
  5
22A
330
1E
100
AcDbEntity
  8
0
100
AcDbLine
 10
9.0
 20
222.826
 30
0.0
 11
9.612
 21
222.826
 31
0.0
  0
LINE
  5
22B
330
1E
100
AcDbEntity
  8
0
100
AcDbLine
 10
10.0
 20
222.826
 30
0.0
 11
10.57599999999999
 21
222.826
 31
0.0
  0
LINE
  5
22C
330
1E
100
AcDbEntity
  8
0
100
AcDbLine
 10
10.0
 20
222.826
 30
0.0
 11
10.0
 21
218.826
 31
0.0
  0
LINE
  5
22D
330
1E
100
AcDbEntity
  8
0
100
AcDbLine
 10
10.57599999999999
 20
222.826
 30
0.0
 11
12.112
 21
222.826
 31
0.0
  0
LINE
  5
22E
330
1E
100
AcDbEntity
  8
0
100
AcDbLine
 10
9.612
 20
222.826
 30
0.0
 11
11.244
 21
222.826
 31
0.0
  0
LINE
  5
22F
330
1E
100
AcDbEntity
  8
0
100
AcDbLine
 10
9.612
 20
222.826
 30
0.0
 11
10.0
 21
222.826
 31
0.0
  0
LINE
  5
230
330
1E
100
AcDbEntity
  8
0
100
AcDbLine
 10
11.244
 20
222.826
 30
0.0
 11
13.964
 21
222.826
 31
0.0
  0
LINE
  5
231
330
1E
100
AcDbEntity
  8
0
100
AcDbLine
 10
9.0
 20
225.8259999999999
 30
0.0
 11
9.612
 21
225.8259999999999
 31
0.0
  0
LINE
  5
232
330
1E
100
AcDbEntity
  8
0
100
AcDbLine
 10
9.0
 20
225.8259999999999
 30
0.0
 11
9.0
 21
222.826
 31
0.0
  0
LINE
  5
233
330
1E
100
AcDbEntity
  8
0
100
AcDbLine
 10
9.612
 20
225.8259999999999
 30
0.0
 11
11.244
 21
225.8259999999999
 31
0.0
  0
LINE
  5
234
330
1E
100
AcDbEntity
  8
0
100
AcDbLine
 10
12.112
 20
222.826
 30
0.0
 11
14.672
 21
222.826
 31
0.0
  0
LINE
  5
235
330
1E
100
AcDbEntity
  8
0
100
AcDbLine
 10
16.36
 20
221.8259999999999
 30
0.0
 11
17.32
 21
221.8259999999999
 31
0.0
  0
LINE
  5
236
330
1E
100
AcDbEntity
  8
0
100
AcDbLine
 10
16.0
 20
221.8259999999999
 30
0.0
 11
16.0
 21
218.826
 31
0.0
  0
LINE
  5
237
330
1E
100
AcDbEntity
  8
0
100
AcDbLine
 10
16.0
 20
221.8259999999999
 30
0.0
 11
16.36
 21
221.8259999999999
 31
0.0
  0
LINE
  5
238
330
1E
100
AcDbEntity
  8
0
100
AcDbLine
 10
17.32
 20
221.8259999999999
 30
0.0
 11
18.92
 21
221.8259999999999
 31
0.0
  0
LINE
  5
239
330
1E
100
AcDbEntity
  8
0
100
AcDbLine
 10
18.92
 20
221.8259999999999
 30
0.0
 11
21.04
 21
221.8259999999999
 31
0.0
  0
LINE
  5
23A
330
1E
100
AcDbEntity
  8
0
100
AcDbLine
 10
16.452
 20
221.8259999999999
 30
0.0
 11
18.212
 21
221.8259999999999
 31
0.0
  0
LINE
  5
23B
330
1E
100
AcDbEntity
  8
0
100
AcDbLine
 10
18.212
 20
221.8259999999999
 30
0.0
 11
20.544
 21
221.8259999999999
 31
0.0
  0
LINE
  5
23C
330
1E
100
AcDbEntity
  8
0
100
AcDbLine
 10
21.04
 20
221.8259999999999
 30
0.0
 11
23.44
 21
221.8259999999999
 31
0.0
  0
LINE
  5
23D
330
1E
100
AcDbEntity
  8
0
100
AcDbLine
 10
23.44
 20
221.8259999999999
 30
0.0
 11
26.0
 21
221.8259999999999
 31
0.0
  0
LINE
  5
23E
330
1E
100
AcDbEntity
  8
0
100
AcDbLine
 10
28.55999999999999
 20
221.8259999999999
 30
0.0
 11
30.96
 21
221.8259999999999
 31
0.0
  0
LINE
  5
23F
330
1E
100
AcDbEntity
  8
0
100
AcDbLine
 10
20.544
 20
221.8259999999999
 30
0.0
 11
23.184
 21
221.8259999999999
 31
0.0
  0
LINE
  5
240
330
1E
100
AcDbEntity
  8
0
100
AcDbLine
 10
23.184
 20
221.8259999999999
 30
0.0
 11
26.0
 21
221.8259999999999
 31
0.0
  0
LINE
  5
241
330
1E
100
AcDbEntity
  8
0
100
AcDbLine
 10
15.0
 20
221.8259999999999
 30
0.0
 11
15.396
 21
221.8259999999999
 31
0.0
  0
LINE
  5
242
330
1E
100
AcDbEntity
  8
0
100
AcDbLine
 10
15.0
 20
221.8259999999999
 30
0.0
 11
15.0
 21
224.826
 31
0.0
  0
LINE
  5
243
330
1E
100
AcDbEntity
  8
0
100
AcDbLine
 10
15.396
 20
221.8259999999999
 30
0.0
 11
16.0
 21
221.8259999999999
 31
0.0
  0
LINE
  5
244
330
1E
100
AcDbEntity
  8
0
100
AcDbLine
 10
15.396
 20
221.8259999999999
 30
0.0
 11
16.452
 21
221.8259999999999
 31
0.0
  0
LINE
  5
245
330
1E
100
AcDbEntity
  8
0
100
AcDbLine
 10
33.07999999999999
 20
221.8259999999999
 30
0.0
 11
34.67999999999999
 21
221.8259999999999
 31
0.0
  0
LINE
  5
246
330
1E
100
AcDbEntity
  8
0
100
AcDbLine
 10
30.96
 20
221.8259999999999
 30
0.0
 11
33.07999999999999
 21
221.8259999999999
 31
0.0
  0
LINE
  5
247
330
1E
100
AcDbEntity
  8
0
100
AcDbLine
 10
34.67999999999999
 20
221.8259999999999
 30
0.0
 11
35.64
 21
221.8259999999999
 31
0.0
  0
LINE
  5
248
330
1E
100
AcDbEntity
  8
0
100
AcDbLine
 10
33.788
 20
221.8259999999999
 30
0.0
 11
35.548
 21
221.8259999999999
 31
0.0
  0
LINE
  5
249
330
1E
100
AcDbEntity
  8
0
100
AcDbLine
 10
31.45599999999999
 20
221.8259999999999
 30
0.0
 11
33.788
 21
221.8259999999999
 31
0.0
  0
LINE
  5
24A
330
1E
100
AcDbEntity
  8
0
100
AcDbLine
 10
28.816
 20
221.8259999999999
 30
0.0
 11
31.45599999999999
 21
221.8259999999999
 31
0.0
  0
LINE
  5
24B
330
1E
100
AcDbEntity
  8
0
100
AcDbLine
 10
26.0
 20
221.8259999999999
 30
0.0
 11
28.816
 21
221.8259999999999
 31
0.0
  0
LINE
  5
24C
330
1E
100
AcDbEntity
  8
0
100
AcDbLine
 10
26.0
 20
221.8259999999999
 30
0.0
 11
28.55999999999999
 21
221.8259999999999
 31
0.0
  0
LINE
  5
24D
330
1E
100
AcDbEntity
  8
0
100
AcDbLine
 10
14.672
 20
222.826
 30
0.0
 11
15.0
 21
222.826
 31
0.0
  0
LINE
  5
24E
330
1E
100
AcDbEntity
  8
0
100
AcDbLine
 10
15.396
 20
224.826
 30
0.0
 11
16.452
 21
224.826
 31
0.0
  0
LINE
  5
24F
330
1E
100
AcDbEntity
  8
0
100
AcDbLine
 10
16.452
 20
224.826
 30
0.0
 11
18.212
 21
224.826
 31
0.0
  0
LINE
  5
251
330
1E
100
AcDbEntity
  8
0
100
AcDbLine
 10
18.212
 20
224.826
 30
0.0
 11
20.544
 21
224.826
 31
0.0
  0
LINE
  5
252
330
1E
100
AcDbEntity
  8
0
100
AcDbLine
 10
20.544
 20
224.826
 30
0.0
 11
23.184
 21
224.826
 31
0.0
  0
LINE
  5
253
330
1E
100
AcDbEntity
  8
0
100
AcDbLine
 10
23.184
 20
224.826
 30
0.0
 11
26.0
 21
224.826
 31
0.0
  0
LINE
  5
254
330
1E
100
AcDbEntity
  8
0
100
AcDbLine
 10
17.8182
 20
224.933
 30
0.0
 11
18.4318
 21
224.826
 31
0.0
  0
LINE
  5
255
330
1E
100
AcDbEntity
  8
0
100
AcDbLine
 10
17.2045
 20
225.1829999999999
 30
0.0
 11
17.8182
 21
224.933
 31
0.0
  0
LINE
  5
256
330
1E
100
AcDbEntity
  8
0
100
AcDbLine
 10
17.2045
 20
225.1829999999999
 30
0.0
 11
17.3443
 21
225.1829999999999
 31
0.0
  0
LINE
  5
257
330
1E
100
AcDbEntity
  8
0
100
AcDbLine
 10
17.3443
 20
225.1829999999999
 30
0.0
 11
18.0075
 21
224.976
 31
0.0
  0
LINE
  5
259
330
1E
100
AcDbEntity
  8
0
100
AcDbLine
 10
19.0962
 20
224.8979999999999
 30
0.0
 11
20.19089999999999
 21
224.9559999999999
 31
0.0
  0
LINE
  5
25A
330
1E
100
AcDbEntity
  8
0
100
AcDbLine
 10
21.62269999999999
 20
225.1829999999999
 30
0.0
 11
22.02789999999999
 21
225.1829999999999
 31
0.0
  0
LINE
  5
25C
330
1E
100
AcDbEntity
  8
0
100
AcDbLine
 10
20.19089999999999
 20
224.9559999999999
 30
0.0
 11
20.95759999999999
 21
225.1829999999999
 31
0.0
  0
LINE
  5
25F
330
1E
100
AcDbEntity
  8
0
100
AcDbLine
 10
20.95759999999999
 20
225.1829999999999
 30
0.0
 11
21.62269999999999
 21
225.1829999999999
 31
0.0
  0
LINE
  5
261
330
1E
100
AcDbEntity
  8
0
100
AcDbLine
 10
18.0075
 20
224.976
 30
0.0
 11
19.0962
 21
224.8979999999999
 31
0.0
  0
LINE
  5
262
330
1E
100
AcDbEntity
  8
0
100
AcDbLine
 10
17.0
 20
225.5399999999999
 30
0.0
 11
17.2045
 21
225.1829999999999
 31
0.0
  0
LINE
  5
263
330
1E
100
AcDbEntity
  8
0
100
AcDbLine
 10
17.0
 20
225.5399999999999
 30
0.0
 11
17.0
 21
229.1119999999999
 31
0.0
  0
LINE
  5
264
330
1E
100
AcDbEntity
  8
0
100
AcDbLine
 10
17.0
 20
225.8259999999999
 30
0.0
 11
17.0
 21
229.1119999999999
 31
0.0
  0
LINE
  5
267
330
1E
100
AcDbEntity
  8
0
100
AcDbLine
 10
21.4886
 20
225.1829999999999
 30
0.0
 11
21.4886
 21
229.469
 31
0.0
  0
LINE
  5
268
330
1E
100
AcDbEntity
  8
0
100
AcDbLine
 10
22.02789999999999
 20
225.1829999999999
 30
0.0
 11
23.93819999999999
 21
224.912
 31
0.0
  0
LINE
  5
269
330
1E
100
AcDbEntity
  8
0
100
AcDbLine
 10
26.0
 20
224.8619999999999
 30
0.0
 11
28.0618
 21
224.912
 31
0.0
  0
LINE
  5
26A
330
1E
100
AcDbEntity
  8
0
100
AcDbLine
 10
23.93819999999999
 20
224.912
 30
0.0
 11
26.0
 21
224.8619999999999
 31
0.0
  0
LINE
  5
26B
330
1E
100
AcDbEntity
  8
0
100
AcDbLine
 10
15.0
 20
224.826
 30
0.0
 11
15.0
 21
221.8259999999999
 31
0.0
  0
LINE
  5
26C
330
1E
100
AcDbEntity
  8
0
100
AcDbLine
 10
15.0
 20
224.826
 30
0.0
 11
15.396
 21
224.826
 31
0.0
  0
LINE
  5
26F
330
1E
100
AcDbEntity
  8
0
100
AcDbLine
 10
33.56819999999999
 20
224.826
 30
0.0
 11
34.1818
 21
224.933
 31
0.0
  0
LINE
  5
271
330
1E
100
AcDbEntity
  8
0
100
AcDbLine
 10
33.788
 20
224.826
 30
0.0
 11
35.548
 21
224.826
 31
0.0
  0
LINE
  5
272
330
1E
100
AcDbEntity
  8
0
100
AcDbLine
 10
31.45599999999999
 20
224.826
 30
0.0
 11
33.788
 21
224.826
 31
0.0
  0
LINE
  5
273
330
1E
100
AcDbEntity
  8
0
100
AcDbLine
 10
30.3773
 20
225.1829999999999
 30
0.0
 11
31.0424
 21
225.1829999999999
 31
0.0
  0
LINE
  5
276
330
1E
100
AcDbEntity
  8
0
100
AcDbLine
 10
30.5114
 20
225.1829999999999
 30
0.0
 11
30.5114
 21
229.469
 31
0.0
  0
LINE
  5
278
330
1E
100
AcDbEntity
  8
0
100
AcDbLine
 10
29.9721
 20
225.1829999999999
 30
0.0
 11
30.3773
 21
225.1829999999999
 31
0.0
  0
LINE
  5
279
330
1E
100
AcDbEntity
  8
0
100
AcDbLine
 10
28.0618
 20
224.912
 30
0.0
 11
29.9721
 21
225.1829999999999
 31
0.0
  0
LINE
  5
27A
330
1E
100
AcDbEntity
  8
0
100
AcDbLine
 10
34.79549999999999
 20
225.1829999999999
 30
0.0
 11
35.0
 21
225.5399999999999
 31
0.0
  0
LINE
  5
27C
330
1E
100
AcDbEntity
  8
0
100
AcDbLine
 10
34.1818
 20
224.933
 30
0.0
 11
34.79549999999999
 21
225.1829999999999
 31
0.0
  0
LINE
  5
27D
330
1E
100
AcDbEntity
  8
0
100
AcDbLine
 10
34.6557
 20
225.1829999999999
 30
0.0
 11
34.9369
 21
225.5399999999999
 31
0.0
  0
LINE
  5
27F
330
1E
100
AcDbEntity
  8
0
100
AcDbLine
 10
33.9925
 20
224.976
 30
0.0
 11
34.6557
 21
225.1829999999999
 31
0.0
  0
LINE
  5
281
330
1E
100
AcDbEntity
  8
0
100
AcDbLine
 10
32.90379999999999
 20
224.8979999999999
 30
0.0
 11
33.9925
 21
224.976
 31
0.0
  0
LINE
  5
283
330
1E
100
AcDbEntity
  8
0
100
AcDbLine
 10
31.8091
 20
224.9559999999999
 30
0.0
 11
32.90379999999999
 21
224.8979999999999
 31
0.0
  0
LINE
  5
284
330
1E
100
AcDbEntity
  8
0
100
AcDbLine
 10
35.0
 20
225.5399999999999
 30
0.0
 11
35.0
 21
229.1119999999999
 31
0.0
  0
LINE
  5
285
330
1E
100
AcDbEntity
  8
0
100
AcDbLine
 10
31.0424
 20
225.1829999999999
 30
0.0
 11
31.8091
 21
224.9559999999999
 31
0.0
  0
LINE
  5
287
330
1E
100
AcDbEntity
  8
0
100
AcDbLine
 10
28.816
 20
224.826
 30
0.0
 11
31.45599999999999
 21
224.826
 31
0.0
  0
LINE
  5
288
330
1E
100
AcDbEntity
  8
0
100
AcDbLine
 10
26.0
 20
224.826
 30
0.0
 11
28.816
 21
224.826
 31
0.0
  0
LINE
  5
289
330
1E
100
AcDbEntity
  8
0
100
AcDbLine
 10
13.964
 20
222.826
 30
0.0
 11
15.0
 21
222.826
 31
0.0
  0
LINE
  5
28A
330
1E
100
AcDbEntity
  8
0
100
AcDbLine
 10
11.244
 20
225.8259999999999
 30
0.0
 11
13.964
 21
225.8259999999999
 31
0.0
  0
LINE
  5
28B
330
1E
100
AcDbEntity
  8
0
100
AcDbLine
 10
17.0
 20
229.1119999999999
 30
0.0
 11
17.0
 21
225.5399999999999
 31
0.0
  0
LINE
  5
28C
330
1E
100
AcDbEntity
  8
0
100
AcDbLine
 10
17.0
 20
229.1119999999999
 30
0.0
 11
17.2045
 21
229.469
 31
0.0
  0
LINE
  5
28D
330
1E
100
AcDbEntity
  8
0
100
AcDbLine
 10
17.0
 20
229.1119999999999
 30
0.0
 11
17.0
 21
225.8259999999999
 31
0.0
  0
LINE
  5
28E
330
1E
100
AcDbEntity
  8
0
100
AcDbLine
 10
17.2045
 20
229.469
 30
0.0
 11
17.8182
 21
229.719
 31
0.0
  0
LINE
  5
291
330
1E
100
AcDbEntity
  8
0
100
AcDbLine
 10
17.0631
 20
229.1119999999999
 30
0.0
 11
17.3443
 21
229.469
 31
0.0
  0
LINE
  5
293
330
1E
100
AcDbEntity
  8
0
100
AcDbLine
 10
17.3443
 20
229.469
 30
0.0
 11
18.0075
 21
229.677
 31
0.0
  0
LINE
  5
295
330
1E
100
AcDbEntity
  8
0
100
AcDbLine
 10
20.95759999999999
 20
229.469
 30
0.0
 11
21.62269999999999
 21
229.469
 31
0.0
  0
LINE
  5
298
330
1E
100
AcDbEntity
  8
0
100
AcDbLine
 10
21.62269999999999
 20
229.469
 30
0.0
 11
22.02789999999999
 21
229.469
 31
0.0
  0
LINE
  5
299
330
1E
100
AcDbEntity
  8
0
100
AcDbLine
 10
21.4886
 20
229.469
 30
0.0
 11
21.4886
 21
225.1829999999999
 31
0.0
  0
LINE
  5
29D
330
1E
100
AcDbEntity
  8
0
100
AcDbLine
 10
17.8182
 20
229.719
 30
0.0
 11
18.4318
 21
229.8259999999999
 31
0.0
  0
LINE
  5
29E
330
1E
100
AcDbEntity
  8
0
100
AcDbLine
 10
18.4318
 20
229.8259999999999
 30
0.0
 11
18.71819999999999
 21
229.8259999999999
 31
0.0
  0
LINE
  5
2A1
330
1E
100
AcDbEntity
  8
0
100
AcDbLine
 10
18.0075
 20
229.677
 30
0.0
 11
19.0962
 21
229.754
 31
0.0
  0
LINE
  5
2A4
330
1E
100
AcDbEntity
  8
0
100
AcDbLine
 10
20.19089999999999
 20
229.6959999999999
 30
0.0
 11
20.95759999999999
 21
229.469
 31
0.0
  0
LINE
  5
2A8
330
1E
100
AcDbEntity
  8
0
100
AcDbLine
 10
22.2364
 20
229.8259999999999
 30
0.0
 11
24.0364
 21
229.8259999999999
 31
0.0
  0
LINE
  5
2AA
330
1E
100
AcDbEntity
  8
0
100
AcDbLine
 10
23.0
 20
232.8259999999999
 30
0.0
 11
23.10799999999999
 21
232.8259999999999
 31
0.0
  0
LINE
  5
2AB
330
1E
100
AcDbEntity
  8
0
100
AcDbLine
 10
23.0
 20
232.8259999999999
 30
0.0
 11
23.0
 21
242.8259999999999
 31
0.0
  0
LINE
  5
2AC
330
1E
100
AcDbEntity
  8
0
100
AcDbLine
 10
23.10799999999999
 20
232.8259999999999
 30
0.0
 11
23.396
 21
232.8259999999999
 31
0.0
  0
LINE
  5
2AD
330
1E
100
AcDbEntity
  8
0
100
AcDbLine
 10
23.0
 20
242.8259999999999
 30
0.0
 11
23.10799999999999
 21
242.8259999999999
 31
0.0
  0
LINE
  5
2AE
330
1E
100
AcDbEntity
  8
0
100
AcDbLine
 10
23.10799999999999
 20
242.8259999999999
 30
0.0
 11
23.396
 21
242.8259999999999
 31
0.0
  0
LINE
  5
2AF
330
1E
100
AcDbEntity
  8
0
100
AcDbLine
 10
23.396
 20
242.8259999999999
 30
0.0
 11
23.87599999999999
 21
242.8259999999999
 31
0.0
  0
LINE
  5
2B0
330
1E
100
AcDbEntity
  8
0
100
AcDbLine
 10
23.396
 20
232.8259999999999
 30
0.0
 11
23.87599999999999
 21
232.8259999999999
 31
0.0
  0
LINE
  5
2B1
330
1E
100
AcDbEntity
  8
0
100
AcDbLine
 10
23.87599999999999
 20
242.8259999999999
 30
0.0
 11
24.512
 21
242.8259999999999
 31
0.0
  0
LINE
  5
2B2
330
1E
100
AcDbEntity
  8
0
100
AcDbLine
 10
23.87599999999999
 20
232.8259999999999
 30
0.0
 11
24.0
 21
232.8259999999999
 31
0.0
  0
LINE
  5
2B3
330
1E
100
AcDbEntity
  8
0
100
AcDbLine
 10
23.87599999999999
 20
232.8259999999999
 30
0.0
 11
24.512
 21
232.8259999999999
 31
0.0
  0
LINE
  5
2B4
330
1E
100
AcDbEntity
  8
0
100
AcDbLine
 10
20.64089999999999
 20
229.8259999999999
 30
0.0
 11
22.2364
 21
229.8259999999999
 31
0.0
  0
LINE
  5
2B5
330
1E
100
AcDbEntity
  8
0
100
AcDbLine
 10
19.4545
 20
229.8259999999999
 30
0.0
 11
20.64089999999999
 21
229.8259999999999
 31
0.0
  0
LINE
  5
2B7
330
1E
100
AcDbEntity
  8
0
100
AcDbLine
 10
19.0962
 20
229.754
 30
0.0
 11
20.19089999999999
 21
229.6959999999999
 31
0.0
  0
LINE
  5
2B9
330
1E
100
AcDbEntity
  8
0
100
AcDbLine
 10
18.71819999999999
 20
229.8259999999999
 30
0.0
 11
19.4545
 21
229.8259999999999
 31
0.0
  0
LINE
  5
2BA
330
1E
100
AcDbEntity
  8
0
100
AcDbLine
 10
22.02789999999999
 20
229.469
 30
0.0
 11
23.93819999999999
 21
229.74
 31
0.0
  0
LINE
  5
2BB
330
1E
100
AcDbEntity
  8
0
100
AcDbLine
 10
30.5114
 20
229.469
 30
0.0
 11
30.5114
 21
225.1829999999999
 31
0.0
  0
LINE
  5
2BE
330
1E
100
AcDbEntity
  8
0
100
AcDbLine
 10
28.0618
 20
229.74
 30
0.0
 11
29.9721
 21
229.469
 31
0.0
  0
LINE
  5
2C1
330
1E
100
AcDbEntity
  8
0
100
AcDbLine
 10
24.0
 20
229.8259999999999
 30
0.0
 11
24.0
 21
232.8259999999999
 31
0.0
  0
LINE
  5
2C2
330
1E
100
AcDbEntity
  8
0
100
AcDbLine
 10
28.0
 20
229.8259999999999
 30
0.0
 11
28.0
 21
232.8259999999999
 31
0.0
  0
LINE
  5
2C3
330
1E
100
AcDbEntity
  8
0
100
AcDbLine
 10
26.0
 20
229.8259999999999
 30
0.0
 11
27.96359999999999
 21
229.8259999999999
 31
0.0
  0
LINE
  5
2C4
330
1E
100
AcDbEntity
  8
0
100
AcDbLine
 10
26.0
 20
229.7899999999999
 30
0.0
 11
28.0618
 21
229.74
 31
0.0
  0
LINE
  5
2C6
330
1E
100
AcDbEntity
  8
0
100
AcDbLine
 10
30.3773
 20
229.469
 30
0.0
 11
31.0424
 21
229.469
 31
0.0
  0
LINE
  5
2CB
330
1E
100
AcDbEntity
  8
0
100
AcDbLine
 10
29.9721
 20
229.469
 30
0.0
 11
30.3773
 21
229.469
 31
0.0
  0
LINE
  5
2CC
330
1E
100
AcDbEntity
  8
0
100
AcDbLine
 10
29.7636
 20
229.8259999999999
 30
0.0
 11
31.3591
 21
229.8259999999999
 31
0.0
  0
LINE
  5
2CE
330
1E
100
AcDbEntity
  8
0
100
AcDbLine
 10
27.96359999999999
 20
229.8259999999999
 30
0.0
 11
29.7636
 21
229.8259999999999
 31
0.0
  0
LINE
  5
2D0
330
1E
100
AcDbEntity
  8
0
100
AcDbLine
 10
31.3591
 20
229.8259999999999
 30
0.0
 11
32.5455
 21
229.8259999999999
 31
0.0
  0
LINE
  5
2D3
330
1E
100
AcDbEntity
  8
0
100
AcDbLine
 10
32.5455
 20
229.8259999999999
 30
0.0
 11
33.28179999999999
 21
229.8259999999999
 31
0.0
  0
LINE
  5
2D6
330
1E
100
AcDbEntity
  8
0
100
AcDbLine
 10
32.90379999999999
 20
229.754
 30
0.0
 11
33.9925
 21
229.677
 31
0.0
  0
LINE
  5
2D7
330
1E
100
AcDbEntity
  8
0
100
AcDbLine
 10
31.8091
 20
229.6959999999999
 30
0.0
 11
32.90379999999999
 21
229.754
 31
0.0
  0
LINE
  5
2D8
330
1E
100
AcDbEntity
  8
0
100
AcDbLine
 10
31.0424
 20
229.469
 30
0.0
 11
31.8091
 21
229.6959999999999
 31
0.0
  0
LINE
  5
2DA
330
1E
100
AcDbEntity
  8
0
100
AcDbLine
 10
35.0
 20
229.1119999999999
 30
0.0
 11
35.0
 21
225.5399999999999
 31
0.0
  0
LINE
  5
2DB
330
1E
100
AcDbEntity
  8
0
100
AcDbLine
 10
34.79549999999999
 20
229.469
 30
0.0
 11
35.0
 21
229.1119999999999
 31
0.0
  0
LINE
  5
2DC
330
1E
100
AcDbEntity
  8
0
100
AcDbLine
 10
34.6557
 20
229.469
 30
0.0
 11
34.9369
 21
229.1119999999999
 31
0.0
  0
LINE
  5
2DE
330
1E
100
AcDbEntity
  8
0
100
AcDbLine
 10
33.56819999999999
 20
229.8259999999999
 30
0.0
 11
34.1818
 21
229.719
 31
0.0
  0
LINE
  5
2DF
330
1E
100
AcDbEntity
  8
0
100
AcDbLine
 10
34.1818
 20
229.719
 30
0.0
 11
34.79549999999999
 21
229.469
 31
0.0
  0
LINE
  5
2E0
330
1E
100
AcDbEntity
  8
0
100
AcDbLine
 10
33.9925
 20
229.677
 30
0.0
 11
34.6557
 21
229.469
 31
0.0
  0
LINE
  5
2E3
330
1E
100
AcDbEntity
  8
0
100
AcDbLine
 10
33.28179999999999
 20
229.8259999999999
 30
0.0
 11
33.56819999999999
 21
229.8259999999999
 31
0.0
  0
LINE
  5
2E5
330
1E
100
AcDbEntity
  8
0
100
AcDbLine
 10
24.072
 20
232.8259999999999
 30
0.0
 11
24.264
 21
232.8259999999999
 31
0.0
  0
LINE
  5
2E6
330
1E
100
AcDbEntity
  8
0
100
AcDbLine
 10
24.264
 20
232.8259999999999
 30
0.0
 11
24.584
 21
232.8259999999999
 31
0.0
  0
LINE
  5
2E7
330
1E
100
AcDbEntity
  8
0
100
AcDbLine
 10
24.584
 20
232.8259999999999
 30
0.0
 11
25.008
 21
232.8259999999999
 31
0.0
  0
LINE
  5
2E8
330
1E
100
AcDbEntity
  8
0
100
AcDbLine
 10
25.008
 20
232.8259999999999
 30
0.0
 11
25.488
 21
232.8259999999999
 31
0.0
  0
LINE
  5
2E9
330
1E
100
AcDbEntity
  8
0
100
AcDbLine
 10
24.0
 20
232.8259999999999
 30
0.0
 11
24.0
 21
229.8259999999999
 31
0.0
  0
LINE
  5
2EA
330
1E
100
AcDbEntity
  8
0
100
AcDbLine
 10
24.0
 20
232.8259999999999
 30
0.0
 11
24.072
 21
232.8259999999999
 31
0.0
  0
LINE
  5
2EB
330
1E
100
AcDbEntity
  8
0
100
AcDbLine
 10
24.512
 20
232.8259999999999
 30
0.0
 11
25.232
 21
232.8259999999999
 31
0.0
  0
LINE
  5
2EC
330
1E
100
AcDbEntity
  8
0
100
AcDbLine
 10
25.488
 20
232.8259999999999
 30
0.0
 11
26.0
 21
232.8259999999999
 31
0.0
  0
LINE
  5
2ED
330
1E
100
AcDbEntity
  8
0
100
AcDbLine
 10
25.232
 20
232.8259999999999
 30
0.0
 11
26.0
 21
232.8259999999999
 31
0.0
  0
LINE
  5
2EE
330
1E
100
AcDbEntity
  8
0
100
AcDbLine
 10
24.512
 20
242.8259999999999
 30
0.0
 11
25.232
 21
242.8259999999999
 31
0.0
  0
LINE
  5
2EF
330
1E
100
AcDbEntity
  8
0
100
AcDbLine
 10
25.232
 20
242.8259999999999
 30
0.0
 11
26.0
 21
242.8259999999999
 31
0.0
  0
LINE
  5
2F0
330
1E
100
AcDbEntity
  8
0
100
AcDbLine
 10
26.0
 20
232.8259999999999
 30
0.0
 11
26.768
 21
232.8259999999999
 31
0.0
  0
LINE
  5
2F1
330
1E
100
AcDbEntity
  8
0
100
AcDbLine
 10
26.0
 20
232.8259999999999
 30
0.0
 11
26.51199999999999
 21
232.8259999999999
 31
0.0
  0
LINE
  5
2F2
330
1E
100
AcDbEntity
  8
0
100
AcDbLine
 10
27.416
 20
232.8259999999999
 30
0.0
 11
27.736
 21
232.8259999999999
 31
0.0
  0
LINE
  5
2F3
330
1E
100
AcDbEntity
  8
0
100
AcDbLine
 10
26.99199999999999
 20
232.8259999999999
 30
0.0
 11
27.416
 21
232.8259999999999
 31
0.0
  0
LINE
  5
2F4
330
1E
100
AcDbEntity
  8
0
100
AcDbLine
 10
26.51199999999999
 20
232.8259999999999
 30
0.0
 11
26.99199999999999
 21
232.8259999999999
 31
0.0
  0
LINE
  5
2F5
330
1E
100
AcDbEntity
  8
0
100
AcDbLine
 10
27.488
 20
232.8259999999999
 30
0.0
 11
28.124
 21
232.8259999999999
 31
0.0
  0
LINE
  5
2F6
330
1E
100
AcDbEntity
  8
0
100
AcDbLine
 10
26.768
 20
232.8259999999999
 30
0.0
 11
27.488
 21
232.8259999999999
 31
0.0
  0
LINE
  5
2F7
330
1E
100
AcDbEntity
  8
0
100
AcDbLine
 10
27.928
 20
232.8259999999999
 30
0.0
 11
28.0
 21
232.8259999999999
 31
0.0
  0
LINE
  5
2F8
330
1E
100
AcDbEntity
  8
0
100
AcDbLine
 10
27.736
 20
232.8259999999999
 30
0.0
 11
27.928
 21
232.8259999999999
 31
0.0
  0
LINE
  5
2F9
330
1E
100
AcDbEntity
  8
0
100
AcDbLine
 10
28.0
 20
232.8259999999999
 30
0.0
 11
28.124
 21
232.8259999999999
 31
0.0
  0
LINE
  5
2FA
330
1E
100
AcDbEntity
  8
0
100
AcDbLine
 10
28.0
 20
232.8259999999999
 30
0.0
 11
28.0
 21
229.8259999999999
 31
0.0
  0
LINE
  5
2FB
330
1E
100
AcDbEntity
  8
0
100
AcDbLine
 10
28.604
 20
232.8259999999999
 30
0.0
 11
28.892
 21
232.8259999999999
 31
0.0
  0
LINE
  5
2FC
330
1E
100
AcDbEntity
  8
0
100
AcDbLine
 10
28.124
 20
232.8259999999999
 30
0.0
 11
28.604
 21
232.8259999999999
 31
0.0
  0
LINE
  5
2FD
330
1E
100
AcDbEntity
  8
0
100
AcDbLine
 10
29.0
 20
232.8259999999999
 30
0.0
 11
29.0
 21
242.8259999999999
 31
0.0
  0
LINE
  5
2FE
330
1E
100
AcDbEntity
  8
0
100
AcDbLine
 10
29.0
 20
242.8259999999999
 30
0.0
 11
29.0
 21
232.8259999999999
 31
0.0
  0
LINE
  5
2FF
330
1E
100
AcDbEntity
  8
0
100
AcDbLine
 10
28.892
 20
232.8259999999999
 30
0.0
 11
29.0
 21
232.8259999999999
 31
0.0
  0
LINE
  5
300
330
1E
100
AcDbEntity
  8
0
100
AcDbLine
 10
28.892
 20
242.8259999999999
 30
0.0
 11
29.0
 21
242.8259999999999
 31
0.0
  0
LINE
  5
301
330
1E
100
AcDbEntity
  8
0
100
AcDbLine
 10
28.604
 20
242.8259999999999
 30
0.0
 11
28.892
 21
242.8259999999999
 31
0.0
  0
LINE
  5
302
330
1E
100
AcDbEntity
  8
0
100
AcDbLine
 10
28.124
 20
242.8259999999999
 30
0.0
 11
28.604
 21
242.8259999999999
 31
0.0
  0
LINE
  5
303
330
1E
100
AcDbEntity
  8
0
100
AcDbLine
 10
27.488
 20
242.8259999999999
 30
0.0
 11
28.124
 21
242.8259999999999
 31
0.0
  0
LINE
  5
304
330
1E
100
AcDbEntity
  8
0
100
AcDbLine
 10
26.768
 20
242.8259999999999
 30
0.0
 11
27.488
 21
242.8259999999999
 31
0.0
  0
LINE
  5
305
330
1E
100
AcDbEntity
  8
0
100
AcDbLine
 10
26.0
 20
242.8259999999999
 30
0.0
 11
26.768
 21
242.8259999999999
 31
0.0
  0
LINE
  5
306
330
1E
100
AcDbEntity
  8
0
100
AcDbLine
 10
24.0364
 20
229.8259999999999
 30
0.0
 11
26.0
 21
229.8259999999999
 31
0.0
  0
LINE
  5
307
330
1E
100
AcDbEntity
  8
0
100
AcDbLine
 10
23.93819999999999
 20
229.74
 30
0.0
 11
26.0
 21
229.7899999999999
 31
0.0
  0
LINE
  5
308
330
1E
100
AcDbEntity
  8
0
100
AcDbLine
 10
23.93819999999999
 20
229.74
 30
0.0
 11
24.0364
 21
229.8259999999999
 31
0.0
  0
LINE
  5
309
330
1E
100
AcDbEntity
  8
0
100
AcDbLine
 10
13.964
 20
225.8259999999999
 30
0.0
 11
17.0
 21
225.8259999999999
 31
0.0
  0
LINE
  5
30A
330
1E
100
AcDbEntity
  8
0
100
AcDbLine
 10
35.64
 20
221.8259999999999
 30
0.0
 11
36.0
 21
221.8259999999999
 31
0.0
  0
LINE
  5
30B
330
1E
100
AcDbEntity
  8
0
100
AcDbLine
 10
37.0
 20
221.8259999999999
 30
0.0
 11
37.0
 21
224.826
 31
0.0
  0
LINE
  5
30C
330
1E
100
AcDbEntity
  8
0
100
AcDbLine
 10
36.0
 20
221.8259999999999
 30
0.0
 11
36.604
 21
221.8259999999999
 31
0.0
  0
LINE
  5
30D
330
1E
100
AcDbEntity
  8
0
100
AcDbLine
 10
36.0
 20
221.8259999999999
 30
0.0
 11
36.0
 21
218.826
 31
0.0
  0
LINE
  5
30E
330
1E
100
AcDbEntity
  8
0
100
AcDbLine
 10
36.604
 20
221.8259999999999
 30
0.0
 11
37.0
 21
221.8259999999999
 31
0.0
  0
LINE
  5
30F
330
1E
100
AcDbEntity
  8
0
100
AcDbLine
 10
35.548
 20
221.8259999999999
 30
0.0
 11
36.604
 21
221.8259999999999
 31
0.0
  0
LINE
  5
310
330
1E
100
AcDbEntity
  8
0
100
AcDbLine
 10
37.0
 20
224.826
 30
0.0
 11
37.0
 21
221.8259999999999
 31
0.0
  0
LINE
  5
311
330
1E
100
AcDbEntity
  8
0
100
AcDbLine
 10
36.604
 20
224.826
 30
0.0
 11
37.0
 21
224.826
 31
0.0
  0
LINE
  5
312
330
1E
100
AcDbEntity
  8
0
100
AcDbLine
 10
35.548
 20
224.826
 30
0.0
 11
36.604
 21
224.826
 31
0.0
  0
LINE
  5
313
330
1E
100
AcDbEntity
  8
0
100
AcDbLine
 10
37.0
 20
222.826
 30
0.0
 11
38.036
 21
222.826
 31
0.0
  0
LINE
  5
314
330
1E
100
AcDbEntity
  8
0
100
AcDbLine
 10
37.0
 20
222.826
 30
0.0
 11
37.328
 21
222.826
 31
0.0
  0
LINE
  5
315
330
1E
100
AcDbEntity
  8
0
100
AcDbLine
 10
35.0
 20
225.8259999999999
 30
0.0
 11
38.036
 21
225.8259999999999
 31
0.0
  0
LINE
  5
316
330
1E
100
AcDbEntity
  8
0
100
AcDbLine
 10
13.25599999999999
 20
218.826
 30
0.0
 11
15.0
 21
218.826
 31
0.0
  0
LINE
  5
317
330
1E
100
AcDbEntity
  8
0
100
AcDbLine
 10
41.0
 20
215.8259999999999
 30
0.0
 11
41.0
 21
213.8259999999999
 31
0.0
  0
LINE
  5
318
330
1E
100
AcDbEntity
  8
0
100
AcDbLine
 10
40.46
 20
215.8259999999999
 30
0.0
 11
41.0
 21
215.8259999999999
 31
0.0
  0
LINE
  5
319
330
1E
100
AcDbEntity
  8
0
100
AcDbLine
 10
39.02
 20
215.8259999999999
 30
0.0
 11
40.46
 21
215.8259999999999
 31
0.0
  0
LINE
  5
31A
330
1E
100
AcDbEntity
  8
0
100
AcDbLine
 10
42.0
 20
218.826
 30
0.0
 11
42.0
 21
222.826
 31
0.0
  0
LINE
  5
31B
330
1E
100
AcDbEntity
  8
0
100
AcDbLine
 10
44.0
 20
218.826
 30
0.0
 11
44.0
 21
213.8259999999999
 31
0.0
  0
LINE
  5
31C
330
1E
100
AcDbEntity
  8
0
100
AcDbLine
 10
43.35199999999999
 20
218.826
 30
0.0
 11
44.0
 21
218.826
 31
0.0
  0
LINE
  5
31D
330
1E
100
AcDbEntity
  8
0
100
AcDbLine
 10
41.62399999999999
 20
218.826
 30
0.0
 11
43.35199999999999
 21
218.826
 31
0.0
  0
LINE
  5
31E
330
1E
100
AcDbEntity
  8
0
100
AcDbLine
 10
39.888
 20
222.826
 30
0.0
 11
41.424
 21
222.826
 31
0.0
  0
LINE
  5
31F
330
1E
100
AcDbEntity
  8
0
100
AcDbLine
 10
37.328
 20
222.826
 30
0.0
 11
39.888
 21
222.826
 31
0.0
  0
LINE
  5
320
330
1E
100
AcDbEntity
  8
0
100
AcDbLine
 10
40.756
 20
222.826
 30
0.0
 11
42.388
 21
222.826
 31
0.0
  0
LINE
  5
321
330
1E
100
AcDbEntity
  8
0
100
AcDbLine
 10
38.036
 20
222.826
 30
0.0
 11
40.756
 21
222.826
 31
0.0
  0
LINE
  5
322
330
1E
100
AcDbEntity
  8
0
100
AcDbLine
 10
41.424
 20
222.826
 30
0.0
 11
42.0
 21
222.826
 31
0.0
  0
LINE
  5
323
330
1E
100
AcDbEntity
  8
0
100
AcDbLine
 10
40.756
 20
225.8259999999999
 30
0.0
 11
42.388
 21
225.8259999999999
 31
0.0
  0
LINE
  5
324
330
1E
100
AcDbEntity
  8
0
100
AcDbLine
 10
38.036
 20
225.8259999999999
 30
0.0
 11
40.756
 21
225.8259999999999
 31
0.0
  0
LINE
  5
325
330
1E
100
AcDbEntity
  8
0
100
AcDbLine
 10
43.0
 20
222.826
 30
0.0
 11
43.0
 21
225.8259999999999
 31
0.0
  0
LINE
  5
326
330
1E
100
AcDbEntity
  8
0
100
AcDbLine
 10
43.0
 20
225.8259999999999
 30
0.0
 11
43.0
 21
222.826
 31
0.0
  0
LINE
  5
327
330
1E
100
AcDbEntity
  8
0
100
AcDbLine
 10
42.388
 20
225.8259999999999
 30
0.0
 11
43.0
 21
225.8259999999999
 31
0.0
  0
LINE
  5
328
330
1E
100
AcDbEntity
  8
0
100
AcDbLine
 10
42.388
 20
222.826
 30
0.0
 11
43.0
 21
222.826
 31
0.0
  0
LINE
  5
329
330
1E
100
AcDbEntity
  8
0
100
AcDbLine
 10
42.0
 20
222.826
 30
0.0
 11
42.388
 21
222.826
 31
0.0
  0
LINE
  5
32A
330
1E
100
AcDbEntity
  8
0
100
AcDbLine
 10
42.0
 20
222.826
 30
0.0
 11
42.0
 21
218.826
 31
0.0
  0
LINE
  5
32B
330
1E
100
AcDbEntity
  8
0
100
AcDbLine
 10
38.74399999999999
 20
218.826
 30
0.0
 11
41.62399999999999
 21
218.826
 31
0.0
  0
LINE
  5
32C
330
1E
100
AcDbEntity
  8
0
100
AcDbLine
 10
37.0
 20
218.826
 30
0.0
 11
38.74399999999999
 21
218.826
 31
0.0
  0
LINE
  5
32D
330
1E
100
AcDbEntity
  8
0
100
AcDbLine
 10
37.0
 20
218.826
 30
0.0
 11
37.0
 21
215.8259999999999
 31
0.0
  0
LINE
  5
32E
330
1E
100
AcDbEntity
  8
0
100
AcDbLine
 10
44.0
 20
213.8259999999999
 30
0.0
 11
44.0
 21
218.826
 31
0.0
  0
LINE
  5
32F
330
1E
100
AcDbEntity
  8
0
100
AcDbLine
 10
0.9999999999999939
 20
211.8259999999999
 30
0.0
 11
0.9999999999999939
 21
213.8259999999999
 31
0.0
  0
LINE
  5
334
330
1E
100
AcDbEntity
  8
0
100
AcDbLine
 10
37.0723
 20
95.85992035198559
 30
0.0
 11
33.57229999999999
 21
95.85992035198559
 31
0.0
  0
ENDSEC
  0
SECTION
  2
OBJECTS
  0
DICTIONARY
  5
C
330
0
100
AcDbDictionary
  3
ACAD_GROUP
350
D
  3
ACAD_LAYOUT
350
19
  3
ACAD_MLINESTYLE
350
16
  3
ACAD_PLOTSETTINGS
350
18
  3
ACAD_PLOTSTYLENAME
350
E
  3
ACDBHEADERROUNDTRIPXREC
350
339
  3
ACDBVARIABLEDICTIONARY
350
336
  0
DICTIONARY
  5
35B
330
1E
100
AcDbDictionary
280
     1
  3
ACAD_LAYOUTSELFREF
360
35C
  0
DICTIONARY
  5
359
330
1A
100
AcDbDictionary
280
     1
  3
ACAD_LAYOUTSELFREF
360
35A
  0
DICTIONARY
  5
D
102
{ACAD_REACTORS
330
C
102
}
330
C
100
AcDbDictionary
  0
DICTIONARY
  5
19
102
{ACAD_REACTORS
330
C
102
}
330
C
100
AcDbDictionary
  0
DICTIONARY
  5
16
102
{ACAD_REACTORS
330
C
102
}
330
C
100
AcDbDictionary
  3
STANDARD
350
17
  0
DICTIONARY
  5
18
102
{ACAD_REACTORS
330
C
102
}
330
C
100
AcDbDictionary
  0
ACDBDICTIONARYWDFLT
  5
E
102
{ACAD_REACTORS
330
C
102
}
330
C
100
AcDbDictionary
281
     1
  3
Normal
350
F
100
AcDbDictionaryWithDefault
340
F
  0
DICTIONARY
  5
339
102
{ACAD_REACTORS
330
C
102
}
330
C
100
AcDbDictionary
  3
CEPSNTYPE
350
343
  3
FINGERPRINTGUID
350
344
  3
HYPERLINKBASE
350
33C
  3
INSUNITS
350
342
  3
LAYOUTDICT
350
33E
  3
LWETCUNION
350
341
  3
PLOTSETDICT
350
33F
  3
PLOTSTYLNAMDICT
350
340
  3
PSVPSCALE
350
346
  3
PUCSBASE
350
349
  3
PUCSORGBACK
350
34F
  3
PUCSORGBOTTOM
350
34B
  3
PUCSORGFRONT
350
34E
  3
PUCSORGLEFT
350
34C
  3
PUCSORGRIGHT
350
34D
  3
PUCSORGTOP
350
34A
  3
PUCSORTHOREF
350
347
  3
PUCSORTHOVIEW
350
348
  3
STYLESHEET
350
33D
  3
TSTACKALIGN
350
33A
  3
TSTACKSIZE
350
33B
  3
UCSBASE
350
352
  3
UCSORGBACK
350
358
  3
UCSORGBOTTOM
350
354
  3
UCSORGFRONT
350
357
  3
UCSORGLEFT
350
355
  3
UCSORGRIGHT
350
356
  3
UCSORGTOP
350
353
  3
UCSORTHOREF
350
350
  3
UCSORTHOVIEW
350
351
  3
VERSIONGUID
350
345
  0
DICTIONARY
  5
336
102
{ACAD_REACTORS
330
C
102
}
330
C
100
AcDbDictionary
  3
DIMASSOC
350
337
  0
XRECORD
  5
35C
102
{ACAD_REACTORS
330
35B
102
}
330
35B
100
AcDbXrecord
340
1E
  0
XRECORD
  5
35A
102
{ACAD_REACTORS
330
359
102
}
330
359
100
AcDbXrecord
340
1A
  0
MLINESTYLE
  5
17
102
{ACAD_REACTORS
330
16
102
}
330
16
100
AcDbMlineStyle
  2
STANDARD
 70
     0
  3

 62
   256
 51
90.0
 52
90.0
 71
     2
 49
0.5
 62
   256
  6
BYLAYER
 49
-0.5
 62
   256
  6
BYLAYER
  0
ACDBPLACEHOLDER
  5
F
102
{ACAD_REACTORS
330
E
102
}
330
E
100
AcDbPlaceHolder
280
     0
  0
XRECORD
  5
343
102
{ACAD_REACTORS
330
339
102
}
330
339
100
AcDbXrecord
 90
        0
  0
XRECORD
  5
344
102
{ACAD_REACTORS
330
339
102
}
330
339
100
AcDbXrecord
  1
{96934641-188B-40DF-B40F-D7A0F3C06AEC}
  0
XRECORD
  5
33C
102
{ACAD_REACTORS
330
339
102
}
330
339
100
AcDbXrecord
  1

  0
XRECORD
  5
342
102
{ACAD_REACTORS
330
339
102
}
330
339
100
AcDbXrecord
 90
        0
  0
XRECORD
  5
33E
102
{ACAD_REACTORS
330
339
102
}
330
339
100
AcDbXrecord
340
19
  0
XRECORD
  5
341
102
{ACAD_REACTORS
330
339
102
}
330
339
100
AcDbXrecord
 90
    10781
  0
XRECORD
  5
33F
102
{ACAD_REACTORS
330
339
102
}
330
339
100
AcDbXrecord
340
18
  0
XRECORD
  5
340
102
{ACAD_REACTORS
330
339
102
}
330
339
100
AcDbXrecord
340
E
  0
XRECORD
  5
346
102
{ACAD_REACTORS
330
339
102
}
330
339
100
AcDbXrecord
 40
0.0
  0
XRECORD
  5
349
102
{ACAD_REACTORS
330
339
102
}
330
339
100
AcDbXrecord
340
0
  0
XRECORD
  5
34F
102
{ACAD_REACTORS
330
339
102
}
330
339
100
AcDbXrecord
 10
0.0
 20
0.0
 30
0.0
  0
XRECORD
  5
34B
102
{ACAD_REACTORS
330
339
102
}
330
339
100
AcDbXrecord
 10
0.0
 20
0.0
 30
0.0
  0
XRECORD
  5
34E
102
{ACAD_REACTORS
330
339
102
}
330
339
100
AcDbXrecord
 10
0.0
 20
0.0
 30
0.0
  0
XRECORD
  5
34C
102
{ACAD_REACTORS
330
339
102
}
330
339
100
AcDbXrecord
 10
0.0
 20
0.0
 30
0.0
  0
XRECORD
  5
34D
102
{ACAD_REACTORS
330
339
102
}
330
339
100
AcDbXrecord
 10
0.0
 20
0.0
 30
0.0
  0
XRECORD
  5
34A
102
{ACAD_REACTORS
330
339
102
}
330
339
100
AcDbXrecord
 10
0.0
 20
0.0
 30
0.0
  0
XRECORD
  5
347
102
{ACAD_REACTORS
330
339
102
}
330
339
100
AcDbXrecord
340
0
  0
XRECORD
  5
348
102
{ACAD_REACTORS
330
339
102
}
330
339
100
AcDbXrecord
 70
     0
  0
XRECORD
  5
33D
102
{ACAD_REACTORS
330
339
102
}
330
339
100
AcDbXrecord
  1

  0
XRECORD
  5
33A
102
{ACAD_REACTORS
330
339
102
}
330
339
100
AcDbXrecord
 90
        1
  0
XRECORD
  5
33B
102
{ACAD_REACTORS
330
339
102
}
330
339
100
AcDbXrecord
 90
       70
  0
XRECORD
  5
352
102
{ACAD_REACTORS
330
339
102
}
330
339
100
AcDbXrecord
340
0
  0
XRECORD
  5
358
102
{ACAD_REACTORS
330
339
102
}
330
339
100
AcDbXrecord
 10
0.0
 20
0.0
 30
0.0
  0
XRECORD
  5
354
102
{ACAD_REACTORS
330
339
102
}
330
339
100
AcDbXrecord
 10
0.0
 20
0.0
 30
0.0
  0
XRECORD
  5
357
102
{ACAD_REACTORS
330
339
102
}
330
339
100
AcDbXrecord
 10
0.0
 20
0.0
 30
0.0
  0
XRECORD
  5
355
102
{ACAD_REACTORS
330
339
102
}
330
339
100
AcDbXrecord
 10
0.0
 20
0.0
 30
0.0
  0
XRECORD
  5
356
102
{ACAD_REACTORS
330
339
102
}
330
339
100
AcDbXrecord
 10
0.0
 20
0.0
 30
0.0
  0
XRECORD
  5
353
102
{ACAD_REACTORS
330
339
102
}
330
339
100
AcDbXrecord
 10
0.0
 20
0.0
 30
0.0
  0
XRECORD
  5
350
102
{ACAD_REACTORS
330
339
102
}
330
339
100
AcDbXrecord
340
0
  0
XRECORD
  5
351
102
{ACAD_REACTORS
330
339
102
}
330
339
100
AcDbXrecord
 70
     1
  0
XRECORD
  5
345
102
{ACAD_REACTORS
330
339
102
}
330
339
100
AcDbXrecord
  1
{D33C3C4C-C441-4195-BBE2-4CE0F93C5611}
  0
DICTIONARYVAR
  5
337
102
{ACAD_REACTORS
330
336
102
}
330
336
100
DictionaryVariables
280
     0
  1
1
  0
ENDSEC
  0
EOF
