  0
SECTION
  2
HEADER
  9
$ACADVER
  1
AC1014
  9
$ACADMAINTVER
 70
     9
  9
$DWGCODEPAGE
  3
ANSI_1252
  9
$INSBASE
 10
0.0
 20
0.0
 30
0.0
  9
$EXTMIN
 10
-0.000016500000017
 20
-0.223021
 30
0.0
  9
$EXTMAX
 10
300.0000165
 20
146.2230209999999
 30
0.0
  9
$LIMMIN
 10
0.0
 20
0.0
  9
$LIMMAX
 10
12.0
 20
9.0
  9
$ORTHOMODE
 70
     0
  9
$REGENMODE
 70
     1
  9
$FILLMODE
 70
     1
  9
$QTEXTMODE
 70
     0
  9
$MIRRTEXT
 70
     1
  9
$DRAGMODE
 70
     2
  9
$LTSCALE
 40
1.0
  9
$OSMODE
 70
    37
  9
$ATTMODE
 70
     1
  9
$TEXTSIZE
 40
0.2
  9
$TRACEWID
 40
0.05
  9
$TEXTSTYLE
  7
STANDARD
  9
$CLAYER
  8
0
  9
$CELTYPE
  6
CONTINUOUS
  9
$CECOLOR
 62
   256
  9
$CELTSCALE
 40
1.0
  9
$DELOBJ
 70
     1
  9
$DISPSILH
 70
     0
  9
$DIMSCALE
 40
1.0
  9
$DIMASZ
 40
0.18
  9
$DIMEXO
 40
0.0625
  9
$DIMDLI
 40
0.38
  9
$DIMRND
 40
0.0
  9
$DIMDLE
 40
0.0
  9
$DIMEXE
 40
0.18
  9
$DIMTP
 40
0.0
  9
$DIMTM
 40
0.0
  9
$DIMTXT
 40
0.18
  9
$DIMCEN
 40
0.09
  9
$DIMTSZ
 40
0.0
  9
$DIMTOL
 70
     0
  9
$DIMLIM
 70
     0
  9
$DIMTIH
 70
     1
  9
$DIMTOH
 70
     1
  9
$DIMSE1
 70
     0
  9
$DIMSE2
 70
     0
  9
$DIMTAD
 70
     0
  9
$DIMZIN
 70
     0
  9
$DIMBLK
  1

  9
$DIMASO
 70
     1
  9
$DIMSHO
 70
     1
  9
$DIMPOST
  1

  9
$DIMAPOST
  1

  9
$DIMALT
 70
     0
  9
$DIMALTD
 70
     2
  9
$DIMALTF
 40
25.4
  9
$DIMLFAC
 40
1.0
  9
$DIMTOFL
 70
     0
  9
$DIMTVP
 40
0.0
  9
$DIMTIX
 70
     0
  9
$DIMSOXD
 70
     0
  9
$DIMSAH
 70
     0
  9
$DIMBLK1
  1

  9
$DIMBLK2
  1

  9
$DIMSTYLE
  2
STANDARD
  9
$DIMCLRD
 70
     0
  9
$DIMCLRE
 70
     0
  9
$DIMCLRT
 70
     0
  9
$DIMTFAC
 40
1.0
  9
$DIMGAP
 40
0.09
  9
$DIMJUST
 70
     0
  9
$DIMSD1
 70
     0
  9
$DIMSD2
 70
     0
  9
$DIMTOLJ
 70
     1
  9
$DIMTZIN
 70
     0
  9
$DIMALTZ
 70
     0
  9
$DIMALTTZ
 70
     0
  9
$DIMFIT
 70
     3
  9
$DIMUPT
 70
     0
  9
$DIMUNIT
 70
     2
  9
$DIMDEC
 70
     4
  9
$DIMTDEC
 70
     4
  9
$DIMALTU
 70
     2
  9
$DIMALTTD
 70
     2
  9
$DIMTXSTY
  7
STANDARD
  9
$DIMAUNIT
 70
     0
  9
$LUNITS
 70
     2
  9
$LUPREC
 70
     4
  9
$SKETCHINC
 40
0.1
  9
$FILLETRAD
 40
0.0
  9
$AUNITS
 70
     0
  9
$AUPREC
 70
     0
  9
$MENU
  1
.
  9
$ELEVATION
 40
0.0
  9
$PELEVATION
 40
0.0
  9
$THICKNESS
 40
0.0
  9
$LIMCHECK
 70
     0
  9
$BLIPMODE
 70
     0
  9
$CHAMFERA
 40
0.0
  9
$CHAMFERB
 40
0.0
  9
$CHAMFERC
 40
0.0
  9
$CHAMFERD
 40
0.0
  9
$SKPOLY
 70
     0
  9
$TDCREATE
 40
2455238.865394965
  9
$TDUPDATE
 40
2455238.865581771
  9
$TDINDWG
 40
0.0001868056
  9
$TDUSRTIMER
 40
0.0001868056
  9
$USRTIMER
 70
     1
  9
$ANGBASE
 50
0.0
  9
$ANGDIR
 70
     0
  9
$PDMODE
 70
     0
  9
$PDSIZE
 40
0.0
  9
$PLINEWID
 40
0.0
  9
$COORDS
 70
     1
  9
$SPLFRAME
 70
     0
  9
$SPLINETYPE
 70
     6
  9
$SPLINESEGS
 70
     8
  9
$ATTDIA
 70
     0
  9
$ATTREQ
 70
     1
  9
$HANDLING
 70
 22529
  9
$HANDSEED
  5
19D
  9
$SURFTAB1
 70
     6
  9
$SURFTAB2
 70
     6
  9
$SURFTYPE
 70
     6
  9
$SURFU
 70
     6
  9
$SURFV
 70
     6
  9
$UCSNAME
  2

  9
$UCSORG
 10
0.0
 20
0.0
 30
0.0
  9
$UCSXDIR
 10
1.0
 20
0.0
 30
0.0
  9
$UCSYDIR
 10
0.0
 20
1.0
 30
0.0
  9
$PUCSNAME
  2

  9
$PUCSORG
 10
0.0
 20
0.0
 30
0.0
  9
$PUCSXDIR
 10
1.0
 20
0.0
 30
0.0
  9
$PUCSYDIR
 10
0.0
 20
1.0
 30
0.0
  9
$USERI1
 70
     0
  9
$USERI2
 70
     0
  9
$USERI3
 70
     0
  9
$USERI4
 70
     0
  9
$USERI5
 70
     0
  9
$USERR1
 40
0.0
  9
$USERR2
 40
0.0
  9
$USERR3
 40
0.0
  9
$USERR4
 40
0.0
  9
$USERR5
 40
0.0
  9
$WORLDVIEW
 70
     1
  9
$SHADEDGE
 70
     3
  9
$SHADEDIF
 70
    70
  9
$TILEMODE
 70
     1
  9
$MAXACTVP
 70
    64
  9
$PINSBASE
 10
0.0
 20
0.0
 30
0.0
  9
$PLIMCHECK
 70
     0
  9
$PEXTMIN
 10
1.000000000000000E+20
 20
1.000000000000000E+20
 30
1.000000000000000E+20
  9
$PEXTMAX
 10
-1.000000000000000E+20
 20
-1.000000000000000E+20
 30
-1.000000000000000E+20
  9
$PLIMMIN
 10
0.0
 20
0.0
  9
$PLIMMAX
 10
12.0
 20
9.0
  9
$UNITMODE
 70
     0
  9
$VISRETAIN
 70
     1
  9
$PLINEGEN
 70
     0
  9
$PSLTSCALE
 70
     1
  9
$TREEDEPTH
 70
  3020
  9
$PICKSTYLE
 70
     1
  9
$CMLSTYLE
  2
STANDARD
  9
$CMLJUST
 70
     0
  9
$CMLSCALE
 40
1.0
  9
$PROXYGRAPHICS
 70
     1
  9
$MEASUREMENT
 70
     0
  0
ENDSEC
  0
SECTION
  2
CLASSES
  0
CLASS
  1
ACDBDICTIONARYWDFLT
  2
AcDbDictionaryWithDefault
  3
AutoCAD 2000
 90
        0
280
     0
281
     0
  0
CLASS
  1
ACDBPLACEHOLDER
  2
AcDbPlaceHolder
  3
AutoCAD 2000
 90
        0
280
     0
281
     0
  0
CLASS
  1
LAYOUT
  2
AcDbLayout
  3
AutoCAD 2000
 90
        0
280
     0
281
     0
  0
CLASS
  1
DICTIONARYVAR
  2
AcDbDictionaryVar
  3
AutoCAD 2000
 90
        0
280
     0
281
     0
  0
CLASS
  1
LONG_TRANSACTION
  2
AcDbLongTransaction
  3
AutoCAD 2000
 90
        0
280
     0
281
     0
  0
CLASS
  1
LWPOLYLINE
  2
AcDbPolyline
  3
AutoCAD 2000
 90
        0
280
     0
281
     1
  0
CLASS
  1
HATCH
  2
AcDbHatch
  3
AutoCAD 2000
 90
        0
280
     0
281
     1
  0
CLASS
  1
XRECORD
  2
AcDbXrecord
  3
AutoCAD 2000
 90
        0
280
     0
281
     0
  0
ENDSEC
  0
SECTION
  2
TABLES
  0
TABLE
  2
VPORT
  5
8
330
0
100
AcDbSymbolTable
 70
     3
  0
VPORT
  5
178
330
8
100
AcDbSymbolTableRecord
100
AcDbViewportTableRecord
  2
*ACTIVE
 70
     0
 10
0.0
 20
0.0
 11
1.0
 21
1.0
 12
150.0
 22
72.99999999999998
 13
0.0
 23
0.0
 14
1.0
 24
1.0
 15
0.0
 25
0.0
 16
0.0
 26
0.0
 36
1.0
 17
0.0
 27
0.0
 37
0.0
 40
147.4148121516065
 41
2.041621029572836
 42
50.0
 43
0.0
 44
0.0
 50
0.0
 51
0.0
 71
     0
 72
   100
 73
     1
 74
     3
 75
     0
 76
     0
 77
     0
 78
     0
  0
ENDTAB
  0
TABLE
  2
LTYPE
  5
5
330
0
100
AcDbSymbolTable
 70
     1
  0
LTYPE
  5
13
330
5
100
AcDbSymbolTableRecord
100
AcDbLinetypeTableRecord
  2
BYBLOCK
 70
     0
  3

 72
    65
 73
     0
 40
0.0
  0
LTYPE
  5
14
330
5
100
AcDbSymbolTableRecord
100
AcDbLinetypeTableRecord
  2
BYLAYER
 70
     0
  3

 72
    65
 73
     0
 40
0.0
  0
LTYPE
  5
15
330
5
100
AcDbSymbolTableRecord
100
AcDbLinetypeTableRecord
  2
CONTINUOUS
 70
     0
  3
Solid line
 72
    65
 73
     0
 40
0.0
  0
ENDTAB
  0
TABLE
  2
LAYER
  5
2
330
0
100
AcDbSymbolTable
 70
     1
  0
LAYER
  5
10
330
2
100
AcDbSymbolTableRecord
100
AcDbLayerTableRecord
  2
0
 70
     0
 62
     7
  6
CONTINUOUS
  0
ENDTAB
  0
TABLE
  2
STYLE
  5
3
330
0
100
AcDbSymbolTable
 70
     1
  0
STYLE
  5
11
330
3
100
AcDbSymbolTableRecord
100
AcDbTextStyleTableRecord
  2
STANDARD
 70
     0
 40
0.0
 41
1.0
 50
0.0
 71
     0
 42
0.2
  3
txt
  4

  0
ENDTAB
  0
TABLE
  2
VIEW
  5
6
330
0
100
AcDbSymbolTable
 70
     0
  0
ENDTAB
  0
TABLE
  2
UCS
  5
7
330
0
100
AcDbSymbolTable
 70
     0
  0
ENDTAB
  0
TABLE
  2
APPID
  5
9
330
0
100
AcDbSymbolTable
 70
     1
  0
APPID
  5
12
330
9
100
AcDbSymbolTableRecord
100
AcDbRegAppTableRecord
  2
ACAD
 70
     0
  0
ENDTAB
  0
TABLE
  2
DIMSTYLE
  5
A
330
0
100
AcDbSymbolTable
 70
     1
  0
DIMSTYLE
105
171
330
A
100
AcDbSymbolTableRecord
100
AcDbDimStyleTableRecord
  2
STANDARD
 70
     0
  3

  4

  5

  6

  7

 40
1.0
 41
0.18
 42
0.0625
 43
0.38
 44
0.18
 45
0.0
 46
0.0
 47
0.0
 48
0.0
140
0.18
141
0.09
142
0.0
143
25.4
144
1.0
145
0.0
146
1.0
147
0.09
 71
     0
 72
     0
 73
     1
 74
     1
 75
     0
 76
     0
 77
     0
 78
     0
170
     0
171
     2
172
     0
173
     0
174
     0
175
     0
176
     0
177
     0
178
     0
270
     2
271
     4
272
     4
273
     2
274
     2
340
11
275
     0
280
     0
281
     0
282
     0
283
     1
284
     0
285
     0
286
     0
287
     3
288
     0
  0
ENDTAB
  0
TABLE
  2
BLOCK_RECORD
  5
1
330
0
100
AcDbSymbolTable
 70
     0
  0
BLOCK_RECORD
  5
1E
102
{ACAD_XDICTIONARY
360
19B
102
}
330
1
100
AcDbSymbolTableRecord
100
AcDbBlockTableRecord
  2
*MODEL_SPACE
  0
BLOCK_RECORD
  5
1A
102
{ACAD_XDICTIONARY
360
199
102
}
330
1
100
AcDbSymbolTableRecord
100
AcDbBlockTableRecord
  2
*PAPER_SPACE
  0
ENDTAB
  0
ENDSEC
  0
SECTION
  2
BLOCKS
  0
BLOCK
  5
1F
330
1E
100
AcDbEntity
  8
0
100
AcDbBlockBegin
  2
*MODEL_SPACE
 70
     0
 10
0.0
 20
0.0
 30
0.0
  3
*MODEL_SPACE
  1

  0
ENDBLK
  5
20
330
1E
100
AcDbEntity
  8
0
100
AcDbBlockEnd
  0
BLOCK
  5
1B
330
1A
100
AcDbEntity
 67
     1
  8
0
100
AcDbBlockBegin
  2
*PAPER_SPACE
 70
     0
 10
0.0
 20
0.0
 30
0.0
  3
*PAPER_SPACE
  1

  0
ENDBLK
  5
1C
330
1A
100
AcDbEntity
 67
     1
  8
0
100
AcDbBlockEnd
  0
ENDSEC
  0
SECTION
  2
ENTITIES
  0
LINE
  5
22
330
1E
100
AcDbEntity
  8
0
100
AcDbLine
 10
1.62470649999998
 20
116.223021
 30
0.0
 11
36.90591649999989
 21
116.223021
 31
0.0
  0
LINE
  5
23
330
1E
100
AcDbEntity
  8
0
100
AcDbLine
 10
1.62470649999998
 20
116.223021
 30
0.0
 11
36.90591649999989
 21
116.223021
 31
0.0
  0
LINE
  5
24
330
1E
100
AcDbEntity
  8
0
100
AcDbLine
 10
27.08531649999999
 20
106.551021
 30
0.0
 11
31.29411649999999
 21
101.017021
 31
0.0
  0
LINE
  5
25
330
1E
100
AcDbEntity
  8
0
100
AcDbLine
 10
24.4353165
 20
112.9420209999999
 30
0.0
 11
27.08531649999999
 21
106.551021
 31
0.0
  0
LINE
  5
26
330
1E
100
AcDbEntity
  8
0
100
AcDbLine
 10
-0.000016500000017
 20
119.723021
 30
0.0
 11
0.055772499999983
 21
120.6080209999999
 31
0.0
  0
LINE
  5
27
330
1E
100
AcDbEntity
  8
0
100
AcDbLine
 10
-0.000016500000017
 20
119.723021
 30
0.0
 11
0.055772499999983
 21
118.838021
 31
0.0
  0
LINE
  5
28
330
1E
100
AcDbEntity
  8
0
100
AcDbLine
 10
0.055772499999983
 20
118.838021
 30
0.0
 11
0.209191499999983
 21
118.004021
 31
0.0
  0
LINE
  5
29
330
1E
100
AcDbEntity
  8
0
100
AcDbLine
 10
0.209191499999983
 20
118.004021
 30
0.0
 11
0.4555894999999829
 21
117.2830209999999
 31
0.0
  0
LINE
  5
2A
330
1E
100
AcDbEntity
  8
0
100
AcDbLine
 10
0.055772499999983
 20
118.838021
 30
0.0
 11
0.209191499999983
 21
118.004021
 31
0.0
  0
LINE
  5
2B
330
1E
100
AcDbEntity
  8
0
100
AcDbLine
 10
0.4555894999999829
 20
117.2830209999999
 30
0.0
 11
0.781024499999983
 21
116.738021
 31
0.0
  0
LINE
  5
2C
330
1E
100
AcDbEntity
  8
0
100
AcDbLine
 10
0.781024499999983
 20
116.738021
 30
0.0
 11
1.157606499999979
 21
116.398021
 31
0.0
  0
LINE
  5
2D
330
1E
100
AcDbEntity
  8
0
100
AcDbLine
 10
1.157606499999979
 20
116.398021
 30
0.0
 11
1.557416499999979
 21
116.2740209999999
 31
0.0
  0
LINE
  5
2E
330
1E
100
AcDbEntity
  8
0
100
AcDbLine
 10
1.157606499999979
 20
116.398021
 30
0.0
 11
1.220236499999979
 21
116.347021
 31
0.0
  0
LINE
  5
2F
330
1E
100
AcDbEntity
  8
0
100
AcDbLine
 10
1.220236499999979
 20
116.347021
 30
0.0
 11
1.62470649999998
 21
116.223021
 31
0.0
  0
LINE
  5
30
330
1E
100
AcDbEntity
  8
0
100
AcDbLine
 10
2.65924649999998
 20
117.2830209999999
 30
0.0
 11
2.905646499999979
 21
118.004021
 31
0.0
  0
LINE
  5
31
330
1E
100
AcDbEntity
  8
0
100
AcDbLine
 10
2.905646499999979
 20
118.004021
 30
0.0
 11
3.059066499999979
 21
118.838021
 31
0.0
  0
LINE
  5
32
330
1E
100
AcDbEntity
  8
0
100
AcDbLine
 10
3.059066499999979
 20
118.838021
 30
0.0
 11
3.114856499999979
 21
119.723021
 31
0.0
  0
LINE
  5
33
330
1E
100
AcDbEntity
  8
0
100
AcDbLine
 10
3.149596499999979
 20
118.8270209999999
 30
0.0
 11
3.205386499999979
 21
119.723021
 31
0.0
  0
LINE
  5
34
330
1E
100
AcDbEntity
  8
0
100
AcDbLine
 10
2.33381649999998
 20
116.738021
 30
0.0
 11
2.65924649999998
 21
117.2830209999999
 31
0.0
  0
LINE
  5
35
330
1E
100
AcDbEntity
  8
0
100
AcDbLine
 10
1.95723649999998
 20
116.398021
 30
0.0
 11
2.33381649999998
 21
116.738021
 31
0.0
  0
LINE
  5
36
330
1E
100
AcDbEntity
  8
0
100
AcDbLine
 10
1.557416499999979
 20
116.2740209999999
 30
0.0
 11
1.95723649999998
 21
116.398021
 31
0.0
  0
LINE
  5
37
330
1E
100
AcDbEntity
  8
0
100
AcDbLine
 10
-0.000016500000017
 20
119.723021
 30
0.0
 11
0.055772499999983
 21
120.6080209999999
 31
0.0
  0
LINE
  5
38
330
1E
100
AcDbEntity
  8
0
100
AcDbLine
 10
-0.000016500000017
 20
119.723021
 30
0.0
 11
0.055772499999983
 21
118.838021
 31
0.0
  0
LINE
  5
39
330
1E
100
AcDbEntity
  8
0
100
AcDbLine
 10
23.98276978122689
 20
116.223021
 30
0.0
 11
24.4353165
 21
112.9420209999999
 31
0.0
  0
LINE
  5
3A
330
1E
100
AcDbEntity
  8
0
100
AcDbLine
 10
36.49411649999999
 20
116.1410209999999
 30
0.0
 11
37.89411649999999
 21
112.764021
 31
0.0
  0
LINE
  5
3B
330
1E
100
AcDbEntity
  8
0
100
AcDbLine
 10
37.89411649999999
 20
112.764021
 30
0.0
 11
40.11761649999999
 21
109.8410209999999
 31
0.0
  0
LINE
  5
3C
330
1E
100
AcDbEntity
  8
0
100
AcDbLine
 10
36.4828054447236
 20
116.223021
 30
0.0
 11
36.49411649999999
 21
116.1410209999999
 31
0.0
  0
LINE
  5
3D
330
1E
100
AcDbEntity
  8
0
100
AcDbLine
 10
40.11761649999999
 20
109.8410209999999
 30
0.0
 11
43.04121649999999
 21
107.6170209999999
 31
0.0
  0
LINE
  5
3E
330
1E
100
AcDbEntity
  8
0
100
AcDbLine
 10
43.04121649999999
 20
107.6170209999999
 30
0.0
 11
46.4176165
 21
106.217021
 31
0.0
  0
LINE
  5
3F
330
1E
100
AcDbEntity
  8
0
100
AcDbLine
 10
46.4176165
 20
106.217021
 30
0.0
 11
50.0000165
 21
105.7230209999999
 31
0.0
  0
LINE
  5
40
330
1E
100
AcDbEntity
  8
0
100
AcDbLine
 10
50.0000165
 20
105.7230209999999
 30
0.0
 11
53.5824165
 21
106.217021
 31
0.0
  0
LINE
  5
41
330
1E
100
AcDbEntity
  8
0
100
AcDbLine
 10
36.8279165
 20
96.80832099999999
 30
0.0
 11
43.21911649999999
 21
94.15832100000001
 31
0.0
  0
LINE
  5
42
330
1E
100
AcDbEntity
  8
0
100
AcDbLine
 10
31.29411649999999
 20
101.017021
 30
0.0
 11
36.8279165
 21
96.80832099999999
 31
0.0
  0
LINE
  5
43
330
1E
100
AcDbEntity
  8
0
100
AcDbLine
 10
43.21911649999999
 20
94.15832100000001
 30
0.0
 11
50.0000165
 21
93.22302099999999
 31
0.0
  0
LINE
  5
44
330
1E
100
AcDbEntity
  8
0
100
AcDbLine
 10
138.0000165
 20
10.004621
 30
0.0
 11
138.0000165
 21
20.06322099999999
 31
0.0
  0
LINE
  5
45
330
1E
100
AcDbEntity
  8
0
100
AcDbLine
 10
138.0000165
 20
10.004621
 30
0.0
 11
138.4320165
 21
7.386371
 31
0.0
  0
LINE
  5
46
330
1E
100
AcDbEntity
  8
0
100
AcDbLine
 10
138.0000165
 20
20.06322099999999
 30
0.0
 11
138.033205385706
 21
20.2643671586938
 31
0.0
  0
LINE
  5
47
330
1E
100
AcDbEntity
  8
0
100
AcDbLine
 10
138.0000165
 20
20.06322099999999
 30
0.0
 11
138.0000165
 21
10.004621
 31
0.0
  0
LINE
  5
48
330
1E
100
AcDbEntity
  8
0
100
AcDbLine
 10
138.0000165
 20
20.06322099999999
 30
0.0
 11
138.4320165
 21
17.444921
 31
0.0
  0
LINE
  5
49
330
1E
100
AcDbEntity
  8
0
100
AcDbLine
 10
138.0000165
 20
37.228721
 30
0.0
 11
138.0000165
 21
33.885821
 31
0.0
  0
LINE
  5
4A
330
1E
100
AcDbEntity
  8
0
100
AcDbLine
 10
138.0000165
 20
37.228721
 30
0.0
 11
138.0000165
 21
41.196121
 31
0.0
  0
LINE
  5
4B
330
1E
100
AcDbEntity
  8
0
100
AcDbLine
 10
138.0000165
 20
41.196121
 30
0.0
 11
138.0000165
 21
45.720021
 31
0.0
  0
LINE
  5
4C
330
1E
100
AcDbEntity
  8
0
100
AcDbLine
 10
138.0000165
 20
41.196121
 30
0.0
 11
138.0000165
 21
37.228721
 31
0.0
  0
LINE
  5
4D
330
1E
100
AcDbEntity
  8
0
100
AcDbLine
 10
138.0000165
 20
45.720021
 30
0.0
 11
138.0000165
 21
41.196121
 31
0.0
  0
LINE
  5
4E
330
1E
100
AcDbEntity
  8
0
100
AcDbLine
 10
138.0000165
 20
45.720021
 30
0.0
 11
138.0000165
 21
50.723021
 31
0.0
  0
LINE
  5
4F
330
1E
100
AcDbEntity
  8
0
100
AcDbLine
 10
138.0000165
 20
50.723021
 30
0.0
 11
138.0000165
 21
56.11962099999999
 31
0.0
  0
LINE
  5
50
330
1E
100
AcDbEntity
  8
0
100
AcDbLine
 10
138.0000165
 20
50.723021
 30
0.0
 11
138.0000165
 21
45.720021
 31
0.0
  0
LINE
  5
51
330
1E
100
AcDbEntity
  8
0
100
AcDbLine
 10
138.0000165
 20
67.71882099999999
 30
0.0
 11
138.0000165
 21
61.817321
 31
0.0
  0
LINE
  5
52
330
1E
100
AcDbEntity
  8
0
100
AcDbLine
 10
138.0000165
 20
67.71882099999999
 30
0.0
 11
138.0000165
 21
73.723021
 31
0.0
  0
LINE
  5
53
330
1E
100
AcDbEntity
  8
0
100
AcDbLine
 10
138.0000165
 20
56.11962099999999
 30
0.0
 11
138.0000165
 21
61.817321
 31
0.0
  0
LINE
  5
54
330
1E
100
AcDbEntity
  8
0
100
AcDbLine
 10
138.0000165
 20
56.11962099999999
 30
0.0
 11
138.0000165
 21
50.723021
 31
0.0
  0
LINE
  5
55
330
1E
100
AcDbEntity
  8
0
100
AcDbLine
 10
138.0000165
 20
61.817321
 30
0.0
 11
138.0000165
 21
56.11962099999999
 31
0.0
  0
LINE
  5
56
330
1E
100
AcDbEntity
  8
0
100
AcDbLine
 10
138.0000165
 20
61.817321
 30
0.0
 11
138.0000165
 21
67.71882099999999
 31
0.0
  0
LINE
  5
57
330
1E
100
AcDbEntity
  8
0
100
AcDbLine
 10
138.0000165
 20
91.32642099999999
 30
0.0
 11
138.0000165
 21
96.72302100000001
 31
0.0
  0
LINE
  5
58
330
1E
100
AcDbEntity
  8
0
100
AcDbLine
 10
138.0000165
 20
91.32642099999999
 30
0.0
 11
138.0000165
 21
85.62872099999999
 31
0.0
  0
LINE
  5
59
330
1E
100
AcDbEntity
  8
0
100
AcDbLine
 10
138.0000165
 20
85.62872099999999
 30
0.0
 11
138.0000165
 21
79.727221
 31
0.0
  0
LINE
  5
5A
330
1E
100
AcDbEntity
  8
0
100
AcDbLine
 10
138.0000165
 20
85.62872099999999
 30
0.0
 11
138.0000165
 21
91.32642099999999
 31
0.0
  0
LINE
  5
5B
330
1E
100
AcDbEntity
  8
0
100
AcDbLine
 10
138.0000165
 20
73.723021
 30
0.0
 11
138.0000165
 21
79.727221
 31
0.0
  0
LINE
  5
5C
330
1E
100
AcDbEntity
  8
0
100
AcDbLine
 10
138.0000165
 20
73.723021
 30
0.0
 11
138.0000165
 21
67.71882099999999
 31
0.0
  0
LINE
  5
5D
330
1E
100
AcDbEntity
  8
0
100
AcDbLine
 10
138.0000165
 20
79.727221
 30
0.0
 11
138.0000165
 21
73.723021
 31
0.0
  0
LINE
  5
5E
330
1E
100
AcDbEntity
  8
0
100
AcDbLine
 10
138.0000165
 20
79.727221
 30
0.0
 11
138.0000165
 21
85.62872099999999
 31
0.0
  0
LINE
  5
5F
330
1E
100
AcDbEntity
  8
0
100
AcDbLine
 10
138.0000165
 20
33.885821
 30
0.0
 11
138.0000165
 21
20.46552099999999
 31
0.0
  0
LINE
  5
60
330
1E
100
AcDbEntity
  8
0
100
AcDbLine
 10
138.0000165
 20
33.885821
 30
0.0
 11
138.0000165
 21
37.228721
 31
0.0
  0
LINE
  5
61
330
1E
100
AcDbEntity
  8
0
100
AcDbLine
 10
138.0000165
 20
20.46552099999999
 30
0.0
 11
138.0000165
 21
33.885821
 31
0.0
  0
LINE
  5
62
330
1E
100
AcDbEntity
  8
0
100
AcDbLine
 10
138.0000165
 20
20.46552099999999
 30
0.0
 11
138.4320165
 21
17.84722099999999
 31
0.0
  0
LINE
  5
63
330
1E
100
AcDbEntity
  8
0
100
AcDbLine
 10
59.8824165
 20
109.8410209999999
 30
0.0
 11
62.10591650000001
 21
112.764021
 31
0.0
  0
LINE
  5
64
330
1E
100
AcDbEntity
  8
0
100
AcDbLine
 10
62.10591650000001
 20
112.764021
 30
0.0
 11
63.50591650000001
 21
116.1410209999999
 31
0.0
  0
LINE
  5
65
330
1E
100
AcDbEntity
  8
0
100
AcDbLine
 10
56.9588165
 20
107.6170209999999
 30
0.0
 11
59.8824165
 21
109.8410209999999
 31
0.0
  0
LINE
  5
66
330
1E
100
AcDbEntity
  8
0
100
AcDbLine
 10
53.5824165
 20
106.217021
 30
0.0
 11
56.9588165
 21
107.6170209999999
 31
0.0
  0
LINE
  5
67
330
1E
100
AcDbEntity
  8
0
100
AcDbLine
 10
68.7059165
 20
101.017021
 30
0.0
 11
72.9147165
 21
106.551021
 31
0.0
  0
LINE
  5
68
330
1E
100
AcDbEntity
  8
0
100
AcDbLine
 10
138.0000165
 20
96.72302100000001
 30
0.0
 11
138.0000165
 21
101.726021
 31
0.0
  0
LINE
  5
69
330
1E
100
AcDbEntity
  8
0
100
AcDbLine
 10
138.0000165
 20
96.72302100000001
 30
0.0
 11
138.0000165
 21
91.32642099999999
 31
0.0
  0
LINE
  5
6A
330
1E
100
AcDbEntity
  8
0
100
AcDbLine
 10
124.4350164999999
 20
112.9420209999999
 30
0.0
 11
127.0850165
 21
106.551021
 31
0.0
  0
LINE
  5
6B
330
1E
100
AcDbEntity
  8
0
100
AcDbLine
 10
127.0850165
 20
106.551021
 30
0.0
 11
131.2940165
 21
101.017021
 31
0.0
  0
LINE
  5
6C
330
1E
100
AcDbEntity
  8
0
100
AcDbLine
 10
138.0000165
 20
101.726021
 30
0.0
 11
138.0000165
 21
96.72302100000001
 31
0.0
  0
LINE
  5
6D
330
1E
100
AcDbEntity
  8
0
100
AcDbLine
 10
138.0000165
 20
101.726021
 30
0.0
 11
138.0000165
 21
106.2500209999999
 31
0.0
  0
LINE
  5
6E
330
1E
100
AcDbEntity
  8
0
100
AcDbLine
 10
138.0000165
 20
106.2500209999999
 30
0.0
 11
138.0000165
 21
110.217021
 31
0.0
  0
LINE
  5
6F
330
1E
100
AcDbEntity
  8
0
100
AcDbLine
 10
138.0000165
 20
106.2500209999999
 30
0.0
 11
138.0000165
 21
101.726021
 31
0.0
  0
LINE
  5
70
330
1E
100
AcDbEntity
  8
0
100
AcDbLine
 10
138.0000165
 20
110.217021
 30
0.0
 11
138.0000165
 21
106.2500209999999
 31
0.0
  0
LINE
  5
71
330
1E
100
AcDbEntity
  8
0
100
AcDbLine
 10
138.0000165
 20
110.217021
 30
0.0
 11
138.0000165
 21
113.5600209999999
 31
0.0
  0
LINE
  5
72
330
1E
100
AcDbEntity
  8
0
100
AcDbLine
 10
131.2940165
 20
101.017021
 30
0.0
 11
136.8280164999999
 21
96.80832099999999
 31
0.0
  0
LINE
  5
73
330
1E
100
AcDbEntity
  8
0
100
AcDbLine
 10
136.8280164999999
 20
96.80832099999999
 30
0.0
 11
138.0000165
 21
96.32235636222809
 31
0.0
  0
LINE
  5
74
330
1E
100
AcDbEntity
  8
0
100
AcDbLine
 10
72.9147165
 20
106.551021
 30
0.0
 11
75.5647165
 21
112.9420209999999
 31
0.0
  0
LINE
  5
75
330
1E
100
AcDbEntity
  8
0
100
AcDbLine
 10
138.0000165
 20
116.221021
 30
0.0
 11
138.0000165
 21
113.5600209999999
 31
0.0
  0
LINE
  5
76
330
1E
100
AcDbEntity
  8
0
100
AcDbLine
 10
138.0000165
 20
116.221021
 30
0.0
 11
138.0000165
 21
118.1560209999999
 31
0.0
  0
LINE
  5
77
330
1E
100
AcDbEntity
  8
0
100
AcDbLine
 10
138.0000165
 20
118.1560209999999
 30
0.0
 11
138.0000165
 21
119.329021
 31
0.0
  0
LINE
  5
78
330
1E
100
AcDbEntity
  8
0
100
AcDbLine
 10
138.0000165
 20
118.1560209999999
 30
0.0
 11
138.0000165
 21
116.221021
 31
0.0
  0
LINE
  5
79
330
1E
100
AcDbEntity
  8
0
100
AcDbLine
 10
138.0000165
 20
119.329021
 30
0.0
 11
138.0000165
 21
119.723021
 31
0.0
  0
LINE
  5
7A
330
1E
100
AcDbEntity
  8
0
100
AcDbLine
 10
138.0000165
 20
119.329021
 30
0.0
 11
138.0000165
 21
118.1560209999999
 31
0.0
  0
LINE
  5
7B
330
1E
100
AcDbEntity
  8
0
100
AcDbLine
 10
138.0000165
 20
113.5600209999999
 30
0.0
 11
138.0000165
 21
110.217021
 31
0.0
  0
LINE
  5
7C
330
1E
100
AcDbEntity
  8
0
100
AcDbLine
 10
138.0000165
 20
113.5600209999999
 30
0.0
 11
138.0000165
 21
116.221021
 31
0.0
  0
LINE
  5
7D
330
1E
100
AcDbEntity
  8
0
100
AcDbLine
 10
123.5000164999999
 20
119.723021
 30
0.0
 11
124.4350164999999
 21
126.5040209999999
 31
0.0
  0
LINE
  5
7E
330
1E
100
AcDbEntity
  8
0
100
AcDbLine
 10
123.5000164999999
 20
119.723021
 30
0.0
 11
124.4350164999999
 21
112.9420209999999
 31
0.0
  0
LINE
  5
7F
330
1E
100
AcDbEntity
  8
0
100
AcDbLine
 10
63.50591650000001
 20
116.1410209999999
 30
0.0
 11
64.0000165
 21
119.723021
 31
0.0
  0
LINE
  5
80
330
1E
100
AcDbEntity
  8
0
100
AcDbLine
 10
75.5647165
 20
112.9420209999999
 30
0.0
 11
76.5000165
 21
119.723021
 31
0.0
  0
LINE
  5
81
330
1E
100
AcDbEntity
  8
0
100
AcDbLine
 10
63.1721165
 20
96.80832099999999
 30
0.0
 11
68.7059165
 21
101.017021
 31
0.0
  0
LINE
  5
82
330
1E
100
AcDbEntity
  8
0
100
AcDbLine
 10
56.7809165
 20
94.15832100000001
 30
0.0
 11
63.1721165
 21
96.80832099999999
 31
0.0
  0
LINE
  5
83
330
1E
100
AcDbEntity
  8
0
100
AcDbLine
 10
50.0000165
 20
93.22302099999999
 30
0.0
 11
56.7809165
 21
94.15832100000001
 31
0.0
  0
LINE
  5
84
330
1E
100
AcDbEntity
  8
0
100
AcDbLine
 10
3.059066499999979
 20
120.6080209999999
 30
0.0
 11
3.114856499999979
 21
119.723021
 31
0.0
  0
LINE
  5
85
330
1E
100
AcDbEntity
  8
0
100
AcDbLine
 10
0.055772499999983
 20
120.6080209999999
 30
0.0
 11
0.209191499999983
 21
121.4420209999999
 31
0.0
  0
LINE
  5
86
330
1E
100
AcDbEntity
  8
0
100
AcDbLine
 10
0.4555894999999829
 20
122.163021
 30
0.0
 11
0.781024499999983
 21
122.708021
 31
0.0
  0
LINE
  5
87
330
1E
100
AcDbEntity
  8
0
100
AcDbLine
 10
0.781024499999983
 20
122.708021
 30
0.0
 11
1.157606499999979
 21
123.0480209999999
 31
0.0
  0
LINE
  5
88
330
1E
100
AcDbEntity
  8
0
100
AcDbLine
 10
2.65924649999998
 20
122.163021
 30
0.0
 11
2.905646499999979
 21
121.4420209999999
 31
0.0
  0
LINE
  5
89
330
1E
100
AcDbEntity
  8
0
100
AcDbLine
 10
2.905646499999979
 20
121.4420209999999
 30
0.0
 11
3.059066499999979
 21
120.6080209999999
 31
0.0
  0
LINE
  5
8A
330
1E
100
AcDbEntity
  8
0
100
AcDbLine
 10
3.149596499999979
 20
120.6190209999999
 30
0.0
 11
3.205386499999979
 21
119.723021
 31
0.0
  0
LINE
  5
8B
330
1E
100
AcDbEntity
  8
0
100
AcDbLine
 10
2.33381649999998
 20
122.708021
 30
0.0
 11
2.65924649999998
 21
122.163021
 31
0.0
  0
LINE
  5
8C
330
1E
100
AcDbEntity
  8
0
100
AcDbLine
 10
1.95723649999998
 20
123.0480209999999
 30
0.0
 11
2.33381649999998
 21
122.708021
 31
0.0
  0
LINE
  5
8D
330
1E
100
AcDbEntity
  8
0
100
AcDbLine
 10
1.157606499999979
 20
123.0480209999999
 30
0.0
 11
1.220236499999979
 21
123.0990209999999
 31
0.0
  0
LINE
  5
8E
330
1E
100
AcDbEntity
  8
0
100
AcDbLine
 10
1.157606499999979
 20
123.0480209999999
 30
0.0
 11
1.557416499999979
 21
123.1720209999999
 31
0.0
  0
LINE
  5
8F
330
1E
100
AcDbEntity
  8
0
100
AcDbLine
 10
1.557416499999979
 20
123.1720209999999
 30
0.0
 11
1.95723649999998
 21
123.0480209999999
 31
0.0
  0
LINE
  5
90
330
1E
100
AcDbEntity
  8
0
100
AcDbLine
 10
1.62470649999998
 20
123.2230209999999
 30
0.0
 11
36.9059165
 21
123.2230209999999
 31
0.0
  0
LINE
  5
91
330
1E
100
AcDbEntity
  8
0
100
AcDbLine
 10
1.62470649999998
 20
123.2230209999999
 30
0.0
 11
36.9059165
 21
123.2230209999999
 31
0.0
  0
LINE
  5
92
330
1E
100
AcDbEntity
  8
0
100
AcDbLine
 10
1.220236499999979
 20
123.0990209999999
 30
0.0
 11
1.62470649999998
 21
123.2230209999999
 31
0.0
  0
LINE
  5
93
330
1E
100
AcDbEntity
  8
0
100
AcDbLine
 10
0.209191499999983
 20
121.4420209999999
 30
0.0
 11
0.4555894999999829
 21
122.163021
 31
0.0
  0
LINE
  5
94
330
1E
100
AcDbEntity
  8
0
100
AcDbLine
 10
0.055772499999983
 20
120.6080209999999
 30
0.0
 11
0.209191499999983
 21
121.4420209999999
 31
0.0
  0
LINE
  5
95
330
1E
100
AcDbEntity
  8
0
100
AcDbLine
 10
63.50591650000001
 20
123.305021
 30
0.0
 11
64.0000165
 21
119.723021
 31
0.0
  0
LINE
  5
96
330
1E
100
AcDbEntity
  8
0
100
AcDbLine
 10
124.4350164999999
 20
126.5040209999999
 30
0.0
 11
127.0850165
 21
132.8950209999999
 31
0.0
  0
LINE
  5
97
330
1E
100
AcDbEntity
  8
0
100
AcDbLine
 10
36.49411649999999
 20
123.305021
 30
0.0
 11
37.89411649999999
 21
126.6820209999999
 31
0.0
  0
LINE
  5
98
330
1E
100
AcDbEntity
  8
0
100
AcDbLine
 10
36.4828054447236
 20
123.2230209999999
 30
0.0
 11
36.49411649999999
 21
123.305021
 31
0.0
  0
LINE
  5
99
330
1E
100
AcDbEntity
  8
0
100
AcDbLine
 10
62.10591650000001
 20
126.6820209999999
 30
0.0
 11
63.50591650000001
 21
123.305021
 31
0.0
  0
LINE
  5
9A
330
1E
100
AcDbEntity
  8
0
100
AcDbLine
 10
40.11761649999999
 20
129.6050209999999
 30
0.0
 11
43.04121649999999
 21
131.8290209999999
 31
0.0
  0
LINE
  5
9B
330
1E
100
AcDbEntity
  8
0
100
AcDbLine
 10
59.8824165
 20
129.6050209999999
 30
0.0
 11
62.10591650000001
 21
126.6820209999999
 31
0.0
  0
LINE
  5
9C
330
1E
100
AcDbEntity
  8
0
100
AcDbLine
 10
56.9588165
 20
131.8290209999999
 30
0.0
 11
59.8824165
 21
129.6050209999999
 31
0.0
  0
LINE
  5
9D
330
1E
100
AcDbEntity
  8
0
100
AcDbLine
 10
43.04121649999999
 20
131.8290209999999
 30
0.0
 11
46.4176165
 21
133.2290209999999
 31
0.0
  0
LINE
  5
9E
330
1E
100
AcDbEntity
  8
0
100
AcDbLine
 10
37.89411649999999
 20
126.6820209999999
 30
0.0
 11
40.11761649999999
 21
129.6050209999999
 31
0.0
  0
LINE
  5
9F
330
1E
100
AcDbEntity
  8
0
100
AcDbLine
 10
127.0850165
 20
132.8950209999999
 30
0.0
 11
131.2940165
 21
138.429021
 31
0.0
  0
LINE
  5
A0
330
1E
100
AcDbEntity
  8
0
100
AcDbLine
 10
72.9147165
 20
132.8950209999999
 30
0.0
 11
75.5647165
 21
126.5040209999999
 31
0.0
  0
LINE
  5
A1
330
1E
100
AcDbEntity
  8
0
100
AcDbLine
 10
75.5647165
 20
126.5040209999999
 30
0.0
 11
76.5000165
 21
119.723021
 31
0.0
  0
LINE
  5
A2
330
1E
100
AcDbEntity
  8
0
100
AcDbLine
 10
24.4353165
 20
126.5040209999999
 30
0.0
 11
27.08531649999999
 21
132.8950209999999
 31
0.0
  0
LINE
  5
A3
330
1E
100
AcDbEntity
  8
0
100
AcDbLine
 10
36.8279165
 20
142.638021
 30
0.0
 11
43.21911649999999
 21
145.2880209999999
 31
0.0
  0
LINE
  5
A4
330
1E
100
AcDbEntity
  8
0
100
AcDbLine
 10
31.29411649999999
 20
138.429021
 30
0.0
 11
36.8279165
 21
142.638021
 31
0.0
  0
LINE
  5
A5
330
1E
100
AcDbEntity
  8
0
100
AcDbLine
 10
53.5824165
 20
133.2290209999999
 30
0.0
 11
56.9588165
 21
131.8290209999999
 31
0.0
  0
LINE
  5
A6
330
1E
100
AcDbEntity
  8
0
100
AcDbLine
 10
50.0000165
 20
133.7230209999999
 30
0.0
 11
53.5824165
 21
133.2290209999999
 31
0.0
  0
LINE
  5
A7
330
1E
100
AcDbEntity
  8
0
100
AcDbLine
 10
46.4176165
 20
133.2290209999999
 30
0.0
 11
50.0000165
 21
133.7230209999999
 31
0.0
  0
LINE
  5
A8
330
1E
100
AcDbEntity
  8
0
100
AcDbLine
 10
136.8280164999999
 20
142.638021
 30
0.0
 11
143.2190165
 21
145.2880209999999
 31
0.0
  0
LINE
  5
A9
330
1E
100
AcDbEntity
  8
0
100
AcDbLine
 10
131.2940165
 20
138.429021
 30
0.0
 11
136.8280164999999
 21
142.638021
 31
0.0
  0
LINE
  5
AA
330
1E
100
AcDbEntity
  8
0
100
AcDbLine
 10
68.7059165
 20
138.429021
 30
0.0
 11
72.9147165
 21
132.8950209999999
 31
0.0
  0
LINE
  5
AB
330
1E
100
AcDbEntity
  8
0
100
AcDbLine
 10
63.1721165
 20
142.638021
 30
0.0
 11
68.7059165
 21
138.429021
 31
0.0
  0
LINE
  5
AC
330
1E
100
AcDbEntity
  8
0
100
AcDbLine
 10
56.7809165
 20
145.2880209999999
 30
0.0
 11
63.1721165
 21
142.638021
 31
0.0
  0
LINE
  5
AD
330
1E
100
AcDbEntity
  8
0
100
AcDbLine
 10
50.0000165
 20
146.2230209999999
 30
0.0
 11
56.7809165
 21
145.2880209999999
 31
0.0
  0
LINE
  5
AE
330
1E
100
AcDbEntity
  8
0
100
AcDbLine
 10
43.21911649999999
 20
145.2880209999999
 30
0.0
 11
50.0000165
 21
146.2230209999999
 31
0.0
  0
LINE
  5
AF
330
1E
100
AcDbEntity
  8
0
100
AcDbLine
 10
27.08531649999999
 20
132.8950209999999
 30
0.0
 11
31.29411649999999
 21
138.429021
 31
0.0
  0
LINE
  5
B0
330
1E
100
AcDbEntity
  8
0
100
AcDbLine
 10
23.98276978122689
 20
123.2230209999999
 30
0.0
 11
24.4353165
 21
126.5040209999999
 31
0.0
  0
LINE
  5
B1
330
1E
100
AcDbEntity
  8
0
100
AcDbLine
 10
138.0000165
 20
119.723021
 30
0.0
 11
138.4240165
 21
122.794021
 31
0.0
  0
LINE
  5
B2
330
1E
100
AcDbEntity
  8
0
100
AcDbLine
 10
138.0000165
 20
119.723021
 30
0.0
 11
138.027331084696
 21
119.525183524526
 31
0.0
  0
LINE
  5
B3
330
1E
100
AcDbEntity
  8
0
100
AcDbLine
 10
138.0000165
 20
119.723021
 30
0.0
 11
138.0000165
 21
119.329021
 31
0.0
  0
LINE
  5
B4
330
1E
100
AcDbEntity
  8
0
100
AcDbLine
 10
138.4320165
 20
7.386371
 30
0.0
 11
139.5840164999999
 21
4.931731
 31
0.0
  0
LINE
  5
B5
330
1E
100
AcDbEntity
  8
0
100
AcDbLine
 10
139.5840164999999
 20
4.931731
 30
0.0
 11
141.5040165
 21
2.763460999999999
 31
0.0
  0
LINE
  5
B6
330
1E
100
AcDbEntity
  8
0
100
AcDbLine
 10
141.5040165
 20
2.763460999999999
 30
0.0
 11
144.0480165
 21
1.127030999999999
 31
0.0
  0
LINE
  5
B7
330
1E
100
AcDbEntity
  8
0
100
AcDbLine
 10
144.0480165
 20
1.127030999999999
 30
0.0
 11
146.9280165
 21
0.145175
 31
0.0
  0
LINE
  5
B8
330
1E
100
AcDbEntity
  8
0
100
AcDbLine
 10
146.9280165
 20
0.145175
 30
0.0
 11
150.0000165
 21
-0.223021
 31
0.0
  0
LINE
  5
B9
330
1E
100
AcDbEntity
  8
0
100
AcDbLine
 10
150.0000165
 20
-0.223021
 30
0.0
 11
153.0720165
 21
0.145175
 31
0.0
  0
LINE
  5
BA
330
1E
100
AcDbEntity
  8
0
100
AcDbLine
 10
162.0000165
 20
10.004621
 30
0.0
 11
162.0000165
 21
20.06322099999999
 31
0.0
  0
LINE
  5
BB
330
1E
100
AcDbEntity
  8
0
100
AcDbLine
 10
161.5680165
 20
7.386371
 30
0.0
 11
162.0000165
 21
10.004621
 31
0.0
  0
LINE
  5
BC
330
1E
100
AcDbEntity
  8
0
100
AcDbLine
 10
160.4160165
 20
4.931731
 30
0.0
 11
161.5680165
 21
7.386371
 31
0.0
  0
LINE
  5
BD
330
1E
100
AcDbEntity
  8
0
100
AcDbLine
 10
158.4960165
 20
2.763460999999999
 30
0.0
 11
160.4160165
 21
4.931731
 31
0.0
  0
LINE
  5
BE
330
1E
100
AcDbEntity
  8
0
100
AcDbLine
 10
155.9520165
 20
1.127030999999999
 30
0.0
 11
158.4960165
 21
2.763460999999999
 31
0.0
  0
LINE
  5
BF
330
1E
100
AcDbEntity
  8
0
100
AcDbLine
 10
153.0720165
 20
0.145175
 30
0.0
 11
155.9520165
 21
1.127030999999999
 31
0.0
  0
LINE
  5
C0
330
1E
100
AcDbEntity
  8
0
100
AcDbLine
 10
153.0720165
 20
10.203721
 30
0.0
 11
155.9520165
 21
11.185521
 31
0.0
  0
LINE
  5
C1
330
1E
100
AcDbEntity
  8
0
100
AcDbLine
 10
150.0000165
 20
9.835520999999999
 30
0.0
 11
153.0720165
 21
10.203721
 31
0.0
  0
LINE
  5
C2
330
1E
100
AcDbEntity
  8
0
100
AcDbLine
 10
153.0720165
 20
10.606021
 30
0.0
 11
155.9520165
 21
11.587921
 31
0.0
  0
LINE
  5
C3
330
1E
100
AcDbEntity
  8
0
100
AcDbLine
 10
150.0000165
 20
10.237821
 30
0.0
 11
153.0720165
 21
10.606021
 31
0.0
  0
LINE
  5
C4
330
1E
100
AcDbEntity
  8
0
100
AcDbLine
 10
146.9280165
 20
10.203721
 30
0.0
 11
150.0000165
 21
9.835520999999999
 31
0.0
  0
LINE
  5
C5
330
1E
100
AcDbEntity
  8
0
100
AcDbLine
 10
141.5040165
 20
12.822021
 30
0.0
 11
144.0480165
 21
11.185521
 31
0.0
  0
LINE
  5
C6
330
1E
100
AcDbEntity
  8
0
100
AcDbLine
 10
144.0480165
 20
11.185521
 30
0.0
 11
146.9280165
 21
10.203721
 31
0.0
  0
LINE
  5
C7
330
1E
100
AcDbEntity
  8
0
100
AcDbLine
 10
138.4320165
 20
17.444921
 30
0.0
 11
139.5840164999999
 21
14.990221
 31
0.0
  0
LINE
  5
C8
330
1E
100
AcDbEntity
  8
0
100
AcDbLine
 10
139.5840164999999
 20
14.990221
 30
0.0
 11
141.5040165
 21
12.822021
 31
0.0
  0
LINE
  5
C9
330
1E
100
AcDbEntity
  8
0
100
AcDbLine
 10
138.4320165
 20
17.84722099999999
 30
0.0
 11
139.5840164999999
 21
15.392621
 31
0.0
  0
LINE
  5
CA
330
1E
100
AcDbEntity
  8
0
100
AcDbLine
 10
139.5840164999999
 20
15.392621
 30
0.0
 11
141.5040165
 21
13.224321
 31
0.0
  0
LINE
  5
CB
330
1E
100
AcDbEntity
  8
0
100
AcDbLine
 10
141.5040165
 20
13.224321
 30
0.0
 11
144.0480165
 21
11.587921
 31
0.0
  0
LINE
  5
CC
330
1E
100
AcDbEntity
  8
0
100
AcDbLine
 10
155.9520165
 20
11.185521
 30
0.0
 11
158.4960165
 21
12.822021
 31
0.0
  0
LINE
  5
CD
330
1E
100
AcDbEntity
  8
0
100
AcDbLine
 10
158.4960165
 20
12.822021
 30
0.0
 11
160.4160165
 21
14.990221
 31
0.0
  0
LINE
  5
CE
330
1E
100
AcDbEntity
  8
0
100
AcDbLine
 10
160.4160165
 20
14.990221
 30
0.0
 11
161.5680165
 21
17.444921
 31
0.0
  0
LINE
  5
CF
330
1E
100
AcDbEntity
  8
0
100
AcDbLine
 10
161.5680165
 20
17.444921
 30
0.0
 11
162.0000165
 21
20.06322099999999
 31
0.0
  0
LINE
  5
D0
330
1E
100
AcDbEntity
  8
0
100
AcDbLine
 10
162.0000165
 20
20.06322099999999
 30
0.0
 11
162.0000165
 21
10.004621
 31
0.0
  0
LINE
  5
D1
330
1E
100
AcDbEntity
  8
0
100
AcDbLine
 10
161.966827614294
 20
20.2643671586938
 30
0.0
 11
162.0000165
 21
20.06322099999999
 31
0.0
  0
LINE
  5
D2
330
1E
100
AcDbEntity
  8
0
100
AcDbLine
 10
162.0000165
 20
20.46552099999999
 30
0.0
 11
162.0000165
 21
33.885821
 31
0.0
  0
LINE
  5
D3
330
1E
100
AcDbEntity
  8
0
100
AcDbLine
 10
161.5680165
 20
17.84722099999999
 30
0.0
 11
162.0000165
 21
20.46552099999999
 31
0.0
  0
LINE
  5
D4
330
1E
100
AcDbEntity
  8
0
100
AcDbLine
 10
160.4160165
 20
15.392621
 30
0.0
 11
161.5680165
 21
17.84722099999999
 31
0.0
  0
LINE
  5
D5
330
1E
100
AcDbEntity
  8
0
100
AcDbLine
 10
158.4960165
 20
13.224321
 30
0.0
 11
160.4160165
 21
15.392621
 31
0.0
  0
LINE
  5
D6
330
1E
100
AcDbEntity
  8
0
100
AcDbLine
 10
155.9520165
 20
11.587921
 30
0.0
 11
158.4960165
 21
13.224321
 31
0.0
  0
LINE
  5
D7
330
1E
100
AcDbEntity
  8
0
100
AcDbLine
 10
162.0000165
 20
56.11962099999999
 30
0.0
 11
162.0000165
 21
50.723021
 31
0.0
  0
LINE
  5
D8
330
1E
100
AcDbEntity
  8
0
100
AcDbLine
 10
162.0000165
 20
56.11962099999999
 30
0.0
 11
162.0000165
 21
61.817321
 31
0.0
  0
LINE
  5
D9
330
1E
100
AcDbEntity
  8
0
100
AcDbLine
 10
162.0000165
 20
50.723021
 30
0.0
 11
162.0000165
 21
45.720021
 31
0.0
  0
LINE
  5
DA
330
1E
100
AcDbEntity
  8
0
100
AcDbLine
 10
162.0000165
 20
50.723021
 30
0.0
 11
162.0000165
 21
56.11962099999999
 31
0.0
  0
LINE
  5
DB
330
1E
100
AcDbEntity
  8
0
100
AcDbLine
 10
162.0000165
 20
61.817321
 30
0.0
 11
162.0000165
 21
67.71882099999999
 31
0.0
  0
LINE
  5
DC
330
1E
100
AcDbEntity
  8
0
100
AcDbLine
 10
162.0000165
 20
61.817321
 30
0.0
 11
162.0000165
 21
56.11962099999999
 31
0.0
  0
LINE
  5
DD
330
1E
100
AcDbEntity
  8
0
100
AcDbLine
 10
162.0000165
 20
79.727221
 30
0.0
 11
162.0000165
 21
85.62872099999999
 31
0.0
  0
LINE
  5
DE
330
1E
100
AcDbEntity
  8
0
100
AcDbLine
 10
162.0000165
 20
79.727221
 30
0.0
 11
162.0000165
 21
73.723021
 31
0.0
  0
LINE
  5
DF
330
1E
100
AcDbEntity
  8
0
100
AcDbLine
 10
162.0000165
 20
116.221021
 30
0.0
 11
162.0000165
 21
113.5600209999999
 31
0.0
  0
LINE
  5
E0
330
1E
100
AcDbEntity
  8
0
100
AcDbLine
 10
162.0000165
 20
116.221021
 30
0.0
 11
162.0000165
 21
118.1560209999999
 31
0.0
  0
LINE
  5
E1
330
1E
100
AcDbEntity
  8
0
100
AcDbLine
 10
162.0000165
 20
113.5600209999999
 30
0.0
 11
162.0000165
 21
110.217021
 31
0.0
  0
LINE
  5
E2
330
1E
100
AcDbEntity
  8
0
100
AcDbLine
 10
162.0000165
 20
113.5600209999999
 30
0.0
 11
162.0000165
 21
116.221021
 31
0.0
  0
LINE
  5
E3
330
1E
100
AcDbEntity
  8
0
100
AcDbLine
 10
162.0000165
 20
110.217021
 30
0.0
 11
162.0000165
 21
113.5600209999999
 31
0.0
  0
LINE
  5
E4
330
1E
100
AcDbEntity
  8
0
100
AcDbLine
 10
162.0000165
 20
110.217021
 30
0.0
 11
162.0000165
 21
106.2500209999999
 31
0.0
  0
LINE
  5
E5
330
1E
100
AcDbEntity
  8
0
100
AcDbLine
 10
162.0000165
 20
118.1560209999999
 30
0.0
 11
162.0000165
 21
119.329021
 31
0.0
  0
LINE
  5
E6
330
1E
100
AcDbEntity
  8
0
100
AcDbLine
 10
162.0000165
 20
118.1560209999999
 30
0.0
 11
162.0000165
 21
116.221021
 31
0.0
  0
LINE
  5
E7
330
1E
100
AcDbEntity
  8
0
100
AcDbLine
 10
162.0000165
 20
119.329021
 30
0.0
 11
162.0000165
 21
119.723021
 31
0.0
  0
LINE
  5
E8
330
1E
100
AcDbEntity
  8
0
100
AcDbLine
 10
162.0000165
 20
119.329021
 30
0.0
 11
162.0000165
 21
118.1560209999999
 31
0.0
  0
LINE
  5
E9
330
1E
100
AcDbEntity
  8
0
100
AcDbLine
 10
162.0000165
 20
106.2500209999999
 30
0.0
 11
162.0000165
 21
101.726021
 31
0.0
  0
LINE
  5
EA
330
1E
100
AcDbEntity
  8
0
100
AcDbLine
 10
162.0000165
 20
106.2500209999999
 30
0.0
 11
162.0000165
 21
110.217021
 31
0.0
  0
LINE
  5
EB
330
1E
100
AcDbEntity
  8
0
100
AcDbLine
 10
162.0000165
 20
101.726021
 30
0.0
 11
162.0000165
 21
106.2500209999999
 31
0.0
  0
LINE
  5
EC
330
1E
100
AcDbEntity
  8
0
100
AcDbLine
 10
162.0000165
 20
101.726021
 30
0.0
 11
162.0000165
 21
96.72302100000001
 31
0.0
  0
LINE
  5
ED
330
1E
100
AcDbEntity
  8
0
100
AcDbLine
 10
162.0000165
 20
96.72302100000001
 30
0.0
 11
162.0000165
 21
91.32642099999999
 31
0.0
  0
LINE
  5
EE
330
1E
100
AcDbEntity
  8
0
100
AcDbLine
 10
162.0000165
 20
96.72302100000001
 30
0.0
 11
162.0000165
 21
101.726021
 31
0.0
  0
LINE
  5
EF
330
1E
100
AcDbEntity
  8
0
100
AcDbLine
 10
162.0000165
 20
91.32642099999999
 30
0.0
 11
162.0000165
 21
85.62872099999999
 31
0.0
  0
LINE
  5
F0
330
1E
100
AcDbEntity
  8
0
100
AcDbLine
 10
162.0000165
 20
91.32642099999999
 30
0.0
 11
162.0000165
 21
96.72302100000001
 31
0.0
  0
LINE
  5
F1
330
1E
100
AcDbEntity
  8
0
100
AcDbLine
 10
162.0000165
 20
85.62872099999999
 30
0.0
 11
162.0000165
 21
91.32642099999999
 31
0.0
  0
LINE
  5
F2
330
1E
100
AcDbEntity
  8
0
100
AcDbLine
 10
162.0000165
 20
85.62872099999999
 30
0.0
 11
162.0000165
 21
79.727221
 31
0.0
  0
LINE
  5
F3
330
1E
100
AcDbEntity
  8
0
100
AcDbLine
 10
162.0000165
 20
73.723021
 30
0.0
 11
162.0000165
 21
67.71882099999999
 31
0.0
  0
LINE
  5
F4
330
1E
100
AcDbEntity
  8
0
100
AcDbLine
 10
162.0000165
 20
73.723021
 30
0.0
 11
162.0000165
 21
79.727221
 31
0.0
  0
LINE
  5
F5
330
1E
100
AcDbEntity
  8
0
100
AcDbLine
 10
162.0000165
 20
67.71882099999999
 30
0.0
 11
162.0000165
 21
73.723021
 31
0.0
  0
LINE
  5
F6
330
1E
100
AcDbEntity
  8
0
100
AcDbLine
 10
162.0000165
 20
67.71882099999999
 30
0.0
 11
162.0000165
 21
61.817321
 31
0.0
  0
LINE
  5
F7
330
1E
100
AcDbEntity
  8
0
100
AcDbLine
 10
162.0000165
 20
119.723021
 30
0.0
 11
162.0000165
 21
119.329021
 31
0.0
  0
LINE
  5
F8
330
1E
100
AcDbEntity
  8
0
100
AcDbLine
 10
161.972701915304
 20
119.525183524526
 30
0.0
 11
162.0000165
 21
119.723021
 31
0.0
  0
LINE
  5
F9
330
1E
100
AcDbEntity
  8
0
100
AcDbLine
 10
162.0000165
 20
45.720021
 30
0.0
 11
162.0000165
 21
41.196121
 31
0.0
  0
LINE
  5
FA
330
1E
100
AcDbEntity
  8
0
100
AcDbLine
 10
162.0000165
 20
45.720021
 30
0.0
 11
162.0000165
 21
50.723021
 31
0.0
  0
LINE
  5
FB
330
1E
100
AcDbEntity
  8
0
100
AcDbLine
 10
162.0000165
 20
41.196121
 30
0.0
 11
162.0000165
 21
37.228721
 31
0.0
  0
LINE
  5
FC
330
1E
100
AcDbEntity
  8
0
100
AcDbLine
 10
162.0000165
 20
41.196121
 30
0.0
 11
162.0000165
 21
45.720021
 31
0.0
  0
LINE
  5
FD
330
1E
100
AcDbEntity
  8
0
100
AcDbLine
 10
162.0000165
 20
37.228721
 30
0.0
 11
162.0000165
 21
41.196121
 31
0.0
  0
LINE
  5
FE
330
1E
100
AcDbEntity
  8
0
100
AcDbLine
 10
162.0000165
 20
37.228721
 30
0.0
 11
162.0000165
 21
33.885821
 31
0.0
  0
LINE
  5
FF
330
1E
100
AcDbEntity
  8
0
100
AcDbLine
 10
162.0000165
 20
33.885821
 30
0.0
 11
162.0000165
 21
20.46552099999999
 31
0.0
  0
LINE
  5
100
330
1E
100
AcDbEntity
  8
0
100
AcDbLine
 10
162.0000165
 20
33.885821
 30
0.0
 11
162.0000165
 21
37.228721
 31
0.0
  0
LINE
  5
101
330
1E
100
AcDbEntity
  8
0
100
AcDbLine
 10
144.0480165
 20
11.587921
 30
0.0
 11
146.9280165
 21
10.606021
 31
0.0
  0
LINE
  5
102
330
1E
100
AcDbEntity
  8
0
100
AcDbLine
 10
146.9280165
 20
10.606021
 30
0.0
 11
150.0000165
 21
10.237821
 31
0.0
  0
LINE
  5
103
330
1E
100
AcDbEntity
  8
0
100
AcDbLine
 10
236.8280164999999
 20
96.80832099999999
 30
0.0
 11
243.2190165
 21
94.15832100000001
 31
0.0
  0
LINE
  5
104
330
1E
100
AcDbEntity
  8
0
100
AcDbLine
 10
263.1720164999999
 20
96.80832099999999
 30
0.0
 11
268.7060164999999
 21
101.017021
 31
0.0
  0
LINE
  5
105
330
1E
100
AcDbEntity
  8
0
100
AcDbLine
 10
256.7810165
 20
94.15832100000001
 30
0.0
 11
263.1720164999999
 21
96.80832099999999
 31
0.0
  0
LINE
  5
106
330
1E
100
AcDbEntity
  8
0
100
AcDbLine
 10
250.0000165
 20
93.22302099999999
 30
0.0
 11
256.7810165
 21
94.15832100000001
 31
0.0
  0
LINE
  5
107
330
1E
100
AcDbEntity
  8
0
100
AcDbLine
 10
243.2190165
 20
94.15832100000001
 30
0.0
 11
250.0000165
 21
93.22302099999999
 31
0.0
  0
LINE
  5
108
330
1E
100
AcDbEntity
  8
0
100
AcDbLine
 10
168.7060165
 20
101.017021
 30
0.0
 11
172.9150165
 21
106.551021
 31
0.0
  0
LINE
  5
109
330
1E
100
AcDbEntity
  8
0
100
AcDbLine
 10
172.9150165
 20
106.551021
 30
0.0
 11
175.5650165
 21
112.9420209999999
 31
0.0
  0
LINE
  5
10A
330
1E
100
AcDbEntity
  8
0
100
AcDbLine
 10
227.0850165
 20
106.551021
 30
0.0
 11
231.2940165
 21
101.017021
 31
0.0
  0
LINE
  5
10B
330
1E
100
AcDbEntity
  8
0
100
AcDbLine
 10
231.2940165
 20
101.017021
 30
0.0
 11
236.8280164999999
 21
96.80832099999999
 31
0.0
  0
LINE
  5
10C
330
1E
100
AcDbEntity
  8
0
100
AcDbLine
 10
224.4350165
 20
112.9420209999999
 30
0.0
 11
227.0850165
 21
106.551021
 31
0.0
  0
LINE
  5
10D
330
1E
100
AcDbEntity
  8
0
100
AcDbLine
 10
237.8940164999999
 20
112.764021
 30
0.0
 11
240.1180164999999
 21
109.8410209999999
 31
0.0
  0
LINE
  5
10E
330
1E
100
AcDbEntity
  8
0
100
AcDbLine
 10
223.5000165
 20
119.723021
 30
0.0
 11
224.4350165
 21
126.5040209999999
 31
0.0
  0
LINE
  5
10F
330
1E
100
AcDbEntity
  8
0
100
AcDbLine
 10
223.5000165
 20
119.723021
 30
0.0
 11
224.4350165
 21
112.9420209999999
 31
0.0
  0
LINE
  5
110
330
1E
100
AcDbEntity
  8
0
100
AcDbLine
 10
236.4940165
 20
116.1410209999999
 30
0.0
 11
237.8940164999999
 21
112.764021
 31
0.0
  0
LINE
  5
111
330
1E
100
AcDbEntity
  8
0
100
AcDbLine
 10
240.1180164999999
 20
109.8410209999999
 30
0.0
 11
243.0410165
 21
107.6170209999999
 31
0.0
  0
LINE
  5
112
330
1E
100
AcDbEntity
  8
0
100
AcDbLine
 10
243.0410165
 20
107.6170209999999
 30
0.0
 11
246.4180165
 21
106.217021
 31
0.0
  0
LINE
  5
113
330
1E
100
AcDbEntity
  8
0
100
AcDbLine
 10
250.0000165
 20
105.7230209999999
 30
0.0
 11
253.5820165
 21
106.217021
 31
0.0
  0
LINE
  5
114
330
1E
100
AcDbEntity
  8
0
100
AcDbLine
 10
246.4180165
 20
106.217021
 30
0.0
 11
250.0000165
 21
105.7230209999999
 31
0.0
  0
LINE
  5
115
330
1E
100
AcDbEntity
  8
0
100
AcDbLine
 10
236.0000165
 20
119.723021
 30
0.0
 11
236.4940165
 21
123.305021
 31
0.0
  0
LINE
  5
116
330
1E
100
AcDbEntity
  8
0
100
AcDbLine
 10
236.0000165
 20
119.723021
 30
0.0
 11
236.4940165
 21
116.1410209999999
 31
0.0
  0
LINE
  5
117
330
1E
100
AcDbEntity
  8
0
100
AcDbLine
 10
268.7060164999999
 20
101.017021
 30
0.0
 11
272.9150164999999
 21
106.551021
 31
0.0
  0
LINE
  5
118
330
1E
100
AcDbEntity
  8
0
100
AcDbLine
 10
272.9150164999999
 20
106.551021
 30
0.0
 11
275.5650165
 21
112.9420209999999
 31
0.0
  0
LINE
  5
119
330
1E
100
AcDbEntity
  8
0
100
AcDbLine
 10
259.8820165
 20
109.8410209999999
 30
0.0
 11
262.1060165
 21
112.764021
 31
0.0
  0
LINE
  5
11A
330
1E
100
AcDbEntity
  8
0
100
AcDbLine
 10
262.1060165
 20
112.764021
 30
0.0
 11
263.5060165
 21
116.1410209999999
 31
0.0
  0
LINE
  5
11B
330
1E
100
AcDbEntity
  8
0
100
AcDbLine
 10
275.5650165
 20
112.9420209999999
 30
0.0
 11
276.017418063191
 21
116.223021
 31
0.0
  0
LINE
  5
11C
330
1E
100
AcDbEntity
  8
0
100
AcDbLine
 10
263.5060165
 20
116.1410209999999
 30
0.0
 11
263.517325266052
 21
116.223021
 31
0.0
  0
LINE
  5
11D
330
1E
100
AcDbEntity
  8
0
100
AcDbLine
 10
256.9590165
 20
107.6170209999999
 30
0.0
 11
259.8820165
 21
109.8410209999999
 31
0.0
  0
LINE
  5
11E
330
1E
100
AcDbEntity
  8
0
100
AcDbLine
 10
253.5820165
 20
106.217021
 30
0.0
 11
256.9590165
 21
107.6170209999999
 31
0.0
  0
LINE
  5
11F
330
1E
100
AcDbEntity
  8
0
100
AcDbLine
 10
263.0940165
 20
116.223021
 30
0.0
 11
298.3750165
 21
116.223021
 31
0.0
  0
LINE
  5
120
330
1E
100
AcDbEntity
  8
0
100
AcDbLine
 10
298.8420164999999
 20
116.398021
 30
0.0
 11
299.2190165
 21
116.738021
 31
0.0
  0
LINE
  5
121
330
1E
100
AcDbEntity
  8
0
100
AcDbLine
 10
298.7800164999999
 20
116.347021
 30
0.0
 11
298.8420164999999
 21
116.398021
 31
0.0
  0
LINE
  5
122
330
1E
100
AcDbEntity
  8
0
100
AcDbLine
 10
298.4430165
 20
116.2740209999999
 30
0.0
 11
298.8420164999999
 21
116.398021
 31
0.0
  0
LINE
  5
123
330
1E
100
AcDbEntity
  8
0
100
AcDbLine
 10
298.3750165
 20
116.223021
 30
0.0
 11
298.7800164999999
 21
116.347021
 31
0.0
  0
LINE
  5
124
330
1E
100
AcDbEntity
  8
0
100
AcDbLine
 10
297.0940165
 20
118.004021
 30
0.0
 11
297.3410165
 21
117.2830209999999
 31
0.0
  0
LINE
  5
125
330
1E
100
AcDbEntity
  8
0
100
AcDbLine
 10
296.9410164999999
 20
118.838021
 30
0.0
 11
297.0940165
 21
118.004021
 31
0.0
  0
LINE
  5
126
330
1E
100
AcDbEntity
  8
0
100
AcDbLine
 10
297.3410165
 20
117.2830209999999
 30
0.0
 11
297.6660165
 21
116.738021
 31
0.0
  0
LINE
  5
127
330
1E
100
AcDbEntity
  8
0
100
AcDbLine
 10
299.5440165
 20
117.2830209999999
 30
0.0
 11
299.7910165
 21
118.004021
 31
0.0
  0
LINE
  5
128
330
1E
100
AcDbEntity
  8
0
100
AcDbLine
 10
299.7910165
 20
118.004021
 30
0.0
 11
299.9440165
 21
118.838021
 31
0.0
  0
LINE
  5
129
330
1E
100
AcDbEntity
  8
0
100
AcDbLine
 10
299.9440165
 20
118.838021
 30
0.0
 11
300.0000165
 21
119.723021
 31
0.0
  0
LINE
  5
12A
330
1E
100
AcDbEntity
  8
0
100
AcDbLine
 10
299.2190165
 20
116.738021
 30
0.0
 11
299.5440165
 21
117.2830209999999
 31
0.0
  0
LINE
  5
12B
330
1E
100
AcDbEntity
  8
0
100
AcDbLine
 10
297.6660165
 20
116.738021
 30
0.0
 11
298.0430165
 21
116.398021
 31
0.0
  0
LINE
  5
12C
330
1E
100
AcDbEntity
  8
0
100
AcDbLine
 10
298.0430165
 20
116.398021
 30
0.0
 11
298.4430165
 21
116.2740209999999
 31
0.0
  0
LINE
  5
12D
330
1E
100
AcDbEntity
  8
0
100
AcDbLine
 10
296.8850165
 20
119.723021
 30
0.0
 11
296.9410164999999
 21
120.6080209999999
 31
0.0
  0
LINE
  5
12E
330
1E
100
AcDbEntity
  8
0
100
AcDbLine
 10
296.8850165
 20
119.723021
 30
0.0
 11
296.9410164999999
 21
118.838021
 31
0.0
  0
LINE
  5
12F
330
1E
100
AcDbEntity
  8
0
100
AcDbLine
 10
296.9410164999999
 20
120.6080209999999
 30
0.0
 11
297.0940165
 21
121.4420209999999
 31
0.0
  0
LINE
  5
130
330
1E
100
AcDbEntity
  8
0
100
AcDbLine
 10
296.7950165
 20
119.723021
 30
0.0
 11
296.8500165
 21
120.6190209999999
 31
0.0
  0
LINE
  5
131
330
1E
100
AcDbEntity
  8
0
100
AcDbLine
 10
296.7950165
 20
119.723021
 30
0.0
 11
296.8500165
 21
118.8270209999999
 31
0.0
  0
LINE
  5
132
330
1E
100
AcDbEntity
  8
0
100
AcDbLine
 10
297.0940165
 20
121.4420209999999
 30
0.0
 11
297.3410165
 21
122.163021
 31
0.0
  0
LINE
  5
133
330
1E
100
AcDbEntity
  8
0
100
AcDbLine
 10
297.3410165
 20
122.163021
 30
0.0
 11
297.6660165
 21
122.708021
 31
0.0
  0
LINE
  5
134
330
1E
100
AcDbEntity
  8
0
100
AcDbLine
 10
297.6660165
 20
122.708021
 30
0.0
 11
298.0430165
 21
123.0480209999999
 31
0.0
  0
LINE
  5
135
330
1E
100
AcDbEntity
  8
0
100
AcDbLine
 10
299.2190165
 20
122.708021
 30
0.0
 11
299.5440165
 21
122.163021
 31
0.0
  0
LINE
  5
136
330
1E
100
AcDbEntity
  8
0
100
AcDbLine
 10
299.5440165
 20
122.163021
 30
0.0
 11
299.7910165
 21
121.4420209999999
 31
0.0
  0
LINE
  5
137
330
1E
100
AcDbEntity
  8
0
100
AcDbLine
 10
299.7910165
 20
121.4420209999999
 30
0.0
 11
299.9440165
 21
120.6080209999999
 31
0.0
  0
LINE
  5
138
330
1E
100
AcDbEntity
  8
0
100
AcDbLine
 10
299.9440165
 20
120.6080209999999
 30
0.0
 11
300.0000165
 21
119.723021
 31
0.0
  0
LINE
  5
139
330
1E
100
AcDbEntity
  8
0
100
AcDbLine
 10
175.5650165
 20
112.9420209999999
 30
0.0
 11
176.5000165
 21
119.723021
 31
0.0
  0
LINE
  5
13A
330
1E
100
AcDbEntity
  8
0
100
AcDbLine
 10
163.1720165
 20
96.80832099999999
 30
0.0
 11
168.7060165
 21
101.017021
 31
0.0
  0
LINE
  5
13B
330
1E
100
AcDbEntity
  8
0
100
AcDbLine
 10
162.0000165
 20
96.32235636222809
 30
0.0
 11
163.1720165
 21
96.80832099999999
 31
0.0
  0
LINE
  5
13C
330
1E
100
AcDbEntity
  8
0
100
AcDbLine
 10
298.0430165
 20
123.0480209999999
 30
0.0
 11
298.4430165
 21
123.1720209999999
 31
0.0
  0
LINE
  5
13D
330
1E
100
AcDbEntity
  8
0
100
AcDbLine
 10
298.8420164999999
 20
123.0480209999999
 30
0.0
 11
299.2190165
 21
122.708021
 31
0.0
  0
LINE
  5
13E
330
1E
100
AcDbEntity
  8
0
100
AcDbLine
 10
298.4430165
 20
123.1720209999999
 30
0.0
 11
298.8420164999999
 21
123.0480209999999
 31
0.0
  0
LINE
  5
13F
330
1E
100
AcDbEntity
  8
0
100
AcDbLine
 10
298.7800164999999
 20
123.0990209999999
 30
0.0
 11
298.8420164999999
 21
123.0480209999999
 31
0.0
  0
LINE
  5
140
330
1E
100
AcDbEntity
  8
0
100
AcDbLine
 10
263.0940165
 20
123.2230209999999
 30
0.0
 11
298.3750165
 21
123.2230209999999
 31
0.0
  0
LINE
  5
141
330
1E
100
AcDbEntity
  8
0
100
AcDbLine
 10
236.4940165
 20
123.305021
 30
0.0
 11
237.8940164999999
 21
126.6820209999999
 31
0.0
  0
LINE
  5
142
330
1E
100
AcDbEntity
  8
0
100
AcDbLine
 10
263.5060165
 20
123.305021
 30
0.0
 11
263.517325266052
 21
123.2230209999999
 31
0.0
  0
LINE
  5
143
330
1E
100
AcDbEntity
  8
0
100
AcDbLine
 10
298.3750165
 20
123.2230209999999
 30
0.0
 11
298.7800164999999
 21
123.0990209999999
 31
0.0
  0
LINE
  5
144
330
1E
100
AcDbEntity
  8
0
100
AcDbLine
 10
160.3760164999999
 20
125.688021
 30
0.0
 11
161.5760165
 21
122.794021
 31
0.0
  0
LINE
  5
145
330
1E
100
AcDbEntity
  8
0
100
AcDbLine
 10
161.5760165
 20
122.794021
 30
0.0
 11
162.0000165
 21
119.723021
 31
0.0
  0
LINE
  5
146
330
1E
100
AcDbEntity
  8
0
100
AcDbLine
 10
139.6240165
 20
125.688021
 30
0.0
 11
141.5290165
 21
128.1940209999999
 31
0.0
  0
LINE
  5
147
330
1E
100
AcDbEntity
  8
0
100
AcDbLine
 10
141.5290165
 20
128.1940209999999
 30
0.0
 11
144.0350165
 21
130.0990209999999
 31
0.0
  0
LINE
  5
148
330
1E
100
AcDbEntity
  8
0
100
AcDbLine
 10
146.9290165
 20
131.299021
 30
0.0
 11
150.0000165
 21
131.7230209999999
 31
0.0
  0
LINE
  5
149
330
1E
100
AcDbEntity
  8
0
100
AcDbLine
 10
143.2190165
 20
145.2880209999999
 30
0.0
 11
150.0000165
 21
146.2230209999999
 31
0.0
  0
LINE
  5
14A
330
1E
100
AcDbEntity
  8
0
100
AcDbLine
 10
144.0350165
 20
130.0990209999999
 30
0.0
 11
146.9290165
 21
131.300021
 31
0.0
  0
LINE
  5
14B
330
1E
100
AcDbEntity
  8
0
100
AcDbLine
 10
144.0350165
 20
130.0990209999999
 30
0.0
 11
146.9290165
 21
131.299021
 31
0.0
  0
LINE
  5
14C
330
1E
100
AcDbEntity
  8
0
100
AcDbLine
 10
153.0710165
 20
131.299021
 30
0.0
 11
155.9650164999999
 21
130.0990209999999
 31
0.0
  0
LINE
  5
14D
330
1E
100
AcDbEntity
  8
0
100
AcDbLine
 10
155.9650164999999
 20
130.0990209999999
 30
0.0
 11
158.4710164999999
 21
128.1940209999999
 31
0.0
  0
LINE
  5
14E
330
1E
100
AcDbEntity
  8
0
100
AcDbLine
 10
153.0710165
 20
131.300021
 30
0.0
 11
155.9650164999999
 21
130.0990209999999
 31
0.0
  0
LINE
  5
14F
330
1E
100
AcDbEntity
  8
0
100
AcDbLine
 10
150.0000165
 20
131.7230209999999
 30
0.0
 11
153.0710165
 21
131.300021
 31
0.0
  0
LINE
  5
150
330
1E
100
AcDbEntity
  8
0
100
AcDbLine
 10
150.0000165
 20
131.7230209999999
 30
0.0
 11
153.0710165
 21
131.299021
 31
0.0
  0
LINE
  5
151
330
1E
100
AcDbEntity
  8
0
100
AcDbLine
 10
158.4710164999999
 20
128.1940209999999
 30
0.0
 11
160.3760164999999
 21
125.688021
 31
0.0
  0
LINE
  5
152
330
1E
100
AcDbEntity
  8
0
100
AcDbLine
 10
168.7060165
 20
138.429021
 30
0.0
 11
172.9150165
 21
132.8950209999999
 31
0.0
  0
LINE
  5
153
330
1E
100
AcDbEntity
  8
0
100
AcDbLine
 10
172.9150165
 20
132.8950209999999
 30
0.0
 11
175.5650165
 21
126.5040209999999
 31
0.0
  0
LINE
  5
154
330
1E
100
AcDbEntity
  8
0
100
AcDbLine
 10
224.4350165
 20
126.5040209999999
 30
0.0
 11
227.0850165
 21
132.8950209999999
 31
0.0
  0
LINE
  5
155
330
1E
100
AcDbEntity
  8
0
100
AcDbLine
 10
275.5650165
 20
126.5040209999999
 30
0.0
 11
276.017418063191
 21
123.2230209999999
 31
0.0
  0
LINE
  5
156
330
1E
100
AcDbEntity
  8
0
100
AcDbLine
 10
237.8940164999999
 20
126.6820209999999
 30
0.0
 11
240.1180164999999
 21
129.6050209999999
 31
0.0
  0
LINE
  5
157
330
1E
100
AcDbEntity
  8
0
100
AcDbLine
 10
227.0850165
 20
132.8950209999999
 30
0.0
 11
231.2940165
 21
138.429021
 31
0.0
  0
LINE
  5
158
330
1E
100
AcDbEntity
  8
0
100
AcDbLine
 10
243.0410165
 20
131.8290209999999
 30
0.0
 11
246.4180165
 21
133.2290209999999
 31
0.0
  0
LINE
  5
159
330
1E
100
AcDbEntity
  8
0
100
AcDbLine
 10
240.1180164999999
 20
129.6050209999999
 30
0.0
 11
243.0410165
 21
131.8290209999999
 31
0.0
  0
LINE
  5
15A
330
1E
100
AcDbEntity
  8
0
100
AcDbLine
 10
246.4180165
 20
133.2290209999999
 30
0.0
 11
250.0000165
 21
133.7230209999999
 31
0.0
  0
LINE
  5
15B
330
1E
100
AcDbEntity
  8
0
100
AcDbLine
 10
256.9590165
 20
131.8290209999999
 30
0.0
 11
259.8820165
 21
129.6050209999999
 31
0.0
  0
LINE
  5
15C
330
1E
100
AcDbEntity
  8
0
100
AcDbLine
 10
253.5820165
 20
133.2290209999999
 30
0.0
 11
256.9590165
 21
131.8290209999999
 31
0.0
  0
LINE
  5
15D
330
1E
100
AcDbEntity
  8
0
100
AcDbLine
 10
236.8280164999999
 20
142.638021
 30
0.0
 11
243.2190165
 21
145.2880209999999
 31
0.0
  0
LINE
  5
15E
330
1E
100
AcDbEntity
  8
0
100
AcDbLine
 10
231.2940165
 20
138.429021
 30
0.0
 11
236.8280164999999
 21
142.638021
 31
0.0
  0
LINE
  5
15F
330
1E
100
AcDbEntity
  8
0
100
AcDbLine
 10
250.0000165
 20
133.7230209999999
 30
0.0
 11
253.5820165
 21
133.2290209999999
 31
0.0
  0
LINE
  5
160
330
1E
100
AcDbEntity
  8
0
100
AcDbLine
 10
263.1720164999999
 20
142.638021
 30
0.0
 11
268.7060164999999
 21
138.429021
 31
0.0
  0
LINE
  5
161
330
1E
100
AcDbEntity
  8
0
100
AcDbLine
 10
268.7060164999999
 20
138.429021
 30
0.0
 11
272.9150164999999
 21
132.8950209999999
 31
0.0
  0
LINE
  5
162
330
1E
100
AcDbEntity
  8
0
100
AcDbLine
 10
272.9150164999999
 20
132.8950209999999
 30
0.0
 11
275.5650165
 21
126.5040209999999
 31
0.0
  0
LINE
  5
163
330
1E
100
AcDbEntity
  8
0
100
AcDbLine
 10
259.8820165
 20
129.6050209999999
 30
0.0
 11
262.1060165
 21
126.6820209999999
 31
0.0
  0
LINE
  5
164
330
1E
100
AcDbEntity
  8
0
100
AcDbLine
 10
262.1060165
 20
126.6820209999999
 30
0.0
 11
263.5060165
 21
123.305021
 31
0.0
  0
LINE
  5
165
330
1E
100
AcDbEntity
  8
0
100
AcDbLine
 10
175.5650165
 20
126.5040209999999
 30
0.0
 11
176.5000165
 21
119.723021
 31
0.0
  0
LINE
  5
166
330
1E
100
AcDbEntity
  8
0
100
AcDbLine
 10
243.2190165
 20
145.2880209999999
 30
0.0
 11
250.0000165
 21
146.2230209999999
 31
0.0
  0
LINE
  5
167
330
1E
100
AcDbEntity
  8
0
100
AcDbLine
 10
256.7810165
 20
145.2880209999999
 30
0.0
 11
263.1720164999999
 21
142.638021
 31
0.0
  0
LINE
  5
168
330
1E
100
AcDbEntity
  8
0
100
AcDbLine
 10
250.0000165
 20
146.2230209999999
 30
0.0
 11
256.7810165
 21
145.2880209999999
 31
0.0
  0
LINE
  5
169
330
1E
100
AcDbEntity
  8
0
100
AcDbLine
 10
163.1720165
 20
142.638021
 30
0.0
 11
168.7060165
 21
138.429021
 31
0.0
  0
LINE
  5
16A
330
1E
100
AcDbEntity
  8
0
100
AcDbLine
 10
156.7810165
 20
145.2880209999999
 30
0.0
 11
163.1720165
 21
142.638021
 31
0.0
  0
LINE
  5
16B
330
1E
100
AcDbEntity
  8
0
100
AcDbLine
 10
150.0000165
 20
146.2230209999999
 30
0.0
 11
156.7810165
 21
145.2880209999999
 31
0.0
  0
LINE
  5
16C
330
1E
100
AcDbEntity
  8
0
100
AcDbLine
 10
146.9290165
 20
131.300021
 30
0.0
 11
150.0000165
 21
131.7230209999999
 31
0.0
  0
LINE
  5
16D
330
1E
100
AcDbEntity
  8
0
100
AcDbLine
 10
139.6240165
 20
125.688021
 30
0.0
 11
141.5290165
 21
128.1940209999999
 31
0.0
  0
LINE
  5
16E
330
1E
100
AcDbEntity
  8
0
100
AcDbLine
 10
138.4240165
 20
122.794021
 30
0.0
 11
139.6240165
 21
125.688021
 31
0.0
  0
LINE
  5
16F
330
1E
100
AcDbEntity
  8
0
100
AcDbLine
 10
138.4240165
 20
122.794021
 30
0.0
 11
139.6240165
 21
125.688021
 31
0.0
  0
LINE
  5
170
330
1E
100
AcDbEntity
  8
0
100
AcDbLine
 10
138.0000165
 20
119.723021
 30
0.0
 11
138.4240165
 21
122.794021
 31
0.0
  0
ENDSEC
  0
SECTION
  2
OBJECTS
  0
DICTIONARY
  5
C
330
0
100
AcDbDictionary
  3
ACAD_GROUP
350
D
  3
ACAD_LAYOUT
350
19
  3
ACAD_MLINESTYLE
350
16
  3
ACAD_PLOTSETTINGS
350
18
  3
ACAD_PLOTSTYLENAME
350
E
  3
ACDBHEADERROUNDTRIPXREC
350
179
  3
ACDBVARIABLEDICTIONARY
350
176
  0
DICTIONARY
  5
19B
330
1E
100
AcDbDictionary
280
     1
  3
ACAD_LAYOUTSELFREF
360
19C
  0
DICTIONARY
  5
199
330
1A
100
AcDbDictionary
280
     1
  3
ACAD_LAYOUTSELFREF
360
19A
  0
DICTIONARY
  5
D
102
{ACAD_REACTORS
330
C
102
}
330
C
100
AcDbDictionary
  0
DICTIONARY
  5
19
102
{ACAD_REACTORS
330
C
102
}
330
C
100
AcDbDictionary
  0
DICTIONARY
  5
16
102
{ACAD_REACTORS
330
C
102
}
330
C
100
AcDbDictionary
  3
STANDARD
350
17
  0
DICTIONARY
  5
18
102
{ACAD_REACTORS
330
C
102
}
330
C
100
AcDbDictionary
  0
ACDBDICTIONARYWDFLT
  5
E
102
{ACAD_REACTORS
330
C
102
}
330
C
100
AcDbDictionary
281
     1
  3
Normal
350
F
100
AcDbDictionaryWithDefault
340
F
  0
DICTIONARY
  5
179
102
{ACAD_REACTORS
330
C
102
}
330
C
100
AcDbDictionary
  3
CEPSNTYPE
350
183
  3
FINGERPRINTGUID
350
184
  3
HYPERLINKBASE
350
17C
  3
INSUNITS
350
182
  3
LAYOUTDICT
350
17E
  3
LWETCUNION
350
181
  3
PLOTSETDICT
350
17F
  3
PLOTSTYLNAMDICT
350
180
  3
PSVPSCALE
350
186
  3
PUCSBASE
350
189
  3
PUCSORGBACK
350
18F
  3
PUCSORGBOTTOM
350
18B
  3
PUCSORGFRONT
350
18E
  3
PUCSORGLEFT
350
18C
  3
PUCSORGRIGHT
350
18D
  3
PUCSORGTOP
350
18A
  3
PUCSORTHOREF
350
187
  3
PUCSORTHOVIEW
350
188
  3
STYLESHEET
350
17D
  3
TSTACKALIGN
350
17A
  3
TSTACKSIZE
350
17B
  3
UCSBASE
350
192
  3
UCSORGBACK
350
198
  3
UCSORGBOTTOM
350
194
  3
UCSORGFRONT
350
197
  3
UCSORGLEFT
350
195
  3
UCSORGRIGHT
350
196
  3
UCSORGTOP
350
193
  3
UCSORTHOREF
350
190
  3
UCSORTHOVIEW
350
191
  3
VERSIONGUID
350
185
  0
DICTIONARY
  5
176
102
{ACAD_REACTORS
330
C
102
}
330
C
100
AcDbDictionary
  3
DIMASSOC
350
177
  0
XRECORD
  5
19C
102
{ACAD_REACTORS
330
19B
102
}
330
19B
100
AcDbXrecord
340
1E
  0
XRECORD
  5
19A
102
{ACAD_REACTORS
330
199
102
}
330
199
100
AcDbXrecord
340
1A
  0
MLINESTYLE
  5
17
102
{ACAD_REACTORS
330
16
102
}
330
16
100
AcDbMlineStyle
  2
STANDARD
 70
     0
  3

 62
   256
 51
90.0
 52
90.0
 71
     2
 49
0.5
 62
   256
  6
BYLAYER
 49
-0.5
 62
   256
  6
BYLAYER
  0
ACDBPLACEHOLDER
  5
F
102
{ACAD_REACTORS
330
E
102
}
330
E
100
AcDbPlaceHolder
280
     0
  0
XRECORD
  5
183
102
{ACAD_REACTORS
330
179
102
}
330
179
100
AcDbXrecord
 90
        0
  0
XRECORD
  5
184
102
{ACAD_REACTORS
330
179
102
}
330
179
100
AcDbXrecord
  1
{01827840-9F50-4971-9C67-873257F8100D}
  0
XRECORD
  5
17C
102
{ACAD_REACTORS
330
179
102
}
330
179
100
AcDbXrecord
  1

  0
XRECORD
  5
182
102
{ACAD_REACTORS
330
179
102
}
330
179
100
AcDbXrecord
 90
        0
  0
XRECORD
  5
17E
102
{ACAD_REACTORS
330
179
102
}
330
179
100
AcDbXrecord
340
19
  0
XRECORD
  5
181
102
{ACAD_REACTORS
330
179
102
}
330
179
100
AcDbXrecord
 90
    10781
  0
XRECORD
  5
17F
102
{ACAD_REACTORS
330
179
102
}
330
179
100
AcDbXrecord
340
18
  0
XRECORD
  5
180
102
{ACAD_REACTORS
330
179
102
}
330
179
100
AcDbXrecord
340
E
  0
XRECORD
  5
186
102
{ACAD_REACTORS
330
179
102
}
330
179
100
AcDbXrecord
 40
0.0
  0
XRECORD
  5
189
102
{ACAD_REACTORS
330
179
102
}
330
179
100
AcDbXrecord
340
0
  0
XRECORD
  5
18F
102
{ACAD_REACTORS
330
179
102
}
330
179
100
AcDbXrecord
 10
0.0
 20
0.0
 30
0.0
  0
XRECORD
  5
18B
102
{ACAD_REACTORS
330
179
102
}
330
179
100
AcDbXrecord
 10
0.0
 20
0.0
 30
0.0
  0
XRECORD
  5
18E
102
{ACAD_REACTORS
330
179
102
}
330
179
100
AcDbXrecord
 10
0.0
 20
0.0
 30
0.0
  0
XRECORD
  5
18C
102
{ACAD_REACTORS
330
179
102
}
330
179
100
AcDbXrecord
 10
0.0
 20
0.0
 30
0.0
  0
XRECORD
  5
18D
102
{ACAD_REACTORS
330
179
102
}
330
179
100
AcDbXrecord
 10
0.0
 20
0.0
 30
0.0
  0
XRECORD
  5
18A
102
{ACAD_REACTORS
330
179
102
}
330
179
100
AcDbXrecord
 10
0.0
 20
0.0
 30
0.0
  0
XRECORD
  5
187
102
{ACAD_REACTORS
330
179
102
}
330
179
100
AcDbXrecord
340
0
  0
XRECORD
  5
188
102
{ACAD_REACTORS
330
179
102
}
330
179
100
AcDbXrecord
 70
     0
  0
XRECORD
  5
17D
102
{ACAD_REACTORS
330
179
102
}
330
179
100
AcDbXrecord
  1

  0
XRECORD
  5
17A
102
{ACAD_REACTORS
330
179
102
}
330
179
100
AcDbXrecord
 90
        1
  0
XRECORD
  5
17B
102
{ACAD_REACTORS
330
179
102
}
330
179
100
AcDbXrecord
 90
       70
  0
XRECORD
  5
192
102
{ACAD_REACTORS
330
179
102
}
330
179
100
AcDbXrecord
340
0
  0
XRECORD
  5
198
102
{ACAD_REACTORS
330
179
102
}
330
179
100
AcDbXrecord
 10
0.0
 20
0.0
 30
0.0
  0
XRECORD
  5
194
102
{ACAD_REACTORS
330
179
102
}
330
179
100
AcDbXrecord
 10
0.0
 20
0.0
 30
0.0
  0
XRECORD
  5
197
102
{ACAD_REACTORS
330
179
102
}
330
179
100
AcDbXrecord
 10
0.0
 20
0.0
 30
0.0
  0
XRECORD
  5
195
102
{ACAD_REACTORS
330
179
102
}
330
179
100
AcDbXrecord
 10
0.0
 20
0.0
 30
0.0
  0
XRECORD
  5
196
102
{ACAD_REACTORS
330
179
102
}
330
179
100
AcDbXrecord
 10
0.0
 20
0.0
 30
0.0
  0
XRECORD
  5
193
102
{ACAD_REACTORS
330
179
102
}
330
179
100
AcDbXrecord
 10
0.0
 20
0.0
 30
0.0
  0
XRECORD
  5
190
102
{ACAD_REACTORS
330
179
102
}
330
179
100
AcDbXrecord
340
0
  0
XRECORD
  5
191
102
{ACAD_REACTORS
330
179
102
}
330
179
100
AcDbXrecord
 70
     1
  0
XRECORD
  5
185
102
{ACAD_REACTORS
330
179
102
}
330
179
100
AcDbXrecord
  1
{80B4D9A1-66CF-4CB9-89A0-5BA883FAF1E7}
  0
DICTIONARYVAR
  5
177
102
{ACAD_REACTORS
330
176
102
}
330
176
100
DictionaryVariables
280
     0
  1
1
  0
ENDSEC
  0
EOF
