  0
SECTION
  2
HEADER
  9
$ACADVER
  1
AC1014
  9
$ACADMAINTVER
 70
     9
  9
$DWGCODEPAGE
  3
ANSI_1252
  9
$INSBASE
 10
0.0
 20
0.0
 30
0.0
  9
$EXTMIN
 10
-0.000016500000017
 20
-0.000000000000009
 30
0.0
  9
$EXTMAX
 10
300.0000165
 20
226.0
 30
0.0
  9
$LIMMIN
 10
0.0
 20
0.0
  9
$LIMMAX
 10
12.0
 20
9.0
  9
$ORTHOMODE
 70
     0
  9
$REGENMODE
 70
     1
  9
$FILLMODE
 70
     1
  9
$QTEXTMODE
 70
     0
  9
$MIRRTEXT
 70
     1
  9
$DRAGMODE
 70
     2
  9
$LTSCALE
 40
1.0
  9
$OSMODE
 70
    37
  9
$ATTMODE
 70
     1
  9
$TEXTSIZE
 40
0.2
  9
$TRACEWID
 40
0.05
  9
$TEXTSTYLE
  7
STANDARD
  9
$CLAYER
  8
0
  9
$CELTYPE
  6
CONTINUOUS
  9
$CECOLOR
 62
   256
  9
$CELTSCALE
 40
1.0
  9
$DELOBJ
 70
     1
  9
$DISPSILH
 70
     0
  9
$DIMSCALE
 40
1.0
  9
$DIMASZ
 40
0.18
  9
$DIMEXO
 40
0.0625
  9
$DIMDLI
 40
0.38
  9
$DIMRND
 40
0.0
  9
$DIMDLE
 40
0.0
  9
$DIMEXE
 40
0.18
  9
$DIMTP
 40
0.0
  9
$DIMTM
 40
0.0
  9
$DIMTXT
 40
0.18
  9
$DIMCEN
 40
0.09
  9
$DIMTSZ
 40
0.0
  9
$DIMTOL
 70
     0
  9
$DIMLIM
 70
     0
  9
$DIMTIH
 70
     1
  9
$DIMTOH
 70
     1
  9
$DIMSE1
 70
     0
  9
$DIMSE2
 70
     0
  9
$DIMTAD
 70
     0
  9
$DIMZIN
 70
     0
  9
$DIMBLK
  1

  9
$DIMASO
 70
     1
  9
$DIMSHO
 70
     1
  9
$DIMPOST
  1

  9
$DIMAPOST
  1

  9
$DIMALT
 70
     0
  9
$DIMALTD
 70
     2
  9
$DIMALTF
 40
25.4
  9
$DIMLFAC
 40
1.0
  9
$DIMTOFL
 70
     0
  9
$DIMTVP
 40
0.0
  9
$DIMTIX
 70
     0
  9
$DIMSOXD
 70
     0
  9
$DIMSAH
 70
     0
  9
$DIMBLK1
  1

  9
$DIMBLK2
  1

  9
$DIMSTYLE
  2
STANDARD
  9
$DIMCLRD
 70
     0
  9
$DIMCLRE
 70
     0
  9
$DIMCLRT
 70
     0
  9
$DIMTFAC
 40
1.0
  9
$DIMGAP
 40
0.09
  9
$DIMJUST
 70
     0
  9
$DIMSD1
 70
     0
  9
$DIMSD2
 70
     0
  9
$DIMTOLJ
 70
     1
  9
$DIMTZIN
 70
     0
  9
$DIMALTZ
 70
     0
  9
$DIMALTTZ
 70
     0
  9
$DIMFIT
 70
     3
  9
$DIMUPT
 70
     0
  9
$DIMUNIT
 70
     2
  9
$DIMDEC
 70
     4
  9
$DIMTDEC
 70
     4
  9
$DIMALTU
 70
     2
  9
$DIMALTTD
 70
     2
  9
$DIMTXSTY
  7
STANDARD
  9
$DIMAUNIT
 70
     0
  9
$LUNITS
 70
     2
  9
$LUPREC
 70
     4
  9
$SKETCHINC
 40
0.1
  9
$FILLETRAD
 40
0.0
  9
$AUNITS
 70
     0
  9
$AUPREC
 70
     0
  9
$MENU
  1
.
  9
$ELEVATION
 40
0.0
  9
$PELEVATION
 40
0.0
  9
$THICKNESS
 40
0.0
  9
$LIMCHECK
 70
     0
  9
$BLIPMODE
 70
     0
  9
$CHAMFERA
 40
0.0
  9
$CHAMFERB
 40
0.0
  9
$CHAMFERC
 40
0.0
  9
$CHAMFERD
 40
0.0
  9
$SKPOLY
 70
     0
  9
$TDCREATE
 40
2455238.849690208
  9
$TDUPDATE
 40
2455238.850713252
  9
$TDINDWG
 40
0.0010232176
  9
$TDUSRTIMER
 40
0.0010232176
  9
$USRTIMER
 70
     1
  9
$ANGBASE
 50
0.0
  9
$ANGDIR
 70
     0
  9
$PDMODE
 70
     0
  9
$PDSIZE
 40
0.0
  9
$PLINEWID
 40
0.0
  9
$COORDS
 70
     1
  9
$SPLFRAME
 70
     0
  9
$SPLINETYPE
 70
     6
  9
$SPLINESEGS
 70
     8
  9
$ATTDIA
 70
     0
  9
$ATTREQ
 70
     1
  9
$HANDLING
 70
 22529
  9
$HANDSEED
  5
265
  9
$SURFTAB1
 70
     6
  9
$SURFTAB2
 70
     6
  9
$SURFTYPE
 70
     6
  9
$SURFU
 70
     6
  9
$SURFV
 70
     6
  9
$UCSNAME
  2

  9
$UCSORG
 10
0.0
 20
0.0
 30
0.0
  9
$UCSXDIR
 10
1.0
 20
0.0
 30
0.0
  9
$UCSYDIR
 10
0.0
 20
1.0
 30
0.0
  9
$PUCSNAME
  2

  9
$PUCSORG
 10
0.0
 20
0.0
 30
0.0
  9
$PUCSXDIR
 10
1.0
 20
0.0
 30
0.0
  9
$PUCSYDIR
 10
0.0
 20
1.0
 30
0.0
  9
$USERI1
 70
     0
  9
$USERI2
 70
     0
  9
$USERI3
 70
     0
  9
$USERI4
 70
     0
  9
$USERI5
 70
     0
  9
$USERR1
 40
0.0
  9
$USERR2
 40
0.0
  9
$USERR3
 40
0.0
  9
$USERR4
 40
0.0
  9
$USERR5
 40
0.0
  9
$WORLDVIEW
 70
     1
  9
$SHADEDGE
 70
     3
  9
$SHADEDIF
 70
    70
  9
$TILEMODE
 70
     1
  9
$MAXACTVP
 70
    64
  9
$PINSBASE
 10
0.0
 20
0.0
 30
0.0
  9
$PLIMCHECK
 70
     0
  9
$PEXTMIN
 10
1.000000000000000E+20
 20
1.000000000000000E+20
 30
1.000000000000000E+20
  9
$PEXTMAX
 10
-1.000000000000000E+20
 20
-1.000000000000000E+20
 30
-1.000000000000000E+20
  9
$PLIMMIN
 10
0.0
 20
0.0
  9
$PLIMMAX
 10
12.0
 20
9.0
  9
$UNITMODE
 70
     0
  9
$VISRETAIN
 70
     1
  9
$PLINEGEN
 70
     0
  9
$PSLTSCALE
 70
     1
  9
$TREEDEPTH
 70
  3020
  9
$PICKSTYLE
 70
     1
  9
$CMLSTYLE
  2
STANDARD
  9
$CMLJUST
 70
     0
  9
$CMLSCALE
 40
1.0
  9
$PROXYGRAPHICS
 70
     1
  9
$MEASUREMENT
 70
     0
  0
ENDSEC
  0
SECTION
  2
CLASSES
  0
CLASS
  1
ACDBDICTIONARYWDFLT
  2
AcDbDictionaryWithDefault
  3
AutoCAD 2000
 90
        0
280
     0
281
     0
  0
CLASS
  1
ACDBPLACEHOLDER
  2
AcDbPlaceHolder
  3
AutoCAD 2000
 90
        0
280
     0
281
     0
  0
CLASS
  1
LAYOUT
  2
AcDbLayout
  3
AutoCAD 2000
 90
        0
280
     0
281
     0
  0
CLASS
  1
DICTIONARYVAR
  2
AcDbDictionaryVar
  3
AutoCAD 2000
 90
        0
280
     0
281
     0
  0
CLASS
  1
LONG_TRANSACTION
  2
AcDbLongTransaction
  3
AutoCAD 2000
 90
        0
280
     0
281
     0
  0
CLASS
  1
LWPOLYLINE
  2
AcDbPolyline
  3
AutoCAD 2000
 90
        0
280
     0
281
     1
  0
CLASS
  1
HATCH
  2
AcDbHatch
  3
AutoCAD 2000
 90
        0
280
     0
281
     1
  0
CLASS
  1
XRECORD
  2
AcDbXrecord
  3
AutoCAD 2000
 90
        0
280
     0
281
     0
  0
ENDSEC
  0
SECTION
  2
TABLES
  0
TABLE
  2
VPORT
  5
8
330
0
100
AcDbSymbolTable
 70
     3
  0
VPORT
  5
240
330
8
100
AcDbSymbolTableRecord
100
AcDbViewportTableRecord
  2
*ACTIVE
 70
     0
 10
0.0
 20
0.0
 11
1.0
 21
1.0
 12
150.0
 22
112.9999999999999
 13
0.0
 23
0.0
 14
1.0
 24
1.0
 15
0.0
 25
0.0
 16
0.0
 26
0.0
 36
1.0
 17
0.0
 27
0.0
 37
0.0
 40
227.4835886214442
 41
2.041621029572836
 42
50.0
 43
0.0
 44
0.0
 50
0.0
 51
0.0
 71
     0
 72
   100
 73
     1
 74
     3
 75
     0
 76
     0
 77
     0
 78
     0
  0
ENDTAB
  0
TABLE
  2
LTYPE
  5
5
330
0
100
AcDbSymbolTable
 70
     1
  0
LTYPE
  5
13
330
5
100
AcDbSymbolTableRecord
100
AcDbLinetypeTableRecord
  2
BYBLOCK
 70
     0
  3

 72
    65
 73
     0
 40
0.0
  0
LTYPE
  5
14
330
5
100
AcDbSymbolTableRecord
100
AcDbLinetypeTableRecord
  2
BYLAYER
 70
     0
  3

 72
    65
 73
     0
 40
0.0
  0
LTYPE
  5
15
330
5
100
AcDbSymbolTableRecord
100
AcDbLinetypeTableRecord
  2
CONTINUOUS
 70
     0
  3
Solid line
 72
    65
 73
     0
 40
0.0
  0
ENDTAB
  0
TABLE
  2
LAYER
  5
2
330
0
100
AcDbSymbolTable
 70
     1
  0
LAYER
  5
10
330
2
100
AcDbSymbolTableRecord
100
AcDbLayerTableRecord
  2
0
 70
     0
 62
     7
  6
CONTINUOUS
  0
ENDTAB
  0
TABLE
  2
STYLE
  5
3
330
0
100
AcDbSymbolTable
 70
     1
  0
STYLE
  5
11
330
3
100
AcDbSymbolTableRecord
100
AcDbTextStyleTableRecord
  2
STANDARD
 70
     0
 40
0.0
 41
1.0
 50
0.0
 71
     0
 42
0.2
  3
txt
  4

  0
ENDTAB
  0
TABLE
  2
VIEW
  5
6
330
0
100
AcDbSymbolTable
 70
     0
  0
ENDTAB
  0
TABLE
  2
UCS
  5
7
330
0
100
AcDbSymbolTable
 70
     0
  0
ENDTAB
  0
TABLE
  2
APPID
  5
9
330
0
100
AcDbSymbolTable
 70
     1
  0
APPID
  5
12
330
9
100
AcDbSymbolTableRecord
100
AcDbRegAppTableRecord
  2
ACAD
 70
     0
  0
ENDTAB
  0
TABLE
  2
DIMSTYLE
  5
A
330
0
100
AcDbSymbolTable
 70
     1
  0
DIMSTYLE
105
1D5
330
A
100
AcDbSymbolTableRecord
100
AcDbDimStyleTableRecord
  2
STANDARD
 70
     0
  3

  4

  5

  6

  7

 40
1.0
 41
0.18
 42
0.0625
 43
0.38
 44
0.18
 45
0.0
 46
0.0
 47
0.0
 48
0.0
140
0.18
141
0.09
142
0.0
143
25.4
144
1.0
145
0.0
146
1.0
147
0.09
 71
     0
 72
     0
 73
     1
 74
     1
 75
     0
 76
     0
 77
     0
 78
     0
170
     0
171
     2
172
     0
173
     0
174
     0
175
     0
176
     0
177
     0
178
     0
270
     2
271
     4
272
     4
273
     2
274
     2
340
11
275
     0
280
     0
281
     0
282
     0
283
     1
284
     0
285
     0
286
     0
287
     3
288
     0
  0
ENDTAB
  0
TABLE
  2
BLOCK_RECORD
  5
1
330
0
100
AcDbSymbolTable
 70
     0
  0
BLOCK_RECORD
  5
1E
102
{ACAD_XDICTIONARY
360
263
102
}
330
1
100
AcDbSymbolTableRecord
100
AcDbBlockTableRecord
  2
*MODEL_SPACE
  0
BLOCK_RECORD
  5
1A
102
{ACAD_XDICTIONARY
360
261
102
}
330
1
100
AcDbSymbolTableRecord
100
AcDbBlockTableRecord
  2
*PAPER_SPACE
  0
ENDTAB
  0
ENDSEC
  0
SECTION
  2
BLOCKS
  0
BLOCK
  5
1F
330
1E
100
AcDbEntity
  8
0
100
AcDbBlockBegin
  2
*MODEL_SPACE
 70
     0
 10
0.0
 20
0.0
 30
0.0
  3
*MODEL_SPACE
  1

  0
ENDBLK
  5
20
330
1E
100
AcDbEntity
  8
0
100
AcDbBlockEnd
  0
BLOCK
  5
1B
330
1A
100
AcDbEntity
 67
     1
  8
0
100
AcDbBlockBegin
  2
*PAPER_SPACE
 70
     0
 10
0.0
 20
0.0
 30
0.0
  3
*PAPER_SPACE
  1

  0
ENDBLK
  5
1C
330
1A
100
AcDbEntity
 67
     1
  8
0
100
AcDbBlockEnd
  0
ENDSEC
  0
SECTION
  2
ENTITIES
  0
LINE
  5
22
330
1E
100
AcDbEntity
  8
0
100
AcDbLine
 10
-0.000016500000017
 20
69.7197
 30
0.0
 11
0.012831499999983
 21
69.82859999999999
 31
0.0
  0
LINE
  5
23
330
1E
100
AcDbEntity
  8
0
100
AcDbLine
 10
-0.000016500000017
 20
69.7197
 30
0.0
 11
0.044023499999983
 21
69.6397
 31
0.0
  0
LINE
  5
24
330
1E
100
AcDbEntity
  8
0
100
AcDbLine
 10
-0.000016500000017
 20
69.7197
 30
0.0
 11
0.055772499999983
 21
69.8299
 31
0.0
  0
LINE
  5
25
330
1E
100
AcDbEntity
  8
0
100
AcDbLine
 10
-0.000016500000017
 20
69.7197
 30
0.0
 11
0.044023499999983
 21
69.6397
 31
0.0
  0
LINE
  5
26
330
1E
100
AcDbEntity
  8
0
100
AcDbLine
 10
-0.000016500000017
 20
69.7197
 30
0.0
 11
0.055772499999983
 21
69.8299
 31
0.0
  0
LINE
  5
27
330
1E
100
AcDbEntity
  8
0
100
AcDbLine
 10
-0.000016500000017
 20
69.7197
 30
0.0
 11
0.012831499999983
 21
69.82859999999999
 31
0.0
  0
LINE
  5
28
330
1E
100
AcDbEntity
  8
0
100
AcDbLine
 10
0.055772499999983
 20
69.8299
 30
0.0
 11
0.209191499999983
 21
70.133
 31
0.0
  0
LINE
  5
29
330
1E
100
AcDbEntity
  8
0
100
AcDbLine
 10
0.0440234999999845
 20
69.6397
 30
0.0
 11
36.0327578590434
 21
51.4227075979936
 31
0.0
  0
LINE
  5
2A
330
1E
100
AcDbEntity
  8
0
100
AcDbLine
 10
0.068620499999983
 20
69.9388
 30
0.0
 11
0.217390499999983
 21
70.2327
 31
0.0
  0
LINE
  5
2B
330
1E
100
AcDbEntity
  8
0
100
AcDbLine
 10
0.4555894999999829
 20
70.6198
 30
0.0
 11
0.781024499999983
 21
71.26269999999999
 31
0.0
  0
LINE
  5
2C
330
1E
100
AcDbEntity
  8
0
100
AcDbLine
 10
0.781024499999983
 20
71.26269999999999
 30
0.0
 11
1.157606499999979
 21
72.00669999999999
 31
0.0
  0
LINE
  5
2D
330
1E
100
AcDbEntity
  8
0
100
AcDbLine
 10
1.157606499999979
 20
72.00669999999999
 30
0.0
 11
1.557416499999979
 21
72.7965
 31
0.0
  0
LINE
  5
2E
330
1E
100
AcDbEntity
  8
0
100
AcDbLine
 10
0.454490499999983
 20
70.70109999999999
 30
0.0
 11
0.7706274999999829
 21
71.3257
 31
0.0
  0
LINE
  5
2F
330
1E
100
AcDbEntity
  8
0
100
AcDbLine
 10
1.13325649999998
 20
72.042
 30
0.0
 11
1.52377649999998
 21
72.8135
 31
0.0
  0
LINE
  5
30
330
1E
100
AcDbEntity
  8
0
100
AcDbLine
 10
1.52377649999998
 20
72.8135
 30
0.0
 11
1.91429649999998
 21
73.58499999999999
 31
0.0
  0
LINE
  5
31
330
1E
100
AcDbEntity
  8
0
100
AcDbLine
 10
1.557416499999979
 20
72.7965
 30
0.0
 11
1.95723649999998
 21
73.5864
 31
0.0
  0
LINE
  5
32
330
1E
100
AcDbEntity
  8
0
100
AcDbLine
 10
1.95723649999998
 20
73.5864
 30
0.0
 11
2.33381649999998
 21
74.33029999999999
 31
0.0
  0
LINE
  5
33
330
1E
100
AcDbEntity
  8
0
100
AcDbLine
 10
1.91429649999998
 20
73.58499999999999
 30
0.0
 11
2.27692649999998
 21
74.3014
 31
0.0
  0
LINE
  5
34
330
1E
100
AcDbEntity
  8
0
100
AcDbLine
 10
2.65924649999998
 20
74.97320000000001
 30
0.0
 11
2.905646499999979
 21
75.45999999999999
 31
0.0
  0
LINE
  5
35
330
1E
100
AcDbEntity
  8
0
100
AcDbLine
 10
2.593056499999979
 20
74.926
 30
0.0
 11
2.830166499999979
 21
75.3944
 31
0.0
  0
LINE
  5
36
330
1E
100
AcDbEntity
  8
0
100
AcDbLine
 10
2.905646499999979
 20
75.45999999999999
 30
0.0
 11
3.059066499999979
 21
75.76309999999999
 31
0.0
  0
LINE
  5
37
330
1E
100
AcDbEntity
  8
0
100
AcDbLine
 10
2.830166499999979
 20
75.3944
 30
0.0
 11
2.978936499999979
 21
75.6883
 31
0.0
  0
LINE
  5
38
330
1E
100
AcDbEntity
  8
0
100
AcDbLine
 10
3.149596499999979
 20
75.775
 30
0.0
 11
3.205386499999979
 21
75.88519999999999
 31
0.0
  0
LINE
  5
39
330
1E
100
AcDbEntity
  8
0
100
AcDbLine
 10
3.059066499999979
 20
75.76309999999999
 30
0.0
 11
3.114856499999979
 21
75.8733
 31
0.0
  0
LINE
  5
3A
330
1E
100
AcDbEntity
  8
0
100
AcDbLine
 10
3.034726499999979
 20
75.7985
 30
0.0
 11
3.114856499999979
 21
75.8733
 31
0.0
  0
LINE
  5
3B
330
1E
100
AcDbEntity
  8
0
100
AcDbLine
 10
2.978936499999979
 20
75.6883
 30
0.0
 11
3.034726499999979
 21
75.7985
 31
0.0
  0
LINE
  5
3C
330
1E
100
AcDbEntity
  8
0
100
AcDbLine
 10
3.205386499999979
 20
75.88519999999999
 30
0.0
 11
44.46535470931439
 21
55.0
 31
0.0
  0
LINE
  5
3D
330
1E
100
AcDbEntity
  8
0
100
AcDbLine
 10
3.114856499999979
 20
75.8733
 30
0.0
 11
3.205386499999979
 21
75.88519999999999
 31
0.0
  0
LINE
  5
3E
330
1E
100
AcDbEntity
  8
0
100
AcDbLine
 10
3.205386499999979
 20
75.88519999999999
 30
0.0
 11
44.46535470931439
 21
55.0
 31
0.0
  0
LINE
  5
3F
330
1E
100
AcDbEntity
  8
0
100
AcDbLine
 10
2.33381649999998
 20
74.33029999999999
 30
0.0
 11
2.65924649999998
 21
74.97320000000001
 31
0.0
  0
LINE
  5
40
330
1E
100
AcDbEntity
  8
0
100
AcDbLine
 10
0.217390499999983
 20
70.2327
 30
0.0
 11
0.454490499999983
 21
70.70109999999999
 31
0.0
  0
LINE
  5
41
330
1E
100
AcDbEntity
  8
0
100
AcDbLine
 10
0.209191499999983
 20
70.133
 30
0.0
 11
0.4555894999999829
 21
70.6198
 31
0.0
  0
LINE
  5
42
330
1E
100
AcDbEntity
  8
0
100
AcDbLine
 10
0.055772499999983
 20
69.8299
 30
0.0
 11
0.209191499999983
 21
70.133
 31
0.0
  0
LINE
  5
43
330
1E
100
AcDbEntity
  8
0
100
AcDbLine
 10
0.044023499999983
 20
69.6397
 30
0.0
 11
36.0327578590434
 21
51.4227075979936
 31
0.0
  0
LINE
  5
44
330
1E
100
AcDbEntity
  8
0
100
AcDbLine
 10
0.044023499999983
 20
69.6397
 30
0.0
 11
0.099812499999983
 21
69.7499
 31
0.0
  0
LINE
  5
45
330
1E
100
AcDbEntity
  8
0
100
AcDbLine
 10
23.5000165
 20
4.71153999999999
 30
0.0
 11
23.5000165
 21
-0.0000000000000071
 31
0.0
  0
LINE
  5
46
330
1E
100
AcDbEntity
  8
0
100
AcDbLine
 10
23.5000165
 20
4.71153999999999
 30
0.0
 11
23.8897165
 21
4.90384999999999
 31
0.0
  0
LINE
  5
47
330
1E
100
AcDbEntity
  8
0
100
AcDbLine
 10
23.5000165
 20
4.71153999999999
 30
0.0
 11
24.4353165
 21
4.71153999999999
 31
0.0
  0
LINE
  5
48
330
1E
100
AcDbEntity
  8
0
100
AcDbLine
 10
56.7809165
 20
-0.0000000000000089
 30
0.0
 11
63.1721165
 21
-0.0000000000000088
 31
0.0
  0
LINE
  5
49
330
1E
100
AcDbEntity
  8
0
100
AcDbLine
 10
50.0000165
 20
-0.000000000000009
 30
0.0
 11
56.7809165
 21
-0.0000000000000089
 31
0.0
  0
LINE
  5
4A
330
1E
100
AcDbEntity
  8
0
100
AcDbLine
 10
31.29411649999999
 20
-0.0000000000000085
 30
0.0
 11
36.8279165
 21
-0.0000000000000088
 31
0.0
  0
LINE
  5
4B
330
1E
100
AcDbEntity
  8
0
100
AcDbLine
 10
136.8280164999999
 20
-0.0000000000000088
 30
0.0
 11
143.2190165
 21
-0.0000000000000089
 31
0.0
  0
LINE
  5
4C
330
1E
100
AcDbEntity
  8
0
100
AcDbLine
 10
68.7059165
 20
-0.0000000000000085
 30
0.0
 11
72.9147165
 21
-0.0000000000000082
 31
0.0
  0
LINE
  5
4D
330
1E
100
AcDbEntity
  8
0
100
AcDbLine
 10
72.9147165
 20
-0.0000000000000082
 30
0.0
 11
75.5647165
 21
-0.0000000000000078
 31
0.0
  0
LINE
  5
4E
330
1E
100
AcDbEntity
  8
0
100
AcDbLine
 10
131.2940165
 20
-0.0000000000000085
 30
0.0
 11
136.8280164999999
 21
-0.0000000000000088
 31
0.0
  0
LINE
  5
4F
330
1E
100
AcDbEntity
  8
0
100
AcDbLine
 10
127.0850165
 20
-0.0000000000000082
 30
0.0
 11
131.2940165
 21
-0.0000000000000085
 31
0.0
  0
LINE
  5
50
330
1E
100
AcDbEntity
  8
0
100
AcDbLine
 10
124.4350164999999
 20
-0.0000000000000078
 30
0.0
 11
127.0850165
 21
-0.0000000000000082
 31
0.0
  0
LINE
  5
51
330
1E
100
AcDbEntity
  8
0
100
AcDbLine
 10
75.5647165
 20
-0.0000000000000078
 30
0.0
 11
76.5000165
 21
-0.0000000000000074
 31
0.0
  0
LINE
  5
52
330
1E
100
AcDbEntity
  8
0
100
AcDbLine
 10
63.1721165
 20
-0.0000000000000088
 30
0.0
 11
68.7059165
 21
-0.0000000000000085
 31
0.0
  0
LINE
  5
53
330
1E
100
AcDbEntity
  8
0
100
AcDbLine
 10
36.8279165
 20
-0.0000000000000088
 30
0.0
 11
43.21911649999999
 21
-0.0000000000000089
 31
0.0
  0
LINE
  5
54
330
1E
100
AcDbEntity
  8
0
100
AcDbLine
 10
43.21911649999999
 20
-0.0000000000000089
 30
0.0
 11
50.0000165
 21
-0.000000000000009
 31
0.0
  0
LINE
  5
55
330
1E
100
AcDbEntity
  8
0
100
AcDbLine
 10
27.08531649999999
 20
-0.0000000000000082
 30
0.0
 11
31.29411649999999
 21
-0.0000000000000085
 31
0.0
  0
LINE
  5
56
330
1E
100
AcDbEntity
  8
0
100
AcDbLine
 10
24.4353165
 20
4.71153999999999
 30
0.0
 11
27.08531649999999
 21
4.71153999999999
 31
0.0
  0
LINE
  5
57
330
1E
100
AcDbEntity
  8
0
100
AcDbLine
 10
24.4353165
 20
-0.000000000000007
 30
0.0
 11
27.08531649999999
 21
-0.0000000000000066
 31
0.0
  0
LINE
  5
58
330
1E
100
AcDbEntity
  8
0
100
AcDbLine
 10
23.8897165
 20
4.90384999999999
 30
0.0
 11
24.6691165
 21
4.99999999999999
 31
0.0
  0
LINE
  5
59
330
1E
100
AcDbEntity
  8
0
100
AcDbLine
 10
27.08531649999999
 20
-0.0000000000000066
 30
0.0
 11
31.29411649999999
 21
-0.0000000000000062
 31
0.0
  0
LINE
  5
5A
330
1E
100
AcDbEntity
  8
0
100
AcDbLine
 10
31.29411649999999
 20
-0.0000000000000062
 30
0.0
 11
36.8279165
 21
-0.000000000000006
 31
0.0
  0
LINE
  5
5B
330
1E
100
AcDbEntity
  8
0
100
AcDbLine
 10
123.5000164999999
 20
-0.0000000000000074
 30
0.0
 11
124.4350164999999
 21
-0.0000000000000078
 31
0.0
  0
LINE
  5
5C
330
1E
100
AcDbEntity
  8
0
100
AcDbLine
 10
123.5000164999999
 20
-0.0000000000000074
 30
0.0
 11
124.4350164999999
 21
-0.000000000000007
 31
0.0
  0
LINE
  5
5D
330
1E
100
AcDbEntity
  8
0
100
AcDbLine
 10
123.5000164999999
 20
-0.0000000000000074
 30
0.0
 11
123.5000164999999
 21
4.71153999999999
 31
0.0
  0
LINE
  5
5E
330
1E
100
AcDbEntity
  8
0
100
AcDbLine
 10
36.8279165
 20
-0.000000000000006
 30
0.0
 11
43.21911649999999
 21
-0.0000000000000058
 31
0.0
  0
LINE
  5
5F
330
1E
100
AcDbEntity
  8
0
100
AcDbLine
 10
43.21911649999999
 20
-0.0000000000000058
 30
0.0
 11
50.0000165
 21
-0.0000000000000058
 31
0.0
  0
LINE
  5
60
330
1E
100
AcDbEntity
  8
0
100
AcDbLine
 10
124.4350164999999
 20
-0.000000000000007
 30
0.0
 11
127.0850165
 21
-0.0000000000000066
 31
0.0
  0
LINE
  5
61
330
1E
100
AcDbEntity
  8
0
100
AcDbLine
 10
68.7059165
 20
-0.0000000000000062
 30
0.0
 11
72.9147165
 21
-0.0000000000000066
 31
0.0
  0
LINE
  5
62
330
1E
100
AcDbEntity
  8
0
100
AcDbLine
 10
127.0850165
 20
-0.0000000000000066
 30
0.0
 11
131.2940165
 21
-0.0000000000000062
 31
0.0
  0
LINE
  5
63
330
1E
100
AcDbEntity
  8
0
100
AcDbLine
 10
131.2940165
 20
-0.0000000000000062
 30
0.0
 11
136.8280164999999
 21
-0.000000000000006
 31
0.0
  0
LINE
  5
64
330
1E
100
AcDbEntity
  8
0
100
AcDbLine
 10
136.8280164999999
 20
-0.000000000000006
 30
0.0
 11
143.2190165
 21
-0.0000000000000058
 31
0.0
  0
LINE
  5
65
330
1E
100
AcDbEntity
  8
0
100
AcDbLine
 10
72.9147165
 20
-0.0000000000000066
 30
0.0
 11
75.5647165
 21
-0.000000000000007
 31
0.0
  0
LINE
  5
66
330
1E
100
AcDbEntity
  8
0
100
AcDbLine
 10
75.5647165
 20
-0.000000000000007
 30
0.0
 11
76.5000165
 21
-0.0000000000000074
 31
0.0
  0
LINE
  5
67
330
1E
100
AcDbEntity
  8
0
100
AcDbLine
 10
63.1721165
 20
-0.000000000000006
 30
0.0
 11
68.7059165
 21
-0.0000000000000062
 31
0.0
  0
LINE
  5
68
330
1E
100
AcDbEntity
  8
0
100
AcDbLine
 10
56.7809165
 20
-0.0000000000000058
 30
0.0
 11
63.1721165
 21
-0.000000000000006
 31
0.0
  0
LINE
  5
69
330
1E
100
AcDbEntity
  8
0
100
AcDbLine
 10
50.0000165
 20
-0.0000000000000058
 30
0.0
 11
56.7809165
 21
-0.0000000000000058
 31
0.0
  0
LINE
  5
6A
330
1E
100
AcDbEntity
  8
0
100
AcDbLine
 10
76.5000165
 20
-0.0000000000000074
 30
0.0
 11
76.5000165
 21
4.71153999999999
 31
0.0
  0
LINE
  5
6B
330
1E
100
AcDbEntity
  8
0
100
AcDbLine
 10
27.08531649999999
 20
4.71153999999999
 30
0.0
 11
31.29411649999999
 21
4.71153999999999
 31
0.0
  0
LINE
  5
6C
330
1E
100
AcDbEntity
  8
0
100
AcDbLine
 10
31.29411649999999
 20
4.71153999999999
 30
0.0
 11
36.8279165
 21
4.71153999999999
 31
0.0
  0
LINE
  5
6D
330
1E
100
AcDbEntity
  8
0
100
AcDbLine
 10
36.8279165
 20
4.71153999999999
 30
0.0
 11
43.21911649999999
 21
4.71153999999999
 31
0.0
  0
LINE
  5
6E
330
1E
100
AcDbEntity
  8
0
100
AcDbLine
 10
36.0000165
 20
4.99999999999999
 30
0.0
 11
36.0000165
 21
51.4681182375811
 31
0.0
  0
LINE
  5
6F
330
1E
100
AcDbEntity
  8
0
100
AcDbLine
 10
24.6691165
 20
4.99999999999999
 30
0.0
 11
25.6044165
 21
4.99999999999999
 31
0.0
  0
LINE
  5
70
330
1E
100
AcDbEntity
  8
0
100
AcDbLine
 10
43.21911649999999
 20
4.71153999999999
 30
0.0
 11
50.0000165
 21
4.71153999999999
 31
0.0
  0
LINE
  5
71
330
1E
100
AcDbEntity
  8
0
100
AcDbLine
 10
68.7059165
 20
4.71153999999999
 30
0.0
 11
72.9147165
 21
4.71153999999999
 31
0.0
  0
LINE
  5
72
330
1E
100
AcDbEntity
  8
0
100
AcDbLine
 10
72.9147165
 20
4.71153999999999
 30
0.0
 11
75.5647165
 21
4.71153999999999
 31
0.0
  0
LINE
  5
73
330
1E
100
AcDbEntity
  8
0
100
AcDbLine
 10
75.5647165
 20
4.71153999999999
 30
0.0
 11
76.5000165
 21
4.71153999999999
 31
0.0
  0
LINE
  5
74
330
1E
100
AcDbEntity
  8
0
100
AcDbLine
 10
63.1721165
 20
4.71153999999999
 30
0.0
 11
68.7059165
 21
4.71153999999999
 31
0.0
  0
LINE
  5
75
330
1E
100
AcDbEntity
  8
0
100
AcDbLine
 10
64.0000165
 20
4.99999999999999
 30
0.0
 11
64.0000165
 21
54.7172
 31
0.0
  0
LINE
  5
76
330
1E
100
AcDbEntity
  8
0
100
AcDbLine
 10
74.3956165
 20
4.99999999999999
 30
0.0
 11
75.3309165
 21
4.99999999999999
 31
0.0
  0
LINE
  5
77
330
1E
100
AcDbEntity
  8
0
100
AcDbLine
 10
56.7809165
 20
4.71153999999999
 30
0.0
 11
63.1721165
 21
4.71153999999999
 31
0.0
  0
LINE
  5
78
330
1E
100
AcDbEntity
  8
0
100
AcDbLine
 10
50.0000165
 20
4.71153999999999
 30
0.0
 11
56.7809165
 21
4.71153999999999
 31
0.0
  0
LINE
  5
79
330
1E
100
AcDbEntity
  8
0
100
AcDbLine
 10
28.0985165
 20
4.99999999999999
 30
0.0
 11
32.07351649999999
 21
4.99999999999999
 31
0.0
  0
LINE
  5
7A
330
1E
100
AcDbEntity
  8
0
100
AcDbLine
 10
25.6044165
 20
4.99999999999999
 30
0.0
 11
43.4529165
 21
4.99999999999999
 31
0.0
  0
LINE
  5
84
330
1E
100
AcDbEntity
  8
0
100
AcDbLine
 10
44.46535470931439
 20
55.0
 30
0.0
 11
50.0000165
 21
55.0
 31
0.0
  0
LINE
  5
85
330
1E
100
AcDbEntity
  8
0
100
AcDbLine
 10
50.0000165
 20
55.0
 30
0.0
 11
53.4588165
 21
55.0
 31
0.0
  0
LINE
  5
87
330
1E
100
AcDbEntity
  8
0
100
AcDbLine
 10
36.0000165
 20
51.4681182375811
 30
0.0
 11
36.0000165
 21
5.0
 31
0.0
  0
LINE
  5
88
330
1E
100
AcDbEntity
  8
0
100
AcDbLine
 10
43.4529165
 20
4.99999999999999
 30
0.0
 11
50.0000165
 21
4.99999999999999
 31
0.0
  0
LINE
  5
89
330
1E
100
AcDbEntity
  8
0
100
AcDbLine
 10
67.9265165
 20
4.99999999999999
 30
0.0
 11
71.9015165
 21
4.99999999999999
 31
0.0
  0
LINE
  5
8A
330
1E
100
AcDbEntity
  8
0
100
AcDbLine
 10
71.9015165
 20
4.99999999999999
 30
0.0
 11
74.3956165
 21
4.99999999999999
 31
0.0
  0
LINE
  5
8B
330
1E
100
AcDbEntity
  8
0
100
AcDbLine
 10
62.6265165
 20
4.99999999999999
 30
0.0
 11
67.9265165
 21
4.99999999999999
 31
0.0
  0
LINE
  5
8C
330
1E
100
AcDbEntity
  8
0
100
AcDbLine
 10
53.4588165
 20
55.0
 30
0.0
 11
56.6706165
 21
55.0
 31
0.0
  0
LINE
  5
90
330
1E
100
AcDbEntity
  8
0
100
AcDbLine
 10
62.8882165
 20
55.0
 30
0.0
 11
63.3824165
 21
55.0
 31
0.0
  0
LINE
  5
91
330
1E
100
AcDbEntity
  8
0
100
AcDbLine
 10
56.6706165
 20
55.0
 30
0.0
 11
62.8882165
 21
55.0
 31
0.0
  0
LINE
  5
94
330
1E
100
AcDbEntity
  8
0
100
AcDbLine
 10
63.3824165
 20
55.0
 30
0.0
 11
63.7941165
 21
54.9057
 31
0.0
  0
LINE
  5
95
330
1E
100
AcDbEntity
  8
0
100
AcDbLine
 10
64.0000165
 20
54.7172
 30
0.0
 11
64.0000165
 21
5.0
 31
0.0
  0
LINE
  5
96
330
1E
100
AcDbEntity
  8
0
100
AcDbLine
 10
63.7941165
 20
54.9057
 30
0.0
 11
64.0000165
 21
54.7172
 31
0.0
  0
LINE
  5
97
330
1E
100
AcDbEntity
  8
0
100
AcDbLine
 10
56.5471165
 20
4.99999999999999
 30
0.0
 11
62.6265165
 21
4.99999999999999
 31
0.0
  0
LINE
  5
98
330
1E
100
AcDbEntity
  8
0
100
AcDbLine
 10
50.0000165
 20
4.99999999999999
 30
0.0
 11
56.5471165
 21
4.99999999999999
 31
0.0
  0
LINE
  5
99
330
1E
100
AcDbEntity
  8
0
100
AcDbLine
 10
75.3309165
 20
4.99999999999999
 30
0.0
 11
76.11031650000001
 21
4.90384999999999
 31
0.0
  0
LINE
  5
9A
330
1E
100
AcDbEntity
  8
0
100
AcDbLine
 10
124.4350164999999
 20
4.71153999999999
 30
0.0
 11
127.0850165
 21
4.71153999999999
 31
0.0
  0
LINE
  5
9B
330
1E
100
AcDbEntity
  8
0
100
AcDbLine
 10
123.5000164999999
 20
4.71153999999999
 30
0.0
 11
123.5000164999999
 21
-0.0000000000000071
 31
0.0
  0
LINE
  5
9C
330
1E
100
AcDbEntity
  8
0
100
AcDbLine
 10
123.5000164999999
 20
4.71153999999999
 30
0.0
 11
123.8900164999999
 21
4.90384999999999
 31
0.0
  0
LINE
  5
9D
330
1E
100
AcDbEntity
  8
0
100
AcDbLine
 10
123.5000164999999
 20
4.71153999999999
 30
0.0
 11
124.4350164999999
 21
4.71153999999999
 31
0.0
  0
LINE
  5
9E
330
1E
100
AcDbEntity
  8
0
100
AcDbLine
 10
127.0850165
 20
4.71153999999999
 30
0.0
 11
131.2940165
 21
4.71153999999999
 31
0.0
  0
LINE
  5
9F
330
1E
100
AcDbEntity
  8
0
100
AcDbLine
 10
131.2940165
 20
4.71153999999999
 30
0.0
 11
136.8280164999999
 21
4.71153999999999
 31
0.0
  0
LINE
  5
A0
330
1E
100
AcDbEntity
  8
0
100
AcDbLine
 10
128.0990165
 20
4.99999999999999
 30
0.0
 11
132.0740164999999
 21
4.99999999999999
 31
0.0
  0
LINE
  5
A1
330
1E
100
AcDbEntity
  8
0
100
AcDbLine
 10
125.6040164999999
 20
4.99999999999999
 30
0.0
 11
128.0990165
 21
4.99999999999999
 31
0.0
  0
LINE
  5
A2
330
1E
100
AcDbEntity
  8
0
100
AcDbLine
 10
124.6690164999999
 20
4.99999999999999
 30
0.0
 11
125.6040164999999
 21
4.99999999999999
 31
0.0
  0
LINE
  5
A3
330
1E
100
AcDbEntity
  8
0
100
AcDbLine
 10
132.0740164999999
 20
4.99999999999999
 30
0.0
 11
137.3740165
 21
4.99999999999999
 31
0.0
  0
LINE
  5
A4
330
1E
100
AcDbEntity
  8
0
100
AcDbLine
 10
138.0000165
 20
152.2659999999999
 30
0.0
 11
138.4320165
 21
150.6589999999999
 31
0.0
  0
LINE
  5
A5
330
1E
100
AcDbEntity
  8
0
100
AcDbLine
 10
138.0000165
 20
152.2659999999999
 30
0.0
 11
138.0000165
 21
168.6559999999999
 31
0.0
  0
LINE
  5
A6
330
1E
100
AcDbEntity
  8
0
100
AcDbLine
 10
138.0000165
 20
152.2659999999999
 30
0.0
 11
138.4320165
 21
153.8729999999999
 31
0.0
  0
LINE
  5
A7
330
1E
100
AcDbEntity
  8
0
100
AcDbLine
 10
137.3740165
 20
4.99999999999999
 30
0.0
 11
143.4530164999999
 21
4.99999999999999
 31
0.0
  0
LINE
  5
A8
330
1E
100
AcDbEntity
  8
0
100
AcDbLine
 10
136.8280164999999
 20
4.71153999999999
 30
0.0
 11
143.2190165
 21
4.71153999999999
 31
0.0
  0
LINE
  5
A9
330
1E
100
AcDbEntity
  8
0
100
AcDbLine
 10
123.8900164999999
 20
4.90384999999999
 30
0.0
 11
124.6690164999999
 21
4.99999999999999
 31
0.0
  0
LINE
  5
AA
330
1E
100
AcDbEntity
  8
0
100
AcDbLine
 10
76.5000165
 20
4.71153999999999
 30
0.0
 11
76.5000165
 21
-0.0000000000000071
 31
0.0
  0
LINE
  5
AB
330
1E
100
AcDbEntity
  8
0
100
AcDbLine
 10
76.11031650000001
 20
4.90384999999999
 30
0.0
 11
76.5000165
 21
4.71153999999999
 31
0.0
  0
LINE
  5
AC
330
1E
100
AcDbEntity
  8
0
100
AcDbLine
 10
24.4353165
 20
-0.0000000000000078
 30
0.0
 11
27.08531649999999
 21
-0.0000000000000082
 31
0.0
  0
LINE
  5
AD
330
1E
100
AcDbEntity
  8
0
100
AcDbLine
 10
23.5000165
 20
-0.0000000000000074
 30
0.0
 11
24.4353165
 21
-0.0000000000000078
 31
0.0
  0
LINE
  5
AE
330
1E
100
AcDbEntity
  8
0
100
AcDbLine
 10
23.5000165
 20
-0.0000000000000074
 30
0.0
 11
24.4353165
 21
-0.000000000000007
 31
0.0
  0
LINE
  5
AF
330
1E
100
AcDbEntity
  8
0
100
AcDbLine
 10
23.5000165
 20
-0.0000000000000074
 30
0.0
 11
23.5000165
 21
4.71153999999999
 31
0.0
  0
LINE
  5
B0
330
1E
100
AcDbEntity
  8
0
100
AcDbLine
 10
138.0000165
 20
185.6029999999999
 30
0.0
 11
138.0000165
 21
191.0
 31
0.0
  0
LINE
  5
B1
330
1E
100
AcDbEntity
  8
0
100
AcDbLine
 10
138.0000165
 20
185.6029999999999
 30
0.0
 11
138.0000165
 21
179.9059999999999
 31
0.0
  0
LINE
  5
B2
330
1E
100
AcDbEntity
  8
0
100
AcDbLine
 10
138.0000165
 20
179.9059999999999
 30
0.0
 11
138.0000165
 21
174.004
 31
0.0
  0
LINE
  5
B3
330
1E
100
AcDbEntity
  8
0
100
AcDbLine
 10
138.0000165
 20
179.9059999999999
 30
0.0
 11
138.0000165
 21
185.6029999999999
 31
0.0
  0
LINE
  5
B4
330
1E
100
AcDbEntity
  8
0
100
AcDbLine
 10
138.0000165
 20
174.004
 30
0.0
 11
138.0000165
 21
168.0
 31
0.0
  0
LINE
  5
B5
330
1E
100
AcDbEntity
  8
0
100
AcDbLine
 10
138.0000165
 20
174.004
 30
0.0
 11
138.0000165
 21
179.9059999999999
 31
0.0
  0
LINE
  5
B6
330
1E
100
AcDbEntity
  8
0
100
AcDbLine
 10
138.0000165
 20
168.6559999999999
 30
0.0
 11
138.0000165
 21
152.2659999999999
 31
0.0
  0
LINE
  5
B7
330
1E
100
AcDbEntity
  8
0
100
AcDbLine
 10
138.0000165
 20
168.6559999999999
 30
0.0
 11
138.4320165
 21
170.263
 31
0.0
  0
LINE
  5
B8
330
1E
100
AcDbEntity
  8
0
100
AcDbLine
 10
138.0000165
 20
210.4979999999999
 30
0.0
 11
138.0000165
 21
207.837
 31
0.0
  0
LINE
  5
B9
330
1E
100
AcDbEntity
  8
0
100
AcDbLine
 10
138.0000165
 20
210.4979999999999
 30
0.0
 11
138.0000165
 21
212.433
 31
0.0
  0
LINE
  5
BA
330
1E
100
AcDbEntity
  8
0
100
AcDbLine
 10
138.0000165
 20
207.837
 30
0.0
 11
138.0000165
 21
204.494
 31
0.0
  0
LINE
  5
BB
330
1E
100
AcDbEntity
  8
0
100
AcDbLine
 10
138.0000165
 20
207.837
 30
0.0
 11
138.0000165
 21
210.4979999999999
 31
0.0
  0
LINE
  5
BC
330
1E
100
AcDbEntity
  8
0
100
AcDbLine
 10
138.0000165
 20
204.494
 30
0.0
 11
138.0000165
 21
207.837
 31
0.0
  0
LINE
  5
BD
330
1E
100
AcDbEntity
  8
0
100
AcDbLine
 10
138.0000165
 20
204.494
 30
0.0
 11
138.0000165
 21
200.527
 31
0.0
  0
LINE
  5
BE
330
1E
100
AcDbEntity
  8
0
100
AcDbLine
 10
138.0000165
 20
212.433
 30
0.0
 11
138.0000165
 21
213.606
 31
0.0
  0
LINE
  5
BF
330
1E
100
AcDbEntity
  8
0
100
AcDbLine
 10
138.0000165
 20
212.433
 30
0.0
 11
138.0000165
 21
210.4979999999999
 31
0.0
  0
LINE
  5
C0
330
1E
100
AcDbEntity
  8
0
100
AcDbLine
 10
138.0000165
 20
214.0
 30
0.0
 11
138.4240165
 21
217.071
 31
0.0
  0
LINE
  5
C1
330
1E
100
AcDbEntity
  8
0
100
AcDbLine
 10
138.0000165
 20
214.0
 30
0.0
 11
138.0000165
 21
213.606
 31
0.0
  0
LINE
  5
C2
330
1E
100
AcDbEntity
  8
0
100
AcDbLine
 10
138.0000165
 20
214.0
 30
0.0
 11
138.027331084696
 21
213.8021625245259
 31
0.0
  0
LINE
  5
C3
330
1E
100
AcDbEntity
  8
0
100
AcDbLine
 10
138.0000165
 20
213.606
 30
0.0
 11
138.0000165
 21
214.0
 31
0.0
  0
LINE
  5
C4
330
1E
100
AcDbEntity
  8
0
100
AcDbLine
 10
138.0000165
 20
213.606
 30
0.0
 11
138.0000165
 21
212.433
 31
0.0
  0
LINE
  5
C5
330
1E
100
AcDbEntity
  8
0
100
AcDbLine
 10
138.0000165
 20
200.527
 30
0.0
 11
138.0000165
 21
196.0029999999999
 31
0.0
  0
LINE
  5
C6
330
1E
100
AcDbEntity
  8
0
100
AcDbLine
 10
138.0000165
 20
200.527
 30
0.0
 11
138.0000165
 21
204.494
 31
0.0
  0
LINE
  5
C7
330
1E
100
AcDbEntity
  8
0
100
AcDbLine
 10
138.0000165
 20
196.0029999999999
 30
0.0
 11
138.0000165
 21
200.527
 31
0.0
  0
LINE
  5
C8
330
1E
100
AcDbEntity
  8
0
100
AcDbLine
 10
138.0000165
 20
196.0029999999999
 30
0.0
 11
138.0000165
 21
191.0
 31
0.0
  0
LINE
  5
C9
330
1E
100
AcDbEntity
  8
0
100
AcDbLine
 10
138.0000165
 20
191.0
 30
0.0
 11
138.0000165
 21
169.312
 31
0.0
  0
LINE
  5
CA
330
1E
100
AcDbEntity
  8
0
100
AcDbLine
 10
138.0000165
 20
191.0
 30
0.0
 11
138.0000165
 21
196.0029999999999
 31
0.0
  0
LINE
  5
CB
330
1E
100
AcDbEntity
  8
0
100
AcDbLine
 10
138.0000165
 20
191.0
 30
0.0
 11
138.0000165
 21
185.6029999999999
 31
0.0
  0
LINE
  5
CC
330
1E
100
AcDbEntity
  8
0
100
AcDbLine
 10
138.0000165
 20
169.312
 30
0.0
 11
138.08819073771
 21
168.984
 31
0.0
  0
LINE
  5
CD
330
1E
100
AcDbEntity
  8
0
100
AcDbLine
 10
138.0000165
 20
169.312
 30
0.0
 11
138.0000165
 21
191.0
 31
0.0
  0
LINE
  5
CE
330
1E
100
AcDbEntity
  8
0
100
AcDbLine
 10
138.0000165
 20
169.312
 30
0.0
 11
138.4320165
 21
170.919
 31
0.0
  0
LINE
  5
CF
330
1E
100
AcDbEntity
  8
0
100
AcDbLine
 10
138.0000165
 20
168.0
 30
0.0
 11
138.0000165
 21
4.99999999999998
 31
0.0
  0
LINE
  5
D0
330
1E
100
AcDbEntity
  8
0
100
AcDbLine
 10
138.0000165
 20
168.0
 30
0.0
 11
138.0000165
 21
174.004
 31
0.0
  0
LINE
  5
D4
330
1E
100
AcDbEntity
  8
0
100
AcDbLine
 10
156.7810165
 20
-0.0000000000000089
 30
0.0
 11
163.1720165
 21
-0.0000000000000088
 31
0.0
  0
LINE
  5
D5
330
1E
100
AcDbEntity
  8
0
100
AcDbLine
 10
150.0000165
 20
-0.000000000000009
 30
0.0
 11
156.7810165
 21
-0.0000000000000089
 31
0.0
  0
LINE
  5
D6
330
1E
100
AcDbEntity
  8
0
100
AcDbLine
 10
143.2190165
 20
-0.0000000000000058
 30
0.0
 11
150.0000165
 21
-0.0000000000000058
 31
0.0
  0
LINE
  5
D7
330
1E
100
AcDbEntity
  8
0
100
AcDbLine
 10
163.1720165
 20
-0.000000000000006
 30
0.0
 11
168.7060165
 21
-0.0000000000000062
 31
0.0
  0
LINE
  5
D8
330
1E
100
AcDbEntity
  8
0
100
AcDbLine
 10
156.7810165
 20
-0.0000000000000058
 30
0.0
 11
163.1720165
 21
-0.000000000000006
 31
0.0
  0
LINE
  5
D9
330
1E
100
AcDbEntity
  8
0
100
AcDbLine
 10
143.4530164999999
 20
4.99999999999999
 30
0.0
 11
150.0000165
 21
4.99999999999999
 31
0.0
  0
LINE
  5
DA
330
1E
100
AcDbEntity
  8
0
100
AcDbLine
 10
143.2190165
 20
4.71153999999999
 30
0.0
 11
150.0000165
 21
4.71153999999999
 31
0.0
  0
LINE
  5
DB
330
1E
100
AcDbEntity
  8
0
100
AcDbLine
 10
138.4320165
 20
170.263
 30
0.0
 11
139.5840164999999
 21
171.769
 31
0.0
  0
LINE
  5
DC
330
1E
100
AcDbEntity
  8
0
100
AcDbLine
 10
138.4320165
 20
153.8729999999999
 30
0.0
 11
139.5840164999999
 21
155.379
 31
0.0
  0
LINE
  5
DD
330
1E
100
AcDbEntity
  8
0
100
AcDbLine
 10
138.2880164999999
 20
151.9379999999999
 30
0.0
 11
138.7200165
 21
150.356
 31
0.0
  0
LINE
  5
DE
330
1E
100
AcDbEntity
  8
0
100
AcDbLine
 10
138.2880164999999
 20
151.9379999999999
 30
0.0
 11
138.7200165
 21
153.52
 31
0.0
  0
LINE
  5
DF
330
1E
100
AcDbEntity
  8
0
100
AcDbLine
 10
138.4320165
 20
150.6589999999999
 30
0.0
 11
139.5840164999999
 21
149.153
 31
0.0
  0
LINE
  5
E0
330
1E
100
AcDbEntity
  8
0
100
AcDbLine
 10
138.7200165
 20
153.52
 30
0.0
 11
139.8720165
 21
154.976
 31
0.0
  0
LINE
  5
E1
330
1E
100
AcDbEntity
  8
0
100
AcDbLine
 10
139.5840164999999
 20
171.769
 30
0.0
 11
141.5040165
 21
173.0999999999999
 31
0.0
  0
LINE
  5
E2
330
1E
100
AcDbEntity
  8
0
100
AcDbLine
 10
139.5840164999999
 20
171.769
 30
0.0
 11
139.8720165
 21
172.022
 31
0.0
  0
LINE
  5
E3
330
1E
100
AcDbEntity
  8
0
100
AcDbLine
 10
139.5840164999999
 20
155.379
 30
0.0
 11
141.5040165
 21
156.71
 31
0.0
  0
LINE
  5
E4
330
1E
100
AcDbEntity
  8
0
100
AcDbLine
 10
138.7200165
 20
150.356
 30
0.0
 11
139.8720165
 21
148.9
 31
0.0
  0
LINE
  5
E5
330
1E
100
AcDbEntity
  8
0
100
AcDbLine
 10
139.5840164999999
 20
149.153
 30
0.0
 11
139.8720165
 21
148.9
 31
0.0
  0
LINE
  5
E6
330
1E
100
AcDbEntity
  8
0
100
AcDbLine
 10
139.778528212808
 20
171.903841192577
 30
0.0
 11
139.8720165
 21
172.022
 31
0.0
  0
LINE
  5
E7
330
1E
100
AcDbEntity
  8
0
100
AcDbLine
 10
139.8720165
 20
154.976
 30
0.0
 11
141.7440165
 21
156.2559999999999
 31
0.0
  0
LINE
  5
E8
330
1E
100
AcDbEntity
  8
0
100
AcDbLine
 10
141.5040165
 20
156.71
 30
0.0
 11
144.0480165
 21
157.7139999999999
 31
0.0
  0
LINE
  5
E9
330
1E
100
AcDbEntity
  8
0
100
AcDbLine
 10
139.8720165
 20
148.9
 30
0.0
 11
141.7440165
 21
147.62
 31
0.0
  0
LINE
  5
EA
330
1E
100
AcDbEntity
  8
0
100
AcDbLine
 10
139.778528212808
 20
171.903841192577
 30
0.0
 11
139.8720165
 21
172.022
 31
0.0
  0
LINE
  5
EB
330
1E
100
AcDbEntity
  8
0
100
AcDbLine
 10
139.8720165
 20
172.022
 30
0.0
 11
141.7440165
 21
173.302
 31
0.0
  0
LINE
  5
EC
330
1E
100
AcDbEntity
  8
0
100
AcDbLine
 10
139.8720165
 20
172.022
 30
0.0
 11
139.925732322359
 21
172.00588737477
 31
0.0
  0
LINE
  5
ED
330
1E
100
AcDbEntity
  8
0
100
AcDbLine
 10
138.4320165
 20
170.919
 30
0.0
 11
139.5840164999999
 21
172.425
 31
0.0
  0
LINE
  5
EE
330
1E
100
AcDbEntity
  8
0
100
AcDbLine
 10
141.5040165
 20
173.0999999999999
 30
0.0
 11
144.0480165
 21
174.104
 31
0.0
  0
LINE
  5
EF
330
1E
100
AcDbEntity
  8
0
100
AcDbLine
 10
139.5840164999999
 20
172.425
 30
0.0
 11
141.5040165
 21
173.7559999999999
 31
0.0
  0
LINE
  5
F0
330
1E
100
AcDbEntity
  8
0
100
AcDbLine
 10
141.7440165
 20
156.2559999999999
 30
0.0
 11
144.1920164999999
 21
157.235
 31
0.0
  0
LINE
  5
F1
330
1E
100
AcDbEntity
  8
0
100
AcDbLine
 10
141.7440165
 20
147.62
 30
0.0
 11
144.1920164999999
 21
146.6409999999999
 31
0.0
  0
LINE
  5
F2
330
1E
100
AcDbEntity
  8
0
100
AcDbLine
 10
144.1920164999999
 20
157.235
 30
0.0
 11
146.9760165
 21
157.8379999999999
 31
0.0
  0
LINE
  5
F3
330
1E
100
AcDbEntity
  8
0
100
AcDbLine
 10
144.0480165
 20
174.104
 30
0.0
 11
146.9280165
 21
174.7069999999999
 31
0.0
  0
LINE
  5
F4
330
1E
100
AcDbEntity
  8
0
100
AcDbLine
 10
144.0480165
 20
157.7139999999999
 30
0.0
 11
146.9280165
 21
158.316
 31
0.0
  0
LINE
  5
F5
330
1E
100
AcDbEntity
  8
0
100
AcDbLine
 10
146.9280165
 20
158.316
 30
0.0
 11
150.0000165
 21
158.542
 31
0.0
  0
LINE
  5
F6
330
1E
100
AcDbEntity
  8
0
100
AcDbLine
 10
144.1920164999999
 20
146.6409999999999
 30
0.0
 11
146.9760165
 21
146.0379999999999
 31
0.0
  0
LINE
  5
F7
330
1E
100
AcDbEntity
  8
0
100
AcDbLine
 10
141.7440165
 20
173.302
 30
0.0
 11
144.1920164999999
 21
174.282
 31
0.0
  0
LINE
  5
F8
330
1E
100
AcDbEntity
  8
0
100
AcDbLine
 10
146.9280165
 20
174.7069999999999
 30
0.0
 11
150.0000165
 21
174.933
 31
0.0
  0
LINE
  5
F9
330
1E
100
AcDbEntity
  8
0
100
AcDbLine
 10
144.1920164999999
 20
174.282
 30
0.0
 11
146.9760165
 21
174.884
 31
0.0
  0
LINE
  5
FA
330
1E
100
AcDbEntity
  8
0
100
AcDbLine
 10
141.5040165
 20
173.7559999999999
 30
0.0
 11
144.0480165
 21
174.76
 31
0.0
  0
LINE
  5
FB
330
1E
100
AcDbEntity
  8
0
100
AcDbLine
 10
141.5290165
 20
222.4709999999999
 30
0.0
 11
144.0350165
 21
224.3759999999999
 31
0.0
  0
LINE
  5
FC
330
1E
100
AcDbEntity
  8
0
100
AcDbLine
 10
144.0350165
 20
224.3759999999999
 30
0.0
 11
146.9290165
 21
225.5759999999999
 31
0.0
  0
LINE
  5
FD
330
1E
100
AcDbEntity
  8
0
100
AcDbLine
 10
139.6240165
 20
219.965
 30
0.0
 11
141.5290165
 21
222.4709999999999
 31
0.0
  0
LINE
  5
FE
330
1E
100
AcDbEntity
  8
0
100
AcDbLine
 10
138.4240165
 20
217.071
 30
0.0
 11
139.6240165
 21
219.965
 31
0.0
  0
LINE
  5
FF
330
1E
100
AcDbEntity
  8
0
100
AcDbLine
 10
144.0480165
 20
174.76
 30
0.0
 11
146.9280165
 21
175.3619999999999
 31
0.0
  0
LINE
  5
100
330
1E
100
AcDbEntity
  8
0
100
AcDbLine
 10
146.9760165
 20
157.8379999999999
 30
0.0
 11
150.0000165
 21
158.064
 31
0.0
  0
LINE
  5
101
330
1E
100
AcDbEntity
  8
0
100
AcDbLine
 10
150.0000165
 20
158.064
 30
0.0
 11
153.0240165
 21
157.8379999999999
 31
0.0
  0
LINE
  5
102
330
1E
100
AcDbEntity
  8
0
100
AcDbLine
 10
150.0000165
 20
158.542
 30
0.0
 11
153.0720165
 21
158.316
 31
0.0
  0
LINE
  5
103
330
1E
100
AcDbEntity
  8
0
100
AcDbLine
 10
150.0000165
 20
145.812
 30
0.0
 11
153.0240165
 21
146.0379999999999
 31
0.0
  0
LINE
  5
104
330
1E
100
AcDbEntity
  8
0
100
AcDbLine
 10
146.9760165
 20
146.0379999999999
 30
0.0
 11
150.0000165
 21
145.812
 31
0.0
  0
LINE
  5
105
330
1E
100
AcDbEntity
  8
0
100
AcDbLine
 10
150.0000165
 20
174.933
 30
0.0
 11
153.0720165
 21
174.7069999999999
 31
0.0
  0
LINE
  5
106
330
1E
100
AcDbEntity
  8
0
100
AcDbLine
 10
150.0000165
 20
175.11
 30
0.0
 11
153.0240165
 21
174.884
 31
0.0
  0
LINE
  5
107
330
1E
100
AcDbEntity
  8
0
100
AcDbLine
 10
150.0000165
 20
226.0
 30
0.0
 11
153.0710165
 21
225.5759999999999
 31
0.0
  0
LINE
  5
108
330
1E
100
AcDbEntity
  8
0
100
AcDbLine
 10
150.0000165
 20
175.5879999999999
 30
0.0
 11
153.0720165
 21
175.3619999999999
 31
0.0
  0
LINE
  5
109
330
1E
100
AcDbEntity
  8
0
100
AcDbLine
 10
146.9290165
 20
225.5759999999999
 30
0.0
 11
150.0000165
 21
226.0
 31
0.0
  0
LINE
  5
10A
330
1E
100
AcDbEntity
  8
0
100
AcDbLine
 10
146.9760165
 20
174.884
 30
0.0
 11
150.0000165
 21
175.11
 31
0.0
  0
LINE
  5
10B
330
1E
100
AcDbEntity
  8
0
100
AcDbLine
 10
146.9280165
 20
175.3619999999999
 30
0.0
 11
150.0000165
 21
175.5879999999999
 31
0.0
  0
LINE
  5
10C
330
1E
100
AcDbEntity
  8
0
100
AcDbLine
 10
150.0000165
 20
4.99999999999999
 30
0.0
 11
156.5470165
 21
4.99999999999999
 31
0.0
  0
LINE
  5
10D
330
1E
100
AcDbEntity
  8
0
100
AcDbLine
 10
163.1720165
 20
4.71153999999999
 30
0.0
 11
168.7060165
 21
4.71153999999999
 31
0.0
  0
LINE
  5
10E
330
1E
100
AcDbEntity
  8
0
100
AcDbLine
 10
155.8080164999999
 20
157.235
 30
0.0
 11
158.2560165
 21
156.2559999999999
 31
0.0
  0
LINE
  5
10F
330
1E
100
AcDbEntity
  8
0
100
AcDbLine
 10
153.0240165
 20
157.8379999999999
 30
0.0
 11
155.8080164999999
 21
157.235
 31
0.0
  0
LINE
  5
110
330
1E
100
AcDbEntity
  8
0
100
AcDbLine
 10
153.0720165
 20
174.7069999999999
 30
0.0
 11
155.9520165
 21
174.104
 31
0.0
  0
LINE
  5
111
330
1E
100
AcDbEntity
  8
0
100
AcDbLine
 10
153.0720165
 20
158.316
 30
0.0
 11
155.9520165
 21
157.7139999999999
 31
0.0
  0
LINE
  5
112
330
1E
100
AcDbEntity
  8
0
100
AcDbLine
 10
155.8080164999999
 20
146.6409999999999
 30
0.0
 11
158.2560165
 21
147.62
 31
0.0
  0
LINE
  5
113
330
1E
100
AcDbEntity
  8
0
100
AcDbLine
 10
153.0240165
 20
146.0379999999999
 30
0.0
 11
155.8080164999999
 21
146.6409999999999
 31
0.0
  0
LINE
  5
114
330
1E
100
AcDbEntity
  8
0
100
AcDbLine
 10
155.9520165
 20
174.104
 30
0.0
 11
158.4960165
 21
173.0999999999999
 31
0.0
  0
LINE
  5
115
330
1E
100
AcDbEntity
  8
0
100
AcDbLine
 10
155.9520165
 20
157.7139999999999
 30
0.0
 11
158.4960165
 21
156.71
 31
0.0
  0
LINE
  5
116
330
1E
100
AcDbEntity
  8
0
100
AcDbLine
 10
155.8080164999999
 20
174.282
 30
0.0
 11
158.2560165
 21
173.302
 31
0.0
  0
LINE
  5
117
330
1E
100
AcDbEntity
  8
0
100
AcDbLine
 10
153.0240165
 20
174.884
 30
0.0
 11
155.8080164999999
 21
174.282
 31
0.0
  0
LINE
  5
118
330
1E
100
AcDbEntity
  8
0
100
AcDbLine
 10
155.9520165
 20
174.76
 30
0.0
 11
158.4960165
 21
173.7559999999999
 31
0.0
  0
LINE
  5
119
330
1E
100
AcDbEntity
  8
0
100
AcDbLine
 10
155.9650164999999
 20
224.3759999999999
 30
0.0
 11
158.4710164999999
 21
222.4709999999999
 31
0.0
  0
LINE
  5
11A
330
1E
100
AcDbEntity
  8
0
100
AcDbLine
 10
153.0710165
 20
225.5759999999999
 30
0.0
 11
155.9650164999999
 21
224.3759999999999
 31
0.0
  0
LINE
  5
11B
330
1E
100
AcDbEntity
  8
0
100
AcDbLine
 10
153.0720165
 20
175.3619999999999
 30
0.0
 11
155.9520165
 21
174.76
 31
0.0
  0
LINE
  5
11C
330
1E
100
AcDbEntity
  8
0
100
AcDbLine
 10
162.0000165
 20
4.99999999999999
 30
0.0
 11
162.0000165
 21
152.2659999999999
 31
0.0
  0
LINE
  5
11D
330
1E
100
AcDbEntity
  8
0
100
AcDbLine
 10
158.2560165
 20
156.2559999999999
 30
0.0
 11
160.1280165
 21
154.976
 31
0.0
  0
LINE
  5
11E
330
1E
100
AcDbEntity
  8
0
100
AcDbLine
 10
160.1280165
 20
154.976
 30
0.0
 11
161.2800165
 21
153.52
 31
0.0
  0
LINE
  5
11F
330
1E
100
AcDbEntity
  8
0
100
AcDbLine
 10
158.4960165
 20
156.71
 30
0.0
 11
160.4160165
 21
155.379
 31
0.0
  0
LINE
  5
120
330
1E
100
AcDbEntity
  8
0
100
AcDbLine
 10
160.1280165
 20
148.9
 30
0.0
 11
160.4160165
 21
149.153
 31
0.0
  0
LINE
  5
121
330
1E
100
AcDbEntity
  8
0
100
AcDbLine
 10
160.1280165
 20
148.9
 30
0.0
 11
161.2800165
 21
150.356
 31
0.0
  0
LINE
  5
122
330
1E
100
AcDbEntity
  8
0
100
AcDbLine
 10
158.2560165
 20
147.62
 30
0.0
 11
160.1280165
 21
148.9
 31
0.0
  0
LINE
  5
123
330
1E
100
AcDbEntity
  8
0
100
AcDbLine
 10
158.4960165
 20
173.0999999999999
 30
0.0
 11
160.4160165
 21
171.769
 31
0.0
  0
LINE
  5
124
330
1E
100
AcDbEntity
  8
0
100
AcDbLine
 10
160.0743006776409
 20
172.00588737477
 30
0.0
 11
160.1280165
 21
172.022
 31
0.0
  0
LINE
  5
125
330
1E
100
AcDbEntity
  8
0
100
AcDbLine
 10
160.4160165
 20
171.769
 30
0.0
 11
161.5680165
 21
170.263
 31
0.0
  0
LINE
  5
126
330
1E
100
AcDbEntity
  8
0
100
AcDbLine
 10
160.4160165
 20
155.379
 30
0.0
 11
161.5680165
 21
153.8729999999999
 31
0.0
  0
LINE
  5
127
330
1E
100
AcDbEntity
  8
0
100
AcDbLine
 10
160.4160165
 20
149.153
 30
0.0
 11
161.5680165
 21
150.6589999999999
 31
0.0
  0
LINE
  5
128
330
1E
100
AcDbEntity
  8
0
100
AcDbLine
 10
160.1280165
 20
172.022
 30
0.0
 11
160.221504787192
 21
171.903841192577
 31
0.0
  0
LINE
  5
129
330
1E
100
AcDbEntity
  8
0
100
AcDbLine
 10
160.1280165
 20
172.022
 30
0.0
 11
160.4160165
 21
171.769
 31
0.0
  0
LINE
  5
12A
330
1E
100
AcDbEntity
  8
0
100
AcDbLine
 10
158.2560165
 20
173.302
 30
0.0
 11
160.1280165
 21
172.022
 31
0.0
  0
LINE
  5
12B
330
1E
100
AcDbEntity
  8
0
100
AcDbLine
 10
161.2800165
 20
153.52
 30
0.0
 11
161.7120165
 21
151.9379999999999
 31
0.0
  0
LINE
  5
12C
330
1E
100
AcDbEntity
  8
0
100
AcDbLine
 10
161.5680165
 20
170.263
 30
0.0
 11
162.0000165
 21
168.6559999999999
 31
0.0
  0
LINE
  5
12D
330
1E
100
AcDbEntity
  8
0
100
AcDbLine
 10
161.5680165
 20
153.8729999999999
 30
0.0
 11
162.0000165
 21
152.2659999999999
 31
0.0
  0
LINE
  5
12E
330
1E
100
AcDbEntity
  8
0
100
AcDbLine
 10
161.2800165
 20
150.356
 30
0.0
 11
161.7120165
 21
151.9379999999999
 31
0.0
  0
LINE
  5
12F
330
1E
100
AcDbEntity
  8
0
100
AcDbLine
 10
161.5680165
 20
150.6589999999999
 30
0.0
 11
162.0000165
 21
152.2659999999999
 31
0.0
  0
LINE
  5
130
330
1E
100
AcDbEntity
  8
0
100
AcDbLine
 10
161.5680165
 20
170.919
 30
0.0
 11
162.0000165
 21
169.312
 31
0.0
  0
LINE
  5
131
330
1E
100
AcDbEntity
  8
0
100
AcDbLine
 10
160.4160165
 20
172.425
 30
0.0
 11
161.5680165
 21
170.919
 31
0.0
  0
LINE
  5
132
330
1E
100
AcDbEntity
  8
0
100
AcDbLine
 10
158.4710164999999
 20
222.4709999999999
 30
0.0
 11
160.3760164999999
 21
219.965
 31
0.0
  0
LINE
  5
133
330
1E
100
AcDbEntity
  8
0
100
AcDbLine
 10
160.3760164999999
 20
219.965
 30
0.0
 11
161.5760165
 21
217.071
 31
0.0
  0
LINE
  5
134
330
1E
100
AcDbEntity
  8
0
100
AcDbLine
 10
161.5760165
 20
217.071
 30
0.0
 11
162.0000165
 21
214.0
 31
0.0
  0
LINE
  5
135
330
1E
100
AcDbEntity
  8
0
100
AcDbLine
 10
158.4960165
 20
173.7559999999999
 30
0.0
 11
160.4160165
 21
172.425
 31
0.0
  0
LINE
  5
136
330
1E
100
AcDbEntity
  8
0
100
AcDbLine
 10
162.0000165
 20
152.2659999999999
 30
0.0
 11
162.0000165
 21
168.6559999999999
 31
0.0
  0
LINE
  5
137
330
1E
100
AcDbEntity
  8
0
100
AcDbLine
 10
162.0000165
 20
152.2659999999999
 30
0.0
 11
162.0000165
 21
4.99999999999998
 31
0.0
  0
LINE
  5
138
330
1E
100
AcDbEntity
  8
0
100
AcDbLine
 10
162.0000165
 20
168.6559999999999
 30
0.0
 11
162.0000165
 21
152.2659999999999
 31
0.0
  0
LINE
  5
139
330
1E
100
AcDbEntity
  8
0
100
AcDbLine
 10
162.0000165
 20
168.6559999999999
 30
0.0
 11
162.0000165
 21
169.312
 31
0.0
  0
LINE
  5
13A
330
1E
100
AcDbEntity
  8
0
100
AcDbLine
 10
162.0000165
 20
169.312
 30
0.0
 11
162.0000165
 21
191.0
 31
0.0
  0
LINE
  5
13B
330
1E
100
AcDbEntity
  8
0
100
AcDbLine
 10
162.0000165
 20
169.312
 30
0.0
 11
162.0000165
 21
168.6559999999999
 31
0.0
  0
LINE
  5
13C
330
1E
100
AcDbEntity
  8
0
100
AcDbLine
 10
162.0000165
 20
210.4979999999999
 30
0.0
 11
162.0000165
 21
207.837
 31
0.0
  0
LINE
  5
13D
330
1E
100
AcDbEntity
  8
0
100
AcDbLine
 10
162.0000165
 20
210.4979999999999
 30
0.0
 11
162.0000165
 21
212.433
 31
0.0
  0
LINE
  5
13E
330
1E
100
AcDbEntity
  8
0
100
AcDbLine
 10
162.0000165
 20
207.837
 30
0.0
 11
162.0000165
 21
204.494
 31
0.0
  0
LINE
  5
13F
330
1E
100
AcDbEntity
  8
0
100
AcDbLine
 10
162.0000165
 20
207.837
 30
0.0
 11
162.0000165
 21
210.4979999999999
 31
0.0
  0
LINE
  5
140
330
1E
100
AcDbEntity
  8
0
100
AcDbLine
 10
162.0000165
 20
212.433
 30
0.0
 11
162.0000165
 21
213.606
 31
0.0
  0
LINE
  5
141
330
1E
100
AcDbEntity
  8
0
100
AcDbLine
 10
162.0000165
 20
212.433
 30
0.0
 11
162.0000165
 21
210.4979999999999
 31
0.0
  0
LINE
  5
142
330
1E
100
AcDbEntity
  8
0
100
AcDbLine
 10
161.972701915304
 20
213.8021625245259
 30
0.0
 11
162.0000165
 21
214.0
 31
0.0
  0
LINE
  5
143
330
1E
100
AcDbEntity
  8
0
100
AcDbLine
 10
162.0000165
 20
214.0
 30
0.0
 11
162.0000165
 21
213.606
 31
0.0
  0
LINE
  5
144
330
1E
100
AcDbEntity
  8
0
100
AcDbLine
 10
162.0000165
 20
213.606
 30
0.0
 11
162.0000165
 21
214.0
 31
0.0
  0
LINE
  5
145
330
1E
100
AcDbEntity
  8
0
100
AcDbLine
 10
162.0000165
 20
213.606
 30
0.0
 11
162.0000165
 21
212.433
 31
0.0
  0
LINE
  5
146
330
1E
100
AcDbEntity
  8
0
100
AcDbLine
 10
162.0000165
 20
204.494
 30
0.0
 11
162.0000165
 21
200.527
 31
0.0
  0
LINE
  5
147
330
1E
100
AcDbEntity
  8
0
100
AcDbLine
 10
162.0000165
 20
204.494
 30
0.0
 11
162.0000165
 21
207.837
 31
0.0
  0
LINE
  5
148
330
1E
100
AcDbEntity
  8
0
100
AcDbLine
 10
162.0000165
 20
200.527
 30
0.0
 11
162.0000165
 21
196.0029999999999
 31
0.0
  0
LINE
  5
149
330
1E
100
AcDbEntity
  8
0
100
AcDbLine
 10
162.0000165
 20
200.527
 30
0.0
 11
162.0000165
 21
204.494
 31
0.0
  0
LINE
  5
14A
330
1E
100
AcDbEntity
  8
0
100
AcDbLine
 10
162.0000165
 20
196.0029999999999
 30
0.0
 11
162.0000165
 21
200.527
 31
0.0
  0
LINE
  5
14B
330
1E
100
AcDbEntity
  8
0
100
AcDbLine
 10
162.0000165
 20
196.0029999999999
 30
0.0
 11
162.0000165
 21
191.0
 31
0.0
  0
LINE
  5
14C
330
1E
100
AcDbEntity
  8
0
100
AcDbLine
 10
162.0000165
 20
191.0
 30
0.0
 11
162.0000165
 21
169.312
 31
0.0
  0
LINE
  5
14D
330
1E
100
AcDbEntity
  8
0
100
AcDbLine
 10
162.0000165
 20
191.0
 30
0.0
 11
162.0000165
 21
196.0029999999999
 31
0.0
  0
LINE
  5
14E
330
1E
100
AcDbEntity
  8
0
100
AcDbLine
 10
161.9118422622899
 20
168.984
 30
0.0
 11
162.0000165
 21
169.312
 31
0.0
  0
LINE
  5
14F
330
1E
100
AcDbEntity
  8
0
100
AcDbLine
 10
162.6260164999999
 20
4.99999999999999
 30
0.0
 11
167.9260165
 21
4.99999999999999
 31
0.0
  0
LINE
  5
150
330
1E
100
AcDbEntity
  8
0
100
AcDbLine
 10
156.5470165
 20
4.99999999999999
 30
0.0
 11
162.6260164999999
 21
4.99999999999999
 31
0.0
  0
LINE
  5
151
330
1E
100
AcDbEntity
  8
0
100
AcDbLine
 10
156.7810165
 20
4.71153999999999
 30
0.0
 11
163.1720165
 21
4.71153999999999
 31
0.0
  0
LINE
  5
152
330
1E
100
AcDbEntity
  8
0
100
AcDbLine
 10
150.0000165
 20
4.71153999999999
 30
0.0
 11
156.7810165
 21
4.71153999999999
 31
0.0
  0
LINE
  5
153
330
1E
100
AcDbEntity
  8
0
100
AcDbLine
 10
150.0000165
 20
-0.0000000000000058
 30
0.0
 11
156.7810165
 21
-0.0000000000000058
 31
0.0
  0
LINE
  5
154
330
1E
100
AcDbEntity
  8
0
100
AcDbLine
 10
168.7060165
 20
-0.0000000000000085
 30
0.0
 11
172.9150165
 21
-0.0000000000000082
 31
0.0
  0
LINE
  5
15D
330
1E
100
AcDbEntity
  8
0
100
AcDbLine
 10
172.9150165
 20
-0.0000000000000082
 30
0.0
 11
175.5650165
 21
-0.0000000000000078
 31
0.0
  0
LINE
  5
15E
330
1E
100
AcDbEntity
  8
0
100
AcDbLine
 10
168.7060165
 20
4.71153999999999
 30
0.0
 11
172.9150165
 21
4.71153999999999
 31
0.0
  0
LINE
  5
15F
330
1E
100
AcDbEntity
  8
0
100
AcDbLine
 10
172.9150165
 20
4.71153999999999
 30
0.0
 11
175.5650165
 21
4.71153999999999
 31
0.0
  0
LINE
  5
160
330
1E
100
AcDbEntity
  8
0
100
AcDbLine
 10
175.5650165
 20
4.71153999999999
 30
0.0
 11
176.5000165
 21
4.71153999999999
 31
0.0
  0
LINE
  5
161
330
1E
100
AcDbEntity
  8
0
100
AcDbLine
 10
168.7060165
 20
-0.0000000000000062
 30
0.0
 11
172.9150165
 21
-0.0000000000000066
 31
0.0
  0
LINE
  5
162
330
1E
100
AcDbEntity
  8
0
100
AcDbLine
 10
172.9150165
 20
-0.0000000000000066
 30
0.0
 11
175.5650165
 21
-0.000000000000007
 31
0.0
  0
LINE
  5
163
330
1E
100
AcDbEntity
  8
0
100
AcDbLine
 10
176.5000165
 20
4.71153999999999
 30
0.0
 11
176.5000165
 21
-0.0000000000000071
 31
0.0
  0
LINE
  5
164
330
1E
100
AcDbEntity
  8
0
100
AcDbLine
 10
175.5650165
 20
-0.000000000000007
 30
0.0
 11
176.5000165
 21
-0.0000000000000074
 31
0.0
  0
LINE
  5
165
330
1E
100
AcDbEntity
  8
0
100
AcDbLine
 10
167.9260165
 20
4.99999999999999
 30
0.0
 11
171.9020165
 21
4.99999999999999
 31
0.0
  0
LINE
  5
166
330
1E
100
AcDbEntity
  8
0
100
AcDbLine
 10
171.9020165
 20
4.99999999999999
 30
0.0
 11
174.3960165
 21
4.99999999999999
 31
0.0
  0
LINE
  5
167
330
1E
100
AcDbEntity
  8
0
100
AcDbLine
 10
174.3960165
 20
4.99999999999999
 30
0.0
 11
175.3310165
 21
4.99999999999999
 31
0.0
  0
LINE
  5
168
330
1E
100
AcDbEntity
  8
0
100
AcDbLine
 10
175.3310165
 20
4.99999999999999
 30
0.0
 11
176.1100165
 21
4.90384999999999
 31
0.0
  0
LINE
  5
169
330
1E
100
AcDbEntity
  8
0
100
AcDbLine
 10
176.1100165
 20
4.90384999999999
 30
0.0
 11
176.5000165
 21
4.71153999999999
 31
0.0
  0
LINE
  5
1D0
330
1E
100
AcDbEntity
  8
0
100
AcDbLine
 10
176.5000165
 20
-0.0000000000000074
 30
0.0
 11
176.5000165
 21
4.71153999999999
 31
0.0
  0
LINE
  5
1D1
330
1E
100
AcDbEntity
  8
0
100
AcDbLine
 10
175.5650165
 20
-0.0000000000000078
 30
0.0
 11
176.5000165
 21
-0.0000000000000074
 31
0.0
  0
LINE
  5
1D2
330
1E
100
AcDbEntity
  8
0
100
AcDbLine
 10
163.1720165
 20
-0.0000000000000088
 30
0.0
 11
168.7060165
 21
-0.0000000000000085
 31
0.0
  0
LINE
  5
1D3
330
1E
100
AcDbEntity
  8
0
100
AcDbLine
 10
143.2190165
 20
-0.0000000000000089
 30
0.0
 11
150.0000165
 21
-0.000000000000009
 31
0.0
  0
LINE
  5
1D4
330
1E
100
AcDbEntity
  8
0
100
AcDbLine
 10
138.0000165
 20
4.99999999999999
 30
0.0
 11
138.0000165
 21
168.0
 31
0.0
  0
LINE
  5
1D9
330
1E
100
AcDbEntity
  8
0
100
AcDbLine
 10
299.9559765
 20
69.6397
 30
0.0
 11
263.9672421409566
 21
51.4227075979936
 31
0.0
  0
LINE
  5
1DA
330
1E
100
AcDbEntity
  8
0
100
AcDbLine
 10
296.7946135
 20
75.88519999999999
 30
0.0
 11
255.5346452906856
 21
55.0
 31
0.0
  0
LINE
  5
1DB
330
1E
100
AcDbEntity
  8
0
100
AcDbLine
 10
296.7946135
 20
75.88519999999999
 30
0.0
 11
255.5346452906856
 21
55.0
 31
0.0
  0
LINE
  5
1DC
330
1E
100
AcDbEntity
  8
0
100
AcDbLine
 10
299.9559765
 20
69.6397
 30
0.0
 11
263.9672421409566
 21
51.4227075979936
 31
0.0
  0
LINE
  5
1DD
330
1E
100
AcDbEntity
  8
0
100
AcDbLine
 10
274.3955834999999
 20
4.99999999999999
 30
0.0
 11
256.5470834999999
 21
4.99999999999999
 31
0.0
  0
LINE
  5
1DE
330
1E
100
AcDbEntity
  8
0
100
AcDbLine
 10
268.7058835
 20
4.71153999999999
 30
0.0
 11
263.1720834999999
 21
4.71153999999999
 31
0.0
  0
LINE
  5
1DF
330
1E
100
AcDbEntity
  8
0
100
AcDbLine
 10
268.7058835
 20
-0.0000000000000062
 30
0.0
 11
263.1720834999999
 21
-0.000000000000006
 31
0.0
  0
LINE
  5
1E0
330
1E
100
AcDbEntity
  8
0
100
AcDbLine
 10
268.7058835
 20
-0.0000000000000085
 30
0.0
 11
263.1720834999999
 21
-0.0000000000000088
 31
0.0
  0
LINE
  5
1E1
330
1E
100
AcDbEntity
  8
0
100
AcDbLine
 10
275.5646834999999
 20
4.71153999999999
 30
0.0
 11
272.9146835
 21
4.71153999999999
 31
0.0
  0
LINE
  5
1E2
330
1E
100
AcDbEntity
  8
0
100
AcDbLine
 10
275.5646834999999
 20
-0.0000000000000078
 30
0.0
 11
272.9146835
 21
-0.0000000000000082
 31
0.0
  0
LINE
  5
1E3
330
1E
100
AcDbEntity
  8
0
100
AcDbLine
 10
275.5646834999999
 20
-0.000000000000007
 30
0.0
 11
272.9146835
 21
-0.0000000000000066
 31
0.0
  0
LINE
  5
1E4
330
1E
100
AcDbEntity
  8
0
100
AcDbLine
 10
276.4999834999999
 20
-0.0000000000000074
 30
0.0
 11
276.4999834999999
 21
4.71153999999999
 31
0.0
  0
LINE
  5
1E5
330
1E
100
AcDbEntity
  8
0
100
AcDbLine
 10
276.4999834999999
 20
4.71153999999999
 30
0.0
 11
276.4999834999999
 21
-0.0000000000000071
 31
0.0
  0
LINE
  5
1E6
330
1E
100
AcDbEntity
  8
0
100
AcDbLine
 10
276.4999834999999
 20
-0.0000000000000074
 30
0.0
 11
275.5646834999999
 21
-0.000000000000007
 31
0.0
  0
LINE
  5
1E7
330
1E
100
AcDbEntity
  8
0
100
AcDbLine
 10
276.4999834999999
 20
-0.0000000000000074
 30
0.0
 11
275.5646834999999
 21
-0.0000000000000078
 31
0.0
  0
LINE
  5
1E8
330
1E
100
AcDbEntity
  8
0
100
AcDbLine
 10
276.1102834999999
 20
4.90384999999999
 30
0.0
 11
275.3308835
 21
4.99999999999999
 31
0.0
  0
LINE
  5
1E9
330
1E
100
AcDbEntity
  8
0
100
AcDbLine
 10
276.4999834999999
 20
4.71153999999999
 30
0.0
 11
276.1102834999999
 21
4.90384999999999
 31
0.0
  0
LINE
  5
1EA
330
1E
100
AcDbEntity
  8
0
100
AcDbLine
 10
276.4999834999999
 20
4.71153999999999
 30
0.0
 11
275.5646834999999
 21
4.71153999999999
 31
0.0
  0
LINE
  5
1EB
330
1E
100
AcDbEntity
  8
0
100
AcDbLine
 10
275.3308835
 20
4.99999999999999
 30
0.0
 11
274.3955834999999
 21
4.99999999999999
 31
0.0
  0
LINE
  5
1EC
330
1E
100
AcDbEntity
  8
0
100
AcDbLine
 10
271.9014834999999
 20
4.99999999999999
 30
0.0
 11
267.9264835
 21
4.99999999999999
 31
0.0
  0
LINE
  5
1ED
330
1E
100
AcDbEntity
  8
0
100
AcDbLine
 10
272.9146835
 20
4.71153999999999
 30
0.0
 11
268.7058835
 21
4.71153999999999
 31
0.0
  0
LINE
  5
1EE
330
1E
100
AcDbEntity
  8
0
100
AcDbLine
 10
272.9146835
 20
-0.0000000000000066
 30
0.0
 11
268.7058835
 21
-0.0000000000000062
 31
0.0
  0
LINE
  5
1EF
330
1E
100
AcDbEntity
  8
0
100
AcDbLine
 10
272.9146835
 20
-0.0000000000000082
 30
0.0
 11
268.7058835
 21
-0.0000000000000085
 31
0.0
  0
LINE
  5
1F0
330
1E
100
AcDbEntity
  8
0
100
AcDbLine
 10
298.0857035
 20
73.58499999999999
 30
0.0
 11
297.7230735
 21
74.3014
 31
0.0
  0
LINE
  5
1F1
330
1E
100
AcDbEntity
  8
0
100
AcDbLine
 10
298.0427635
 20
73.5864
 30
0.0
 11
297.6661835
 21
74.33029999999999
 31
0.0
  0
LINE
  5
1F2
330
1E
100
AcDbEntity
  8
0
100
AcDbLine
 10
298.4425835
 20
72.7965
 30
0.0
 11
298.0427635
 21
73.5864
 31
0.0
  0
LINE
  5
1F3
330
1E
100
AcDbEntity
  8
0
100
AcDbLine
 10
298.4762235
 20
72.8135
 30
0.0
 11
298.0857035
 21
73.58499999999999
 31
0.0
  0
LINE
  5
1F4
330
1E
100
AcDbEntity
  8
0
100
AcDbLine
 10
299.7908085
 20
70.133
 30
0.0
 11
299.5444105
 21
70.6198
 31
0.0
  0
LINE
  5
1F5
330
1E
100
AcDbEntity
  8
0
100
AcDbLine
 10
299.7826095
 20
70.2327
 30
0.0
 11
299.5455095
 21
70.70109999999999
 31
0.0
  0
LINE
  5
1F6
330
1E
100
AcDbEntity
  8
0
100
AcDbLine
 10
299.9559765
 20
69.6397
 30
0.0
 11
299.9001875
 21
69.7499
 31
0.0
  0
LINE
  5
1F7
330
1E
100
AcDbEntity
  8
0
100
AcDbLine
 10
299.9442275
 20
69.8299
 30
0.0
 11
299.7908085
 21
70.133
 31
0.0
  0
LINE
  5
1F8
330
1E
100
AcDbEntity
  8
0
100
AcDbLine
 10
299.9313794999999
 20
69.9388
 30
0.0
 11
299.7826095
 21
70.2327
 31
0.0
  0
LINE
  5
1F9
330
1E
100
AcDbEntity
  8
0
100
AcDbLine
 10
299.9442275
 20
69.8299
 30
0.0
 11
299.7908085
 21
70.133
 31
0.0
  0
LINE
  5
1FA
330
1E
100
AcDbEntity
  8
0
100
AcDbLine
 10
300.0000165
 20
69.7197
 30
0.0
 11
299.9871685
 21
69.82859999999999
 31
0.0
  0
LINE
  5
1FB
330
1E
100
AcDbEntity
  8
0
100
AcDbLine
 10
300.0000165
 20
69.7197
 30
0.0
 11
299.9442275
 21
69.8299
 31
0.0
  0
LINE
  5
1FC
330
1E
100
AcDbEntity
  8
0
100
AcDbLine
 10
300.0000165
 20
69.7197
 30
0.0
 11
299.9559765
 21
69.6397
 31
0.0
  0
LINE
  5
1FD
330
1E
100
AcDbEntity
  8
0
100
AcDbLine
 10
300.0000165
 20
69.7197
 30
0.0
 11
299.9442275
 21
69.8299
 31
0.0
  0
LINE
  5
1FE
330
1E
100
AcDbEntity
  8
0
100
AcDbLine
 10
300.0000165
 20
69.7197
 30
0.0
 11
299.9559765
 21
69.6397
 31
0.0
  0
LINE
  5
1FF
330
1E
100
AcDbEntity
  8
0
100
AcDbLine
 10
300.0000165
 20
69.7197
 30
0.0
 11
299.9871685
 21
69.82859999999999
 31
0.0
  0
LINE
  5
200
330
1E
100
AcDbEntity
  8
0
100
AcDbLine
 10
298.8667435
 20
72.042
 30
0.0
 11
298.4762235
 21
72.8135
 31
0.0
  0
LINE
  5
201
330
1E
100
AcDbEntity
  8
0
100
AcDbLine
 10
298.8423935
 20
72.00669999999999
 30
0.0
 11
298.4425835
 21
72.7965
 31
0.0
  0
LINE
  5
202
330
1E
100
AcDbEntity
  8
0
100
AcDbLine
 10
299.2189755
 20
71.26269999999999
 30
0.0
 11
298.8423935
 21
72.00669999999999
 31
0.0
  0
LINE
  5
203
330
1E
100
AcDbEntity
  8
0
100
AcDbLine
 10
299.5455095
 20
70.70109999999999
 30
0.0
 11
299.2293725
 21
71.3257
 31
0.0
  0
LINE
  5
204
330
1E
100
AcDbEntity
  8
0
100
AcDbLine
 10
299.5444105
 20
70.6198
 30
0.0
 11
299.2189755
 21
71.26269999999999
 31
0.0
  0
LINE
  5
205
330
1E
100
AcDbEntity
  8
0
100
AcDbLine
 10
297.6661835
 20
74.33029999999999
 30
0.0
 11
297.3407535
 21
74.97320000000001
 31
0.0
  0
LINE
  5
206
330
1E
100
AcDbEntity
  8
0
100
AcDbLine
 10
296.8851435
 20
75.8733
 30
0.0
 11
296.7946135
 21
75.88519999999999
 31
0.0
  0
LINE
  5
207
330
1E
100
AcDbEntity
  8
0
100
AcDbLine
 10
297.0210635
 20
75.6883
 30
0.0
 11
296.9652735
 21
75.7985
 31
0.0
  0
LINE
  5
208
330
1E
100
AcDbEntity
  8
0
100
AcDbLine
 10
296.9652735
 20
75.7985
 30
0.0
 11
296.8851435
 21
75.8733
 31
0.0
  0
LINE
  5
209
330
1E
100
AcDbEntity
  8
0
100
AcDbLine
 10
296.9409335
 20
75.76309999999999
 30
0.0
 11
296.8851435
 21
75.8733
 31
0.0
  0
LINE
  5
20A
330
1E
100
AcDbEntity
  8
0
100
AcDbLine
 10
296.8504035
 20
75.775
 30
0.0
 11
296.7946135
 21
75.88519999999999
 31
0.0
  0
LINE
  5
20B
330
1E
100
AcDbEntity
  8
0
100
AcDbLine
 10
297.1698335
 20
75.3944
 30
0.0
 11
297.0210635
 21
75.6883
 31
0.0
  0
LINE
  5
20C
330
1E
100
AcDbEntity
  8
0
100
AcDbLine
 10
297.0943534999999
 20
75.45999999999999
 30
0.0
 11
296.9409335
 21
75.76309999999999
 31
0.0
  0
LINE
  5
20D
330
1E
100
AcDbEntity
  8
0
100
AcDbLine
 10
297.4069435
 20
74.926
 30
0.0
 11
297.1698335
 21
75.3944
 31
0.0
  0
LINE
  5
20E
330
1E
100
AcDbEntity
  8
0
100
AcDbLine
 10
297.3407535
 20
74.97320000000001
 30
0.0
 11
297.0943534999999
 21
75.45999999999999
 31
0.0
  0
LINE
  5
20F
330
1E
100
AcDbEntity
  8
0
100
AcDbLine
 10
235.9999834999999
 20
54.7172
 30
0.0
 11
235.9999834999999
 21
5.0
 31
0.0
  0
LINE
  5
210
330
1E
100
AcDbEntity
  8
0
100
AcDbLine
 10
235.9999834999999
 20
4.99999999999999
 30
0.0
 11
235.9999834999999
 21
54.7172
 31
0.0
  0
LINE
  5
211
330
1E
100
AcDbEntity
  8
0
100
AcDbLine
 10
263.9999834999999
 20
51.4681182375811
 30
0.0
 11
263.9999834999999
 21
5.0
 31
0.0
  0
LINE
  5
212
330
1E
100
AcDbEntity
  8
0
100
AcDbLine
 10
263.9999834999999
 20
4.99999999999999
 30
0.0
 11
263.9999834999999
 21
51.4681182375811
 31
0.0
  0
LINE
  5
213
330
1E
100
AcDbEntity
  8
0
100
AcDbLine
 10
243.4528835
 20
4.99999999999999
 30
0.0
 11
237.3734835
 21
4.99999999999999
 31
0.0
  0
LINE
  5
214
330
1E
100
AcDbEntity
  8
0
100
AcDbLine
 10
243.2190835
 20
4.71153999999999
 30
0.0
 11
236.8278834999999
 21
4.71153999999999
 31
0.0
  0
LINE
  5
215
330
1E
100
AcDbEntity
  8
0
100
AcDbLine
 10
243.2190835
 20
-0.0000000000000058
 30
0.0
 11
236.8278834999999
 21
-0.000000000000006
 31
0.0
  0
LINE
  5
216
330
1E
100
AcDbEntity
  8
0
100
AcDbLine
 10
243.2190835
 20
-0.0000000000000089
 30
0.0
 11
236.8278834999999
 21
-0.0000000000000088
 31
0.0
  0
LINE
  5
217
330
1E
100
AcDbEntity
  8
0
100
AcDbLine
 10
256.5470834999999
 20
4.99999999999999
 30
0.0
 11
249.9999835
 21
4.99999999999999
 31
0.0
  0
LINE
  5
218
330
1E
100
AcDbEntity
  8
0
100
AcDbLine
 10
256.7808835
 20
4.71153999999999
 30
0.0
 11
249.9999835
 21
4.71153999999999
 31
0.0
  0
LINE
  5
219
330
1E
100
AcDbEntity
  8
0
100
AcDbLine
 10
256.7808835
 20
-0.0000000000000058
 30
0.0
 11
249.9999835
 21
-0.0000000000000058
 31
0.0
  0
LINE
  5
21A
330
1E
100
AcDbEntity
  8
0
100
AcDbLine
 10
256.7808835
 20
-0.0000000000000089
 30
0.0
 11
249.9999835
 21
-0.000000000000009
 31
0.0
  0
LINE
  5
21B
330
1E
100
AcDbEntity
  8
0
100
AcDbLine
 10
263.1720834999999
 20
4.71153999999999
 30
0.0
 11
256.7808835
 21
4.71153999999999
 31
0.0
  0
LINE
  5
21C
330
1E
100
AcDbEntity
  8
0
100
AcDbLine
 10
263.1720834999999
 20
-0.000000000000006
 30
0.0
 11
256.7808835
 21
-0.0000000000000058
 31
0.0
  0
LINE
  5
21D
330
1E
100
AcDbEntity
  8
0
100
AcDbLine
 10
263.1720834999999
 20
-0.0000000000000088
 30
0.0
 11
256.7808835
 21
-0.0000000000000089
 31
0.0
  0
LINE
  5
21E
330
1E
100
AcDbEntity
  8
0
100
AcDbLine
 10
249.9999835
 20
4.99999999999999
 30
0.0
 11
243.4528835
 21
4.99999999999999
 31
0.0
  0
LINE
  5
21F
330
1E
100
AcDbEntity
  8
0
100
AcDbLine
 10
249.9999835
 20
4.71153999999999
 30
0.0
 11
243.2190835
 21
4.71153999999999
 31
0.0
  0
LINE
  5
220
330
1E
100
AcDbEntity
  8
0
100
AcDbLine
 10
249.9999835
 20
-0.0000000000000058
 30
0.0
 11
243.2190835
 21
-0.0000000000000058
 31
0.0
  0
LINE
  5
221
330
1E
100
AcDbEntity
  8
0
100
AcDbLine
 10
249.9999835
 20
-0.000000000000009
 30
0.0
 11
243.2190835
 21
-0.0000000000000089
 31
0.0
  0
LINE
  5
222
330
1E
100
AcDbEntity
  8
0
100
AcDbLine
 10
225.6043834999999
 20
4.99999999999999
 30
0.0
 11
224.6690834999999
 21
4.99999999999999
 31
0.0
  0
LINE
  5
223
330
1E
100
AcDbEntity
  8
0
100
AcDbLine
 10
227.0852834999999
 20
4.71153999999999
 30
0.0
 11
224.4352834999999
 21
4.71153999999999
 31
0.0
  0
LINE
  5
224
330
1E
100
AcDbEntity
  8
0
100
AcDbLine
 10
227.0852834999999
 20
-0.0000000000000066
 30
0.0
 11
224.4352834999999
 21
-0.000000000000007
 31
0.0
  0
LINE
  5
225
330
1E
100
AcDbEntity
  8
0
100
AcDbLine
 10
227.0852834999999
 20
-0.0000000000000082
 30
0.0
 11
224.4352834999999
 21
-0.0000000000000078
 31
0.0
  0
LINE
  5
226
330
1E
100
AcDbEntity
  8
0
100
AcDbLine
 10
237.3734835
 20
4.99999999999999
 30
0.0
 11
232.0734835
 21
4.99999999999999
 31
0.0
  0
LINE
  5
227
330
1E
100
AcDbEntity
  8
0
100
AcDbLine
 10
236.8278834999999
 20
4.71153999999999
 30
0.0
 11
231.2940835
 21
4.71153999999999
 31
0.0
  0
LINE
  5
228
330
1E
100
AcDbEntity
  8
0
100
AcDbLine
 10
236.8278834999999
 20
-0.000000000000006
 30
0.0
 11
231.2940835
 21
-0.0000000000000062
 31
0.0
  0
LINE
  5
229
330
1E
100
AcDbEntity
  8
0
100
AcDbLine
 10
236.8278834999999
 20
-0.0000000000000088
 30
0.0
 11
231.2940835
 21
-0.0000000000000085
 31
0.0
  0
LINE
  5
22A
330
1E
100
AcDbEntity
  8
0
100
AcDbLine
 10
231.2940835
 20
4.71153999999999
 30
0.0
 11
227.0852834999999
 21
4.71153999999999
 31
0.0
  0
LINE
  5
22B
330
1E
100
AcDbEntity
  8
0
100
AcDbLine
 10
231.2940835
 20
-0.0000000000000062
 30
0.0
 11
227.0852834999999
 21
-0.0000000000000066
 31
0.0
  0
LINE
  5
22C
330
1E
100
AcDbEntity
  8
0
100
AcDbLine
 10
231.2940835
 20
-0.0000000000000085
 30
0.0
 11
227.0852834999999
 21
-0.0000000000000082
 31
0.0
  0
LINE
  5
22D
330
1E
100
AcDbEntity
  8
0
100
AcDbLine
 10
232.0734835
 20
4.99999999999999
 30
0.0
 11
228.0984834999999
 21
4.99999999999999
 31
0.0
  0
LINE
  5
22E
330
1E
100
AcDbEntity
  8
0
100
AcDbLine
 10
228.0984834999999
 20
4.99999999999999
 30
0.0
 11
225.6043834999999
 21
4.99999999999999
 31
0.0
  0
LINE
  5
22F
330
1E
100
AcDbEntity
  8
0
100
AcDbLine
 10
223.4999834999999
 20
4.71153999999999
 30
0.0
 11
223.4999834999999
 21
-0.0000000000000071
 31
0.0
  0
LINE
  5
230
330
1E
100
AcDbEntity
  8
0
100
AcDbLine
 10
223.4999834999999
 20
-0.0000000000000074
 30
0.0
 11
223.4999834999999
 21
4.71153999999999
 31
0.0
  0
LINE
  5
231
330
1E
100
AcDbEntity
  8
0
100
AcDbLine
 10
224.4352834999999
 20
-0.000000000000007
 30
0.0
 11
223.4999834999999
 21
-0.0000000000000074
 31
0.0
  0
LINE
  5
232
330
1E
100
AcDbEntity
  8
0
100
AcDbLine
 10
224.4352834999999
 20
-0.0000000000000078
 30
0.0
 11
223.4999834999999
 21
-0.0000000000000074
 31
0.0
  0
LINE
  5
233
330
1E
100
AcDbEntity
  8
0
100
AcDbLine
 10
223.8896834999999
 20
4.90384999999999
 30
0.0
 11
223.4999834999999
 21
4.71153999999999
 31
0.0
  0
LINE
  5
234
330
1E
100
AcDbEntity
  8
0
100
AcDbLine
 10
224.4352834999999
 20
4.71153999999999
 30
0.0
 11
223.4999834999999
 21
4.71153999999999
 31
0.0
  0
LINE
  5
235
330
1E
100
AcDbEntity
  8
0
100
AcDbLine
 10
224.6690834999999
 20
4.99999999999999
 30
0.0
 11
223.8896834999999
 21
4.90384999999999
 31
0.0
  0
LINE
  5
236
330
1E
100
AcDbEntity
  8
0
100
AcDbLine
 10
243.3293835
 20
55.0
 30
0.0
 11
237.1117835
 21
55.0
 31
0.0
  0
LINE
  5
237
330
1E
100
AcDbEntity
  8
0
100
AcDbLine
 10
255.5346452906856
 20
55.0
 30
0.0
 11
249.9999835
 21
55.0
 31
0.0
  0
LINE
  5
238
330
1E
100
AcDbEntity
  8
0
100
AcDbLine
 10
246.5411834999999
 20
55.0
 30
0.0
 11
243.3293835
 21
55.0
 31
0.0
  0
LINE
  5
239
330
1E
100
AcDbEntity
  8
0
100
AcDbLine
 10
249.9999835
 20
55.0
 30
0.0
 11
246.5411834999999
 21
55.0
 31
0.0
  0
LINE
  5
23A
330
1E
100
AcDbEntity
  8
0
100
AcDbLine
 10
236.2058835
 20
54.9057
 30
0.0
 11
235.9999834999999
 21
54.7172
 31
0.0
  0
LINE
  5
23B
330
1E
100
AcDbEntity
  8
0
100
AcDbLine
 10
236.6175834999999
 20
55.0
 30
0.0
 11
236.2058835
 21
54.9057
 31
0.0
  0
LINE
  5
23C
330
1E
100
AcDbEntity
  8
0
100
AcDbLine
 10
237.1117835
 20
55.0
 30
0.0
 11
236.6175834999999
 21
55.0
 31
0.0
  0
ENDSEC
  0
SECTION
  2
OBJECTS
  0
DICTIONARY
  5
C
330
0
100
AcDbDictionary
  3
ACAD_GROUP
350
D
  3
ACAD_LAYOUT
350
19
  3
ACAD_MLINESTYLE
350
16
  3
ACAD_PLOTSETTINGS
350
18
  3
ACAD_PLOTSTYLENAME
350
E
  3
ACDBHEADERROUNDTRIPXREC
350
241
  3
ACDBVARIABLEDICTIONARY
350
23E
  0
DICTIONARY
  5
263
330
1E
100
AcDbDictionary
280
     1
  3
ACAD_LAYOUTSELFREF
360
264
  0
DICTIONARY
  5
261
330
1A
100
AcDbDictionary
280
     1
  3
ACAD_LAYOUTSELFREF
360
262
  0
DICTIONARY
  5
D
102
{ACAD_REACTORS
330
C
102
}
330
C
100
AcDbDictionary
  0
DICTIONARY
  5
19
102
{ACAD_REACTORS
330
C
102
}
330
C
100
AcDbDictionary
  0
DICTIONARY
  5
16
102
{ACAD_REACTORS
330
C
102
}
330
C
100
AcDbDictionary
  3
STANDARD
350
17
  0
DICTIONARY
  5
18
102
{ACAD_REACTORS
330
C
102
}
330
C
100
AcDbDictionary
  0
ACDBDICTIONARYWDFLT
  5
E
102
{ACAD_REACTORS
330
C
102
}
330
C
100
AcDbDictionary
281
     1
  3
Normal
350
F
100
AcDbDictionaryWithDefault
340
F
  0
DICTIONARY
  5
241
102
{ACAD_REACTORS
330
C
102
}
330
C
100
AcDbDictionary
  3
CEPSNTYPE
350
24B
  3
FINGERPRINTGUID
350
24C
  3
HYPERLINKBASE
350
244
  3
INSUNITS
350
24A
  3
LAYOUTDICT
350
246
  3
LWETCUNION
350
249
  3
PLOTSETDICT
350
247
  3
PLOTSTYLNAMDICT
350
248
  3
PSVPSCALE
350
24E
  3
PUCSBASE
350
251
  3
PUCSORGBACK
350
257
  3
PUCSORGBOTTOM
350
253
  3
PUCSORGFRONT
350
256
  3
PUCSORGLEFT
350
254
  3
PUCSORGRIGHT
350
255
  3
PUCSORGTOP
350
252
  3
PUCSORTHOREF
350
24F
  3
PUCSORTHOVIEW
350
250
  3
STYLESHEET
350
245
  3
TSTACKALIGN
350
242
  3
TSTACKSIZE
350
243
  3
UCSBASE
350
25A
  3
UCSORGBACK
350
260
  3
UCSORGBOTTOM
350
25C
  3
UCSORGFRONT
350
25F
  3
UCSORGLEFT
350
25D
  3
UCSORGRIGHT
350
25E
  3
UCSORGTOP
350
25B
  3
UCSORTHOREF
350
258
  3
UCSORTHOVIEW
350
259
  3
VERSIONGUID
350
24D
  0
DICTIONARY
  5
23E
102
{ACAD_REACTORS
330
C
102
}
330
C
100
AcDbDictionary
  3
DIMASSOC
350
23F
  0
XRECORD
  5
264
102
{ACAD_REACTORS
330
263
102
}
330
263
100
AcDbXrecord
340
1E
  0
XRECORD
  5
262
102
{ACAD_REACTORS
330
261
102
}
330
261
100
AcDbXrecord
340
1A
  0
MLINESTYLE
  5
17
102
{ACAD_REACTORS
330
16
102
}
330
16
100
AcDbMlineStyle
  2
STANDARD
 70
     0
  3

 62
   256
 51
90.0
 52
90.0
 71
     2
 49
0.5
 62
   256
  6
BYLAYER
 49
-0.5
 62
   256
  6
BYLAYER
  0
ACDBPLACEHOLDER
  5
F
102
{ACAD_REACTORS
330
E
102
}
330
E
100
AcDbPlaceHolder
280
     0
  0
XRECORD
  5
24B
102
{ACAD_REACTORS
330
241
102
}
330
241
100
AcDbXrecord
 90
        0
  0
XRECORD
  5
24C
102
{ACAD_REACTORS
330
241
102
}
330
241
100
AcDbXrecord
  1
{3C0DBC72-59F9-44CD-B31B-F2D970289A1D}
  0
XRECORD
  5
244
102
{ACAD_REACTORS
330
241
102
}
330
241
100
AcDbXrecord
  1

  0
XRECORD
  5
24A
102
{ACAD_REACTORS
330
241
102
}
330
241
100
AcDbXrecord
 90
        0
  0
XRECORD
  5
246
102
{ACAD_REACTORS
330
241
102
}
330
241
100
AcDbXrecord
340
19
  0
XRECORD
  5
249
102
{ACAD_REACTORS
330
241
102
}
330
241
100
AcDbXrecord
 90
    10781
  0
XRECORD
  5
247
102
{ACAD_REACTORS
330
241
102
}
330
241
100
AcDbXrecord
340
18
  0
XRECORD
  5
248
102
{ACAD_REACTORS
330
241
102
}
330
241
100
AcDbXrecord
340
E
  0
XRECORD
  5
24E
102
{ACAD_REACTORS
330
241
102
}
330
241
100
AcDbXrecord
 40
0.0
  0
XRECORD
  5
251
102
{ACAD_REACTORS
330
241
102
}
330
241
100
AcDbXrecord
340
0
  0
XRECORD
  5
257
102
{ACAD_REACTORS
330
241
102
}
330
241
100
AcDbXrecord
 10
0.0
 20
0.0
 30
0.0
  0
XRECORD
  5
253
102
{ACAD_REACTORS
330
241
102
}
330
241
100
AcDbXrecord
 10
0.0
 20
0.0
 30
0.0
  0
XRECORD
  5
256
102
{ACAD_REACTORS
330
241
102
}
330
241
100
AcDbXrecord
 10
0.0
 20
0.0
 30
0.0
  0
XRECORD
  5
254
102
{ACAD_REACTORS
330
241
102
}
330
241
100
AcDbXrecord
 10
0.0
 20
0.0
 30
0.0
  0
XRECORD
  5
255
102
{ACAD_REACTORS
330
241
102
}
330
241
100
AcDbXrecord
 10
0.0
 20
0.0
 30
0.0
  0
XRECORD
  5
252
102
{ACAD_REACTORS
330
241
102
}
330
241
100
AcDbXrecord
 10
0.0
 20
0.0
 30
0.0
  0
XRECORD
  5
24F
102
{ACAD_REACTORS
330
241
102
}
330
241
100
AcDbXrecord
340
0
  0
XRECORD
  5
250
102
{ACAD_REACTORS
330
241
102
}
330
241
100
AcDbXrecord
 70
     0
  0
XRECORD
  5
245
102
{ACAD_REACTORS
330
241
102
}
330
241
100
AcDbXrecord
  1

  0
XRECORD
  5
242
102
{ACAD_REACTORS
330
241
102
}
330
241
100
AcDbXrecord
 90
        1
  0
XRECORD
  5
243
102
{ACAD_REACTORS
330
241
102
}
330
241
100
AcDbXrecord
 90
       70
  0
XRECORD
  5
25A
102
{ACAD_REACTORS
330
241
102
}
330
241
100
AcDbXrecord
340
0
  0
XRECORD
  5
260
102
{ACAD_REACTORS
330
241
102
}
330
241
100
AcDbXrecord
 10
0.0
 20
0.0
 30
0.0
  0
XRECORD
  5
25C
102
{ACAD_REACTORS
330
241
102
}
330
241
100
AcDbXrecord
 10
0.0
 20
0.0
 30
0.0
  0
XRECORD
  5
25F
102
{ACAD_REACTORS
330
241
102
}
330
241
100
AcDbXrecord
 10
0.0
 20
0.0
 30
0.0
  0
XRECORD
  5
25D
102
{ACAD_REACTORS
330
241
102
}
330
241
100
AcDbXrecord
 10
0.0
 20
0.0
 30
0.0
  0
XRECORD
  5
25E
102
{ACAD_REACTORS
330
241
102
}
330
241
100
AcDbXrecord
 10
0.0
 20
0.0
 30
0.0
  0
XRECORD
  5
25B
102
{ACAD_REACTORS
330
241
102
}
330
241
100
AcDbXrecord
 10
0.0
 20
0.0
 30
0.0
  0
XRECORD
  5
258
102
{ACAD_REACTORS
330
241
102
}
330
241
100
AcDbXrecord
340
0
  0
XRECORD
  5
259
102
{ACAD_REACTORS
330
241
102
}
330
241
100
AcDbXrecord
 70
     1
  0
XRECORD
  5
24D
102
{ACAD_REACTORS
330
241
102
}
330
241
100
AcDbXrecord
  1
{9A5EFCE3-C43D-4B02-84E0-E1FE5BCDE534}
  0
DICTIONARYVAR
  5
23F
102
{ACAD_REACTORS
330
23E
102
}
330
23E
100
DictionaryVariables
280
     0
  1
1
  0
ENDSEC
  0
EOF
