  0
SECTION
  2
HEADER
  9
$ACADVER
  1
AC1014
  9
$ACADMAINTVER
 70
     9
  9
$DWGCODEPAGE
  3
ANSI_1252
  9
$INSBASE
 10
0.0
 20
0.0
 30
0.0
  9
$EXTMIN
 10
0.0000000000000033
 20
-0.0000179999999944
 30
0.0
  9
$EXTMAX
 10
179.0
 20
97.00001800000002
 30
0.0
  9
$LIMMIN
 10
0.0
 20
0.0
  9
$LIMMAX
 10
12.0
 20
9.0
  9
$ORTHOMODE
 70
     0
  9
$REGENMODE
 70
     1
  9
$FILLMODE
 70
     1
  9
$QTEXTMODE
 70
     0
  9
$MIRRTEXT
 70
     1
  9
$DRAGMODE
 70
     2
  9
$LTSCALE
 40
1.0
  9
$OSMODE
 70
    37
  9
$ATTMODE
 70
     1
  9
$TEXTSIZE
 40
0.2
  9
$TRACEWID
 40
0.05
  9
$TEXTSTYLE
  7
STANDARD
  9
$CLAYER
  8
0
  9
$CELTYPE
  6
CONTINUOUS
  9
$CECOLOR
 62
   256
  9
$CELTSCALE
 40
1.0
  9
$DELOBJ
 70
     1
  9
$DISPSILH
 70
     0
  9
$DIMSCALE
 40
1.0
  9
$DIMASZ
 40
0.18
  9
$DIMEXO
 40
0.0625
  9
$DIMDLI
 40
0.38
  9
$DIMRND
 40
0.0
  9
$DIMDLE
 40
0.0
  9
$DIMEXE
 40
0.18
  9
$DIMTP
 40
0.0
  9
$DIMTM
 40
0.0
  9
$DIMTXT
 40
0.18
  9
$DIMCEN
 40
0.09
  9
$DIMTSZ
 40
0.0
  9
$DIMTOL
 70
     0
  9
$DIMLIM
 70
     0
  9
$DIMTIH
 70
     1
  9
$DIMTOH
 70
     1
  9
$DIMSE1
 70
     0
  9
$DIMSE2
 70
     0
  9
$DIMTAD
 70
     0
  9
$DIMZIN
 70
     0
  9
$DIMBLK
  1

  9
$DIMASO
 70
     1
  9
$DIMSHO
 70
     1
  9
$DIMPOST
  1

  9
$DIMAPOST
  1

  9
$DIMALT
 70
     0
  9
$DIMALTD
 70
     2
  9
$DIMALTF
 40
25.4
  9
$DIMLFAC
 40
1.0
  9
$DIMTOFL
 70
     0
  9
$DIMTVP
 40
0.0
  9
$DIMTIX
 70
     0
  9
$DIMSOXD
 70
     0
  9
$DIMSAH
 70
     0
  9
$DIMBLK1
  1

  9
$DIMBLK2
  1

  9
$DIMSTYLE
  2
STANDARD
  9
$DIMCLRD
 70
     0
  9
$DIMCLRE
 70
     0
  9
$DIMCLRT
 70
     0
  9
$DIMTFAC
 40
1.0
  9
$DIMGAP
 40
0.09
  9
$DIMJUST
 70
     0
  9
$DIMSD1
 70
     0
  9
$DIMSD2
 70
     0
  9
$DIMTOLJ
 70
     1
  9
$DIMTZIN
 70
     0
  9
$DIMALTZ
 70
     0
  9
$DIMALTTZ
 70
     0
  9
$DIMFIT
 70
     3
  9
$DIMUPT
 70
     0
  9
$DIMUNIT
 70
     2
  9
$DIMDEC
 70
     4
  9
$DIMTDEC
 70
     4
  9
$DIMALTU
 70
     2
  9
$DIMALTTD
 70
     2
  9
$DIMTXSTY
  7
STANDARD
  9
$DIMAUNIT
 70
     0
  9
$LUNITS
 70
     2
  9
$LUPREC
 70
     4
  9
$SKETCHINC
 40
0.1
  9
$FILLETRAD
 40
0.0
  9
$AUNITS
 70
     0
  9
$AUPREC
 70
     0
  9
$MENU
  1
.
  9
$ELEVATION
 40
0.0
  9
$PELEVATION
 40
0.0
  9
$THICKNESS
 40
0.0
  9
$LIMCHECK
 70
     0
  9
$BLIPMODE
 70
     0
  9
$CHAMFERA
 40
0.0
  9
$CHAMFERB
 40
0.0
  9
$CHAMFERC
 40
0.0
  9
$CHAMFERD
 40
0.0
  9
$SKPOLY
 70
     0
  9
$TDCREATE
 40
2455238.849673391
  9
$TDUPDATE
 40
2455238.862623148
  9
$TDINDWG
 40
0.0129497569
  9
$TDUSRTIMER
 40
0.0129497569
  9
$USRTIMER
 70
     1
  9
$ANGBASE
 50
0.0
  9
$ANGDIR
 70
     0
  9
$PDMODE
 70
     0
  9
$PDSIZE
 40
0.0
  9
$PLINEWID
 40
0.0
  9
$COORDS
 70
     1
  9
$SPLFRAME
 70
     0
  9
$SPLINETYPE
 70
     6
  9
$SPLINESEGS
 70
     8
  9
$ATTDIA
 70
     0
  9
$ATTREQ
 70
     1
  9
$HANDLING
 70
 22529
  9
$HANDSEED
  5
1A3
  9
$SURFTAB1
 70
     6
  9
$SURFTAB2
 70
     6
  9
$SURFTYPE
 70
     6
  9
$SURFU
 70
     6
  9
$SURFV
 70
     6
  9
$UCSNAME
  2

  9
$UCSORG
 10
0.0
 20
0.0
 30
0.0
  9
$UCSXDIR
 10
1.0
 20
0.0
 30
0.0
  9
$UCSYDIR
 10
0.0
 20
1.0
 30
0.0
  9
$PUCSNAME
  2

  9
$PUCSORG
 10
0.0
 20
0.0
 30
0.0
  9
$PUCSXDIR
 10
1.0
 20
0.0
 30
0.0
  9
$PUCSYDIR
 10
0.0
 20
1.0
 30
0.0
  9
$USERI1
 70
     0
  9
$USERI2
 70
     0
  9
$USERI3
 70
     0
  9
$USERI4
 70
     0
  9
$USERI5
 70
     0
  9
$USERR1
 40
0.0
  9
$USERR2
 40
0.0
  9
$USERR3
 40
0.0
  9
$USERR4
 40
0.0
  9
$USERR5
 40
0.0
  9
$WORLDVIEW
 70
     1
  9
$SHADEDGE
 70
     3
  9
$SHADEDIF
 70
    70
  9
$TILEMODE
 70
     1
  9
$MAXACTVP
 70
    64
  9
$PINSBASE
 10
0.0
 20
0.0
 30
0.0
  9
$PLIMCHECK
 70
     0
  9
$PEXTMIN
 10
1.000000000000000E+20
 20
1.000000000000000E+20
 30
1.000000000000000E+20
  9
$PEXTMAX
 10
-1.000000000000000E+20
 20
-1.000000000000000E+20
 30
-1.000000000000000E+20
  9
$PLIMMIN
 10
0.0
 20
0.0
  9
$PLIMMAX
 10
12.0
 20
9.0
  9
$UNITMODE
 70
     0
  9
$VISRETAIN
 70
     1
  9
$PLINEGEN
 70
     0
  9
$PSLTSCALE
 70
     1
  9
$TREEDEPTH
 70
  3020
  9
$PICKSTYLE
 70
     1
  9
$CMLSTYLE
  2
STANDARD
  9
$CMLJUST
 70
     0
  9
$CMLSCALE
 40
1.0
  9
$PROXYGRAPHICS
 70
     1
  9
$MEASUREMENT
 70
     0
  0
ENDSEC
  0
SECTION
  2
CLASSES
  0
CLASS
  1
ACDBDICTIONARYWDFLT
  2
AcDbDictionaryWithDefault
  3
AutoCAD 2000
 90
        0
280
     0
281
     0
  0
CLASS
  1
ACDBPLACEHOLDER
  2
AcDbPlaceHolder
  3
AutoCAD 2000
 90
        0
280
     0
281
     0
  0
CLASS
  1
LAYOUT
  2
AcDbLayout
  3
AutoCAD 2000
 90
        0
280
     0
281
     0
  0
CLASS
  1
DICTIONARYVAR
  2
AcDbDictionaryVar
  3
AutoCAD 2000
 90
        0
280
     0
281
     0
  0
CLASS
  1
LONG_TRANSACTION
  2
AcDbLongTransaction
  3
AutoCAD 2000
 90
        0
280
     0
281
     0
  0
CLASS
  1
LWPOLYLINE
  2
AcDbPolyline
  3
AutoCAD 2000
 90
        0
280
     0
281
     1
  0
CLASS
  1
HATCH
  2
AcDbHatch
  3
AutoCAD 2000
 90
        0
280
     0
281
     1
  0
CLASS
  1
XRECORD
  2
AcDbXrecord
  3
AutoCAD 2000
 90
        0
280
     0
281
     0
  0
ENDSEC
  0
SECTION
  2
TABLES
  0
TABLE
  2
VPORT
  5
8
330
0
100
AcDbSymbolTable
 70
     3
  0
VPORT
  5
17E
330
8
100
AcDbSymbolTableRecord
100
AcDbViewportTableRecord
  2
*ACTIVE
 70
     0
 10
0.0
 20
0.0
 11
1.0
 21
1.0
 12
89.50000000000001
 22
48.50000000000001
 13
0.0
 23
0.0
 14
1.0
 24
1.0
 15
0.0
 25
0.0
 16
0.0
 26
0.0
 36
1.0
 17
0.0
 27
0.0
 37
0.0
 40
97.63679772428886
 41
2.041621029572836
 42
50.0
 43
0.0
 44
0.0
 50
0.0
 51
0.0
 71
     0
 72
   100
 73
     1
 74
     3
 75
     0
 76
     0
 77
     0
 78
     0
  0
ENDTAB
  0
TABLE
  2
LTYPE
  5
5
330
0
100
AcDbSymbolTable
 70
     1
  0
LTYPE
  5
13
330
5
100
AcDbSymbolTableRecord
100
AcDbLinetypeTableRecord
  2
BYBLOCK
 70
     0
  3

 72
    65
 73
     0
 40
0.0
  0
LTYPE
  5
14
330
5
100
AcDbSymbolTableRecord
100
AcDbLinetypeTableRecord
  2
BYLAYER
 70
     0
  3

 72
    65
 73
     0
 40
0.0
  0
LTYPE
  5
15
330
5
100
AcDbSymbolTableRecord
100
AcDbLinetypeTableRecord
  2
CONTINUOUS
 70
     0
  3
Solid line
 72
    65
 73
     0
 40
0.0
  0
ENDTAB
  0
TABLE
  2
LAYER
  5
2
330
0
100
AcDbSymbolTable
 70
     1
  0
LAYER
  5
10
330
2
100
AcDbSymbolTableRecord
100
AcDbLayerTableRecord
  2
0
 70
     0
 62
     7
  6
CONTINUOUS
  0
ENDTAB
  0
TABLE
  2
STYLE
  5
3
330
0
100
AcDbSymbolTable
 70
     1
  0
STYLE
  5
11
330
3
100
AcDbSymbolTableRecord
100
AcDbTextStyleTableRecord
  2
STANDARD
 70
     0
 40
0.0
 41
1.0
 50
0.0
 71
     0
 42
0.2
  3
txt
  4

  0
ENDTAB
  0
TABLE
  2
VIEW
  5
6
330
0
100
AcDbSymbolTable
 70
     0
  0
ENDTAB
  0
TABLE
  2
UCS
  5
7
330
0
100
AcDbSymbolTable
 70
     0
  0
ENDTAB
  0
TABLE
  2
APPID
  5
9
330
0
100
AcDbSymbolTable
 70
     1
  0
APPID
  5
12
330
9
100
AcDbSymbolTableRecord
100
AcDbRegAppTableRecord
  2
ACAD
 70
     0
  0
ENDTAB
  0
TABLE
  2
DIMSTYLE
  5
A
330
0
100
AcDbSymbolTable
 70
     1
  0
DIMSTYLE
105
172
330
A
100
AcDbSymbolTableRecord
100
AcDbDimStyleTableRecord
  2
STANDARD
 70
     0
  3

  4

  5

  6

  7

 40
1.0
 41
0.18
 42
0.0625
 43
0.38
 44
0.18
 45
0.0
 46
0.0
 47
0.0
 48
0.0
140
0.18
141
0.09
142
0.0
143
25.4
144
1.0
145
0.0
146
1.0
147
0.09
 71
     0
 72
     0
 73
     1
 74
     1
 75
     0
 76
     0
 77
     0
 78
     0
170
     0
171
     2
172
     0
173
     0
174
     0
175
     0
176
     0
177
     0
178
     0
270
     2
271
     4
272
     4
273
     2
274
     2
340
11
275
     0
280
     0
281
     0
282
     0
283
     1
284
     0
285
     0
286
     0
287
     3
288
     0
  0
ENDTAB
  0
TABLE
  2
BLOCK_RECORD
  5
1
330
0
100
AcDbSymbolTable
 70
     0
  0
BLOCK_RECORD
  5
1E
102
{ACAD_XDICTIONARY
360
1A1
102
}
330
1
100
AcDbSymbolTableRecord
100
AcDbBlockTableRecord
  2
*MODEL_SPACE
  0
BLOCK_RECORD
  5
1A
102
{ACAD_XDICTIONARY
360
19F
102
}
330
1
100
AcDbSymbolTableRecord
100
AcDbBlockTableRecord
  2
*PAPER_SPACE
  0
ENDTAB
  0
ENDSEC
  0
SECTION
  2
BLOCKS
  0
BLOCK
  5
1F
330
1E
100
AcDbEntity
  8
0
100
AcDbBlockBegin
  2
*MODEL_SPACE
 70
     0
 10
0.0
 20
0.0
 30
0.0
  3
*MODEL_SPACE
  1

  0
ENDBLK
  5
20
330
1E
100
AcDbEntity
  8
0
100
AcDbBlockEnd
  0
BLOCK
  5
1B
330
1A
100
AcDbEntity
 67
     1
  8
0
100
AcDbBlockBegin
  2
*PAPER_SPACE
 70
     0
 10
0.0
 20
0.0
 30
0.0
  3
*PAPER_SPACE
  1

  0
ENDBLK
  5
1C
330
1A
100
AcDbEntity
 67
     1
  8
0
100
AcDbBlockEnd
  0
ENDSEC
  0
SECTION
  2
ENTITIES
  0
LINE
  5
22
330
1E
100
AcDbEntity
  8
0
100
AcDbLine
 10
91.58939999999999
 20
-0.0000179999999944
 30
0.0
 11
91.71750000000001
 21
0.0228070000000056
 31
0.0
  0
LINE
  5
23
330
1E
100
AcDbEntity
  8
0
100
AcDbLine
 10
91.71750000000001
 20
0.0228070000000056
 30
0.0
 11
91.80329999999999
 21
0.114771000000006
 31
0.0
  0
LINE
  5
24
330
1E
100
AcDbEntity
  8
0
100
AcDbLine
 10
91.58939999999999
 20
-0.0000179999999944
 30
0.0
 11
91.71750000000001
 21
0.0228070000000056
 31
0.0
  0
LINE
  5
25
330
1E
100
AcDbEntity
  8
0
100
AcDbLine
 10
84.20810000000001
 20
1.99842800000001
 30
0.0
 11
91.58939999999999
 21
-0.0000179999999944
 31
0.0
  0
LINE
  5
26
330
1E
100
AcDbEntity
  8
0
100
AcDbLine
 10
84.20810000000001
 20
1.99842800000001
 30
0.0
 11
91.58939999999999
 21
-0.0000179999999944
 31
0.0
  0
LINE
  5
2C
330
1E
100
AcDbEntity
  8
0
100
AcDbLine
 10
84.10909999999999
 20
2.08273800000001
 30
0.0
 11
84.20810000000001
 21
1.99842800000001
 31
0.0
  0
LINE
  5
2D
330
1E
100
AcDbEntity
  8
0
100
AcDbLine
 10
84.08129999999999
 20
2.205448000000009
 30
0.0
 11
84.10909999999999
 21
2.08273800000001
 31
0.0
  0
LINE
  5
2E
330
1E
100
AcDbEntity
  8
0
100
AcDbLine
 10
84.08129999999999
 20
2.205448000000009
 30
0.0
 11
97.00056054127941
 21
49.92175629592171
 31
0.0
  0
LINE
  5
2F
330
1E
100
AcDbEntity
  8
0
100
AcDbLine
 10
84.08129999999999
 20
2.205448
 30
0.0
 11
97.00056054127941
 21
49.92175629592171
 31
0.0
  0
LINE
  5
3D
330
1E
100
AcDbEntity
  8
0
100
AcDbLine
 10
91.80329999999999
 20
0.11477100000001
 30
0.0
 11
102.873044732613
 21
41.000018
 31
0.0
  0
LINE
  5
40
330
1E
100
AcDbEntity
  8
0
100
AcDbLine
 10
91.71750000000001
 20
0.0228070000000056
 30
0.0
 11
91.80329999999999
 21
0.114771000000006
 31
0.0
  0
LINE
  5
41
330
1E
100
AcDbEntity
  8
0
100
AcDbLine
 10
91.80329999999999
 20
0.114771000000006
 30
0.0
 11
102.873044732613
 21
41.000018
 31
0.0
  0
LINE
  5
42
330
1E
100
AcDbEntity
  8
0
100
AcDbLine
 10
171.0
 20
28.544118
 30
0.0
 11
171.0
 21
29.77941799999999
 31
0.0
  0
LINE
  5
43
330
1E
100
AcDbEntity
  8
0
100
AcDbLine
 10
171.0
 20
29.77941799999999
 30
0.0
 11
171.0
 21
33.073518
 31
0.0
  0
LINE
  5
44
330
1E
100
AcDbEntity
  8
0
100
AcDbLine
 10
171.0
 20
29.77941799999999
 30
0.0
 11
171.0
 21
28.544118
 31
0.0
  0
LINE
  5
45
330
1E
100
AcDbEntity
  8
0
100
AcDbLine
 10
23.13719999999999
 20
39.918418
 30
0.0
 11
23.5344
 21
39.770018
 31
0.0
  0
LINE
  5
46
330
1E
100
AcDbEntity
  8
0
100
AcDbLine
 10
23.5344
 20
39.770018
 30
0.0
 11
23.918
 21
40.006218
 31
0.0
  0
LINE
  5
47
330
1E
100
AcDbEntity
  8
0
100
AcDbLine
 10
15.5459
 20
42.754818
 30
0.0
 11
18.10579999999999
 21
41.798418
 31
0.0
  0
LINE
  5
48
330
1E
100
AcDbEntity
  8
0
100
AcDbLine
 10
1.996409999999999
 20
47.817518
 30
0.0
 11
2.393629999999999
 21
47.66911799999999
 31
0.0
  0
LINE
  5
49
330
1E
100
AcDbEntity
  8
0
100
AcDbLine
 10
3.452869999999999
 20
47.27331799999999
 30
0.0
 11
5.17415
 21
46.630218
 31
0.0
  0
LINE
  5
4A
330
1E
100
AcDbEntity
  8
0
100
AcDbLine
 10
2.393629999999999
 20
47.66911799999999
 30
0.0
 11
3.452869999999999
 21
47.27331799999999
 31
0.0
  0
LINE
  5
4B
330
1E
100
AcDbEntity
  8
0
100
AcDbLine
 10
9.98489
 20
44.83271799999999
 30
0.0
 11
12.7654
 21
43.79381799999999
 31
0.0
  0
LINE
  5
4C
330
1E
100
AcDbEntity
  8
0
100
AcDbLine
 10
7.425039999999999
 20
45.789118
 30
0.0
 11
9.98489
 21
44.83271799999999
 31
0.0
  0
LINE
  5
4D
330
1E
100
AcDbEntity
  8
0
100
AcDbLine
 10
10.05959999999999
 20
45.184318
 30
0.0
 11
12.8842
 21
44.12891799999999
 31
0.0
  0
LINE
  5
4E
330
1E
100
AcDbEntity
  8
0
100
AcDbLine
 10
5.17415
 20
46.630218
 30
0.0
 11
7.425039999999999
 21
45.789118
 31
0.0
  0
LINE
  5
4F
330
1E
100
AcDbEntity
  8
0
100
AcDbLine
 10
7.41145
 20
46.17371799999999
 30
0.0
 11
10.05959999999999
 21
45.184318
 31
0.0
  0
LINE
  5
50
330
1E
100
AcDbEntity
  8
0
100
AcDbLine
 10
5.072289999999999
 20
47.04771799999999
 30
0.0
 11
7.41145
 21
46.17371799999999
 31
0.0
  0
LINE
  5
51
330
1E
100
AcDbEntity
  8
0
100
AcDbLine
 10
3.306869999999999
 20
47.70741799999999
 30
0.0
 11
5.072289999999999
 21
47.04771799999999
 31
0.0
  0
LINE
  5
52
330
1E
100
AcDbEntity
  8
0
100
AcDbLine
 10
2.24763
 20
48.103118
 30
0.0
 11
3.306869999999999
 21
47.70741799999999
 31
0.0
  0
LINE
  5
53
330
1E
100
AcDbEntity
  8
0
100
AcDbLine
 10
12.7654
 20
43.79381799999999
 30
0.0
 11
15.5459
 21
42.754818
 31
0.0
  0
LINE
  5
54
330
1E
100
AcDbEntity
  8
0
100
AcDbLine
 10
12.8842
 20
44.12891799999999
 30
0.0
 11
15.7089
 21
43.073518
 31
0.0
  0
LINE
  5
55
330
1E
100
AcDbEntity
  8
0
100
AcDbLine
 10
15.7089
 20
43.073518
 30
0.0
 11
18.357
 21
42.08401799999999
 31
0.0
  0
LINE
  5
56
330
1E
100
AcDbEntity
  8
0
100
AcDbLine
 10
18.10579999999999
 20
41.798418
 30
0.0
 11
20.3567
 21
40.957318
 31
0.0
  0
LINE
  5
58
330
1E
100
AcDbEntity
  8
0
100
AcDbLine
 10
1.850409999999999
 20
48.251618
 30
0.0
 11
2.24763
 21
48.103118
 31
0.0
  0
LINE
  5
59
330
1E
100
AcDbEntity
  8
0
100
AcDbLine
 10
1.850409999999999
 20
48.251618
 30
0.0
 11
3.276199999999999
 21
52.273018
 31
0.0
  0
LINE
  5
5A
330
1E
100
AcDbEntity
  8
0
100
AcDbLine
 10
1.850409999999999
 20
48.251618
 30
0.0
 11
1.996409999999999
 21
47.817518
 31
0.0
  0
LINE
  5
5C
330
1E
100
AcDbEntity
  8
0
100
AcDbLine
 10
20.3567
 20
40.957318
 30
0.0
 11
22.0779
 21
40.31421799999999
 31
0.0
  0
LINE
  5
5D
330
1E
100
AcDbEntity
  8
0
100
AcDbLine
 10
18.357
 20
42.08401799999999
 30
0.0
 11
20.6962
 21
41.210018
 31
0.0
  0
LINE
  5
5E
330
1E
100
AcDbEntity
  8
0
100
AcDbLine
 10
20.6962
 20
41.210018
 30
0.0
 11
22.4616
 21
40.550418
 31
0.0
  0
LINE
  5
60
330
1E
100
AcDbEntity
  8
0
100
AcDbLine
 10
22.0779
 20
40.31421799999999
 30
0.0
 11
23.13719999999999
 21
39.918418
 31
0.0
  0
LINE
  5
61
330
1E
100
AcDbEntity
  8
0
100
AcDbLine
 10
22.4616
 20
40.550418
 30
0.0
 11
23.5208
 21
40.15461799999999
 31
0.0
  0
LINE
  5
62
330
1E
100
AcDbEntity
  8
0
100
AcDbLine
 10
23.5208
 20
40.15461799999999
 30
0.0
 11
23.918
 21
40.006218
 31
0.0
  0
LINE
  5
63
330
1E
100
AcDbEntity
  8
0
100
AcDbLine
 10
23.918
 20
40.006218
 30
0.0
 11
25.3438
 21
44.02761799999999
 31
0.0
  0
LINE
  5
64
330
1E
100
AcDbEntity
  8
0
100
AcDbLine
 10
28.1023
 20
42.996918
 30
0.0
 11
28.5663
 21
42.950118
 31
0.0
  0
LINE
  5
66
330
1E
100
AcDbEntity
  8
0
100
AcDbLine
 10
134.8129999999999
 20
41.035418
 30
0.0
 11
171.0
 21
41.076718
 31
0.0
  0
LINE
  5
68
330
1E
100
AcDbEntity
  8
0
100
AcDbLine
 10
133.0
 20
41.91201799999999
 30
0.0
 11
134.4189999999999
 21
41.91201799999999
 31
0.0
  0
LINE
  5
69
330
1E
100
AcDbEntity
  8
0
100
AcDbLine
 10
134.4189999999999
 20
41.91201799999999
 30
0.0
 11
134.4189999999999
 21
41.807118
 31
0.0
  0
LINE
  5
6B
330
1E
100
AcDbEntity
  8
0
100
AcDbLine
 10
134.4189999999999
 20
41.807118
 30
0.0
 11
134.4189999999999
 21
42.533118
 31
0.0
  0
LINE
  5
6C
330
1E
100
AcDbEntity
  8
0
100
AcDbLine
 10
134.4189999999999
 20
41.807118
 30
0.0
 11
134.4189999999999
 21
41.91201799999999
 31
0.0
  0
LINE
  5
6D
330
1E
100
AcDbEntity
  8
0
100
AcDbLine
 10
171.0
 20
41.78001799999999
 30
0.0
 11
171.0
 21
43.87931799999999
 31
0.0
  0
LINE
  5
6E
330
1E
100
AcDbEntity
  8
0
100
AcDbLine
 10
133.0
 20
41.82361799999999
 30
0.0
 11
133.0
 21
42.56461799999999
 31
0.0
  0
LINE
  5
71
330
1E
100
AcDbEntity
  8
0
100
AcDbLine
 10
102.873044732613
 20
41.000018
 30
0.0
 11
132.0
 21
41.000018
 31
0.0
  0
LINE
  5
73
330
1E
100
AcDbEntity
  8
0
100
AcDbLine
 10
132.0
 20
41.000018
 30
0.0
 11
133.0
 21
41.82361799999999
 31
0.0
  0
LINE
  5
76
330
1E
100
AcDbEntity
  8
0
100
AcDbLine
 10
134.4189999999999
 20
42.533118
 30
0.0
 11
134.4189999999999
 21
41.807118
 31
0.0
  0
LINE
  5
77
330
1E
100
AcDbEntity
  8
0
100
AcDbLine
 10
134.4189999999999
 20
42.533118
 30
0.0
 11
134.4189999999999
 21
44.469318
 31
0.0
  0
LINE
  5
78
330
1E
100
AcDbEntity
  8
0
100
AcDbLine
 10
134.4189999999999
 20
42.680818
 30
0.0
 11
134.4189999999999
 21
41.91201799999999
 31
0.0
  0
LINE
  5
79
330
1E
100
AcDbEntity
  8
0
100
AcDbLine
 10
133.0
 20
42.56461799999999
 30
0.0
 11
133.0
 21
44.541218
 31
0.0
  0
LINE
  5
7B
330
1E
100
AcDbEntity
  8
0
100
AcDbLine
 10
28.5663
 20
42.950118
 30
0.0
 11
28.8577
 21
43.09421799999999
 31
0.0
  0
LINE
  5
82
330
1E
100
AcDbEntity
  8
0
100
AcDbLine
 10
171.0
 20
43.87931799999999
 30
0.0
 11
171.0
 21
47.17981799999999
 31
0.0
  0
LINE
  5
87
330
1E
100
AcDbEntity
  8
0
100
AcDbLine
 10
134.4189999999999
 20
44.469318
 30
0.0
 11
134.4189999999999
 21
42.533118
 31
0.0
  0
LINE
  5
88
330
1E
100
AcDbEntity
  8
0
100
AcDbLine
 10
134.4189999999999
 20
44.469318
 30
0.0
 11
134.4189999999999
 21
47.69591799999999
 31
0.0
  0
LINE
  5
89
330
1E
100
AcDbEntity
  8
0
100
AcDbLine
 10
134.4189999999999
 20
44.558618
 30
0.0
 11
134.4189999999999
 21
42.680818
 31
0.0
  0
LINE
  5
8A
330
1E
100
AcDbEntity
  8
0
100
AcDbLine
 10
133.0
 20
44.541218
 30
0.0
 11
133.0
 21
47.753018
 31
0.0
  0
LINE
  5
90
330
1E
100
AcDbEntity
  8
0
100
AcDbLine
 10
28.8577
 20
43.09421799999999
 30
0.0
 11
29.9745
 21
46.24431799999999
 31
0.0
  0
LINE
  5
92
330
1E
100
AcDbEntity
  8
0
100
AcDbLine
 10
171.0
 20
47.17981799999999
 30
0.0
 11
171.0
 21
51.625818
 31
0.0
  0
LINE
  5
97
330
1E
100
AcDbEntity
  8
0
100
AcDbLine
 10
134.4189999999999
 20
47.69591799999999
 30
0.0
 11
134.4189999999999
 21
44.469318
 31
0.0
  0
LINE
  5
98
330
1E
100
AcDbEntity
  8
0
100
AcDbLine
 10
134.4189999999999
 20
47.803518
 30
0.0
 11
134.4189999999999
 21
44.558618
 31
0.0
  0
LINE
  5
99
330
1E
100
AcDbEntity
  8
0
100
AcDbLine
 10
133.0
 20
47.753018
 30
0.0
 11
133.0
 21
51.95291799999999
 31
0.0
  0
LINE
  5
9C
330
1E
100
AcDbEntity
  8
0
100
AcDbLine
 10
29.9745
 20
46.24431799999999
 30
0.0
 11
96.00488872243602
 21
46.24431799999999
 31
0.0
  0
LINE
  5
A0
330
1E
100
AcDbEntity
  8
0
100
AcDbLine
 10
0.0000000000000033
 20
53.876618
 30
0.0
 11
0.132978000000003
 21
53.57391800000001
 31
0.0
  0
LINE
  5
A1
330
1E
100
AcDbEntity
  8
0
100
AcDbLine
 10
0.132978000000003
 20
53.57391800000001
 30
0.0
 11
0.517751000000003
 21
53.30361800000001
 31
0.0
  0
LINE
  5
A9
330
1E
100
AcDbEntity
  8
0
100
AcDbLine
 10
171.0
 20
51.625818
 30
0.0
 11
171.0
 21
56.46641800000001
 31
0.0
  0
LINE
  5
AE
330
1E
100
AcDbEntity
  8
0
100
AcDbLine
 10
134.4189999999999
 20
51.972218
 30
0.0
 11
134.4189999999999
 21
56.813118
 31
0.0
  0
LINE
  5
AF
330
1E
100
AcDbEntity
  8
0
100
AcDbLine
 10
134.4189999999999
 20
51.986818
 30
0.0
 11
134.4189999999999
 21
47.803518
 31
0.0
  0
LINE
  5
B0
330
1E
100
AcDbEntity
  8
0
100
AcDbLine
 10
133.0
 20
51.95291799999999
 30
0.0
 11
133.0
 21
56.811818
 31
0.0
  0
LINE
  5
B3
330
1E
100
AcDbEntity
  8
0
100
AcDbLine
 10
97.0005
 20
52.364718
 30
0.0
 11
97.00056054127941
 21
49.92175629592171
 31
0.0
  0
LINE
  5
B4
330
1E
100
AcDbEntity
  8
0
100
AcDbLine
 10
97.0005
 20
52.364718
 30
0.0
 11
97.00056054127941
 21
49.92175629592171
 31
0.0
  0
LINE
  5
BD
330
1E
100
AcDbEntity
  8
0
100
AcDbLine
 10
171.0
 20
56.46641800000001
 30
0.0
 11
171.0
 21
62.011718
 31
0.0
  0
LINE
  5
C2
330
1E
100
AcDbEntity
  8
0
100
AcDbLine
 10
134.4189999999999
 20
56.813118
 30
0.0
 11
134.4189999999999
 21
51.972218
 31
0.0
  0
LINE
  5
C3
330
1E
100
AcDbEntity
  8
0
100
AcDbLine
 10
134.4189999999999
 20
56.813118
 30
0.0
 11
134.4189999999999
 21
61.97591800000001
 31
0.0
  0
LINE
  5
C4
330
1E
100
AcDbEntity
  8
0
100
AcDbLine
 10
134.4189999999999
 20
56.853218
 30
0.0
 11
134.4189999999999
 21
51.986818
 31
0.0
  0
LINE
  5
C7
330
1E
100
AcDbEntity
  8
0
100
AcDbLine
 10
134.4189999999999
 20
61.97591800000001
 30
0.0
 11
134.4189999999999
 21
56.853218
 31
0.0
  0
LINE
  5
C8
330
1E
100
AcDbEntity
  8
0
100
AcDbLine
 10
134.4189999999999
 20
61.97591800000001
 30
0.0
 11
134.4189999999999
 21
56.813118
 31
0.0
  0
LINE
  5
C9
330
1E
100
AcDbEntity
  8
0
100
AcDbLine
 10
134.4189999999999
 20
61.97591800000001
 30
0.0
 11
134.4189999999999
 21
67.13871800000001
 31
0.0
  0
LINE
  5
CA
330
1E
100
AcDbEntity
  8
0
100
AcDbLine
 10
133.0
 20
56.811818
 30
0.0
 11
133.0
 21
62.000018
 31
0.0
  0
LINE
  5
CD
330
1E
100
AcDbEntity
  8
0
100
AcDbLine
 10
97.0
 20
57.058918
 30
0.0
 11
97.0005
 21
52.364718
 31
0.0
  0
LINE
  5
CE
330
1E
100
AcDbEntity
  8
0
100
AcDbLine
 10
97.0
 20
57.058918
 30
0.0
 11
97.0006
 21
62.000018
 31
0.0
  0
LINE
  5
D1
330
1E
100
AcDbEntity
  8
0
100
AcDbLine
 10
1.602479999999999
 20
58.308718
 30
0.0
 11
3.379169999999999
 21
62.007218
 31
0.0
  0
LINE
  5
D2
330
1E
100
AcDbEntity
  8
0
100
AcDbLine
 10
0.0000000000000034
 20
53.876618
 30
0.0
 11
1.602479999999999
 21
58.308718
 31
0.0
  0
LINE
  5
D4
330
1E
100
AcDbEntity
  8
0
100
AcDbLine
 10
0.0000000000000033
 20
53.876618
 30
0.0
 11
0.132978000000003
 21
53.57391800000001
 31
0.0
  0
LINE
  5
D5
330
1E
100
AcDbEntity
  8
0
100
AcDbLine
 10
0.0000000000000033
 20
53.876618
 30
0.0
 11
1.602479999999999
 21
58.308718
 31
0.0
  0
LINE
  5
D7
330
1E
100
AcDbEntity
  8
0
100
AcDbLine
 10
171.0
 20
45.32351799999999
 30
0.0
 11
171.0
 21
38.32351799999999
 31
0.0
  0
LINE
  5
D8
330
1E
100
AcDbEntity
  8
0
100
AcDbLine
 10
3.379169999999999
 20
62.007218
 30
0.0
 11
5.610899999999999
 21
65.435918
 31
0.0
  0
LINE
  5
D9
330
1E
100
AcDbEntity
  8
0
100
AcDbLine
 10
171.0
 20
62.011718
 30
0.0
 11
171.0
 21
67.470718
 31
0.0
  0
LINE
  5
DA
330
1E
100
AcDbEntity
  8
0
100
AcDbLine
 10
134.4189999999999
 20
67.13871800000001
 30
0.0
 11
134.4189999999999
 21
61.97591800000001
 31
0.0
  0
LINE
  5
DB
330
1E
100
AcDbEntity
  8
0
100
AcDbLine
 10
134.4189999999999
 20
67.13871800000001
 30
0.0
 11
134.4189999999999
 21
71.979518
 31
0.0
  0
LINE
  5
DC
330
1E
100
AcDbEntity
  8
0
100
AcDbLine
 10
134.4189999999999
 20
67.098618
 30
0.0
 11
134.4189999999999
 21
61.97591800000001
 31
0.0
  0
LINE
  5
DD
330
1E
100
AcDbEntity
  8
0
100
AcDbLine
 10
131.1999999999999
 20
67.188218
 30
0.0
 11
133.0
 21
62.000018
 31
0.0
  0
LINE
  5
E0
330
1E
100
AcDbEntity
  8
0
100
AcDbLine
 10
171.0
 20
67.470718
 30
0.0
 11
171.0
 21
72.414618
 31
0.0
  0
LINE
  5
E3
330
1E
100
AcDbEntity
  8
0
100
AcDbLine
 10
97.0001
 20
66.941318
 30
0.0
 11
97.00020000000002
 21
75.670718
 31
0.0
  0
LINE
  5
E4
330
1E
100
AcDbEntity
  8
0
100
AcDbLine
 10
97.0001
 20
66.941318
 30
0.0
 11
97.0006
 21
62.000018
 31
0.0
  0
LINE
  5
E5
330
1E
100
AcDbEntity
  8
0
100
AcDbLine
 10
8.259510000000009
 20
68.53631800000001
 30
0.0
 11
11.2797
 21
71.255318
 31
0.0
  0
LINE
  5
E6
330
1E
100
AcDbEntity
  8
0
100
AcDbLine
 10
5.610899999999999
 20
65.435918
 30
0.0
 11
8.259510000000009
 21
68.53631800000001
 31
0.0
  0
LINE
  5
E7
330
1E
100
AcDbEntity
  8
0
100
AcDbLine
 10
171.0
 20
62.000018
 30
0.0
 11
171.0
 21
53.352918
 31
0.0
  0
LINE
  5
E8
330
1E
100
AcDbEntity
  8
0
100
AcDbLine
 10
171.0
 20
53.352918
 30
0.0
 11
171.0
 21
62.000018
 31
0.0
  0
LINE
  5
E9
330
1E
100
AcDbEntity
  8
0
100
AcDbLine
 10
18.2224
 20
75.37031800000001
 30
0.0
 11
22.0263
 21
76.695818
 31
0.0
  0
LINE
  5
EA
330
1E
100
AcDbEntity
  8
0
100
AcDbLine
 10
14.61969999999999
 20
73.546418
 30
0.0
 11
18.2224
 21
75.37031800000001
 31
0.0
  0
LINE
  5
EB
330
1E
100
AcDbEntity
  8
0
100
AcDbLine
 10
11.2797
 20
71.255318
 30
0.0
 11
14.61969999999999
 21
73.546418
 31
0.0
  0
LINE
  5
EC
330
1E
100
AcDbEntity
  8
0
100
AcDbLine
 10
22.0263
 20
76.695818
 30
0.0
 11
25.9661
 21
77.50031800000001
 31
0.0
  0
LINE
  5
ED
330
1E
100
AcDbEntity
  8
0
100
AcDbLine
 10
134.4189999999999
 20
71.979518
 30
0.0
 11
134.4189999999999
 21
67.13871800000001
 31
0.0
  0
LINE
  5
EE
330
1E
100
AcDbEntity
  8
0
100
AcDbLine
 10
134.4189999999999
 20
71.979518
 30
0.0
 11
134.4189999999999
 21
76.25591800000001
 31
0.0
  0
LINE
  5
F1
330
1E
100
AcDbEntity
  8
0
100
AcDbLine
 10
171.0
 20
72.414618
 30
0.0
 11
171.0
 21
76.86001800000001
 31
0.0
  0
LINE
  5
F2
330
1E
100
AcDbEntity
  8
0
100
AcDbLine
 10
134.4189999999999
 20
71.965018
 30
0.0
 11
134.4189999999999
 21
67.098618
 31
0.0
  0
LINE
  5
F3
330
1E
100
AcDbEntity
  8
0
100
AcDbLine
 10
129.6
 20
72.04711800000001
 30
0.0
 11
131.1999999999999
 21
67.188218
 31
0.0
  0
LINE
  5
F7
330
1E
100
AcDbEntity
  8
0
100
AcDbLine
 10
134.4189999999999
 20
76.25591800000001
 30
0.0
 11
134.4189999999999
 21
71.979518
 31
0.0
  0
LINE
  5
F8
330
1E
100
AcDbEntity
  8
0
100
AcDbLine
 10
134.4189999999999
 20
76.25591800000001
 30
0.0
 11
134.4189999999999
 21
79.482518
 31
0.0
  0
LINE
  5
FB
330
1E
100
AcDbEntity
  8
0
100
AcDbLine
 10
134.4189999999999
 20
76.14831800000001
 30
0.0
 11
134.4189999999999
 21
71.965018
 31
0.0
  0
LINE
  5
FC
330
1E
100
AcDbEntity
  8
0
100
AcDbLine
 10
128.1999999999999
 20
76.247118
 30
0.0
 11
129.6
 21
72.04711800000001
 31
0.0
  0
LINE
  5
FD
330
1E
100
AcDbEntity
  8
0
100
AcDbLine
 10
171.0
 20
76.86001800000001
 30
0.0
 11
171.0
 21
80.14741800000001
 31
0.0
  0
LINE
  5
101
330
1E
100
AcDbEntity
  8
0
100
AcDbLine
 10
97.00020000000002
 20
75.670718
 30
0.0
 11
97.0
 21
81.35311800000001
 31
0.0
  0
LINE
  5
102
330
1E
100
AcDbEntity
  8
0
100
AcDbLine
 10
25.9661
 20
77.50031800000001
 30
0.0
 11
29.9745
 21
77.770018
 31
0.0
  0
LINE
  5
103
330
1E
100
AcDbEntity
  8
0
100
AcDbLine
 10
126.660628549989
 20
80.98179476257421
 30
0.0
 11
128.535
 21
81.61301800000002
 31
0.0
  0
LINE
  5
104
330
1E
100
AcDbEntity
  8
0
100
AcDbLine
 10
134.4189999999999
 20
79.482518
 30
0.0
 11
134.4189999999999
 21
76.25591800000001
 31
0.0
  0
LINE
  5
105
330
1E
100
AcDbEntity
  8
0
100
AcDbLine
 10
134.4189999999999
 20
79.482518
 30
0.0
 11
134.4189999999999
 21
81.418718
 31
0.0
  0
LINE
  5
108
330
1E
100
AcDbEntity
  8
0
100
AcDbLine
 10
134.4189999999999
 20
81.418718
 30
0.0
 11
134.4189999999999
 21
79.482518
 31
0.0
  0
LINE
  5
109
330
1E
100
AcDbEntity
  8
0
100
AcDbLine
 10
134.4189999999999
 20
81.418718
 30
0.0
 11
134.4189999999999
 21
82.144618
 31
0.0
  0
LINE
  5
10D
330
1E
100
AcDbEntity
  8
0
100
AcDbLine
 10
171.0
 20
80.14741800000001
 30
0.0
 11
171.0
 21
82.32401800000001
 31
0.0
  0
LINE
  5
10E
330
1E
100
AcDbEntity
  8
0
100
AcDbLine
 10
134.4189999999999
 20
81.27101800000001
 30
0.0
 11
134.4189999999999
 21
79.393218
 31
0.0
  0
LINE
  5
10F
330
1E
100
AcDbEntity
  8
0
100
AcDbLine
 10
134.4189999999999
 20
79.393218
 30
0.0
 11
134.4189999999999
 21
76.14831800000001
 31
0.0
  0
LINE
  5
110
330
1E
100
AcDbEntity
  8
0
100
AcDbLine
 10
127.2
 20
79.45891800000001
 30
0.0
 11
128.1999999999999
 21
76.247118
 31
0.0
  0
LINE
  5
111
330
1E
100
AcDbEntity
  8
0
100
AcDbLine
 10
128.535
 20
81.61301800000002
 30
0.0
 11
130.6329999999999
 21
81.921218
 31
0.0
  0
LINE
  5
112
330
1E
100
AcDbEntity
  8
0
100
AcDbLine
 10
126.5
 20
81.43531800000001
 30
0.0
 11
127.2
 21
79.45891800000001
 31
0.0
  0
LINE
  5
115
330
1E
100
AcDbEntity
  8
0
100
AcDbLine
 10
125.0
 20
83.00001800000002
 30
0.0
 11
126.2999999999999
 21
82.176518
 31
0.0
  0
LINE
  5
116
330
1E
100
AcDbEntity
  8
0
100
AcDbLine
 10
130.6329999999999
 20
81.921218
 30
0.0
 11
131.44
 21
82.03981800000001
 31
0.0
  0
LINE
  5
117
330
1E
100
AcDbEntity
  8
0
100
AcDbLine
 10
131.44
 20
82.03981800000001
 30
0.0
 11
134.4189999999999
 21
82.03981800000001
 31
0.0
  0
LINE
  5
119
330
1E
100
AcDbEntity
  8
0
100
AcDbLine
 10
134.4189999999999
 20
82.144618
 30
0.0
 11
134.8129999999999
 21
82.916418
 31
0.0
  0
LINE
  5
11A
330
1E
100
AcDbEntity
  8
0
100
AcDbLine
 10
134.4189999999999
 20
82.144618
 30
0.0
 11
134.4189999999999
 21
81.418718
 31
0.0
  0
LINE
  5
11B
330
1E
100
AcDbEntity
  8
0
100
AcDbLine
 10
134.4189999999999
 20
82.144618
 30
0.0
 11
134.4189999999999
 21
82.03981800000001
 31
0.0
  0
LINE
  5
11E
330
1E
100
AcDbEntity
  8
0
100
AcDbLine
 10
134.8129999999999
 20
82.916418
 30
0.0
 11
171.0
 21
83.00001800000002
 31
0.0
  0
LINE
  5
11F
330
1E
100
AcDbEntity
  8
0
100
AcDbLine
 10
171.0
 20
82.32401800000001
 30
0.0
 11
171.0
 21
83.00001800000002
 31
0.0
  0
LINE
  5
120
330
1E
100
AcDbEntity
  8
0
100
AcDbLine
 10
134.4189999999999
 20
82.03981800000001
 30
0.0
 11
134.4189999999999
 21
81.27101800000001
 31
0.0
  0
LINE
  5
121
330
1E
100
AcDbEntity
  8
0
100
AcDbLine
 10
134.4189999999999
 20
82.03981800000001
 30
0.0
 11
134.4189999999999
 21
82.144618
 31
0.0
  0
LINE
  5
122
330
1E
100
AcDbEntity
  8
0
100
AcDbLine
 10
126.2999999999999
 20
82.176518
 30
0.0
 11
126.5
 21
81.43531800000001
 31
0.0
  0
LINE
  5
123
330
1E
100
AcDbEntity
  8
0
100
AcDbLine
 10
99.00060000000001
 20
83.00001800000002
 30
0.0
 11
125.0
 21
83.00001800000002
 31
0.0
  0
LINE
  5
124
330
1E
100
AcDbEntity
  8
0
100
AcDbLine
 10
97.5003
 20
82.58831800000001
 30
0.0
 11
99.00060000000001
 21
83.00001800000002
 31
0.0
  0
LINE
  5
127
330
1E
100
AcDbEntity
  8
0
100
AcDbLine
 10
97.0
 20
81.35311800000001
 30
0.0
 11
97.5003
 21
82.58831800000001
 31
0.0
  0
LINE
  5
128
330
1E
100
AcDbEntity
  8
0
100
AcDbLine
 10
29.9745
 20
77.770018
 30
0.0
 11
97.0007366994759
 21
77.770018
 31
0.0
  0
LINE
  5
129
330
1E
100
AcDbEntity
  8
0
100
AcDbLine
 10
171.0
 20
78.676518
 30
0.0
 11
171.0
 21
70.64711800000001
 31
0.0
  0
LINE
  5
12A
330
1E
100
AcDbEntity
  8
0
100
AcDbLine
 10
171.0
 20
70.64711800000001
 30
0.0
 11
171.0
 21
78.676518
 31
0.0
  0
LINE
  5
12B
330
1E
100
AcDbEntity
  8
0
100
AcDbLine
 10
171.0
 20
41.076718
 30
0.0
 11
171.0
 21
40.79201799999999
 31
0.0
  0
LINE
  5
12C
330
1E
100
AcDbEntity
  8
0
100
AcDbLine
 10
171.0
 20
41.076718
 30
0.0
 11
171.0
 21
41.78001799999999
 31
0.0
  0
LINE
  5
12D
330
1E
100
AcDbEntity
  8
0
100
AcDbLine
 10
171.0
 20
40.00001799999999
 30
0.0
 11
171.0
 21
40.79201799999999
 31
0.0
  0
LINE
  5
12E
330
1E
100
AcDbEntity
  8
0
100
AcDbLine
 10
171.0
 20
40.79201799999999
 30
0.0
 11
171.0
 21
41.076718
 31
0.0
  0
LINE
  5
12F
330
1E
100
AcDbEntity
  8
0
100
AcDbLine
 10
171.0
 20
40.79201799999999
 30
0.0
 11
171.0
 21
40.00001799999999
 31
0.0
  0
LINE
  5
130
330
1E
100
AcDbEntity
  8
0
100
AcDbLine
 10
171.0
 20
38.32351799999999
 30
0.0
 11
171.0
 21
33.073518
 31
0.0
  0
LINE
  5
131
330
1E
100
AcDbEntity
  8
0
100
AcDbLine
 10
171.0
 20
38.32351799999999
 30
0.0
 11
171.0
 21
45.32351799999999
 31
0.0
  0
LINE
  5
132
330
1E
100
AcDbEntity
  8
0
100
AcDbLine
 10
171.0
 20
33.073518
 30
0.0
 11
171.0
 21
29.77941799999999
 31
0.0
  0
LINE
  5
133
330
1E
100
AcDbEntity
  8
0
100
AcDbLine
 10
171.0
 20
33.073518
 30
0.0
 11
171.0
 21
38.32351799999999
 31
0.0
  0
LINE
  5
134
330
1E
100
AcDbEntity
  8
0
100
AcDbLine
 10
171.0
 20
84.00001800000001
 30
0.0
 11
171.0
 21
83.20801800000001
 31
0.0
  0
LINE
  5
135
330
1E
100
AcDbEntity
  8
0
100
AcDbLine
 10
171.0
 20
95.45591800000002
 30
0.0
 11
171.0
 21
94.22061799999999
 31
0.0
  0
LINE
  5
136
330
1E
100
AcDbEntity
  8
0
100
AcDbLine
 10
171.0
 20
94.22061799999999
 30
0.0
 11
171.0
 21
95.45591800000002
 31
0.0
  0
LINE
  5
137
330
1E
100
AcDbEntity
  8
0
100
AcDbLine
 10
171.0
 20
90.926518
 30
0.0
 11
171.0
 21
85.676518
 31
0.0
  0
LINE
  5
138
330
1E
100
AcDbEntity
  8
0
100
AcDbLine
 10
171.0
 20
85.676518
 30
0.0
 11
171.0
 21
83.00001800000002
 31
0.0
  0
LINE
  5
139
330
1E
100
AcDbEntity
  8
0
100
AcDbLine
 10
171.0
 20
85.676518
 30
0.0
 11
171.0
 21
90.926518
 31
0.0
  0
LINE
  5
13A
330
1E
100
AcDbEntity
  8
0
100
AcDbLine
 10
171.0
 20
83.20801800000001
 30
0.0
 11
171.0
 21
84.00001800000001
 31
0.0
  0
LINE
  5
13B
330
1E
100
AcDbEntity
  8
0
100
AcDbLine
 10
171.0
 20
83.20801800000001
 30
0.0
 11
171.0
 21
83.00001800000002
 31
0.0
  0
LINE
  5
13C
330
1E
100
AcDbEntity
  8
0
100
AcDbLine
 10
171.171
 20
27.514718
 30
0.0
 11
171.513
 21
27.000018
 31
0.0
  0
LINE
  5
13D
330
1E
100
AcDbEntity
  8
0
100
AcDbLine
 10
179.0
 20
27.000018
 30
0.0
 11
179.0
 21
28.23531799999999
 31
0.0
  0
LINE
  5
152
330
1E
100
AcDbEntity
  8
0
100
AcDbLine
 10
179.0
 20
44.602918
 30
0.0
 11
179.0
 21
37.29411799999999
 31
0.0
  0
LINE
  5
153
330
1E
100
AcDbEntity
  8
0
100
AcDbLine
 10
179.0
 20
44.602918
 30
0.0
 11
179.0
 21
53.044118
 31
0.0
  0
LINE
  5
154
330
1E
100
AcDbEntity
  8
0
100
AcDbLine
 10
179.0
 20
53.044118
 30
0.0
 11
179.0
 21
44.602918
 31
0.0
  0
LINE
  5
155
330
1E
100
AcDbEntity
  8
0
100
AcDbLine
 10
179.0
 20
53.044118
 30
0.0
 11
179.0
 21
62.000018
 31
0.0
  0
LINE
  5
156
330
1E
100
AcDbEntity
  8
0
100
AcDbLine
 10
179.0
 20
62.000018
 30
0.0
 11
179.0
 21
53.044118
 31
0.0
  0
LINE
  5
157
330
1E
100
AcDbEntity
  8
0
100
AcDbLine
 10
179.0
 20
62.000018
 30
0.0
 11
179.0
 21
70.95591800000001
 31
0.0
  0
LINE
  5
158
330
1E
100
AcDbEntity
  8
0
100
AcDbLine
 10
179.0
 20
37.29411799999999
 30
0.0
 11
179.0
 21
31.735318
 31
0.0
  0
LINE
  5
159
330
1E
100
AcDbEntity
  8
0
100
AcDbLine
 10
179.0
 20
37.29411799999999
 30
0.0
 11
179.0
 21
44.602918
 31
0.0
  0
LINE
  5
15A
330
1E
100
AcDbEntity
  8
0
100
AcDbLine
 10
179.0
 20
31.735318
 30
0.0
 11
179.0
 21
28.23531799999999
 31
0.0
  0
LINE
  5
15B
330
1E
100
AcDbEntity
  8
0
100
AcDbLine
 10
179.0
 20
31.735318
 30
0.0
 11
179.0
 21
37.29411799999999
 31
0.0
  0
LINE
  5
15C
330
1E
100
AcDbEntity
  8
0
100
AcDbLine
 10
179.0
 20
28.23531799999999
 30
0.0
 11
179.0
 21
27.000018
 31
0.0
  0
LINE
  5
15D
330
1E
100
AcDbEntity
  8
0
100
AcDbLine
 10
179.0
 20
28.23531799999999
 30
0.0
 11
179.0
 21
31.735318
 31
0.0
  0
LINE
  5
15E
330
1E
100
AcDbEntity
  8
0
100
AcDbLine
 10
179.0
 20
92.264718
 30
0.0
 11
179.0
 21
86.70591800000002
 31
0.0
  0
LINE
  5
15F
330
1E
100
AcDbEntity
  8
0
100
AcDbLine
 10
179.0
 20
92.264718
 30
0.0
 11
179.0
 21
95.764718
 31
0.0
  0
LINE
  5
160
330
1E
100
AcDbEntity
  8
0
100
AcDbLine
 10
179.0
 20
95.764718
 30
0.0
 11
179.0
 21
92.264718
 31
0.0
  0
LINE
  5
161
330
1E
100
AcDbEntity
  8
0
100
AcDbLine
 10
179.0
 20
95.764718
 30
0.0
 11
179.0
 21
97.00001800000002
 31
0.0
  0
LINE
  5
162
330
1E
100
AcDbEntity
  8
0
100
AcDbLine
 10
179.0
 20
97.00001800000002
 30
0.0
 11
179.0
 21
95.764718
 31
0.0
  0
LINE
  5
163
330
1E
100
AcDbEntity
  8
0
100
AcDbLine
 10
179.0
 20
86.70591800000002
 30
0.0
 11
179.0
 21
79.39711800000001
 31
0.0
  0
LINE
  5
164
330
1E
100
AcDbEntity
  8
0
100
AcDbLine
 10
179.0
 20
86.70591800000002
 30
0.0
 11
179.0
 21
92.264718
 31
0.0
  0
LINE
  5
165
330
1E
100
AcDbEntity
  8
0
100
AcDbLine
 10
179.0
 20
79.39711800000001
 30
0.0
 11
179.0
 21
70.95591800000001
 31
0.0
  0
LINE
  5
166
330
1E
100
AcDbEntity
  8
0
100
AcDbLine
 10
179.0
 20
79.39711800000001
 30
0.0
 11
179.0
 21
86.70591800000002
 31
0.0
  0
LINE
  5
167
330
1E
100
AcDbEntity
  8
0
100
AcDbLine
 10
179.0
 20
70.95591800000001
 30
0.0
 11
179.0
 21
62.000018
 31
0.0
  0
LINE
  5
168
330
1E
100
AcDbEntity
  8
0
100
AcDbLine
 10
179.0
 20
70.95591800000001
 30
0.0
 11
179.0
 21
79.39711800000001
 31
0.0
  0
LINE
  5
16B
330
1E
100
AcDbEntity
  8
0
100
AcDbLine
 10
171.513
 20
27.000018
 30
0.0
 11
179.0
 21
27.000018
 31
0.0
  0
LINE
  5
16D
330
1E
100
AcDbEntity
  8
0
100
AcDbLine
 10
171.171
 20
96.485318
 30
0.0
 11
171.513
 21
97.00001800000002
 31
0.0
  0
LINE
  5
16E
330
1E
100
AcDbEntity
  8
0
100
AcDbLine
 10
171.513
 20
97.00001800000002
 30
0.0
 11
179.0
 21
97.00001800000002
 31
0.0
  0
LINE
  5
170
330
1E
100
AcDbEntity
  8
0
100
AcDbLine
 10
171.0
 20
83.00001800000002
 30
0.0
 11
171.0
 21
83.20801800000001
 31
0.0
  0
LINE
  5
171
330
1E
100
AcDbEntity
  8
0
100
AcDbLine
 10
171.0
 20
83.00001800000002
 30
0.0
 11
171.0
 21
85.676518
 31
0.0
  0
LINE
  5
176
330
1E
100
AcDbEntity
  8
0
100
AcDbLine
 10
171.171
 20
96.485318
 30
0.0
 11
171.0
 21
95.45591800000002
 31
0.0
  0
LINE
  5
177
330
1E
100
AcDbEntity
  8
0
100
AcDbLine
 10
171.0
 20
94.22061799999999
 30
0.0
 11
171.0
 21
90.79014141470366
 31
0.0
  0
LINE
  5
178
330
1E
100
AcDbEntity
  8
0
100
AcDbLine
 10
171.171
 20
27.514718
 30
0.0
 11
171.0
 21
28.544118
 31
0.0
  0
LINE
  5
179
330
1E
100
AcDbEntity
  8
0
100
AcDbLine
 10
134.8129999999999
 20
41.035418
 30
0.0
 11
134.4189999999999
 21
41.807118
 31
0.0
  0
LINE
  5
17A
330
1E
100
AcDbEntity
  8
0
100
AcDbLine
 10
0.517751000000003
 20
53.30361800000001
 30
0.0
 11
28.1023
 21
42.996918
 31
0.0
  0
ENDSEC
  0
SECTION
  2
OBJECTS
  0
DICTIONARY
  5
C
330
0
100
AcDbDictionary
  3
ACAD_GROUP
350
D
  3
ACAD_LAYOUT
350
19
  3
ACAD_MLINESTYLE
350
16
  3
ACAD_PLOTSETTINGS
350
18
  3
ACAD_PLOTSTYLENAME
350
E
  3
ACDBHEADERROUNDTRIPXREC
350
17F
  3
ACDBVARIABLEDICTIONARY
350
17C
  0
DICTIONARY
  5
1A1
330
1E
100
AcDbDictionary
280
     1
  3
ACAD_LAYOUTSELFREF
360
1A2
  0
DICTIONARY
  5
19F
330
1A
100
AcDbDictionary
280
     1
  3
ACAD_LAYOUTSELFREF
360
1A0
  0
DICTIONARY
  5
D
102
{ACAD_REACTORS
330
C
102
}
330
C
100
AcDbDictionary
  0
DICTIONARY
  5
19
102
{ACAD_REACTORS
330
C
102
}
330
C
100
AcDbDictionary
  0
DICTIONARY
  5
16
102
{ACAD_REACTORS
330
C
102
}
330
C
100
AcDbDictionary
  3
STANDARD
350
17
  0
DICTIONARY
  5
18
102
{ACAD_REACTORS
330
C
102
}
330
C
100
AcDbDictionary
  0
ACDBDICTIONARYWDFLT
  5
E
102
{ACAD_REACTORS
330
C
102
}
330
C
100
AcDbDictionary
281
     1
  3
Normal
350
F
100
AcDbDictionaryWithDefault
340
F
  0
DICTIONARY
  5
17F
102
{ACAD_REACTORS
330
C
102
}
330
C
100
AcDbDictionary
  3
CEPSNTYPE
350
189
  3
FINGERPRINTGUID
350
18A
  3
HYPERLINKBASE
350
182
  3
INSUNITS
350
188
  3
LAYOUTDICT
350
184
  3
LWETCUNION
350
187
  3
PLOTSETDICT
350
185
  3
PLOTSTYLNAMDICT
350
186
  3
PSVPSCALE
350
18C
  3
PUCSBASE
350
18F
  3
PUCSORGBACK
350
195
  3
PUCSORGBOTTOM
350
191
  3
PUCSORGFRONT
350
194
  3
PUCSORGLEFT
350
192
  3
PUCSORGRIGHT
350
193
  3
PUCSORGTOP
350
190
  3
PUCSORTHOREF
350
18D
  3
PUCSORTHOVIEW
350
18E
  3
STYLESHEET
350
183
  3
TSTACKALIGN
350
180
  3
TSTACKSIZE
350
181
  3
UCSBASE
350
198
  3
UCSORGBACK
350
19E
  3
UCSORGBOTTOM
350
19A
  3
UCSORGFRONT
350
19D
  3
UCSORGLEFT
350
19B
  3
UCSORGRIGHT
350
19C
  3
UCSORGTOP
350
199
  3
UCSORTHOREF
350
196
  3
UCSORTHOVIEW
350
197
  3
VERSIONGUID
350
18B
  0
DICTIONARY
  5
17C
102
{ACAD_REACTORS
330
C
102
}
330
C
100
AcDbDictionary
  3
DIMASSOC
350
17D
  0
XRECORD
  5
1A2
102
{ACAD_REACTORS
330
1A1
102
}
330
1A1
100
AcDbXrecord
340
1E
  0
XRECORD
  5
1A0
102
{ACAD_REACTORS
330
19F
102
}
330
19F
100
AcDbXrecord
340
1A
  0
MLINESTYLE
  5
17
102
{ACAD_REACTORS
330
16
102
}
330
16
100
AcDbMlineStyle
  2
STANDARD
 70
     0
  3

 62
   256
 51
90.0
 52
90.0
 71
     2
 49
0.5
 62
   256
  6
BYLAYER
 49
-0.5
 62
   256
  6
BYLAYER
  0
ACDBPLACEHOLDER
  5
F
102
{ACAD_REACTORS
330
E
102
}
330
E
100
AcDbPlaceHolder
280
     0
  0
XRECORD
  5
189
102
{ACAD_REACTORS
330
17F
102
}
330
17F
100
AcDbXrecord
 90
        0
  0
XRECORD
  5
18A
102
{ACAD_REACTORS
330
17F
102
}
330
17F
100
AcDbXrecord
  1
{CEA1E972-E023-4917-8AFE-96D934B3D4EB}
  0
XRECORD
  5
182
102
{ACAD_REACTORS
330
17F
102
}
330
17F
100
AcDbXrecord
  1

  0
XRECORD
  5
188
102
{ACAD_REACTORS
330
17F
102
}
330
17F
100
AcDbXrecord
 90
        0
  0
XRECORD
  5
184
102
{ACAD_REACTORS
330
17F
102
}
330
17F
100
AcDbXrecord
340
19
  0
XRECORD
  5
187
102
{ACAD_REACTORS
330
17F
102
}
330
17F
100
AcDbXrecord
 90
    10781
  0
XRECORD
  5
185
102
{ACAD_REACTORS
330
17F
102
}
330
17F
100
AcDbXrecord
340
18
  0
XRECORD
  5
186
102
{ACAD_REACTORS
330
17F
102
}
330
17F
100
AcDbXrecord
340
E
  0
XRECORD
  5
18C
102
{ACAD_REACTORS
330
17F
102
}
330
17F
100
AcDbXrecord
 40
0.0
  0
XRECORD
  5
18F
102
{ACAD_REACTORS
330
17F
102
}
330
17F
100
AcDbXrecord
340
0
  0
XRECORD
  5
195
102
{ACAD_REACTORS
330
17F
102
}
330
17F
100
AcDbXrecord
 10
0.0
 20
0.0
 30
0.0
  0
XRECORD
  5
191
102
{ACAD_REACTORS
330
17F
102
}
330
17F
100
AcDbXrecord
 10
0.0
 20
0.0
 30
0.0
  0
XRECORD
  5
194
102
{ACAD_REACTORS
330
17F
102
}
330
17F
100
AcDbXrecord
 10
0.0
 20
0.0
 30
0.0
  0
XRECORD
  5
192
102
{ACAD_REACTORS
330
17F
102
}
330
17F
100
AcDbXrecord
 10
0.0
 20
0.0
 30
0.0
  0
XRECORD
  5
193
102
{ACAD_REACTORS
330
17F
102
}
330
17F
100
AcDbXrecord
 10
0.0
 20
0.0
 30
0.0
  0
XRECORD
  5
190
102
{ACAD_REACTORS
330
17F
102
}
330
17F
100
AcDbXrecord
 10
0.0
 20
0.0
 30
0.0
  0
XRECORD
  5
18D
102
{ACAD_REACTORS
330
17F
102
}
330
17F
100
AcDbXrecord
340
0
  0
XRECORD
  5
18E
102
{ACAD_REACTORS
330
17F
102
}
330
17F
100
AcDbXrecord
 70
     0
  0
XRECORD
  5
183
102
{ACAD_REACTORS
330
17F
102
}
330
17F
100
AcDbXrecord
  1

  0
XRECORD
  5
180
102
{ACAD_REACTORS
330
17F
102
}
330
17F
100
AcDbXrecord
 90
        1
  0
XRECORD
  5
181
102
{ACAD_REACTORS
330
17F
102
}
330
17F
100
AcDbXrecord
 90
       70
  0
XRECORD
  5
198
102
{ACAD_REACTORS
330
17F
102
}
330
17F
100
AcDbXrecord
340
0
  0
XRECORD
  5
19E
102
{ACAD_REACTORS
330
17F
102
}
330
17F
100
AcDbXrecord
 10
0.0
 20
0.0
 30
0.0
  0
XRECORD
  5
19A
102
{ACAD_REACTORS
330
17F
102
}
330
17F
100
AcDbXrecord
 10
0.0
 20
0.0
 30
0.0
  0
XRECORD
  5
19D
102
{ACAD_REACTORS
330
17F
102
}
330
17F
100
AcDbXrecord
 10
0.0
 20
0.0
 30
0.0
  0
XRECORD
  5
19B
102
{ACAD_REACTORS
330
17F
102
}
330
17F
100
AcDbXrecord
 10
0.0
 20
0.0
 30
0.0
  0
XRECORD
  5
19C
102
{ACAD_REACTORS
330
17F
102
}
330
17F
100
AcDbXrecord
 10
0.0
 20
0.0
 30
0.0
  0
XRECORD
  5
199
102
{ACAD_REACTORS
330
17F
102
}
330
17F
100
AcDbXrecord
 10
0.0
 20
0.0
 30
0.0
  0
XRECORD
  5
196
102
{ACAD_REACTORS
330
17F
102
}
330
17F
100
AcDbXrecord
340
0
  0
XRECORD
  5
197
102
{ACAD_REACTORS
330
17F
102
}
330
17F
100
AcDbXrecord
 70
     1
  0
XRECORD
  5
18B
102
{ACAD_REACTORS
330
17F
102
}
330
17F
100
AcDbXrecord
  1
{EFE1BEEB-BCF0-4D7B-9361-EFD22F3B9504}
  0
DICTIONARYVAR
  5
17D
102
{ACAD_REACTORS
330
17C
102
}
330
17C
100
DictionaryVariables
280
     0
  1
1
  0
ENDSEC
  0
EOF
