  0
SECTION
  2
HEADER
  9
$ACADVER
  1
AC1014
  9
$ACADMAINTVER
 70
     9
  9
$DWGCODEPAGE
  3
ANSI_1252
  9
$INSBASE
 10
0.0
 20
0.0
 30
0.0
  9
$EXTMIN
 10
0.250000000000002
 20
-0.0000000000000035
 30
0.0
  9
$EXTMAX
 10
109.7499999999999
 20
56.0
 30
0.0
  9
$LIMMIN
 10
0.0
 20
0.0
  9
$LIMMAX
 10
12.0
 20
9.0
  9
$ORTHOMODE
 70
     0
  9
$REGENMODE
 70
     1
  9
$FILLMODE
 70
     1
  9
$QTEXTMODE
 70
     0
  9
$MIRRTEXT
 70
     1
  9
$DRAGMODE
 70
     2
  9
$LTSCALE
 40
1.0
  9
$OSMODE
 70
    37
  9
$ATTMODE
 70
     1
  9
$TEXTSIZE
 40
0.2
  9
$TRACEWID
 40
0.05
  9
$TEXTSTYLE
  7
STANDARD
  9
$CLAYER
  8
0
  9
$CELTYPE
  6
CONTINUOUS
  9
$CECOLOR
 62
   256
  9
$CELTSCALE
 40
1.0
  9
$DELOBJ
 70
     1
  9
$DISPSILH
 70
     0
  9
$DIMSCALE
 40
1.0
  9
$DIMASZ
 40
0.18
  9
$DIMEXO
 40
0.0625
  9
$DIMDLI
 40
0.38
  9
$DIMRND
 40
0.0
  9
$DIMDLE
 40
0.0
  9
$DIMEXE
 40
0.18
  9
$DIMTP
 40
0.0
  9
$DIMTM
 40
0.0
  9
$DIMTXT
 40
0.18
  9
$DIMCEN
 40
0.09
  9
$DIMTSZ
 40
0.0
  9
$DIMTOL
 70
     0
  9
$DIMLIM
 70
     0
  9
$DIMTIH
 70
     1
  9
$DIMTOH
 70
     1
  9
$DIMSE1
 70
     0
  9
$DIMSE2
 70
     0
  9
$DIMTAD
 70
     0
  9
$DIMZIN
 70
     0
  9
$DIMBLK
  1

  9
$DIMASO
 70
     1
  9
$DIMSHO
 70
     1
  9
$DIMPOST
  1

  9
$DIMAPOST
  1

  9
$DIMALT
 70
     0
  9
$DIMALTD
 70
     2
  9
$DIMALTF
 40
25.4
  9
$DIMLFAC
 40
1.0
  9
$DIMTOFL
 70
     0
  9
$DIMTVP
 40
0.0
  9
$DIMTIX
 70
     0
  9
$DIMSOXD
 70
     0
  9
$DIMSAH
 70
     0
  9
$DIMBLK1
  1

  9
$DIMBLK2
  1

  9
$DIMSTYLE
  2
STANDARD
  9
$DIMCLRD
 70
     0
  9
$DIMCLRE
 70
     0
  9
$DIMCLRT
 70
     0
  9
$DIMTFAC
 40
1.0
  9
$DIMGAP
 40
0.09
  9
$DIMJUST
 70
     0
  9
$DIMSD1
 70
     0
  9
$DIMSD2
 70
     0
  9
$DIMTOLJ
 70
     1
  9
$DIMTZIN
 70
     0
  9
$DIMALTZ
 70
     0
  9
$DIMALTTZ
 70
     0
  9
$DIMFIT
 70
     3
  9
$DIMUPT
 70
     0
  9
$DIMUNIT
 70
     2
  9
$DIMDEC
 70
     4
  9
$DIMTDEC
 70
     4
  9
$DIMALTU
 70
     2
  9
$DIMALTTD
 70
     2
  9
$DIMTXSTY
  7
STANDARD
  9
$DIMAUNIT
 70
     0
  9
$LUNITS
 70
     2
  9
$LUPREC
 70
     4
  9
$SKETCHINC
 40
0.1
  9
$FILLETRAD
 40
0.0
  9
$AUNITS
 70
     0
  9
$AUPREC
 70
     0
  9
$MENU
  1
.
  9
$ELEVATION
 40
0.0
  9
$PELEVATION
 40
0.0
  9
$THICKNESS
 40
0.0
  9
$LIMCHECK
 70
     0
  9
$BLIPMODE
 70
     0
  9
$CHAMFERA
 40
0.0
  9
$CHAMFERB
 40
0.0
  9
$CHAMFERC
 40
0.0
  9
$CHAMFERD
 40
0.0
  9
$SKPOLY
 70
     0
  9
$TDCREATE
 40
2455238.895131655
  9
$TDUPDATE
 40
2455238.901087962
  9
$TDINDWG
 40
0.0059564815
  9
$TDUSRTIMER
 40
0.0059564815
  9
$USRTIMER
 70
     1
  9
$ANGBASE
 50
0.0
  9
$ANGDIR
 70
     0
  9
$PDMODE
 70
     0
  9
$PDSIZE
 40
0.0
  9
$PLINEWID
 40
0.0
  9
$COORDS
 70
     1
  9
$SPLFRAME
 70
     0
  9
$SPLINETYPE
 70
     6
  9
$SPLINESEGS
 70
     8
  9
$ATTDIA
 70
     0
  9
$ATTREQ
 70
     1
  9
$HANDLING
 70
 22529
  9
$HANDSEED
  5
2BA
  9
$SURFTAB1
 70
     6
  9
$SURFTAB2
 70
     6
  9
$SURFTYPE
 70
     6
  9
$SURFU
 70
     6
  9
$SURFV
 70
     6
  9
$UCSNAME
  2

  9
$UCSORG
 10
0.0
 20
0.0
 30
0.0
  9
$UCSXDIR
 10
1.0
 20
0.0
 30
0.0
  9
$UCSYDIR
 10
0.0
 20
1.0
 30
0.0
  9
$PUCSNAME
  2

  9
$PUCSORG
 10
0.0
 20
0.0
 30
0.0
  9
$PUCSXDIR
 10
1.0
 20
0.0
 30
0.0
  9
$PUCSYDIR
 10
0.0
 20
1.0
 30
0.0
  9
$USERI1
 70
     0
  9
$USERI2
 70
     0
  9
$USERI3
 70
     0
  9
$USERI4
 70
     0
  9
$USERI5
 70
     0
  9
$USERR1
 40
0.0
  9
$USERR2
 40
0.0
  9
$USERR3
 40
0.0
  9
$USERR4
 40
0.0
  9
$USERR5
 40
0.0
  9
$WORLDVIEW
 70
     1
  9
$SHADEDGE
 70
     3
  9
$SHADEDIF
 70
    70
  9
$TILEMODE
 70
     1
  9
$MAXACTVP
 70
    64
  9
$PINSBASE
 10
0.0
 20
0.0
 30
0.0
  9
$PLIMCHECK
 70
     0
  9
$PEXTMIN
 10
1.000000000000000E+20
 20
1.000000000000000E+20
 30
1.000000000000000E+20
  9
$PEXTMAX
 10
-1.000000000000000E+20
 20
-1.000000000000000E+20
 30
-1.000000000000000E+20
  9
$PLIMMIN
 10
0.0
 20
0.0
  9
$PLIMMAX
 10
12.0
 20
9.0
  9
$UNITMODE
 70
     0
  9
$VISRETAIN
 70
     1
  9
$PLINEGEN
 70
     0
  9
$PSLTSCALE
 70
     1
  9
$TREEDEPTH
 70
  3020
  9
$PICKSTYLE
 70
     1
  9
$CMLSTYLE
  2
STANDARD
  9
$CMLJUST
 70
     0
  9
$CMLSCALE
 40
1.0
  9
$PROXYGRAPHICS
 70
     1
  9
$MEASUREMENT
 70
     0
  0
ENDSEC
  0
SECTION
  2
CLASSES
  0
CLASS
  1
ACDBDICTIONARYWDFLT
  2
AcDbDictionaryWithDefault
  3
AutoCAD 2000
 90
        0
280
     0
281
     0
  0
CLASS
  1
ACDBPLACEHOLDER
  2
AcDbPlaceHolder
  3
AutoCAD 2000
 90
        0
280
     0
281
     0
  0
CLASS
  1
LAYOUT
  2
AcDbLayout
  3
AutoCAD 2000
 90
        0
280
     0
281
     0
  0
CLASS
  1
DICTIONARYVAR
  2
AcDbDictionaryVar
  3
AutoCAD 2000
 90
        0
280
     0
281
     0
  0
CLASS
  1
LONG_TRANSACTION
  2
AcDbLongTransaction
  3
AutoCAD 2000
 90
        0
280
     0
281
     0
  0
CLASS
  1
LWPOLYLINE
  2
AcDbPolyline
  3
AutoCAD 2000
 90
        0
280
     0
281
     1
  0
CLASS
  1
HATCH
  2
AcDbHatch
  3
AutoCAD 2000
 90
        0
280
     0
281
     1
  0
CLASS
  1
XRECORD
  2
AcDbXrecord
  3
AutoCAD 2000
 90
        0
280
     0
281
     0
  0
ENDSEC
  0
SECTION
  2
TABLES
  0
TABLE
  2
VPORT
  5
8
330
0
100
AcDbSymbolTable
 70
     3
  0
VPORT
  5
295
330
8
100
AcDbSymbolTableRecord
100
AcDbViewportTableRecord
  2
*ACTIVE
 70
     0
 10
0.0
 20
0.0
 11
1.0
 21
1.0
 12
55.0
 22
27.99999999999999
 13
0.0
 23
0.0
 14
1.0
 24
1.0
 15
0.0
 25
0.0
 16
0.0
 26
0.0
 36
1.0
 17
0.0
 27
0.0
 37
0.0
 40
56.36761487964989
 41
2.041621029572836
 42
50.0
 43
0.0
 44
0.0
 50
0.0
 51
0.0
 71
     0
 72
   100
 73
     1
 74
     3
 75
     0
 76
     0
 77
     0
 78
     0
  0
ENDTAB
  0
TABLE
  2
LTYPE
  5
5
330
0
100
AcDbSymbolTable
 70
     1
  0
LTYPE
  5
13
330
5
100
AcDbSymbolTableRecord
100
AcDbLinetypeTableRecord
  2
BYBLOCK
 70
     0
  3

 72
    65
 73
     0
 40
0.0
  0
LTYPE
  5
14
330
5
100
AcDbSymbolTableRecord
100
AcDbLinetypeTableRecord
  2
BYLAYER
 70
     0
  3

 72
    65
 73
     0
 40
0.0
  0
LTYPE
  5
15
330
5
100
AcDbSymbolTableRecord
100
AcDbLinetypeTableRecord
  2
CONTINUOUS
 70
     0
  3
Solid line
 72
    65
 73
     0
 40
0.0
  0
ENDTAB
  0
TABLE
  2
LAYER
  5
2
330
0
100
AcDbSymbolTable
 70
     1
  0
LAYER
  5
10
330
2
100
AcDbSymbolTableRecord
100
AcDbLayerTableRecord
  2
0
 70
     0
 62
     7
  6
CONTINUOUS
  0
ENDTAB
  0
TABLE
  2
STYLE
  5
3
330
0
100
AcDbSymbolTable
 70
     1
  0
STYLE
  5
11
330
3
100
AcDbSymbolTableRecord
100
AcDbTextStyleTableRecord
  2
STANDARD
 70
     0
 40
0.0
 41
1.0
 50
0.0
 71
     0
 42
0.2
  3
txt
  4

  0
ENDTAB
  0
TABLE
  2
VIEW
  5
6
330
0
100
AcDbSymbolTable
 70
     0
  0
ENDTAB
  0
TABLE
  2
UCS
  5
7
330
0
100
AcDbSymbolTable
 70
     0
  0
ENDTAB
  0
TABLE
  2
APPID
  5
9
330
0
100
AcDbSymbolTable
 70
     1
  0
APPID
  5
12
330
9
100
AcDbSymbolTableRecord
100
AcDbRegAppTableRecord
  2
ACAD
 70
     0
  0
ENDTAB
  0
TABLE
  2
DIMSTYLE
  5
A
330
0
100
AcDbSymbolTable
 70
     1
  0
DIMSTYLE
105
28D
330
A
100
AcDbSymbolTableRecord
100
AcDbDimStyleTableRecord
  2
STANDARD
 70
     0
  3

  4

  5

  6

  7

 40
1.0
 41
0.18
 42
0.0625
 43
0.38
 44
0.18
 45
0.0
 46
0.0
 47
0.0
 48
0.0
140
0.18
141
0.09
142
0.0
143
25.4
144
1.0
145
0.0
146
1.0
147
0.09
 71
     0
 72
     0
 73
     1
 74
     1
 75
     0
 76
     0
 77
     0
 78
     0
170
     0
171
     2
172
     0
173
     0
174
     0
175
     0
176
     0
177
     0
178
     0
270
     2
271
     4
272
     4
273
     2
274
     2
340
11
275
     0
280
     0
281
     0
282
     0
283
     1
284
     0
285
     0
286
     0
287
     3
288
     0
  0
ENDTAB
  0
TABLE
  2
BLOCK_RECORD
  5
1
330
0
100
AcDbSymbolTable
 70
     0
  0
BLOCK_RECORD
  5
1E
102
{ACAD_XDICTIONARY
360
2B8
102
}
330
1
100
AcDbSymbolTableRecord
100
AcDbBlockTableRecord
  2
*MODEL_SPACE
  0
BLOCK_RECORD
  5
1A
102
{ACAD_XDICTIONARY
360
2B6
102
}
330
1
100
AcDbSymbolTableRecord
100
AcDbBlockTableRecord
  2
*PAPER_SPACE
  0
ENDTAB
  0
ENDSEC
  0
SECTION
  2
BLOCKS
  0
BLOCK
  5
1F
330
1E
100
AcDbEntity
  8
0
100
AcDbBlockBegin
  2
*MODEL_SPACE
 70
     0
 10
0.0
 20
0.0
 30
0.0
  3
*MODEL_SPACE
  1

  0
ENDBLK
  5
20
330
1E
100
AcDbEntity
  8
0
100
AcDbBlockEnd
  0
BLOCK
  5
1B
330
1A
100
AcDbEntity
 67
     1
  8
0
100
AcDbBlockBegin
  2
*PAPER_SPACE
 70
     0
 10
0.0
 20
0.0
 30
0.0
  3
*PAPER_SPACE
  1

  0
ENDBLK
  5
1C
330
1A
100
AcDbEntity
 67
     1
  8
0
100
AcDbBlockEnd
  0
ENDSEC
  0
SECTION
  2
ENTITIES
  0
LINE
  5
22
330
1E
100
AcDbEntity
  8
0
100
AcDbLine
 10
15.897059
 20
1.199999999999999
 30
0.0
 11
16.25
 21
1.199999999999999
 31
0.0
  0
LINE
  5
23
330
1E
100
AcDbEntity
  8
0
100
AcDbLine
 10
15.897059
 20
1.199999999999999
 30
0.0
 11
16.191176
 21
1.0
 31
0.0
  0
LINE
  5
24
330
1E
100
AcDbEntity
  8
0
100
AcDbLine
 10
4.25
 20
13.25
 30
0.0
 11
4.316699999999999
 21
13.0
 31
0.0
  0
LINE
  5
25
330
1E
100
AcDbEntity
  8
0
100
AcDbLine
 10
4.25
 20
13.25
 30
0.0
 11
4.25
 21
13.6
 31
0.0
  0
LINE
  5
26
330
1E
100
AcDbEntity
  8
0
100
AcDbLine
 10
4.316699999999999
 20
13.0
 30
0.0
 11
4.41
 21
13.0
 31
0.0
  0
LINE
  5
27
330
1E
100
AcDbEntity
  8
0
100
AcDbLine
 10
4.25
 20
13.6
 30
0.0
 11
4.25
 21
13.25
 31
0.0
  0
LINE
  5
28
330
1E
100
AcDbEntity
  8
0
100
AcDbLine
 10
4.25
 20
13.6
 30
0.0
 11
4.25
 21
14.0
 31
0.0
  0
LINE
  5
29
330
1E
100
AcDbEntity
  8
0
100
AcDbLine
 10
0.3653999999999989
 20
14.125
 30
0.0
 11
0.596200000000001
 21
14.0
 31
0.0
  0
LINE
  5
2A
330
1E
100
AcDbEntity
  8
0
100
AcDbLine
 10
0.250000000000002
 20
14.375
 30
0.0
 11
0.3653999999999989
 21
14.125
 31
0.0
  0
LINE
  5
2B
330
1E
100
AcDbEntity
  8
0
100
AcDbLine
 10
0.250000000000002
 20
14.375
 30
0.0
 11
0.250000000000002
 21
14.675
 31
0.0
  0
LINE
  5
2C
330
1E
100
AcDbEntity
  8
0
100
AcDbLine
 10
0.250000000000002
 20
14.375
 30
0.0
 11
0.3653999999999989
 21
14.125
 31
0.0
  0
LINE
  5
2D
330
1E
100
AcDbEntity
  8
0
100
AcDbLine
 10
0.3653999999999989
 20
14.425
 30
0.0
 11
0.3653999999999989
 21
15.25
 31
0.0
  0
LINE
  5
2E
330
1E
100
AcDbEntity
  8
0
100
AcDbLine
 10
0.3653999999999989
 20
14.425
 30
0.0
 11
0.3653999999999989
 21
14.125
 31
0.0
  0
LINE
  5
2F
330
1E
100
AcDbEntity
  8
0
100
AcDbLine
 10
0.3653999999999989
 20
14.125
 30
0.0
 11
0.596200000000001
 21
14.0
 31
0.0
  0
LINE
  5
30
330
1E
100
AcDbEntity
  8
0
100
AcDbLine
 10
0.3653999999999989
 20
14.125
 30
0.0
 11
0.3653999999999989
 21
14.425
 31
0.0
  0
LINE
  5
31
330
1E
100
AcDbEntity
  8
0
100
AcDbLine
 10
0.596200000000001
 20
14.0
 30
0.0
 11
4.25
 21
14.0
 31
0.0
  0
LINE
  5
32
330
1E
100
AcDbEntity
  8
0
100
AcDbLine
 10
4.25
 20
14.3
 30
0.0
 11
4.25
 21
14.0
 31
0.0
  0
LINE
  5
33
330
1E
100
AcDbEntity
  8
0
100
AcDbLine
 10
4.25
 20
13.6
 30
0.0
 11
4.25
 21
14.5
 31
0.0
  0
LINE
  5
35
330
1E
100
AcDbEntity
  8
0
100
AcDbLine
 10
4.25
 20
13.6
 30
0.0
 11
4.25
 21
13.25
 31
0.0
  0
LINE
  5
36
330
1E
100
AcDbEntity
  8
0
100
AcDbLine
 10
4.25
 20
14.0
 30
0.0
 11
4.25
 21
13.6
 31
0.0
  0
LINE
  5
37
330
1E
100
AcDbEntity
  8
0
100
AcDbLine
 10
4.25
 20
14.0
 30
0.0
 11
4.25
 21
13.6
 31
0.0
  0
LINE
  5
38
330
1E
100
AcDbEntity
  8
0
100
AcDbLine
 10
0.250000000000002
 20
14.675
 30
0.0
 11
0.250000000000002
 21
16.75
 31
0.0
  0
LINE
  5
39
330
1E
100
AcDbEntity
  8
0
100
AcDbLine
 10
0.250000000000002
 20
14.675
 30
0.0
 11
0.250000000000002
 21
14.375
 31
0.0
  0
LINE
  5
3A
330
1E
100
AcDbEntity
  8
0
100
AcDbLine
 10
0.3653999999999989
 20
15.25
 30
0.0
 11
0.3653999999999989
 21
16.57499999999999
 31
0.0
  0
LINE
  5
3B
330
1E
100
AcDbEntity
  8
0
100
AcDbLine
 10
0.3653999999999989
 20
15.25
 30
0.0
 11
0.3653999999999989
 21
14.425
 31
0.0
  0
LINE
  5
3C
330
1E
100
AcDbEntity
  8
0
100
AcDbLine
 10
4.25
 20
16.5
 30
0.0
 11
4.25
 21
15.15
 31
0.0
  0
LINE
  5
3D
330
1E
100
AcDbEntity
  8
0
100
AcDbLine
 10
4.25
 20
15.15
 30
0.0
 11
4.25
 21
14.3
 31
0.0
  0
LINE
  5
3E
330
1E
100
AcDbEntity
  8
0
100
AcDbLine
 10
0.250000000000002
 20
16.75
 30
0.0
 11
0.250000000000002
 21
18.44999999999999
 31
0.0
  0
LINE
  5
3F
330
1E
100
AcDbEntity
  8
0
100
AcDbLine
 10
0.250000000000002
 20
16.75
 30
0.0
 11
0.250000000000002
 21
14.675
 31
0.0
  0
LINE
  5
40
330
1E
100
AcDbEntity
  8
0
100
AcDbLine
 10
0.3653999999999989
 20
16.57499999999999
 30
0.0
 11
0.3653999999999989
 21
18.32499999999999
 31
0.0
  0
LINE
  5
41
330
1E
100
AcDbEntity
  8
0
100
AcDbLine
 10
0.3653999999999989
 20
16.57499999999999
 30
0.0
 11
0.3653999999999989
 21
15.25
 31
0.0
  0
LINE
  5
42
330
1E
100
AcDbEntity
  8
0
100
AcDbLine
 10
4.25
 20
15.94999999999999
 30
0.0
 11
4.25
 21
17.9
 31
0.0
  0
LINE
  5
45
330
1E
100
AcDbEntity
  8
0
100
AcDbLine
 10
4.25
 20
15.94999999999999
 30
0.0
 11
4.25
 21
14.5
 31
0.0
  0
LINE
  5
46
330
1E
100
AcDbEntity
  8
0
100
AcDbLine
 10
0.250000000000002
 20
18.44999999999999
 30
0.0
 11
0.250000000000002
 21
16.75
 31
0.0
  0
LINE
  5
47
330
1E
100
AcDbEntity
  8
0
100
AcDbLine
 10
0.250000000000002
 20
18.44999999999999
 30
0.0
 11
0.250000000000002
 21
20.4
 31
0.0
  0
LINE
  5
48
330
1E
100
AcDbEntity
  8
0
100
AcDbLine
 10
0.3653999999999989
 20
18.32499999999999
 30
0.0
 11
0.3653999999999989
 21
20.35
 31
0.0
  0
LINE
  5
49
330
1E
100
AcDbEntity
  8
0
100
AcDbLine
 10
0.3653999999999989
 20
18.32499999999999
 30
0.0
 11
0.3653999999999989
 21
16.57499999999999
 31
0.0
  0
LINE
  5
4A
330
1E
100
AcDbEntity
  8
0
100
AcDbLine
 10
0.250000000000002
 20
20.4
 30
0.0
 11
0.250000000000002
 21
18.44999999999999
 31
0.0
  0
LINE
  5
4B
330
1E
100
AcDbEntity
  8
0
100
AcDbLine
 10
0.250000000000002
 20
20.4
 30
0.0
 11
0.250000000000002
 21
22.5
 31
0.0
  0
LINE
  5
4C
330
1E
100
AcDbEntity
  8
0
100
AcDbLine
 10
0.250000000000002
 20
22.5
 30
0.0
 11
0.250000000000002
 21
20.4
 31
0.0
  0
LINE
  5
4D
330
1E
100
AcDbEntity
  8
0
100
AcDbLine
 10
0.250000000000002
 20
22.5
 30
0.0
 11
0.250000000000002
 21
24.6
 31
0.0
  0
LINE
  5
4E
330
1E
100
AcDbEntity
  8
0
100
AcDbLine
 10
0.3653999999999989
 20
20.35
 30
0.0
 11
0.3653999999999989
 21
22.5
 31
0.0
  0
LINE
  5
4F
330
1E
100
AcDbEntity
  8
0
100
AcDbLine
 10
0.3653999999999989
 20
20.35
 30
0.0
 11
0.3653999999999989
 21
18.32499999999999
 31
0.0
  0
LINE
  5
50
330
1E
100
AcDbEntity
  8
0
100
AcDbLine
 10
4.25
 20
18.27499999999999
 30
0.0
 11
4.25
 21
16.5
 31
0.0
  0
LINE
  5
51
330
1E
100
AcDbEntity
  8
0
100
AcDbLine
 10
4.25
 20
20.325
 30
0.0
 11
4.25
 21
18.27499999999999
 31
0.0
  0
LINE
  5
52
330
1E
100
AcDbEntity
  8
0
100
AcDbLine
 10
0.3653999999999989
 20
22.5
 30
0.0
 11
0.3653999999999989
 21
24.64999999999999
 31
0.0
  0
LINE
  5
53
330
1E
100
AcDbEntity
  8
0
100
AcDbLine
 10
0.3653999999999989
 20
22.5
 30
0.0
 11
0.3653999999999989
 21
20.35
 31
0.0
  0
LINE
  5
54
330
1E
100
AcDbEntity
  8
0
100
AcDbLine
 10
4.25
 20
17.9
 30
0.0
 11
4.25
 21
20.1
 31
0.0
  0
LINE
  5
56
330
1E
100
AcDbEntity
  8
0
100
AcDbLine
 10
4.25
 20
17.9
 30
0.0
 11
4.25
 21
15.94999999999999
 31
0.0
  0
LINE
  5
58
330
1E
100
AcDbEntity
  8
0
100
AcDbLine
 10
4.25
 20
14.5
 30
0.0
 11
4.25
 21
15.94999999999999
 31
0.0
  0
LINE
  5
5B
330
1E
100
AcDbEntity
  8
0
100
AcDbLine
 10
4.25
 20
14.5
 30
0.0
 11
4.25
 21
13.6
 31
0.0
  0
LINE
  5
5C
330
1E
100
AcDbEntity
  8
0
100
AcDbLine
 10
0.250000000000002
 20
26.55
 30
0.0
 11
0.250000000000002
 21
24.6
 31
0.0
  0
LINE
  5
5D
330
1E
100
AcDbEntity
  8
0
100
AcDbLine
 10
0.250000000000002
 20
26.55
 30
0.0
 11
0.250000000000002
 21
28.25
 31
0.0
  0
LINE
  5
5E
330
1E
100
AcDbEntity
  8
0
100
AcDbLine
 10
0.250000000000002
 20
24.6
 30
0.0
 11
0.250000000000002
 21
22.5
 31
0.0
  0
LINE
  5
5F
330
1E
100
AcDbEntity
  8
0
100
AcDbLine
 10
0.250000000000002
 20
24.6
 30
0.0
 11
0.250000000000002
 21
26.55
 31
0.0
  0
LINE
  5
60
330
1E
100
AcDbEntity
  8
0
100
AcDbLine
 10
0.3653999999999989
 20
24.64999999999999
 30
0.0
 11
0.3653999999999989
 21
26.675
 31
0.0
  0
LINE
  5
61
330
1E
100
AcDbEntity
  8
0
100
AcDbLine
 10
0.3653999999999989
 20
24.64999999999999
 30
0.0
 11
0.3653999999999989
 21
22.5
 31
0.0
  0
LINE
  5
62
330
1E
100
AcDbEntity
  8
0
100
AcDbLine
 10
0.3653999999999989
 20
26.675
 30
0.0
 11
0.3653999999999989
 21
28.425
 31
0.0
  0
LINE
  5
63
330
1E
100
AcDbEntity
  8
0
100
AcDbLine
 10
0.3653999999999989
 20
26.675
 30
0.0
 11
0.3653999999999989
 21
24.64999999999999
 31
0.0
  0
LINE
  5
64
330
1E
100
AcDbEntity
  8
0
100
AcDbLine
 10
4.25
 20
26.725
 30
0.0
 11
4.25
 21
24.675
 31
0.0
  0
LINE
  5
65
330
1E
100
AcDbEntity
  8
0
100
AcDbLine
 10
4.25
 20
24.675
 30
0.0
 11
4.25
 21
22.5
 31
0.0
  0
LINE
  5
66
330
1E
100
AcDbEntity
  8
0
100
AcDbLine
 10
0.250000000000002
 20
28.25
 30
0.0
 11
0.250000000000002
 21
29.525
 31
0.0
  0
LINE
  5
67
330
1E
100
AcDbEntity
  8
0
100
AcDbLine
 10
0.250000000000002
 20
28.25
 30
0.0
 11
0.250000000000002
 21
26.55
 31
0.0
  0
LINE
  5
68
330
1E
100
AcDbEntity
  8
0
100
AcDbLine
 10
0.250000000000002
 20
28.25
 30
0.0
 11
0.250000000000002
 21
29.525
 31
0.0
  0
LINE
  5
69
330
1E
100
AcDbEntity
  8
0
100
AcDbLine
 10
4.25
 20
28.5
 30
0.0
 11
4.25
 21
26.725
 31
0.0
  0
LINE
  5
6A
330
1E
100
AcDbEntity
  8
0
100
AcDbLine
 10
0.3653999999999989
 20
28.425
 30
0.0
 11
0.3653999999999989
 21
29.75
 31
0.0
  0
LINE
  5
6B
330
1E
100
AcDbEntity
  8
0
100
AcDbLine
 10
0.3653999999999989
 20
28.425
 30
0.0
 11
0.3653999999999989
 21
26.675
 31
0.0
  0
LINE
  5
6D
330
1E
100
AcDbEntity
  8
0
100
AcDbLine
 10
4.25
 20
27.1
 30
0.0
 11
4.25
 21
24.9
 31
0.0
  0
LINE
  5
6F
330
1E
100
AcDbEntity
  8
0
100
AcDbLine
 10
4.25
 20
27.1
 30
0.0
 11
4.25
 21
29.05
 31
0.0
  0
LINE
  5
70
330
1E
100
AcDbEntity
  8
0
100
AcDbLine
 10
0.250000000000002
 20
29.525
 30
0.0
 11
0.250000000000002
 21
28.25
 31
0.0
  0
LINE
  5
71
330
1E
100
AcDbEntity
  8
0
100
AcDbLine
 10
0.250000000000002
 20
30.325
 30
0.0
 11
0.250000000000002
 21
30.625
 31
0.0
  0
LINE
  5
72
330
1E
100
AcDbEntity
  8
0
100
AcDbLine
 10
0.250000000000002
 20
29.525
 30
0.0
 11
0.250000000000002
 21
28.25
 31
0.0
  0
LINE
  5
73
330
1E
100
AcDbEntity
  8
0
100
AcDbLine
 10
0.250000000000002
 20
30.325
 30
0.0
 11
0.250000000000002
 21
30.625
 31
0.0
  0
LINE
  5
74
330
1E
100
AcDbEntity
  8
0
100
AcDbLine
 10
0.3653999999999989
 20
29.75
 30
0.0
 11
0.3653999999999989
 21
30.575
 31
0.0
  0
LINE
  5
75
330
1E
100
AcDbEntity
  8
0
100
AcDbLine
 10
0.3653999999999989
 20
29.75
 30
0.0
 11
0.3653999999999989
 21
28.425
 31
0.0
  0
LINE
  5
76
330
1E
100
AcDbEntity
  8
0
100
AcDbLine
 10
0.250000000000002
 20
30.625
 30
0.0
 11
0.250000000000002
 21
30.325
 31
0.0
  0
LINE
  5
77
330
1E
100
AcDbEntity
  8
0
100
AcDbLine
 10
0.250000000000002
 20
30.625
 30
0.0
 11
0.3653999999999989
 21
30.875
 31
0.0
  0
LINE
  5
78
330
1E
100
AcDbEntity
  8
0
100
AcDbLine
 10
0.250000000000002
 20
30.625
 30
0.0
 11
0.250000000000002
 21
29.525
 31
0.0
  0
LINE
  5
79
330
1E
100
AcDbEntity
  8
0
100
AcDbLine
 10
0.3653999999999989
 20
30.875
 30
0.0
 11
0.596200000000001
 21
31.0
 31
0.0
  0
LINE
  5
7A
330
1E
100
AcDbEntity
  8
0
100
AcDbLine
 10
0.3653999999999989
 20
30.875
 30
0.0
 11
0.3653999999999989
 21
30.575
 31
0.0
  0
LINE
  5
7B
330
1E
100
AcDbEntity
  8
0
100
AcDbLine
 10
0.3653999999999989
 20
30.575
 30
0.0
 11
0.3653999999999989
 21
30.875
 31
0.0
  0
LINE
  5
7C
330
1E
100
AcDbEntity
  8
0
100
AcDbLine
 10
0.3653999999999989
 20
30.575
 30
0.0
 11
0.3653999999999989
 21
29.75
 31
0.0
  0
LINE
  5
7D
330
1E
100
AcDbEntity
  8
0
100
AcDbLine
 10
4.25
 20
30.7
 30
0.0
 11
4.25
 21
29.85
 31
0.0
  0
LINE
  5
7E
330
1E
100
AcDbEntity
  8
0
100
AcDbLine
 10
0.596200000000001
 20
31.0
 30
0.0
 11
4.25
 21
31.0
 31
0.0
  0
LINE
  5
7F
330
1E
100
AcDbEntity
  8
0
100
AcDbLine
 10
4.25
 20
29.85
 30
0.0
 11
4.25
 21
28.5
 31
0.0
  0
LINE
  5
80
330
1E
100
AcDbEntity
  8
0
100
AcDbLine
 10
4.25
 20
31.75
 30
0.0
 11
4.25
 21
31.4
 31
0.0
  0
LINE
  5
81
330
1E
100
AcDbEntity
  8
0
100
AcDbLine
 10
4.25
 20
31.4
 30
0.0
 11
4.25
 21
31.0
 31
0.0
  0
LINE
  5
82
330
1E
100
AcDbEntity
  8
0
100
AcDbLine
 10
4.25
 20
31.4
 30
0.0
 11
4.25
 21
31.75
 31
0.0
  0
LINE
  5
83
330
1E
100
AcDbEntity
  8
0
100
AcDbLine
 10
4.25
 20
31.75
 30
0.0
 11
4.316699999999999
 21
32.0
 31
0.0
  0
LINE
  5
84
330
1E
100
AcDbEntity
  8
0
100
AcDbLine
 10
4.25
 20
31.75
 30
0.0
 11
4.25
 21
31.4
 31
0.0
  0
LINE
  5
85
330
1E
100
AcDbEntity
  8
0
100
AcDbLine
 10
4.25
 20
31.4
 30
0.0
 11
4.25
 21
31.0
 31
0.0
  0
LINE
  5
87
330
1E
100
AcDbEntity
  8
0
100
AcDbLine
 10
4.25
 20
31.4
 30
0.0
 11
4.25
 21
31.75
 31
0.0
  0
LINE
  5
88
330
1E
100
AcDbEntity
  8
0
100
AcDbLine
 10
4.25
 20
31.4
 30
0.0
 11
4.25
 21
30.5
 31
0.0
  0
LINE
  5
89
330
1E
100
AcDbEntity
  8
0
100
AcDbLine
 10
4.25
 20
31.0
 30
0.0
 11
4.25
 21
31.4
 31
0.0
  0
LINE
  5
8A
330
1E
100
AcDbEntity
  8
0
100
AcDbLine
 10
4.25
 20
31.0
 30
0.0
 11
4.25
 21
30.7
 31
0.0
  0
LINE
  5
8B
330
1E
100
AcDbEntity
  8
0
100
AcDbLine
 10
4.25
 20
31.0
 30
0.0
 11
4.25
 21
31.4
 31
0.0
  0
LINE
  5
8D
330
1E
100
AcDbEntity
  8
0
100
AcDbLine
 10
4.25
 20
30.5
 30
0.0
 11
4.25
 21
31.4
 31
0.0
  0
LINE
  5
8F
330
1E
100
AcDbEntity
  8
0
100
AcDbLine
 10
4.25
 20
29.05
 30
0.0
 11
4.25
 21
27.1
 31
0.0
  0
LINE
  5
91
330
1E
100
AcDbEntity
  8
0
100
AcDbLine
 10
4.25
 20
24.9
 30
0.0
 11
4.25
 21
22.5
 31
0.0
  0
LINE
  5
93
330
1E
100
AcDbEntity
  8
0
100
AcDbLine
 10
4.25
 20
24.9
 30
0.0
 11
4.25
 21
27.1
 31
0.0
  0
LINE
  5
94
330
1E
100
AcDbEntity
  8
0
100
AcDbLine
 10
4.25
 20
22.5
 30
0.0
 11
4.25
 21
20.1
 31
0.0
  0
LINE
  5
95
330
1E
100
AcDbEntity
  8
0
100
AcDbLine
 10
4.25
 20
22.5
 30
0.0
 11
4.25
 21
24.9
 31
0.0
  0
LINE
  5
96
330
1E
100
AcDbEntity
  8
0
100
AcDbLine
 10
4.25
 20
22.5
 30
0.0
 11
4.25
 21
20.325
 31
0.0
  0
LINE
  5
97
330
1E
100
AcDbEntity
  8
0
100
AcDbLine
 10
4.25
 20
20.1
 30
0.0
 11
4.25
 21
22.5
 31
0.0
  0
LINE
  5
99
330
1E
100
AcDbEntity
  8
0
100
AcDbLine
 10
4.25
 20
20.1
 30
0.0
 11
4.25
 21
17.9
 31
0.0
  0
LINE
  5
9A
330
1E
100
AcDbEntity
  8
0
100
AcDbLine
 10
4.316699999999999
 20
32.0
 30
0.0
 11
4.41
 21
32.0
 31
0.0
  0
LINE
  5
9B
330
1E
100
AcDbEntity
  8
0
100
AcDbLine
 10
4.25
 20
13.6
 30
0.0
 11
4.25
 21
13.25
 31
0.0
  0
LINE
  5
9C
330
1E
100
AcDbEntity
  8
0
100
AcDbLine
 10
4.25
 20
13.6
 30
0.0
 11
4.25
 21
14.0
 31
0.0
  0
LINE
  5
9D
330
1E
100
AcDbEntity
  8
0
100
AcDbLine
 10
4.25
 20
13.25
 30
0.0
 11
4.316699999999999
 21
13.0
 31
0.0
  0
LINE
  5
9E
330
1E
100
AcDbEntity
  8
0
100
AcDbLine
 10
4.25
 20
13.25
 30
0.0
 11
4.25
 21
13.6
 31
0.0
  0
LINE
  5
9F
330
1E
100
AcDbEntity
  8
0
100
AcDbLine
 10
4.25
 20
13.25
 30
0.0
 11
4.25
 21
13.6
 31
0.0
  0
LINE
  5
A0
330
1E
100
AcDbEntity
  8
0
100
AcDbLine
 10
4.41
 20
13.0
 30
0.0
 11
4.916699999999999
 21
13.0
 31
0.0
  0
LINE
  5
A1
330
1E
100
AcDbEntity
  8
0
100
AcDbLine
 10
4.916699999999999
 20
13.0
 30
0.0
 11
5.5833
 21
13.0
 31
0.0
  0
LINE
  5
A2
330
1E
100
AcDbEntity
  8
0
100
AcDbLine
 10
5.5833
 20
13.0
 30
0.0
 11
8.916669999999999
 21
13.0
 31
0.0
  0
LINE
  5
A3
330
1E
100
AcDbEntity
  8
0
100
AcDbLine
 10
8.916669999999999
 20
13.0
 30
0.0
 11
9.58333
 21
13.0
 31
0.0
  0
LINE
  5
A4
330
1E
100
AcDbEntity
  8
0
100
AcDbLine
 10
13.88595
 20
13.0
 30
0.0
 11
13.97627
 21
13.0
 31
0.0
  0
LINE
  5
A5
330
1E
100
AcDbEntity
  8
0
100
AcDbLine
 10
9.58333
 20
13.0
 30
0.0
 11
10.09
 21
13.0
 31
0.0
  0
LINE
  5
A6
330
1E
100
AcDbEntity
  8
0
100
AcDbLine
 10
10.09
 20
13.0
 30
0.0
 11
10.18332999999999
 21
13.0
 31
0.0
  0
LINE
  5
A7
330
1E
100
AcDbEntity
  8
0
100
AcDbLine
 10
14.46659
 20
13.0
 30
0.0
 11
15.11175
 21
13.0
 31
0.0
  0
LINE
  5
A8
330
1E
100
AcDbEntity
  8
0
100
AcDbLine
 10
13.97627
 20
13.0
 30
0.0
 11
14.46659
 21
13.0
 31
0.0
  0
LINE
  5
A9
330
1E
100
AcDbEntity
  8
0
100
AcDbLine
 10
15.11175
 20
13.0
 30
0.0
 11
15.75
 21
13.0
 31
0.0
  0
LINE
  5
AA
330
1E
100
AcDbEntity
  8
0
100
AcDbLine
 10
15.11175
 20
13.0
 30
0.0
 11
15.75
 21
13.0
 31
0.0
  0
LINE
  5
AB
330
1E
100
AcDbEntity
  8
0
100
AcDbLine
 10
14.46659
 20
13.0
 30
0.0
 11
15.11175
 21
13.0
 31
0.0
  0
LINE
  5
AC
330
1E
100
AcDbEntity
  8
0
100
AcDbLine
 10
13.97627
 20
13.0
 30
0.0
 11
14.46659
 21
13.0
 31
0.0
  0
LINE
  5
AD
330
1E
100
AcDbEntity
  8
0
100
AcDbLine
 10
13.88595
 20
13.0
 30
0.0
 11
13.97627
 21
13.0
 31
0.0
  0
LINE
  5
AE
330
1E
100
AcDbEntity
  8
0
100
AcDbLine
 10
13.88595
 20
13.0
 30
0.0
 11
13.97627
 21
13.0
 31
0.0
  0
LINE
  5
AF
330
1E
100
AcDbEntity
  8
0
100
AcDbLine
 10
10.18332999999999
 20
13.0
 30
0.0
 11
10.25
 21
13.25
 31
0.0
  0
LINE
  5
B0
330
1E
100
AcDbEntity
  8
0
100
AcDbLine
 10
5.5833
 20
13.0
 30
0.0
 11
8.916669999999999
 21
13.0
 31
0.0
  0
LINE
  5
B1
330
1E
100
AcDbEntity
  8
0
100
AcDbLine
 10
8.916669999999999
 20
13.0
 30
0.0
 11
9.58333
 21
13.0
 31
0.0
  0
LINE
  5
B2
330
1E
100
AcDbEntity
  8
0
100
AcDbLine
 10
4.916699999999999
 20
13.0
 30
0.0
 11
5.5833
 21
13.0
 31
0.0
  0
LINE
  5
B3
330
1E
100
AcDbEntity
  8
0
100
AcDbLine
 10
9.58333
 20
13.0
 30
0.0
 11
10.09
 21
13.0
 31
0.0
  0
LINE
  5
B4
330
1E
100
AcDbEntity
  8
0
100
AcDbLine
 10
4.41
 20
13.0
 30
0.0
 11
4.916699999999999
 21
13.0
 31
0.0
  0
LINE
  5
B5
330
1E
100
AcDbEntity
  8
0
100
AcDbLine
 10
4.384699999999999
 20
27.33579999999999
 30
0.0
 11
4.492399999999999
 21
29.6
 31
0.0
  0
LINE
  5
B6
330
1E
100
AcDbEntity
  8
0
100
AcDbLine
 10
4.384699999999999
 20
27.33579999999999
 30
0.0
 11
4.529099999999999
 21
25.0839
 31
0.0
  0
LINE
  5
B7
330
1E
100
AcDbEntity
  8
0
100
AcDbLine
 10
4.384699999999999
 20
17.6642
 30
0.0
 11
4.492399999999999
 21
15.4
 31
0.0
  0
LINE
  5
B8
330
1E
100
AcDbEntity
  8
0
100
AcDbLine
 10
4.384699999999999
 20
17.6642
 30
0.0
 11
4.529099999999999
 21
19.9161
 31
0.0
  0
LINE
  5
B9
330
1E
100
AcDbEntity
  8
0
100
AcDbLine
 10
5.5833
 20
13.0
 30
0.0
 11
8.916669999999999
 21
13.0
 31
0.0
  0
LINE
  5
BA
330
1E
100
AcDbEntity
  8
0
100
AcDbLine
 10
5.5833
 20
13.0
 30
0.0
 11
5.5833
 21
13.2445
 31
0.0
  0
LINE
  5
BB
330
1E
100
AcDbEntity
  8
0
100
AcDbLine
 10
4.916699999999999
 20
13.0
 30
0.0
 11
5.5833
 21
13.0
 31
0.0
  0
LINE
  5
BD
330
1E
100
AcDbEntity
  8
0
100
AcDbLine
 10
4.41
 20
13.0
 30
0.0
 11
4.916699999999999
 21
13.0
 31
0.0
  0
LINE
  5
C2
330
1E
100
AcDbEntity
  8
0
100
AcDbLine
 10
5.5833
 20
13.2445
 30
0.0
 11
5.5833
 21
13.0
 31
0.0
  0
LINE
  5
C3
330
1E
100
AcDbEntity
  8
0
100
AcDbLine
 10
9.58333
 20
13.2
 30
0.0
 11
9.58333
 21
13.0
 31
0.0
  0
LINE
  5
C5
330
1E
100
AcDbEntity
  8
0
100
AcDbLine
 10
9.58333
 20
13.2
 30
0.0
 11
9.58333
 21
13.8142
 31
0.0
  0
LINE
  5
C6
330
1E
100
AcDbEntity
  8
0
100
AcDbLine
 10
15.11175
 20
13.0
 30
0.0
 11
15.75
 21
13.0
 31
0.0
  0
LINE
  5
C7
330
1E
100
AcDbEntity
  8
0
100
AcDbLine
 10
15.11175
 20
13.0
 30
0.0
 11
15.11175
 21
13.2445
 31
0.0
  0
LINE
  5
C8
330
1E
100
AcDbEntity
  8
0
100
AcDbLine
 10
14.46659
 20
13.0
 30
0.0
 11
15.11175
 21
13.0
 31
0.0
  0
LINE
  5
CA
330
1E
100
AcDbEntity
  8
0
100
AcDbLine
 10
13.97627
 20
13.0
 30
0.0
 11
14.46659
 21
13.0
 31
0.0
  0
LINE
  5
CC
330
1E
100
AcDbEntity
  8
0
100
AcDbLine
 10
10.25
 20
13.25
 30
0.0
 11
10.25
 21
13.6
 31
0.0
  0
LINE
  5
CD
330
1E
100
AcDbEntity
  8
0
100
AcDbLine
 10
13.82143
 20
13.25
 30
0.0
 11
13.88595
 21
13.0
 31
0.0
  0
LINE
  5
CE
330
1E
100
AcDbEntity
  8
0
100
AcDbLine
 10
13.82143
 20
13.25
 30
0.0
 11
13.82143
 21
13.6
 31
0.0
  0
LINE
  5
CF
330
1E
100
AcDbEntity
  8
0
100
AcDbLine
 10
15.11175
 20
13.2445
 30
0.0
 11
15.11175
 21
13.0
 31
0.0
  0
LINE
  5
D3
330
1E
100
AcDbEntity
  8
0
100
AcDbLine
 10
13.82143
 20
13.6
 30
0.0
 11
13.82143
 21
13.25
 31
0.0
  0
LINE
  5
D4
330
1E
100
AcDbEntity
  8
0
100
AcDbLine
 10
13.82143
 20
13.6
 30
0.0
 11
13.82143
 21
14.0
 31
0.0
  0
LINE
  5
D5
330
1E
100
AcDbEntity
  8
0
100
AcDbLine
 10
13.82143
 20
13.6
 30
0.0
 11
13.82143
 21
14.5
 31
0.0
  0
LINE
  5
D7
330
1E
100
AcDbEntity
  8
0
100
AcDbLine
 10
13.82143
 20
13.6
 30
0.0
 11
13.82143
 21
13.25
 31
0.0
  0
LINE
  5
D8
330
1E
100
AcDbEntity
  8
0
100
AcDbLine
 10
13.82143
 20
13.6
 30
0.0
 11
13.82143
 21
13.25
 31
0.0
  0
LINE
  5
D9
330
1E
100
AcDbEntity
  8
0
100
AcDbLine
 10
13.82143
 20
13.6
 30
0.0
 11
13.82143
 21
14.0
 31
0.0
  0
LINE
  5
DA
330
1E
100
AcDbEntity
  8
0
100
AcDbLine
 10
13.82143
 20
13.25
 30
0.0
 11
13.88595
 21
13.0
 31
0.0
  0
LINE
  5
DB
330
1E
100
AcDbEntity
  8
0
100
AcDbLine
 10
13.82143
 20
13.25
 30
0.0
 11
13.82143
 21
13.6
 31
0.0
  0
LINE
  5
DC
330
1E
100
AcDbEntity
  8
0
100
AcDbLine
 10
13.82143
 20
13.25
 30
0.0
 11
13.82143
 21
13.6
 31
0.0
  0
LINE
  5
DD
330
1E
100
AcDbEntity
  8
0
100
AcDbLine
 10
10.25
 20
13.6
 30
0.0
 11
10.25
 21
14.5
 31
0.0
  0
LINE
  5
DE
330
1E
100
AcDbEntity
  8
0
100
AcDbLine
 10
10.25
 20
13.6
 30
0.0
 11
10.25
 21
13.25
 31
0.0
  0
LINE
  5
DF
330
1E
100
AcDbEntity
  8
0
100
AcDbLine
 10
10.09
 20
13.0
 30
0.0
 11
10.18332999999999
 21
13.0
 31
0.0
  0
LINE
  5
E0
330
1E
100
AcDbEntity
  8
0
100
AcDbLine
 10
9.58333
 20
13.0
 30
0.0
 11
10.09
 21
13.0
 31
0.0
  0
LINE
  5
E1
330
1E
100
AcDbEntity
  8
0
100
AcDbLine
 10
9.58333
 20
13.0
 30
0.0
 11
9.58333
 21
13.2
 31
0.0
  0
LINE
  5
E2
330
1E
100
AcDbEntity
  8
0
100
AcDbLine
 10
9.58333
 20
13.8142
 30
0.0
 11
10.00758
 21
15.4
 31
0.0
  0
LINE
  5
E4
330
1E
100
AcDbEntity
  8
0
100
AcDbLine
 10
9.58333
 20
13.8142
 30
0.0
 11
9.58333
 21
13.2
 31
0.0
  0
LINE
  5
E5
330
1E
100
AcDbEntity
  8
0
100
AcDbLine
 10
4.916699999999999
 20
13.8142
 30
0.0
 11
5.5833
 21
13.2445
 31
0.0
  0
LINE
  5
EB
330
1E
100
AcDbEntity
  8
0
100
AcDbLine
 10
4.41
 20
32.0
 30
0.0
 11
4.916699999999999
 21
32.0
 31
0.0
  0
LINE
  5
EE
330
1E
100
AcDbEntity
  8
0
100
AcDbLine
 10
4.492399999999999
 20
29.6
 30
0.0
 11
4.916699999999999
 21
31.1858
 31
0.0
  0
LINE
  5
F3
330
1E
100
AcDbEntity
  8
0
100
AcDbLine
 10
4.916699999999999
 20
22.5
 30
0.0
 11
4.916699999999999
 21
21.32589999999999
 31
0.0
  0
LINE
  5
F4
330
1E
100
AcDbEntity
  8
0
100
AcDbLine
 10
4.916699999999999
 20
22.5
 30
0.0
 11
4.916699999999999
 21
23.6741
 31
0.0
  0
LINE
  5
F5
330
1E
100
AcDbEntity
  8
0
100
AcDbLine
 10
4.916699999999999
 20
21.32589999999999
 30
0.0
 11
4.916699999999999
 21
22.5
 31
0.0
  0
LINE
  5
F6
330
1E
100
AcDbEntity
  8
0
100
AcDbLine
 10
4.916699999999999
 20
31.1858
 30
0.0
 11
5.5833
 21
32.0
 31
0.0
  0
LINE
  5
F7
330
1E
100
AcDbEntity
  8
0
100
AcDbLine
 10
4.916699999999999
 20
32.0
 30
0.0
 11
5.5833
 21
32.0
 31
0.0
  0
LINE
  5
FD
330
1E
100
AcDbEntity
  8
0
100
AcDbLine
 10
4.529099999999999
 20
25.0839
 30
0.0
 11
4.916699999999999
 21
23.6741
 31
0.0
  0
LINE
  5
FF
330
1E
100
AcDbEntity
  8
0
100
AcDbLine
 10
5.5833
 20
32.0
 30
0.0
 11
8.916669999999999
 21
32.0
 31
0.0
  0
LINE
  5
101
330
1E
100
AcDbEntity
  8
0
100
AcDbLine
 10
8.916669999999999
 20
32.0
 30
0.0
 11
9.58333
 21
32.0
 31
0.0
  0
LINE
  5
102
330
1E
100
AcDbEntity
  8
0
100
AcDbLine
 10
9.58333
 20
32.0
 30
0.0
 11
9.58333
 21
31.8
 31
0.0
  0
LINE
  5
103
330
1E
100
AcDbEntity
  8
0
100
AcDbLine
 10
9.58333
 20
32.0
 30
0.0
 11
10.09
 21
32.0
 31
0.0
  0
LINE
  5
105
330
1E
100
AcDbEntity
  8
0
100
AcDbLine
 10
9.58333
 20
31.8
 30
0.0
 11
9.58333
 21
32.0
 31
0.0
  0
LINE
  5
106
330
1E
100
AcDbEntity
  8
0
100
AcDbLine
 10
9.58333
 20
31.8
 30
0.0
 11
9.58333
 21
31.1858
 31
0.0
  0
LINE
  5
107
330
1E
100
AcDbEntity
  8
0
100
AcDbLine
 10
9.58333
 20
31.1858
 30
0.0
 11
10.00758
 21
29.6
 31
0.0
  0
LINE
  5
109
330
1E
100
AcDbEntity
  8
0
100
AcDbLine
 10
9.58333
 20
31.1858
 30
0.0
 11
9.58333
 21
31.8
 31
0.0
  0
LINE
  5
10B
330
1E
100
AcDbEntity
  8
0
100
AcDbLine
 10
9.58333
 20
23.6741
 30
0.0
 11
9.58333
 21
22.5
 31
0.0
  0
LINE
  5
10C
330
1E
100
AcDbEntity
  8
0
100
AcDbLine
 10
9.58333
 20
23.6741
 30
0.0
 11
9.97093
 21
25.0839
 31
0.0
  0
LINE
  5
10D
330
1E
100
AcDbEntity
  8
0
100
AcDbLine
 10
4.916699999999999
 20
23.6741
 30
0.0
 11
4.916699999999999
 21
22.5
 31
0.0
  0
LINE
  5
10F
330
1E
100
AcDbEntity
  8
0
100
AcDbLine
 10
9.58333
 20
22.5
 30
0.0
 11
9.58333
 21
21.32589999999999
 31
0.0
  0
LINE
  5
110
330
1E
100
AcDbEntity
  8
0
100
AcDbLine
 10
9.58333
 20
22.5
 30
0.0
 11
9.58333
 21
23.6741
 31
0.0
  0
LINE
  5
113
330
1E
100
AcDbEntity
  8
0
100
AcDbLine
 10
9.97093
 20
25.0839
 30
0.0
 11
10.11525
 21
27.33579999999999
 31
0.0
  0
LINE
  5
114
330
1E
100
AcDbEntity
  8
0
100
AcDbLine
 10
9.58333
 20
21.32589999999999
 30
0.0
 11
9.97093
 21
19.9161
 31
0.0
  0
LINE
  5
116
330
1E
100
AcDbEntity
  8
0
100
AcDbLine
 10
9.58333
 20
21.32589999999999
 30
0.0
 11
9.58333
 21
22.5
 31
0.0
  0
LINE
  5
117
330
1E
100
AcDbEntity
  8
0
100
AcDbLine
 10
4.529099999999999
 20
19.9161
 30
0.0
 11
4.916699999999999
 21
21.32589999999999
 31
0.0
  0
LINE
  5
119
330
1E
100
AcDbEntity
  8
0
100
AcDbLine
 10
10.00758
 20
29.6
 30
0.0
 11
10.11525
 21
27.33579999999999
 31
0.0
  0
LINE
  5
11A
330
1E
100
AcDbEntity
  8
0
100
AcDbLine
 10
9.97093
 20
19.9161
 30
0.0
 11
10.11525
 21
17.6642
 31
0.0
  0
LINE
  5
11D
330
1E
100
AcDbEntity
  8
0
100
AcDbLine
 10
10.00758
 20
15.4
 30
0.0
 11
10.11525
 21
17.6642
 31
0.0
  0
LINE
  5
11E
330
1E
100
AcDbEntity
  8
0
100
AcDbLine
 10
4.492399999999999
 20
15.4
 30
0.0
 11
4.916699999999999
 21
13.8142
 31
0.0
  0
LINE
  5
120
330
1E
100
AcDbEntity
  8
0
100
AcDbLine
 10
10.25
 20
14.0
 30
0.0
 11
13.82143
 21
14.0
 31
0.0
  0
LINE
  5
121
330
1E
100
AcDbEntity
  8
0
100
AcDbLine
 10
10.25
 20
17.9
 30
0.0
 11
10.25
 21
20.1
 31
0.0
  0
LINE
  5
125
330
1E
100
AcDbEntity
  8
0
100
AcDbLine
 10
10.25
 20
15.94999999999999
 30
0.0
 11
10.25
 21
14.5
 31
0.0
  0
LINE
  5
126
330
1E
100
AcDbEntity
  8
0
100
AcDbLine
 10
13.82143
 20
14.3
 30
0.0
 11
13.82143
 21
14.0
 31
0.0
  0
LINE
  5
129
330
1E
100
AcDbEntity
  8
0
100
AcDbLine
 10
14.46659
 20
13.8142
 30
0.0
 11
15.11175
 21
13.2445
 31
0.0
  0
LINE
  5
12C
330
1E
100
AcDbEntity
  8
0
100
AcDbLine
 10
13.82143
 20
14.0
 30
0.0
 11
13.82143
 21
13.6
 31
0.0
  0
LINE
  5
12D
330
1E
100
AcDbEntity
  8
0
100
AcDbLine
 10
13.82143
 20
14.0
 30
0.0
 11
13.82143
 21
13.6
 31
0.0
  0
LINE
  5
12E
330
1E
100
AcDbEntity
  8
0
100
AcDbLine
 10
13.82143
 20
16.5
 30
0.0
 11
13.82143
 21
15.15
 31
0.0
  0
LINE
  5
12F
330
1E
100
AcDbEntity
  8
0
100
AcDbLine
 10
13.82143
 20
15.15
 30
0.0
 11
13.82143
 21
14.3
 31
0.0
  0
LINE
  5
130
330
1E
100
AcDbEntity
  8
0
100
AcDbLine
 10
13.82143
 20
15.94999999999999
 30
0.0
 11
13.82143
 21
17.9
 31
0.0
  0
LINE
  5
133
330
1E
100
AcDbEntity
  8
0
100
AcDbLine
 10
13.82143
 20
15.94999999999999
 30
0.0
 11
13.82143
 21
14.5
 31
0.0
  0
LINE
  5
134
330
1E
100
AcDbEntity
  8
0
100
AcDbLine
 10
13.82143
 20
18.27499999999999
 30
0.0
 11
13.82143
 21
16.5
 31
0.0
  0
LINE
  5
135
330
1E
100
AcDbEntity
  8
0
100
AcDbLine
 10
13.82143
 20
17.9
 30
0.0
 11
13.82143
 21
20.1
 31
0.0
  0
LINE
  5
137
330
1E
100
AcDbEntity
  8
0
100
AcDbLine
 10
13.82143
 20
17.9
 30
0.0
 11
13.82143
 21
15.94999999999999
 31
0.0
  0
LINE
  5
139
330
1E
100
AcDbEntity
  8
0
100
AcDbLine
 10
13.82143
 20
14.5
 30
0.0
 11
13.82143
 21
15.94999999999999
 31
0.0
  0
LINE
  5
13C
330
1E
100
AcDbEntity
  8
0
100
AcDbLine
 10
13.82143
 20
14.5
 30
0.0
 11
13.82143
 21
13.6
 31
0.0
  0
LINE
  5
13D
330
1E
100
AcDbEntity
  8
0
100
AcDbLine
 10
13.82143
 20
20.1
 30
0.0
 11
13.82143
 21
22.5
 31
0.0
  0
LINE
  5
13F
330
1E
100
AcDbEntity
  8
0
100
AcDbLine
 10
13.82143
 20
20.1
 30
0.0
 11
13.82143
 21
17.9
 31
0.0
  0
LINE
  5
140
330
1E
100
AcDbEntity
  8
0
100
AcDbLine
 10
14.0915
 20
19.9161
 30
0.0
 11
14.46659
 21
21.32589999999999
 31
0.0
  0
LINE
  5
142
330
1E
100
AcDbEntity
  8
0
100
AcDbLine
 10
13.95182
 20
17.6642
 30
0.0
 11
14.05601
 21
15.4
 31
0.0
  0
LINE
  5
143
330
1E
100
AcDbEntity
  8
0
100
AcDbLine
 10
13.95182
 20
17.6642
 30
0.0
 11
14.0915
 21
19.9161
 31
0.0
  0
LINE
  5
144
330
1E
100
AcDbEntity
  8
0
100
AcDbLine
 10
14.05601
 20
15.4
 30
0.0
 11
14.46659
 21
13.8142
 31
0.0
  0
LINE
  5
146
330
1E
100
AcDbEntity
  8
0
100
AcDbLine
 10
10.25
 20
14.5
 30
0.0
 11
10.25
 21
13.6
 31
0.0
  0
LINE
  5
147
330
1E
100
AcDbEntity
  8
0
100
AcDbLine
 10
10.25
 20
14.5
 30
0.0
 11
10.25
 21
15.94999999999999
 31
0.0
  0
LINE
  5
148
330
1E
100
AcDbEntity
  8
0
100
AcDbLine
 10
13.82143
 20
20.325
 30
0.0
 11
13.82143
 21
18.27499999999999
 31
0.0
  0
LINE
  5
149
330
1E
100
AcDbEntity
  8
0
100
AcDbLine
 10
13.82143
 20
22.5
 30
0.0
 11
13.82143
 21
20.1
 31
0.0
  0
LINE
  5
14A
330
1E
100
AcDbEntity
  8
0
100
AcDbLine
 10
13.82143
 20
22.5
 30
0.0
 11
13.82143
 21
24.9
 31
0.0
  0
LINE
  5
14B
330
1E
100
AcDbEntity
  8
0
100
AcDbLine
 10
13.82143
 20
22.5
 30
0.0
 11
13.82143
 21
20.325
 31
0.0
  0
LINE
  5
14C
330
1E
100
AcDbEntity
  8
0
100
AcDbLine
 10
14.46659
 20
22.5
 30
0.0
 11
14.46659
 21
21.32589999999999
 31
0.0
  0
LINE
  5
14D
330
1E
100
AcDbEntity
  8
0
100
AcDbLine
 10
14.46659
 20
22.5
 30
0.0
 11
14.46659
 21
23.6741
 31
0.0
  0
LINE
  5
151
330
1E
100
AcDbEntity
  8
0
100
AcDbLine
 10
14.46659
 20
21.32589999999999
 30
0.0
 11
14.46659
 21
22.5
 31
0.0
  0
LINE
  5
152
330
1E
100
AcDbEntity
  8
0
100
AcDbLine
 10
10.25
 20
20.1
 30
0.0
 11
10.25
 21
22.5
 31
0.0
  0
LINE
  5
153
330
1E
100
AcDbEntity
  8
0
100
AcDbLine
 10
10.25
 20
20.1
 30
0.0
 11
10.25
 21
15.94999999999999
 31
0.0
  0
LINE
  5
155
330
1E
100
AcDbEntity
  8
0
100
AcDbLine
 10
10.25
 20
27.1
 30
0.0
 11
10.25
 21
24.9
 31
0.0
  0
LINE
  5
156
330
1E
100
AcDbEntity
  8
0
100
AcDbLine
 10
10.25
 20
27.1
 30
0.0
 11
10.25
 21
29.05
 31
0.0
  0
LINE
  5
158
330
1E
100
AcDbEntity
  8
0
100
AcDbLine
 10
10.25
 20
31.0
 30
0.0
 11
13.82143
 21
31.0
 31
0.0
  0
LINE
  5
159
330
1E
100
AcDbEntity
  8
0
100
AcDbLine
 10
10.25
 20
31.75
 30
0.0
 11
10.25
 21
31.4
 31
0.0
  0
LINE
  5
15A
330
1E
100
AcDbEntity
  8
0
100
AcDbLine
 10
10.18332999999999
 20
32.0
 30
0.0
 11
10.25
 21
31.75
 31
0.0
  0
LINE
  5
15B
330
1E
100
AcDbEntity
  8
0
100
AcDbLine
 10
10.25
 20
31.4
 30
0.0
 11
10.25
 21
31.75
 31
0.0
  0
LINE
  5
15C
330
1E
100
AcDbEntity
  8
0
100
AcDbLine
 10
10.25
 20
31.4
 30
0.0
 11
10.25
 21
30.5
 31
0.0
  0
LINE
  5
15D
330
1E
100
AcDbEntity
  8
0
100
AcDbLine
 10
10.25
 20
30.5
 30
0.0
 11
10.25
 21
29.05
 31
0.0
  0
LINE
  5
15E
330
1E
100
AcDbEntity
  8
0
100
AcDbLine
 10
10.25
 20
30.5
 30
0.0
 11
10.25
 21
31.4
 31
0.0
  0
LINE
  5
15F
330
1E
100
AcDbEntity
  8
0
100
AcDbLine
 10
10.09
 20
32.0
 30
0.0
 11
10.18332999999999
 21
32.0
 31
0.0
  0
LINE
  5
160
330
1E
100
AcDbEntity
  8
0
100
AcDbLine
 10
10.25
 20
29.05
 30
0.0
 11
10.25
 21
30.5
 31
0.0
  0
LINE
  5
161
330
1E
100
AcDbEntity
  8
0
100
AcDbLine
 10
10.25
 20
29.05
 30
0.0
 11
10.25
 21
27.1
 31
0.0
  0
LINE
  5
162
330
1E
100
AcDbEntity
  8
0
100
AcDbLine
 10
13.82143
 20
24.675
 30
0.0
 11
13.82143
 21
22.5
 31
0.0
  0
LINE
  5
163
330
1E
100
AcDbEntity
  8
0
100
AcDbLine
 10
14.46659
 20
23.6741
 30
0.0
 11
14.46659
 21
22.5
 31
0.0
  0
LINE
  5
164
330
1E
100
AcDbEntity
  8
0
100
AcDbLine
 10
13.82143
 20
28.5
 30
0.0
 11
13.82143
 21
26.725
 31
0.0
  0
LINE
  5
165
330
1E
100
AcDbEntity
  8
0
100
AcDbLine
 10
13.82143
 20
26.725
 30
0.0
 11
13.82143
 21
24.675
 31
0.0
  0
LINE
  5
166
330
1E
100
AcDbEntity
  8
0
100
AcDbLine
 10
13.82143
 20
27.1
 30
0.0
 11
13.82143
 21
29.05
 31
0.0
  0
LINE
  5
168
330
1E
100
AcDbEntity
  8
0
100
AcDbLine
 10
13.82143
 20
27.1
 30
0.0
 11
13.82143
 21
24.9
 31
0.0
  0
LINE
  5
16B
330
1E
100
AcDbEntity
  8
0
100
AcDbLine
 10
13.82143
 20
29.05
 30
0.0
 11
13.82143
 21
30.5
 31
0.0
  0
LINE
  5
16D
330
1E
100
AcDbEntity
  8
0
100
AcDbLine
 10
13.82143
 20
29.05
 30
0.0
 11
13.82143
 21
27.1
 31
0.0
  0
LINE
  5
16E
330
1E
100
AcDbEntity
  8
0
100
AcDbLine
 10
13.95182
 20
27.33579999999999
 30
0.0
 11
14.05601
 21
29.6
 31
0.0
  0
LINE
  5
16F
330
1E
100
AcDbEntity
  8
0
100
AcDbLine
 10
13.95182
 20
27.33579999999999
 30
0.0
 11
14.0915
 21
25.0839
 31
0.0
  0
LINE
  5
171
330
1E
100
AcDbEntity
  8
0
100
AcDbLine
 10
13.82143
 20
31.4
 30
0.0
 11
13.82143
 21
31.0
 31
0.0
  0
LINE
  5
173
330
1E
100
AcDbEntity
  8
0
100
AcDbLine
 10
13.82143
 20
31.4
 30
0.0
 11
13.82143
 21
31.75
 31
0.0
  0
LINE
  5
174
330
1E
100
AcDbEntity
  8
0
100
AcDbLine
 10
13.82143
 20
30.7
 30
0.0
 11
13.82143
 21
29.85
 31
0.0
  0
LINE
  5
175
330
1E
100
AcDbEntity
  8
0
100
AcDbLine
 10
13.82143
 20
29.85
 30
0.0
 11
13.82143
 21
28.5
 31
0.0
  0
LINE
  5
176
330
1E
100
AcDbEntity
  8
0
100
AcDbLine
 10
13.82143
 20
31.0
 30
0.0
 11
13.82143
 21
31.4
 31
0.0
  0
LINE
  5
177
330
1E
100
AcDbEntity
  8
0
100
AcDbLine
 10
13.82143
 20
31.0
 30
0.0
 11
13.82143
 21
30.7
 31
0.0
  0
LINE
  5
178
330
1E
100
AcDbEntity
  8
0
100
AcDbLine
 10
13.82143
 20
31.0
 30
0.0
 11
13.82143
 21
31.4
 31
0.0
  0
LINE
  5
179
330
1E
100
AcDbEntity
  8
0
100
AcDbLine
 10
13.82143
 20
31.75
 30
0.0
 11
13.82143
 21
31.4
 31
0.0
  0
LINE
  5
17A
330
1E
100
AcDbEntity
  8
0
100
AcDbLine
 10
13.82143
 20
31.75
 30
0.0
 11
13.88595
 21
32.0
 31
0.0
  0
LINE
  5
17B
330
1E
100
AcDbEntity
  8
0
100
AcDbLine
 10
13.82143
 20
31.75
 30
0.0
 11
13.82143
 21
31.4
 31
0.0
  0
LINE
  5
17C
330
1E
100
AcDbEntity
  8
0
100
AcDbLine
 10
13.82143
 20
31.75
 30
0.0
 11
13.88595
 21
32.0
 31
0.0
  0
LINE
  5
17D
330
1E
100
AcDbEntity
  8
0
100
AcDbLine
 10
13.82143
 20
31.4
 30
0.0
 11
13.82143
 21
31.0
 31
0.0
  0
LINE
  5
17F
330
1E
100
AcDbEntity
  8
0
100
AcDbLine
 10
13.82143
 20
31.4
 30
0.0
 11
13.82143
 21
31.75
 31
0.0
  0
LINE
  5
180
330
1E
100
AcDbEntity
  8
0
100
AcDbLine
 10
13.82143
 20
31.4
 30
0.0
 11
13.82143
 21
30.5
 31
0.0
  0
LINE
  5
181
330
1E
100
AcDbEntity
  8
0
100
AcDbLine
 10
13.88595
 20
32.0
 30
0.0
 11
13.97627
 21
32.0
 31
0.0
  0
LINE
  5
182
330
1E
100
AcDbEntity
  8
0
100
AcDbLine
 10
13.97627
 20
32.0
 30
0.0
 11
14.46659
 21
32.0
 31
0.0
  0
LINE
  5
185
330
1E
100
AcDbEntity
  8
0
100
AcDbLine
 10
13.82143
 20
30.5
 30
0.0
 11
13.82143
 21
29.05
 31
0.0
  0
LINE
  5
187
330
1E
100
AcDbEntity
  8
0
100
AcDbLine
 10
13.82143
 20
30.5
 30
0.0
 11
13.82143
 21
31.4
 31
0.0
  0
LINE
  5
188
330
1E
100
AcDbEntity
  8
0
100
AcDbLine
 10
14.05601
 20
29.6
 30
0.0
 11
14.46659
 21
31.1858
 31
0.0
  0
LINE
  5
18D
330
1E
100
AcDbEntity
  8
0
100
AcDbLine
 10
14.46659
 20
31.1858
 30
0.0
 11
15.11175
 21
32.0
 31
0.0
  0
LINE
  5
18E
330
1E
100
AcDbEntity
  8
0
100
AcDbLine
 10
14.46659
 20
32.0
 30
0.0
 11
15.11175
 21
32.0
 31
0.0
  0
LINE
  5
190
330
1E
100
AcDbEntity
  8
0
100
AcDbLine
 10
15.11175
 20
32.0
 30
0.0
 11
15.75
 21
32.0
 31
0.0
  0
LINE
  5
196
330
1E
100
AcDbEntity
  8
0
100
AcDbLine
 10
14.0915
 20
25.0839
 30
0.0
 11
14.46659
 21
23.6741
 31
0.0
  0
LINE
  5
197
330
1E
100
AcDbEntity
  8
0
100
AcDbLine
 10
13.82143
 20
24.9
 30
0.0
 11
13.82143
 21
22.5
 31
0.0
  0
LINE
  5
199
330
1E
100
AcDbEntity
  8
0
100
AcDbLine
 10
13.82143
 20
24.9
 30
0.0
 11
13.82143
 21
27.1
 31
0.0
  0
LINE
  5
19A
330
1E
100
AcDbEntity
  8
0
100
AcDbLine
 10
10.25
 20
24.9
 30
0.0
 11
10.25
 21
22.5
 31
0.0
  0
LINE
  5
19B
330
1E
100
AcDbEntity
  8
0
100
AcDbLine
 10
10.25
 20
24.9
 30
0.0
 11
10.25
 21
27.1
 31
0.0
  0
LINE
  5
19C
330
1E
100
AcDbEntity
  8
0
100
AcDbLine
 10
10.25
 20
22.5
 30
0.0
 11
10.25
 21
20.1
 31
0.0
  0
LINE
  5
19D
330
1E
100
AcDbEntity
  8
0
100
AcDbLine
 10
10.25
 20
22.5
 30
0.0
 11
10.25
 21
24.9
 31
0.0
  0
LINE
  5
19E
330
1E
100
AcDbEntity
  8
0
100
AcDbLine
 10
10.09
 20
13.0
 30
0.0
 11
10.18332999999999
 21
13.0
 31
0.0
  0
LINE
  5
19F
330
1E
100
AcDbEntity
  8
0
100
AcDbLine
 10
4.316699999999999
 20
13.0
 30
0.0
 11
4.41
 21
13.0
 31
0.0
  0
LINE
  5
1A0
330
1E
100
AcDbEntity
  8
0
100
AcDbLine
 10
4.316699999999999
 20
13.0
 30
0.0
 11
4.41
 21
13.0
 31
0.0
  0
LINE
  5
1A1
330
1E
100
AcDbEntity
  8
0
100
AcDbLine
 10
15.75
 20
13.0
 30
0.0
 11
15.75
 21
6.0
 31
0.0
  0
LINE
  5
1A2
330
1E
100
AcDbEntity
  8
0
100
AcDbLine
 10
15.75
 20
32.0
 30
0.0
 11
15.75
 21
36.0
 31
0.0
  0
LINE
  5
1A3
330
1E
100
AcDbEntity
  8
0
100
AcDbLine
 10
15.75
 20
36.0
 30
0.0
 11
15.75
 21
32.0
 31
0.0
  0
LINE
  5
1A4
330
1E
100
AcDbEntity
  8
0
100
AcDbLine
 10
15.75
 20
36.0
 30
0.0
 11
15.75
 21
6.0
 31
0.0
  0
LINE
  5
1A5
330
1E
100
AcDbEntity
  8
0
100
AcDbLine
 10
15.75
 20
6.0
 30
0.0
 11
15.75
 21
36.0
 31
0.0
  0
LINE
  5
1A6
330
1E
100
AcDbEntity
  8
0
100
AcDbLine
 10
15.75
 20
6.0
 30
0.0
 11
15.75
 21
13.0
 31
0.0
  0
LINE
  5
1A7
330
1E
100
AcDbEntity
  8
0
100
AcDbLine
 10
15.75
 20
55.4
 30
0.0
 11
15.897059
 21
55.8
 31
0.0
  0
LINE
  5
1A8
330
1E
100
AcDbEntity
  8
0
100
AcDbLine
 10
15.75
 20
42.0
 30
0.0
 11
16.1029
 21
42.0
 31
0.0
  0
LINE
  5
1A9
330
1E
100
AcDbEntity
  8
0
100
AcDbLine
 10
15.75
 20
55.4
 30
0.0
 11
15.75
 21
42.0
 31
0.0
  0
LINE
  5
1AA
330
1E
100
AcDbEntity
  8
0
100
AcDbLine
 10
15.75
 20
42.0
 30
0.0
 11
16.1029
 21
42.0
 31
0.0
  0
LINE
  5
1AB
330
1E
100
AcDbEntity
  8
0
100
AcDbLine
 10
15.75
 20
42.0
 30
0.0
 11
15.75
 21
55.4
 31
0.0
  0
LINE
  5
1AC
330
1E
100
AcDbEntity
  8
0
100
AcDbLine
 10
15.75
 20
1.6
 30
0.0
 11
15.897059
 21
1.199999999999999
 31
0.0
  0
LINE
  5
1AD
330
1E
100
AcDbEntity
  8
0
100
AcDbLine
 10
15.75
 20
1.6
 30
0.0
 11
15.75
 21
41.0
 31
0.0
  0
LINE
  5
1AE
330
1E
100
AcDbEntity
  8
0
100
AcDbLine
 10
15.75
 20
1.6
 30
0.0
 11
15.8971
 21
1.199999999999999
 31
0.0
  0
LINE
  5
1AF
330
1E
100
AcDbEntity
  8
0
100
AcDbLine
 10
15.897059
 20
55.8
 30
0.0
 11
16.25
 21
55.8
 31
0.0
  0
LINE
  5
1B0
330
1E
100
AcDbEntity
  8
0
100
AcDbLine
 10
15.897059
 20
55.8
 30
0.0
 11
16.191176
 21
56.0
 31
0.0
  0
LINE
  5
1B1
330
1E
100
AcDbEntity
  8
0
100
AcDbLine
 10
15.75
 20
41.0
 30
0.0
 11
15.75
 21
1.6
 31
0.0
  0
LINE
  5
1B2
330
1E
100
AcDbEntity
  8
0
100
AcDbLine
 10
15.75
 20
41.0
 30
0.0
 11
16.1029
 21
41.0
 31
0.0
  0
LINE
  5
1B3
330
1E
100
AcDbEntity
  8
0
100
AcDbLine
 10
15.75
 20
1.6
 30
0.0
 11
15.897059
 21
1.199999999999999
 31
0.0
  0
LINE
  5
1B4
330
1E
100
AcDbEntity
  8
0
100
AcDbLine
 10
16.19119999999999
 20
0.9999999999999969
 30
0.0
 11
18.75
 21
0.9999999999999969
 31
0.0
  0
LINE
  5
1B5
330
1E
100
AcDbEntity
  8
0
100
AcDbLine
 10
18.75
 20
-0.0000000000000031
 30
0.0
 11
18.96599999999999
 21
-0.0000000000000033
 31
0.0
  0
LINE
  5
1B6
330
1E
100
AcDbEntity
  8
0
100
AcDbLine
 10
18.75
 20
-0.0000000000000031
 30
0.0
 11
18.75
 21
1.0
 31
0.0
  0
LINE
  5
1B7
330
1E
100
AcDbEntity
  8
0
100
AcDbLine
 10
18.75
 20
-0.0000000000000031
 30
0.0
 11
18.96599999999999
 21
-0.0000000000000031
 31
0.0
  0
LINE
  5
1B8
330
1E
100
AcDbEntity
  8
0
100
AcDbLine
 10
20.50199999999999
 20
-0.0000000000000035
 30
0.0
 11
21.774
 21
-0.0000000000000035
 31
0.0
  0
LINE
  5
1B9
330
1E
100
AcDbEntity
  8
0
100
AcDbLine
 10
19.542
 20
-0.0000000000000033
 30
0.0
 11
20.50199999999999
 21
-0.0000000000000035
 31
0.0
  0
LINE
  5
1BA
330
1E
100
AcDbEntity
  8
0
100
AcDbLine
 10
20.50199999999999
 20
-0.0000000000000029
 30
0.0
 11
21.774
 21
-0.0000000000000029
 31
0.0
  0
LINE
  5
1BB
330
1E
100
AcDbEntity
  8
0
100
AcDbLine
 10
19.542
 20
-0.0000000000000029
 30
0.0
 11
20.50199999999999
 21
-0.0000000000000029
 31
0.0
  0
LINE
  5
1BC
330
1E
100
AcDbEntity
  8
0
100
AcDbLine
 10
18.96599999999999
 20
-0.0000000000000031
 30
0.0
 11
19.542
 21
-0.0000000000000029
 31
0.0
  0
LINE
  5
1BD
330
1E
100
AcDbEntity
  8
0
100
AcDbLine
 10
18.96599999999999
 20
-0.0000000000000033
 30
0.0
 11
19.542
 21
-0.0000000000000033
 31
0.0
  0
LINE
  5
1BE
330
1E
100
AcDbEntity
  8
0
100
AcDbLine
 10
23.214
 20
-0.0000000000000035
 30
0.0
 11
24.75
 21
-0.0000000000000035
 31
0.0
  0
LINE
  5
1BF
330
1E
100
AcDbEntity
  8
0
100
AcDbLine
 10
23.214
 20
-0.0000000000000027
 30
0.0
 11
24.75
 21
-0.0000000000000027
 31
0.0
  0
LINE
  5
1C0
330
1E
100
AcDbEntity
  8
0
100
AcDbLine
 10
21.774
 20
-0.0000000000000029
 30
0.0
 11
23.214
 21
-0.0000000000000027
 31
0.0
  0
LINE
  5
1C1
330
1E
100
AcDbEntity
  8
0
100
AcDbLine
 10
21.774
 20
-0.0000000000000035
 30
0.0
 11
23.214
 21
-0.0000000000000035
 31
0.0
  0
LINE
  5
1C2
330
1E
100
AcDbEntity
  8
0
100
AcDbLine
 10
24.75
 20
-0.0000000000000035
 30
0.0
 11
26.286
 21
-0.0000000000000035
 31
0.0
  0
LINE
  5
1C3
330
1E
100
AcDbEntity
  8
0
100
AcDbLine
 10
24.75
 20
-0.0000000000000027
 30
0.0
 11
26.286
 21
-0.0000000000000027
 31
0.0
  0
LINE
  5
1C4
330
1E
100
AcDbEntity
  8
0
100
AcDbLine
 10
26.286
 20
-0.0000000000000027
 30
0.0
 11
27.726
 21
-0.0000000000000029
 31
0.0
  0
LINE
  5
1C5
330
1E
100
AcDbEntity
  8
0
100
AcDbLine
 10
26.286
 20
-0.0000000000000035
 30
0.0
 11
27.726
 21
-0.0000000000000035
 31
0.0
  0
LINE
  5
1C6
330
1E
100
AcDbEntity
  8
0
100
AcDbLine
 10
23.214
 20
0.0000000000000012
 30
0.0
 11
24.75
 21
0.0000000000000012
 31
0.0
  0
LINE
  5
1C7
330
1E
100
AcDbEntity
  8
0
100
AcDbLine
 10
21.774
 20
0.0000000000000012
 30
0.0
 11
23.214
 21
0.0000000000000012
 31
0.0
  0
LINE
  5
1C8
330
1E
100
AcDbEntity
  8
0
100
AcDbLine
 10
20.50199999999999
 20
0.0000000000000012
 30
0.0
 11
21.774
 21
0.0000000000000012
 31
0.0
  0
LINE
  5
1C9
330
1E
100
AcDbEntity
  8
0
100
AcDbLine
 10
24.75
 20
0.0000000000000012
 30
0.0
 11
26.286
 21
0.0000000000000012
 31
0.0
  0
LINE
  5
1CA
330
1E
100
AcDbEntity
  8
0
100
AcDbLine
 10
27.726
 20
-0.0000000000000035
 30
0.0
 11
28.998
 21
-0.0000000000000035
 31
0.0
  0
LINE
  5
1CB
330
1E
100
AcDbEntity
  8
0
100
AcDbLine
 10
27.726
 20
-0.0000000000000029
 30
0.0
 11
28.998
 21
-0.0000000000000029
 31
0.0
  0
LINE
  5
1CC
330
1E
100
AcDbEntity
  8
0
100
AcDbLine
 10
28.998
 20
-0.0000000000000029
 30
0.0
 11
29.958
 21
-0.0000000000000029
 31
0.0
  0
LINE
  5
1CD
330
1E
100
AcDbEntity
  8
0
100
AcDbLine
 10
28.998
 20
-0.0000000000000035
 30
0.0
 11
29.958
 21
-0.0000000000000033
 31
0.0
  0
LINE
  5
1CE
330
1E
100
AcDbEntity
  8
0
100
AcDbLine
 10
26.286
 20
0.0000000000000012
 30
0.0
 11
27.726
 21
0.0000000000000012
 31
0.0
  0
LINE
  5
1CF
330
1E
100
AcDbEntity
  8
0
100
AcDbLine
 10
19.542
 20
0.0000000000000014
 30
0.0
 11
20.50199999999999
 21
0.0000000000000012
 31
0.0
  0
LINE
  5
1D0
330
1E
100
AcDbEntity
  8
0
100
AcDbLine
 10
18.96599999999999
 20
0.0000000000000014
 30
0.0
 11
19.542
 21
0.0000000000000014
 31
0.0
  0
LINE
  5
1D1
330
1E
100
AcDbEntity
  8
0
100
AcDbLine
 10
27.726
 20
0.0000000000000012
 30
0.0
 11
28.998
 21
0.0000000000000012
 31
0.0
  0
LINE
  5
1D2
330
1E
100
AcDbEntity
  8
0
100
AcDbLine
 10
29.958
 20
-0.0000000000000033
 30
0.0
 11
30.534
 21
-0.0000000000000033
 31
0.0
  0
LINE
  5
1D3
330
1E
100
AcDbEntity
  8
0
100
AcDbLine
 10
29.958
 20
-0.0000000000000029
 30
0.0
 11
30.534
 21
-0.0000000000000031
 31
0.0
  0
LINE
  5
1D4
330
1E
100
AcDbEntity
  8
0
100
AcDbLine
 10
30.534
 20
-0.0000000000000031
 30
0.0
 11
30.75
 21
-0.0000000000000031
 31
0.0
  0
LINE
  5
1D5
330
1E
100
AcDbEntity
  8
0
100
AcDbLine
 10
30.534
 20
-0.0000000000000033
 30
0.0
 11
30.75
 21
-0.0000000000000031
 31
0.0
  0
LINE
  5
1D6
330
1E
100
AcDbEntity
  8
0
100
AcDbLine
 10
28.998
 20
0.0000000000000012
 30
0.0
 11
29.958
 21
0.0000000000000014
 31
0.0
  0
LINE
  5
1D7
330
1E
100
AcDbEntity
  8
0
100
AcDbLine
 10
29.958
 20
0.0000000000000014
 30
0.0
 11
30.534
 21
0.0000000000000014
 31
0.0
  0
LINE
  5
1D8
330
1E
100
AcDbEntity
  8
0
100
AcDbLine
 10
30.534
 20
0.0000000000000014
 30
0.0
 11
30.75
 21
0.0000000000000016
 31
0.0
  0
LINE
  5
1D9
330
1E
100
AcDbEntity
  8
0
100
AcDbLine
 10
30.534
 20
0.0000000000000016
 30
0.0
 11
30.75
 21
0.0000000000000016
 31
0.0
  0
LINE
  5
1DA
330
1E
100
AcDbEntity
  8
0
100
AcDbLine
 10
94.74999999999999
 20
-0.0000000000000031
 30
0.0
 11
94.966
 21
-0.0000000000000033
 31
0.0
  0
LINE
  5
1DB
330
1E
100
AcDbEntity
  8
0
100
AcDbLine
 10
94.74999999999999
 20
-0.0000000000000031
 30
0.0
 11
94.74999999999999
 21
1.0
 31
0.0
  0
LINE
  5
1DC
330
1E
100
AcDbEntity
  8
0
100
AcDbLine
 10
94.74999999999999
 20
-0.0000000000000031
 30
0.0
 11
94.966
 21
-0.0000000000000031
 31
0.0
  0
LINE
  5
1DD
330
1E
100
AcDbEntity
  8
0
100
AcDbLine
 10
94.966
 20
-0.0000000000000031
 30
0.0
 11
95.54199999999999
 21
-0.0000000000000029
 31
0.0
  0
LINE
  5
1DE
330
1E
100
AcDbEntity
  8
0
100
AcDbLine
 10
94.966
 20
-0.0000000000000033
 30
0.0
 11
95.54199999999999
 21
-0.0000000000000033
 31
0.0
  0
LINE
  5
1DF
330
1E
100
AcDbEntity
  8
0
100
AcDbLine
 10
96.50200000000001
 20
-0.0000000000000035
 30
0.0
 11
97.774
 21
-0.0000000000000035
 31
0.0
  0
LINE
  5
1E0
330
1E
100
AcDbEntity
  8
0
100
AcDbLine
 10
96.50200000000001
 20
-0.0000000000000029
 30
0.0
 11
97.774
 21
-0.0000000000000029
 31
0.0
  0
LINE
  5
1E1
330
1E
100
AcDbEntity
  8
0
100
AcDbLine
 10
95.54199999999999
 20
-0.0000000000000029
 30
0.0
 11
96.50200000000001
 21
-0.0000000000000029
 31
0.0
  0
LINE
  5
1E2
330
1E
100
AcDbEntity
  8
0
100
AcDbLine
 10
95.54199999999999
 20
-0.0000000000000033
 30
0.0
 11
96.50200000000001
 21
-0.0000000000000035
 31
0.0
  0
LINE
  5
1E3
330
1E
100
AcDbEntity
  8
0
100
AcDbLine
 10
99.214
 20
-0.0000000000000035
 30
0.0
 11
100.75
 21
-0.0000000000000035
 31
0.0
  0
LINE
  5
1E4
330
1E
100
AcDbEntity
  8
0
100
AcDbLine
 10
99.214
 20
-0.0000000000000027
 30
0.0
 11
100.75
 21
-0.0000000000000027
 31
0.0
  0
LINE
  5
1E5
330
1E
100
AcDbEntity
  8
0
100
AcDbLine
 10
97.774
 20
-0.0000000000000029
 30
0.0
 11
99.214
 21
-0.0000000000000027
 31
0.0
  0
LINE
  5
1E6
330
1E
100
AcDbEntity
  8
0
100
AcDbLine
 10
97.774
 20
-0.0000000000000035
 30
0.0
 11
99.214
 21
-0.0000000000000035
 31
0.0
  0
LINE
  5
1E7
330
1E
100
AcDbEntity
  8
0
100
AcDbLine
 10
100.75
 20
-0.0000000000000027
 30
0.0
 11
102.286
 21
-0.0000000000000027
 31
0.0
  0
LINE
  5
1E8
330
1E
100
AcDbEntity
  8
0
100
AcDbLine
 10
100.75
 20
-0.0000000000000035
 30
0.0
 11
102.286
 21
-0.0000000000000035
 31
0.0
  0
LINE
  5
1E9
330
1E
100
AcDbEntity
  8
0
100
AcDbLine
 10
102.286
 20
-0.0000000000000035
 30
0.0
 11
103.726
 21
-0.0000000000000035
 31
0.0
  0
LINE
  5
1EA
330
1E
100
AcDbEntity
  8
0
100
AcDbLine
 10
102.286
 20
-0.0000000000000027
 30
0.0
 11
103.726
 21
-0.0000000000000029
 31
0.0
  0
LINE
  5
1EB
330
1E
100
AcDbEntity
  8
0
100
AcDbLine
 10
103.726
 20
-0.0000000000000029
 30
0.0
 11
104.9979999999999
 21
-0.0000000000000029
 31
0.0
  0
LINE
  5
1EC
330
1E
100
AcDbEntity
  8
0
100
AcDbLine
 10
103.726
 20
-0.0000000000000035
 30
0.0
 11
104.9979999999999
 21
-0.0000000000000035
 31
0.0
  0
LINE
  5
1ED
330
1E
100
AcDbEntity
  8
0
100
AcDbLine
 10
100.75
 20
0.0000000000000012
 30
0.0
 11
102.286
 21
0.0000000000000012
 31
0.0
  0
LINE
  5
1EE
330
1E
100
AcDbEntity
  8
0
100
AcDbLine
 10
102.286
 20
0.0000000000000012
 30
0.0
 11
103.726
 21
0.0000000000000012
 31
0.0
  0
LINE
  5
1EF
330
1E
100
AcDbEntity
  8
0
100
AcDbLine
 10
104.9979999999999
 20
-0.0000000000000035
 30
0.0
 11
105.9579999999999
 21
-0.0000000000000033
 31
0.0
  0
LINE
  5
1F0
330
1E
100
AcDbEntity
  8
0
100
AcDbLine
 10
105.9579999999999
 20
-0.0000000000000033
 30
0.0
 11
106.5339999999999
 21
-0.0000000000000033
 31
0.0
  0
LINE
  5
1F1
330
1E
100
AcDbEntity
  8
0
100
AcDbLine
 10
104.9979999999999
 20
-0.0000000000000029
 30
0.0
 11
105.9579999999999
 21
-0.0000000000000029
 31
0.0
  0
LINE
  5
1F2
330
1E
100
AcDbEntity
  8
0
100
AcDbLine
 10
105.9579999999999
 20
-0.0000000000000029
 30
0.0
 11
106.5339999999999
 21
-0.0000000000000031
 31
0.0
  0
LINE
  5
1F3
330
1E
100
AcDbEntity
  8
0
100
AcDbLine
 10
106.5339999999999
 20
-0.0000000000000031
 30
0.0
 11
106.75
 21
-0.0000000000000031
 31
0.0
  0
LINE
  5
1F4
330
1E
100
AcDbEntity
  8
0
100
AcDbLine
 10
106.5339999999999
 20
-0.0000000000000033
 30
0.0
 11
106.75
 21
-0.0000000000000031
 31
0.0
  0
LINE
  5
1F5
330
1E
100
AcDbEntity
  8
0
100
AcDbLine
 10
103.726
 20
0.0000000000000012
 30
0.0
 11
104.9979999999999
 21
0.0000000000000012
 31
0.0
  0
LINE
  5
1F6
330
1E
100
AcDbEntity
  8
0
100
AcDbLine
 10
104.9979999999999
 20
0.0000000000000012
 30
0.0
 11
105.9579999999999
 21
0.0000000000000014
 31
0.0
  0
LINE
  5
1F7
330
1E
100
AcDbEntity
  8
0
100
AcDbLine
 10
99.214
 20
0.0000000000000012
 30
0.0
 11
100.75
 21
0.0000000000000012
 31
0.0
  0
LINE
  5
1F8
330
1E
100
AcDbEntity
  8
0
100
AcDbLine
 10
105.9579999999999
 20
0.0000000000000014
 30
0.0
 11
106.5339999999999
 21
0.0000000000000014
 31
0.0
  0
LINE
  5
1F9
330
1E
100
AcDbEntity
  8
0
100
AcDbLine
 10
106.5339999999999
 20
0.0000000000000014
 30
0.0
 11
106.75
 21
0.0000000000000016
 31
0.0
  0
LINE
  5
1FA
330
1E
100
AcDbEntity
  8
0
100
AcDbLine
 10
97.774
 20
0.0000000000000012
 30
0.0
 11
99.214
 21
0.0000000000000012
 31
0.0
  0
LINE
  5
1FB
330
1E
100
AcDbEntity
  8
0
100
AcDbLine
 10
96.50200000000001
 20
0.0000000000000012
 30
0.0
 11
97.774
 21
0.0000000000000012
 31
0.0
  0
LINE
  5
1FC
330
1E
100
AcDbEntity
  8
0
100
AcDbLine
 10
106.75
 20
0.0000000000000016
 30
0.0
 11
106.75
 21
1.0
 31
0.0
  0
LINE
  5
1FD
330
1E
100
AcDbEntity
  8
0
100
AcDbLine
 10
95.54199999999999
 20
0.0000000000000014
 30
0.0
 11
96.50200000000001
 21
0.0000000000000012
 31
0.0
  0
LINE
  5
1FE
330
1E
100
AcDbEntity
  8
0
100
AcDbLine
 10
94.966
 20
0.0000000000000014
 30
0.0
 11
95.54199999999999
 21
0.0000000000000014
 31
0.0
  0
LINE
  5
1FF
330
1E
100
AcDbEntity
  8
0
100
AcDbLine
 10
94.966
 20
0.0000000000000016
 30
0.0
 11
95.54199999999999
 21
0.0000000000000017
 31
0.0
  0
LINE
  5
200
330
1E
100
AcDbEntity
  8
0
100
AcDbLine
 10
94.74999999999999
 20
0.0000000000000016
 30
0.0
 11
94.74999999999999
 21
1.0
 31
0.0
  0
LINE
  5
201
330
1E
100
AcDbEntity
  8
0
100
AcDbLine
 10
94.74999999999999
 20
0.0000000000000016
 30
0.0
 11
94.966
 21
0.0000000000000016
 31
0.0
  0
LINE
  5
202
330
1E
100
AcDbEntity
  8
0
100
AcDbLine
 10
94.74999999999999
 20
0.0000000000000016
 30
0.0
 11
94.966
 21
0.0000000000000014
 31
0.0
  0
LINE
  5
203
330
1E
100
AcDbEntity
  8
0
100
AcDbLine
 10
106.5339999999999
 20
0.0000000000000016
 30
0.0
 11
106.75
 21
0.0000000000000016
 31
0.0
  0
LINE
  5
204
330
1E
100
AcDbEntity
  8
0
100
AcDbLine
 10
30.75
 20
0.0000000000000016
 30
0.0
 11
30.75
 21
1.0
 31
0.0
  0
LINE
  5
205
330
1E
100
AcDbEntity
  8
0
100
AcDbLine
 10
27.726
 20
0.0000000000000017
 30
0.0
 11
28.998
 21
0.0000000000000017
 31
0.0
  0
LINE
  5
206
330
1E
100
AcDbEntity
  8
0
100
AcDbLine
 10
97.774
 20
0.0000000000000017
 30
0.0
 11
99.214
 21
0.0000000000000019
 31
0.0
  0
LINE
  5
207
330
1E
100
AcDbEntity
  8
0
100
AcDbLine
 10
96.50200000000001
 20
0.0000000000000017
 30
0.0
 11
97.774
 21
0.0000000000000017
 31
0.0
  0
LINE
  5
208
330
1E
100
AcDbEntity
  8
0
100
AcDbLine
 10
95.54199999999999
 20
0.0000000000000017
 30
0.0
 11
96.50200000000001
 21
0.0000000000000017
 31
0.0
  0
LINE
  5
209
330
1E
100
AcDbEntity
  8
0
100
AcDbLine
 10
103.726
 20
0.0000000000000017
 30
0.0
 11
104.9979999999999
 21
0.0000000000000017
 31
0.0
  0
LINE
  5
20A
330
1E
100
AcDbEntity
  8
0
100
AcDbLine
 10
104.9979999999999
 20
0.0000000000000017
 30
0.0
 11
105.9579999999999
 21
0.0000000000000017
 31
0.0
  0
LINE
  5
20B
330
1E
100
AcDbEntity
  8
0
100
AcDbLine
 10
105.9579999999999
 20
0.0000000000000017
 30
0.0
 11
106.5339999999999
 21
0.0000000000000016
 31
0.0
  0
LINE
  5
20C
330
1E
100
AcDbEntity
  8
0
100
AcDbLine
 10
28.998
 20
0.0000000000000017
 30
0.0
 11
29.958
 21
0.0000000000000017
 31
0.0
  0
LINE
  5
20D
330
1E
100
AcDbEntity
  8
0
100
AcDbLine
 10
29.958
 20
0.0000000000000017
 30
0.0
 11
30.534
 21
0.0000000000000016
 31
0.0
  0
LINE
  5
20E
330
1E
100
AcDbEntity
  8
0
100
AcDbLine
 10
21.774
 20
0.0000000000000017
 30
0.0
 11
23.214
 21
0.0000000000000019
 31
0.0
  0
LINE
  5
20F
330
1E
100
AcDbEntity
  8
0
100
AcDbLine
 10
99.214
 20
0.0000000000000019
 30
0.0
 11
100.75
 21
0.0000000000000019
 31
0.0
  0
LINE
  5
210
330
1E
100
AcDbEntity
  8
0
100
AcDbLine
 10
100.75
 20
0.0000000000000019
 30
0.0
 11
102.286
 21
0.0000000000000019
 31
0.0
  0
LINE
  5
211
330
1E
100
AcDbEntity
  8
0
100
AcDbLine
 10
102.286
 20
0.0000000000000019
 30
0.0
 11
103.726
 21
0.0000000000000017
 31
0.0
  0
LINE
  5
212
330
1E
100
AcDbEntity
  8
0
100
AcDbLine
 10
24.75
 20
0.0000000000000019
 30
0.0
 11
26.286
 21
0.0000000000000019
 31
0.0
  0
LINE
  5
213
330
1E
100
AcDbEntity
  8
0
100
AcDbLine
 10
26.286
 20
0.0000000000000019
 30
0.0
 11
27.726
 21
0.0000000000000017
 31
0.0
  0
LINE
  5
214
330
1E
100
AcDbEntity
  8
0
100
AcDbLine
 10
23.214
 20
0.0000000000000019
 30
0.0
 11
24.75
 21
0.0000000000000019
 31
0.0
  0
LINE
  5
215
330
1E
100
AcDbEntity
  8
0
100
AcDbLine
 10
20.50199999999999
 20
0.0000000000000017
 30
0.0
 11
21.774
 21
0.0000000000000017
 31
0.0
  0
LINE
  5
216
330
1E
100
AcDbEntity
  8
0
100
AcDbLine
 10
19.542
 20
0.0000000000000017
 30
0.0
 11
20.50199999999999
 21
0.0000000000000017
 31
0.0
  0
LINE
  5
217
330
1E
100
AcDbEntity
  8
0
100
AcDbLine
 10
18.96599999999999
 20
0.0000000000000016
 30
0.0
 11
19.542
 21
0.0000000000000017
 31
0.0
  0
LINE
  5
218
330
1E
100
AcDbEntity
  8
0
100
AcDbLine
 10
18.75
 20
0.0000000000000016
 30
0.0
 11
18.96599999999999
 21
0.0000000000000016
 31
0.0
  0
LINE
  5
219
330
1E
100
AcDbEntity
  8
0
100
AcDbLine
 10
18.75
 20
0.0000000000000016
 30
0.0
 11
18.96599999999999
 21
0.0000000000000014
 31
0.0
  0
LINE
  5
21A
330
1E
100
AcDbEntity
  8
0
100
AcDbLine
 10
18.75
 20
0.0000000000000016
 30
0.0
 11
18.75
 21
1.0
 31
0.0
  0
LINE
  5
21B
330
1E
100
AcDbEntity
  8
0
100
AcDbLine
 10
30.75
 20
0.999999999999996
 30
0.0
 11
94.74999999999999
 21
0.999999999999996
 31
0.0
  0
LINE
  5
21C
330
1E
100
AcDbEntity
  8
0
100
AcDbLine
 10
106.75
 20
0.9999999999999969
 30
0.0
 11
108.0146999999999
 21
0.9999999999999969
 31
0.0
  0
LINE
  5
21D
330
1E
100
AcDbEntity
  8
0
100
AcDbLine
 10
108.0146999999999
 20
0.9999999999999969
 30
0.0
 11
108.9558999999999
 21
0.9999999999999969
 31
0.0
  0
LINE
  5
21E
330
1E
100
AcDbEntity
  8
0
100
AcDbLine
 10
108.9558999999999
 20
0.9999999999999969
 30
0.0
 11
109.3088
 21
0.9999999999999969
 31
0.0
  0
LINE
  5
21F
330
1E
100
AcDbEntity
  8
0
100
AcDbLine
 10
109.3088
 20
0.9999999999999969
 30
0.0
 11
109.6029
 21
1.199999999999999
 31
0.0
  0
LINE
  5
220
330
1E
100
AcDbEntity
  8
0
100
AcDbLine
 10
17.48528999999999
 20
0.9999999999999969
 30
0.0
 11
18.75
 21
0.9999999999999969
 31
0.0
  0
LINE
  5
221
330
1E
100
AcDbEntity
  8
0
100
AcDbLine
 10
16.544118
 20
0.9999999999999969
 30
0.0
 11
17.48528999999999
 21
0.9999999999999969
 31
0.0
  0
LINE
  5
222
330
1E
100
AcDbEntity
  8
0
100
AcDbLine
 10
15.8971
 20
1.199999999999999
 30
0.0
 11
16.19119999999999
 21
1.0
 31
0.0
  0
LINE
  5
223
330
1E
100
AcDbEntity
  8
0
100
AcDbLine
 10
16.19119999999999
 20
1.0
 30
0.0
 11
18.75
 21
1.0
 31
0.0
  0
LINE
  5
224
330
1E
100
AcDbEntity
  8
0
100
AcDbLine
 10
16.191176
 20
1.0
 30
0.0
 11
18.75
 21
1.0
 31
0.0
  0
LINE
  5
225
330
1E
100
AcDbEntity
  8
0
100
AcDbLine
 10
16.25
 20
1.199999999999999
 30
0.0
 11
17.22058999999999
 21
1.199999999999999
 31
0.0
  0
LINE
  5
226
330
1E
100
AcDbEntity
  8
0
100
AcDbLine
 10
18.75
 20
1.0
 30
0.0
 11
18.75
 21
0.0000000000000016
 31
0.0
  0
LINE
  5
227
330
1E
100
AcDbEntity
  8
0
100
AcDbLine
 10
18.75
 20
1.0
 30
0.0
 11
18.75
 21
-0.0000000000000031
 31
0.0
  0
LINE
  5
228
330
1E
100
AcDbEntity
  8
0
100
AcDbLine
 10
17.75
 20
41.0
 30
0.0
 11
17.75
 21
42.0
 31
0.0
  0
LINE
  5
229
330
1E
100
AcDbEntity
  8
0
100
AcDbLine
 10
17.22058999999999
 20
1.199999999999999
 30
0.0
 11
18.77941
 21
1.199999999999999
 31
0.0
  0
LINE
  5
22A
330
1E
100
AcDbEntity
  8
0
100
AcDbLine
 10
17.1029
 20
41.0
 30
0.0
 11
18.69119999999999
 21
41.0
 31
0.0
  0
LINE
  5
22B
330
1E
100
AcDbEntity
  8
0
100
AcDbLine
 10
16.1029
 20
41.0
 30
0.0
 11
17.1029
 21
41.0
 31
0.0
  0
LINE
  5
22C
330
1E
100
AcDbEntity
  8
0
100
AcDbLine
 10
18.77941
 20
1.199999999999999
 30
0.0
 11
20.83823
 21
1.199999999999999
 31
0.0
  0
LINE
  5
22D
330
1E
100
AcDbEntity
  8
0
100
AcDbLine
 10
18.69119999999999
 20
41.0
 30
0.0
 11
20.77939999999999
 21
41.0
 31
0.0
  0
LINE
  5
22E
330
1E
100
AcDbEntity
  8
0
100
AcDbLine
 10
30.75
 20
1.0
 30
0.0
 11
62.75
 21
0.9999999999999989
 31
0.0
  0
LINE
  5
22F
330
1E
100
AcDbEntity
  8
0
100
AcDbLine
 10
30.75
 20
1.0
 30
0.0
 11
30.75
 21
0.0000000000000016
 31
0.0
  0
LINE
  5
230
330
1E
100
AcDbEntity
  8
0
100
AcDbLine
 10
30.75
 20
1.0
 30
0.0
 11
62.75
 21
0.9999999999999989
 31
0.0
  0
LINE
  5
231
330
1E
100
AcDbEntity
  8
0
100
AcDbLine
 10
20.83823
 20
1.199999999999999
 30
0.0
 11
23.22058999999999
 21
1.199999999999999
 31
0.0
  0
LINE
  5
232
330
1E
100
AcDbEntity
  8
0
100
AcDbLine
 10
25.75
 20
41.0
 30
0.0
 11
99.75000000000001
 21
41.0
 31
0.0
  0
LINE
  5
233
330
1E
100
AcDbEntity
  8
0
100
AcDbLine
 10
25.75
 20
41.0
 30
0.0
 11
99.75000000000001
 21
41.0
 31
0.0
  0
LINE
  5
234
330
1E
100
AcDbEntity
  8
0
100
AcDbLine
 10
25.75
 20
1.199999999999999
 30
0.0
 11
99.75000000000001
 21
1.199999999999999
 31
0.0
  0
LINE
  5
235
330
1E
100
AcDbEntity
  8
0
100
AcDbLine
 10
25.75
 20
1.199999999999999
 30
0.0
 11
99.75000000000001
 21
1.199999999999999
 31
0.0
  0
LINE
  5
236
330
1E
100
AcDbEntity
  8
0
100
AcDbLine
 10
23.22058999999999
 20
1.199999999999999
 30
0.0
 11
25.75
 21
1.199999999999999
 31
0.0
  0
LINE
  5
237
330
1E
100
AcDbEntity
  8
0
100
AcDbLine
 10
20.77939999999999
 20
41.0
 30
0.0
 11
23.19119999999999
 21
41.0
 31
0.0
  0
LINE
  5
238
330
1E
100
AcDbEntity
  8
0
100
AcDbLine
 10
16.1029
 20
42.0
 30
0.0
 11
17.1029
 21
42.0
 31
0.0
  0
LINE
  5
239
330
1E
100
AcDbEntity
  8
0
100
AcDbLine
 10
18.08788999999999
 20
42.0
 30
0.0
 11
19.04533999999999
 21
42.0
 31
0.0
  0
LINE
  5
23A
330
1E
100
AcDbEntity
  8
0
100
AcDbLine
 10
17.75
 20
42.0
 30
0.0
 11
17.75
 21
41.0
 31
0.0
  0
LINE
  5
23B
330
1E
100
AcDbEntity
  8
0
100
AcDbLine
 10
17.75
 20
42.0
 30
0.0
 11
18.08788999999999
 21
42.0
 31
0.0
  0
LINE
  5
23C
330
1E
100
AcDbEntity
  8
0
100
AcDbLine
 10
17.1029
 20
42.0
 30
0.0
 11
18.69119999999999
 21
42.0
 31
0.0
  0
LINE
  5
23D
330
1E
100
AcDbEntity
  8
0
100
AcDbLine
 10
19.04533999999999
 20
42.0
 30
0.0
 11
20.56604
 21
42.0
 31
0.0
  0
LINE
  5
23E
330
1E
100
AcDbEntity
  8
0
100
AcDbLine
 10
20.56604
 20
42.0
 30
0.0
 11
22.56537999999999
 21
42.0
 31
0.0
  0
LINE
  5
23F
330
1E
100
AcDbEntity
  8
0
100
AcDbLine
 10
22.56537999999999
 20
42.0
 30
0.0
 11
24.87455
 21
42.0
 31
0.0
  0
LINE
  5
240
330
1E
100
AcDbEntity
  8
0
100
AcDbLine
 10
18.69119999999999
 20
42.0
 30
0.0
 11
20.77939999999999
 21
42.0
 31
0.0
  0
LINE
  5
241
330
1E
100
AcDbEntity
  8
0
100
AcDbLine
 10
17.22058999999999
 20
55.8
 30
0.0
 11
18.77941
 21
55.8
 31
0.0
  0
LINE
  5
242
330
1E
100
AcDbEntity
  8
0
100
AcDbLine
 10
16.25
 20
55.8
 30
0.0
 11
17.22058999999999
 21
55.8
 31
0.0
  0
LINE
  5
243
330
1E
100
AcDbEntity
  8
0
100
AcDbLine
 10
17.48528999999999
 20
56.0
 30
0.0
 11
18.98528999999999
 21
56.0
 31
0.0
  0
LINE
  5
244
330
1E
100
AcDbEntity
  8
0
100
AcDbLine
 10
16.544118
 20
56.0
 30
0.0
 11
17.48528999999999
 21
56.0
 31
0.0
  0
LINE
  5
245
330
1E
100
AcDbEntity
  8
0
100
AcDbLine
 10
16.191176
 20
56.0
 30
0.0
 11
16.544118
 21
56.0
 31
0.0
  0
LINE
  5
246
330
1E
100
AcDbEntity
  8
0
100
AcDbLine
 10
18.98528999999999
 20
56.0
 30
0.0
 11
20.98529
 21
56.0
 31
0.0
  0
LINE
  5
247
330
1E
100
AcDbEntity
  8
0
100
AcDbLine
 10
18.77941
 20
55.8
 30
0.0
 11
20.83823
 21
55.8
 31
0.0
  0
LINE
  5
248
330
1E
100
AcDbEntity
  8
0
100
AcDbLine
 10
20.98529
 20
56.0
 30
0.0
 11
23.27941
 21
56.0
 31
0.0
  0
LINE
  5
249
330
1E
100
AcDbEntity
  8
0
100
AcDbLine
 10
20.83823
 20
55.8
 30
0.0
 11
23.22058999999999
 21
55.8
 31
0.0
  0
LINE
  5
24A
330
1E
100
AcDbEntity
  8
0
100
AcDbLine
 10
20.77939999999999
 20
42.0
 30
0.0
 11
23.19119999999999
 21
42.0
 31
0.0
  0
LINE
  5
24B
330
1E
100
AcDbEntity
  8
0
100
AcDbLine
 10
24.87455
 20
42.0
 30
0.0
 11
27.3245
 21
42.0
 31
0.0
  0
LINE
  5
24C
330
1E
100
AcDbEntity
  8
0
100
AcDbLine
 10
25.75
 20
42.0
 30
0.0
 11
99.75000000000001
 21
42.0
 31
0.0
  0
LINE
  5
24D
330
1E
100
AcDbEntity
  8
0
100
AcDbLine
 10
27.3245
 20
42.0
 30
0.0
 11
98.1755
 21
42.0
 31
0.0
  0
LINE
  5
24E
330
1E
100
AcDbEntity
  8
0
100
AcDbLine
 10
25.75
 20
42.0
 30
0.0
 11
99.75000000000001
 21
42.0
 31
0.0
  0
LINE
  5
24F
330
1E
100
AcDbEntity
  8
0
100
AcDbLine
 10
25.75
 20
55.8
 30
0.0
 11
99.75000000000001
 21
55.8
 31
0.0
  0
LINE
  5
250
330
1E
100
AcDbEntity
  8
0
100
AcDbLine
 10
25.75
 20
55.8
 30
0.0
 11
99.75000000000001
 21
55.8
 31
0.0
  0
LINE
  5
251
330
1E
100
AcDbEntity
  8
0
100
AcDbLine
 10
25.75
 20
56.0
 30
0.0
 11
99.75000000000001
 21
56.0
 31
0.0
  0
LINE
  5
252
330
1E
100
AcDbEntity
  8
0
100
AcDbLine
 10
25.75
 20
56.0
 30
0.0
 11
99.75000000000001
 21
56.0
 31
0.0
  0
LINE
  5
253
330
1E
100
AcDbEntity
  8
0
100
AcDbLine
 10
23.27941
 20
56.0
 30
0.0
 11
25.75
 21
56.0
 31
0.0
  0
LINE
  5
254
330
1E
100
AcDbEntity
  8
0
100
AcDbLine
 10
23.22058999999999
 20
55.8
 30
0.0
 11
25.75
 21
55.8
 31
0.0
  0
LINE
  5
255
330
1E
100
AcDbEntity
  8
0
100
AcDbLine
 10
23.19119999999999
 20
42.0
 30
0.0
 11
25.75
 21
42.0
 31
0.0
  0
LINE
  5
256
330
1E
100
AcDbEntity
  8
0
100
AcDbLine
 10
17.1029
 20
42.0
 30
0.0
 11
17.75
 21
42.0
 31
0.0
  0
LINE
  5
257
330
1E
100
AcDbEntity
  8
0
100
AcDbLine
 10
16.1029
 20
42.0
 30
0.0
 11
17.1029
 21
42.0
 31
0.0
  0
LINE
  5
258
330
1E
100
AcDbEntity
  8
0
100
AcDbLine
 10
23.19119999999999
 20
41.0
 30
0.0
 11
25.75
 21
41.0
 31
0.0
  0
LINE
  5
259
330
1E
100
AcDbEntity
  8
0
100
AcDbLine
 10
94.74999999999999
 20
1.0
 30
0.0
 11
94.74999999999999
 21
0.0000000000000016
 31
0.0
  0
LINE
  5
25A
330
1E
100
AcDbEntity
  8
0
100
AcDbLine
 10
94.74999999999999
 20
1.0
 30
0.0
 11
94.74999999999999
 21
-0.0000000000000031
 31
0.0
  0
LINE
  5
25B
330
1E
100
AcDbEntity
  8
0
100
AcDbLine
 10
102.2793999999999
 20
1.199999999999999
 30
0.0
 11
104.6618
 21
1.199999999999999
 31
0.0
  0
LINE
  5
25C
330
1E
100
AcDbEntity
  8
0
100
AcDbLine
 10
99.75000000000001
 20
1.199999999999999
 30
0.0
 11
102.2793999999999
 21
1.199999999999999
 31
0.0
  0
LINE
  5
25D
330
1E
100
AcDbEntity
  8
0
100
AcDbLine
 10
106.75
 20
1.0
 30
0.0
 11
106.75
 21
0.0000000000000016
 31
0.0
  0
LINE
  5
25E
330
1E
100
AcDbEntity
  8
0
100
AcDbLine
 10
106.7206
 20
1.199999999999999
 30
0.0
 11
108.2794
 21
1.199999999999999
 31
0.0
  0
LINE
  5
25F
330
1E
100
AcDbEntity
  8
0
100
AcDbLine
 10
107.75
 20
41.0
 30
0.0
 11
107.75
 21
42.0
 31
0.0
  0
LINE
  5
260
330
1E
100
AcDbEntity
  8
0
100
AcDbLine
 10
108.2794
 20
1.199999999999999
 30
0.0
 11
109.25
 21
1.199999999999999
 31
0.0
  0
LINE
  5
261
330
1E
100
AcDbEntity
  8
0
100
AcDbLine
 10
106.8088
 20
41.0
 30
0.0
 11
108.3971
 21
41.0
 31
0.0
  0
LINE
  5
262
330
1E
100
AcDbEntity
  8
0
100
AcDbLine
 10
108.3971
 20
41.0
 30
0.0
 11
109.3971
 21
41.0
 31
0.0
  0
LINE
  5
263
330
1E
100
AcDbEntity
  8
0
100
AcDbLine
 10
104.6618
 20
1.199999999999999
 30
0.0
 11
106.7206
 21
1.199999999999999
 31
0.0
  0
LINE
  5
264
330
1E
100
AcDbEntity
  8
0
100
AcDbLine
 10
104.7206
 20
41.0
 30
0.0
 11
106.8088
 21
41.0
 31
0.0
  0
LINE
  5
265
330
1E
100
AcDbEntity
  8
0
100
AcDbLine
 10
102.3087999999999
 20
41.0
 30
0.0
 11
104.7206
 21
41.0
 31
0.0
  0
LINE
  5
266
330
1E
100
AcDbEntity
  8
0
100
AcDbLine
 10
99.75000000000001
 20
41.0
 30
0.0
 11
102.3087999999999
 21
41.0
 31
0.0
  0
LINE
  5
267
330
1E
100
AcDbEntity
  8
0
100
AcDbLine
 10
109.25
 20
1.199999999999999
 30
0.0
 11
109.6029
 21
1.199999999999999
 31
0.0
  0
LINE
  5
268
330
1E
100
AcDbEntity
  8
0
100
AcDbLine
 10
109.3971
 20
41.0
 30
0.0
 11
109.7499999999999
 21
41.0
 31
0.0
  0
LINE
  5
269
330
1E
100
AcDbEntity
  8
0
100
AcDbLine
 10
109.7499999999999
 20
1.6
 30
0.0
 11
109.7499999999999
 21
41.0
 31
0.0
  0
LINE
  5
26A
330
1E
100
AcDbEntity
  8
0
100
AcDbLine
 10
107.75
 20
42.0
 30
0.0
 11
108.3971
 21
42.0
 31
0.0
  0
LINE
  5
26B
330
1E
100
AcDbEntity
  8
0
100
AcDbLine
 10
98.1755
 20
42.0
 30
0.0
 11
100.6255
 21
42.0
 31
0.0
  0
LINE
  5
26C
330
1E
100
AcDbEntity
  8
0
100
AcDbLine
 10
102.9346
 20
42.0
 30
0.0
 11
104.9339999999999
 21
42.0
 31
0.0
  0
LINE
  5
26D
330
1E
100
AcDbEntity
  8
0
100
AcDbLine
 10
100.6255
 20
42.0
 30
0.0
 11
102.9346
 21
42.0
 31
0.0
  0
LINE
  5
26E
330
1E
100
AcDbEntity
  8
0
100
AcDbLine
 10
104.9339999999999
 20
42.0
 30
0.0
 11
106.4547
 21
42.0
 31
0.0
  0
LINE
  5
26F
330
1E
100
AcDbEntity
  8
0
100
AcDbLine
 10
106.4547
 20
42.0
 30
0.0
 11
107.4120999999999
 21
42.0
 31
0.0
  0
LINE
  5
270
330
1E
100
AcDbEntity
  8
0
100
AcDbLine
 10
107.4120999999999
 20
42.0
 30
0.0
 11
107.75
 21
42.0
 31
0.0
  0
LINE
  5
271
330
1E
100
AcDbEntity
  8
0
100
AcDbLine
 10
107.75
 20
42.0
 30
0.0
 11
107.75
 21
41.0
 31
0.0
  0
LINE
  5
272
330
1E
100
AcDbEntity
  8
0
100
AcDbLine
 10
106.8088
 20
42.0
 30
0.0
 11
108.3971
 21
42.0
 31
0.0
  0
LINE
  5
273
330
1E
100
AcDbEntity
  8
0
100
AcDbLine
 10
108.3971
 20
42.0
 30
0.0
 11
109.3971
 21
42.0
 31
0.0
  0
LINE
  5
274
330
1E
100
AcDbEntity
  8
0
100
AcDbLine
 10
109.3971
 20
42.0
 30
0.0
 11
109.7499999999999
 21
42.0
 31
0.0
  0
LINE
  5
275
330
1E
100
AcDbEntity
  8
0
100
AcDbLine
 10
104.7206
 20
42.0
 30
0.0
 11
106.8088
 21
42.0
 31
0.0
  0
LINE
  5
276
330
1E
100
AcDbEntity
  8
0
100
AcDbLine
 10
102.3087999999999
 20
42.0
 30
0.0
 11
104.7206
 21
42.0
 31
0.0
  0
LINE
  5
277
330
1E
100
AcDbEntity
  8
0
100
AcDbLine
 10
99.75000000000001
 20
42.0
 30
0.0
 11
102.3087999999999
 21
42.0
 31
0.0
  0
LINE
  5
278
330
1E
100
AcDbEntity
  8
0
100
AcDbLine
 10
108.3971
 20
42.0
 30
0.0
 11
109.3971
 21
42.0
 31
0.0
  0
LINE
  5
279
330
1E
100
AcDbEntity
  8
0
100
AcDbLine
 10
109.3971
 20
42.0
 30
0.0
 11
109.7499999999999
 21
42.0
 31
0.0
  0
LINE
  5
27A
330
1E
100
AcDbEntity
  8
0
100
AcDbLine
 10
106.7206
 20
55.8
 30
0.0
 11
108.2794
 21
55.8
 31
0.0
  0
LINE
  5
27B
330
1E
100
AcDbEntity
  8
0
100
AcDbLine
 10
108.2794
 20
55.8
 30
0.0
 11
109.25
 21
55.8
 31
0.0
  0
LINE
  5
27C
330
1E
100
AcDbEntity
  8
0
100
AcDbLine
 10
109.25
 20
55.8
 30
0.0
 11
109.6029
 21
55.8
 31
0.0
  0
LINE
  5
27D
330
1E
100
AcDbEntity
  8
0
100
AcDbLine
 10
104.6618
 20
55.8
 30
0.0
 11
106.7206
 21
55.8
 31
0.0
  0
LINE
  5
27E
330
1E
100
AcDbEntity
  8
0
100
AcDbLine
 10
102.2793999999999
 20
55.8
 30
0.0
 11
104.6618
 21
55.8
 31
0.0
  0
LINE
  5
27F
330
1E
100
AcDbEntity
  8
0
100
AcDbLine
 10
106.5147
 20
56.0
 30
0.0
 11
108.0146999999999
 21
56.0
 31
0.0
  0
LINE
  5
280
330
1E
100
AcDbEntity
  8
0
100
AcDbLine
 10
108.0146999999999
 20
56.0
 30
0.0
 11
108.9558999999999
 21
56.0
 31
0.0
  0
LINE
  5
281
330
1E
100
AcDbEntity
  8
0
100
AcDbLine
 10
108.9558999999999
 20
56.0
 30
0.0
 11
109.3088
 21
56.0
 31
0.0
  0
LINE
  5
282
330
1E
100
AcDbEntity
  8
0
100
AcDbLine
 10
104.5147
 20
56.0
 30
0.0
 11
106.5147
 21
56.0
 31
0.0
  0
LINE
  5
283
330
1E
100
AcDbEntity
  8
0
100
AcDbLine
 10
102.2206
 20
56.0
 30
0.0
 11
104.5147
 21
56.0
 31
0.0
  0
LINE
  5
284
330
1E
100
AcDbEntity
  8
0
100
AcDbLine
 10
99.75000000000001
 20
56.0
 30
0.0
 11
102.2206
 21
56.0
 31
0.0
  0
LINE
  5
285
330
1E
100
AcDbEntity
  8
0
100
AcDbLine
 10
99.75000000000001
 20
55.8
 30
0.0
 11
102.2793999999999
 21
55.8
 31
0.0
  0
LINE
  5
286
330
1E
100
AcDbEntity
  8
0
100
AcDbLine
 10
109.3088
 20
56.0
 30
0.0
 11
109.6029
 21
55.8
 31
0.0
  0
LINE
  5
287
330
1E
100
AcDbEntity
  8
0
100
AcDbLine
 10
109.6029
 20
55.8
 30
0.0
 11
109.7499999999999
 21
55.4
 31
0.0
  0
LINE
  5
288
330
1E
100
AcDbEntity
  8
0
100
AcDbLine
 10
109.7499999999999
 20
41.0
 30
0.0
 11
109.7499999999999
 21
1.6
 31
0.0
  0
LINE
  5
289
330
1E
100
AcDbEntity
  8
0
100
AcDbLine
 10
30.75
 20
0.9999999999999978
 30
0.0
 11
62.75
 21
0.9999999999999989
 31
0.0
  0
LINE
  5
28A
330
1E
100
AcDbEntity
  8
0
100
AcDbLine
 10
16.191176
 20
0.9999999999999969
 30
0.0
 11
16.544118
 21
0.9999999999999969
 31
0.0
  0
LINE
  5
28B
330
1E
100
AcDbEntity
  8
0
100
AcDbLine
 10
16.191176
 20
0.9999999999999969
 30
0.0
 11
18.75
 21
0.9999999999999969
 31
0.0
  0
LINE
  5
28C
330
1E
100
AcDbEntity
  8
0
100
AcDbLine
 10
15.897059
 20
1.199999999999999
 30
0.0
 11
16.191176
 21
0.9999999999999969
 31
0.0
  0
LINE
  5
291
330
1E
100
AcDbEntity
  8
0
100
AcDbLine
 10
109.7499999999999
 20
55.4
 30
0.0
 11
109.7499999999999
 21
42.0
 31
0.0
  0
ENDSEC
  0
SECTION
  2
OBJECTS
  0
DICTIONARY
  5
C
330
0
100
AcDbDictionary
  3
ACAD_GROUP
350
D
  3
ACAD_LAYOUT
350
19
  3
ACAD_MLINESTYLE
350
16
  3
ACAD_PLOTSETTINGS
350
18
  3
ACAD_PLOTSTYLENAME
350
E
  3
ACDBHEADERROUNDTRIPXREC
350
296
  3
ACDBVARIABLEDICTIONARY
350
293
  0
DICTIONARY
  5
2B8
330
1E
100
AcDbDictionary
280
     1
  3
ACAD_LAYOUTSELFREF
360
2B9
  0
DICTIONARY
  5
2B6
330
1A
100
AcDbDictionary
280
     1
  3
ACAD_LAYOUTSELFREF
360
2B7
  0
DICTIONARY
  5
D
102
{ACAD_REACTORS
330
C
102
}
330
C
100
AcDbDictionary
  0
DICTIONARY
  5
19
102
{ACAD_REACTORS
330
C
102
}
330
C
100
AcDbDictionary
  0
DICTIONARY
  5
16
102
{ACAD_REACTORS
330
C
102
}
330
C
100
AcDbDictionary
  3
STANDARD
350
17
  0
DICTIONARY
  5
18
102
{ACAD_REACTORS
330
C
102
}
330
C
100
AcDbDictionary
  0
ACDBDICTIONARYWDFLT
  5
E
102
{ACAD_REACTORS
330
C
102
}
330
C
100
AcDbDictionary
281
     1
  3
Normal
350
F
100
AcDbDictionaryWithDefault
340
F
  0
DICTIONARY
  5
296
102
{ACAD_REACTORS
330
C
102
}
330
C
100
AcDbDictionary
  3
CEPSNTYPE
350
2A0
  3
FINGERPRINTGUID
350
2A1
  3
HYPERLINKBASE
350
299
  3
INSUNITS
350
29F
  3
LAYOUTDICT
350
29B
  3
LWETCUNION
350
29E
  3
PLOTSETDICT
350
29C
  3
PLOTSTYLNAMDICT
350
29D
  3
PSVPSCALE
350
2A3
  3
PUCSBASE
350
2A6
  3
PUCSORGBACK
350
2AC
  3
PUCSORGBOTTOM
350
2A8
  3
PUCSORGFRONT
350
2AB
  3
PUCSORGLEFT
350
2A9
  3
PUCSORGRIGHT
350
2AA
  3
PUCSORGTOP
350
2A7
  3
PUCSORTHOREF
350
2A4
  3
PUCSORTHOVIEW
350
2A5
  3
STYLESHEET
350
29A
  3
TSTACKALIGN
350
297
  3
TSTACKSIZE
350
298
  3
UCSBASE
350
2AF
  3
UCSORGBACK
350
2B5
  3
UCSORGBOTTOM
350
2B1
  3
UCSORGFRONT
350
2B4
  3
UCSORGLEFT
350
2B2
  3
UCSORGRIGHT
350
2B3
  3
UCSORGTOP
350
2B0
  3
UCSORTHOREF
350
2AD
  3
UCSORTHOVIEW
350
2AE
  3
VERSIONGUID
350
2A2
  0
DICTIONARY
  5
293
102
{ACAD_REACTORS
330
C
102
}
330
C
100
AcDbDictionary
  3
DIMASSOC
350
294
  0
XRECORD
  5
2B9
102
{ACAD_REACTORS
330
2B8
102
}
330
2B8
100
AcDbXrecord
340
1E
  0
XRECORD
  5
2B7
102
{ACAD_REACTORS
330
2B6
102
}
330
2B6
100
AcDbXrecord
340
1A
  0
MLINESTYLE
  5
17
102
{ACAD_REACTORS
330
16
102
}
330
16
100
AcDbMlineStyle
  2
STANDARD
 70
     0
  3

 62
   256
 51
90.0
 52
90.0
 71
     2
 49
0.5
 62
   256
  6
BYLAYER
 49
-0.5
 62
   256
  6
BYLAYER
  0
ACDBPLACEHOLDER
  5
F
102
{ACAD_REACTORS
330
E
102
}
330
E
100
AcDbPlaceHolder
280
     0
  0
XRECORD
  5
2A0
102
{ACAD_REACTORS
330
296
102
}
330
296
100
AcDbXrecord
 90
        0
  0
XRECORD
  5
2A1
102
{ACAD_REACTORS
330
296
102
}
330
296
100
AcDbXrecord
  1
{358F2BAF-F49E-4120-B956-244B5C774971}
  0
XRECORD
  5
299
102
{ACAD_REACTORS
330
296
102
}
330
296
100
AcDbXrecord
  1

  0
XRECORD
  5
29F
102
{ACAD_REACTORS
330
296
102
}
330
296
100
AcDbXrecord
 90
        0
  0
XRECORD
  5
29B
102
{ACAD_REACTORS
330
296
102
}
330
296
100
AcDbXrecord
340
19
  0
XRECORD
  5
29E
102
{ACAD_REACTORS
330
296
102
}
330
296
100
AcDbXrecord
 90
    10781
  0
XRECORD
  5
29C
102
{ACAD_REACTORS
330
296
102
}
330
296
100
AcDbXrecord
340
18
  0
XRECORD
  5
29D
102
{ACAD_REACTORS
330
296
102
}
330
296
100
AcDbXrecord
340
E
  0
XRECORD
  5
2A3
102
{ACAD_REACTORS
330
296
102
}
330
296
100
AcDbXrecord
 40
0.0
  0
XRECORD
  5
2A6
102
{ACAD_REACTORS
330
296
102
}
330
296
100
AcDbXrecord
340
0
  0
XRECORD
  5
2AC
102
{ACAD_REACTORS
330
296
102
}
330
296
100
AcDbXrecord
 10
0.0
 20
0.0
 30
0.0
  0
XRECORD
  5
2A8
102
{ACAD_REACTORS
330
296
102
}
330
296
100
AcDbXrecord
 10
0.0
 20
0.0
 30
0.0
  0
XRECORD
  5
2AB
102
{ACAD_REACTORS
330
296
102
}
330
296
100
AcDbXrecord
 10
0.0
 20
0.0
 30
0.0
  0
XRECORD
  5
2A9
102
{ACAD_REACTORS
330
296
102
}
330
296
100
AcDbXrecord
 10
0.0
 20
0.0
 30
0.0
  0
XRECORD
  5
2AA
102
{ACAD_REACTORS
330
296
102
}
330
296
100
AcDbXrecord
 10
0.0
 20
0.0
 30
0.0
  0
XRECORD
  5
2A7
102
{ACAD_REACTORS
330
296
102
}
330
296
100
AcDbXrecord
 10
0.0
 20
0.0
 30
0.0
  0
XRECORD
  5
2A4
102
{ACAD_REACTORS
330
296
102
}
330
296
100
AcDbXrecord
340
0
  0
XRECORD
  5
2A5
102
{ACAD_REACTORS
330
296
102
}
330
296
100
AcDbXrecord
 70
     0
  0
XRECORD
  5
29A
102
{ACAD_REACTORS
330
296
102
}
330
296
100
AcDbXrecord
  1

  0
XRECORD
  5
297
102
{ACAD_REACTORS
330
296
102
}
330
296
100
AcDbXrecord
 90
        1
  0
XRECORD
  5
298
102
{ACAD_REACTORS
330
296
102
}
330
296
100
AcDbXrecord
 90
       70
  0
XRECORD
  5
2AF
102
{ACAD_REACTORS
330
296
102
}
330
296
100
AcDbXrecord
340
0
  0
XRECORD
  5
2B5
102
{ACAD_REACTORS
330
296
102
}
330
296
100
AcDbXrecord
 10
0.0
 20
0.0
 30
0.0
  0
XRECORD
  5
2B1
102
{ACAD_REACTORS
330
296
102
}
330
296
100
AcDbXrecord
 10
0.0
 20
0.0
 30
0.0
  0
XRECORD
  5
2B4
102
{ACAD_REACTORS
330
296
102
}
330
296
100
AcDbXrecord
 10
0.0
 20
0.0
 30
0.0
  0
XRECORD
  5
2B2
102
{ACAD_REACTORS
330
296
102
}
330
296
100
AcDbXrecord
 10
0.0
 20
0.0
 30
0.0
  0
XRECORD
  5
2B3
102
{ACAD_REACTORS
330
296
102
}
330
296
100
AcDbXrecord
 10
0.0
 20
0.0
 30
0.0
  0
XRECORD
  5
2B0
102
{ACAD_REACTORS
330
296
102
}
330
296
100
AcDbXrecord
 10
0.0
 20
0.0
 30
0.0
  0
XRECORD
  5
2AD
102
{ACAD_REACTORS
330
296
102
}
330
296
100
AcDbXrecord
340
0
  0
XRECORD
  5
2AE
102
{ACAD_REACTORS
330
296
102
}
330
296
100
AcDbXrecord
 70
     1
  0
XRECORD
  5
2A2
102
{ACAD_REACTORS
330
296
102
}
330
296
100
AcDbXrecord
  1
{1B957FC8-787E-4794-BE0B-F671C905C5EE}
  0
DICTIONARYVAR
  5
294
102
{ACAD_REACTORS
330
293
102
}
330
293
100
DictionaryVariables
280
     0
  1
1
  0
ENDSEC
  0
EOF
