  0
SECTION
  2
HEADER
  9
$ACADVER
  1
AC1014
  9
$ACADMAINTVER
 70
     9
  9
$DWGCODEPAGE
  3
ANSI_1252
  9
$INSBASE
 10
0.0
 20
0.0
 30
0.0
  9
$EXTMIN
 10
0.250000000000002
 20
-0.0000000000000033
 30
0.0
  9
$EXTMAX
 10
109.7499999999999
 20
120.0
 30
0.0
  9
$LIMMIN
 10
0.0
 20
0.0
  9
$LIMMAX
 10
12.0
 20
9.0
  9
$ORTHOMODE
 70
     0
  9
$REGENMODE
 70
     1
  9
$FILLMODE
 70
     1
  9
$QTEXTMODE
 70
     0
  9
$MIRRTEXT
 70
     1
  9
$DRAGMODE
 70
     2
  9
$LTSCALE
 40
1.0
  9
$OSMODE
 70
    37
  9
$ATTMODE
 70
     1
  9
$TEXTSIZE
 40
0.2
  9
$TRACEWID
 40
0.05
  9
$TEXTSTYLE
  7
STANDARD
  9
$CLAYER
  8
0
  9
$CELTYPE
  6
CONTINUOUS
  9
$CECOLOR
 62
   256
  9
$CELTSCALE
 40
1.0
  9
$DELOBJ
 70
     1
  9
$DISPSILH
 70
     0
  9
$DIMSCALE
 40
1.0
  9
$DIMASZ
 40
0.18
  9
$DIMEXO
 40
0.0625
  9
$DIMDLI
 40
0.38
  9
$DIMRND
 40
0.0
  9
$DIMDLE
 40
0.0
  9
$DIMEXE
 40
0.18
  9
$DIMTP
 40
0.0
  9
$DIMTM
 40
0.0
  9
$DIMTXT
 40
0.18
  9
$DIMCEN
 40
0.09
  9
$DIMTSZ
 40
0.0
  9
$DIMTOL
 70
     0
  9
$DIMLIM
 70
     0
  9
$DIMTIH
 70
     1
  9
$DIMTOH
 70
     1
  9
$DIMSE1
 70
     0
  9
$DIMSE2
 70
     0
  9
$DIMTAD
 70
     0
  9
$DIMZIN
 70
     0
  9
$DIMBLK
  1

  9
$DIMASO
 70
     1
  9
$DIMSHO
 70
     1
  9
$DIMPOST
  1

  9
$DIMAPOST
  1

  9
$DIMALT
 70
     0
  9
$DIMALTD
 70
     2
  9
$DIMALTF
 40
25.4
  9
$DIMLFAC
 40
1.0
  9
$DIMTOFL
 70
     0
  9
$DIMTVP
 40
0.0
  9
$DIMTIX
 70
     0
  9
$DIMSOXD
 70
     0
  9
$DIMSAH
 70
     0
  9
$DIMBLK1
  1

  9
$DIMBLK2
  1

  9
$DIMSTYLE
  2
STANDARD
  9
$DIMCLRD
 70
     0
  9
$DIMCLRE
 70
     0
  9
$DIMCLRT
 70
     0
  9
$DIMTFAC
 40
1.0
  9
$DIMGAP
 40
0.09
  9
$DIMJUST
 70
     0
  9
$DIMSD1
 70
     0
  9
$DIMSD2
 70
     0
  9
$DIMTOLJ
 70
     1
  9
$DIMTZIN
 70
     0
  9
$DIMALTZ
 70
     0
  9
$DIMALTTZ
 70
     0
  9
$DIMFIT
 70
     3
  9
$DIMUPT
 70
     0
  9
$DIMUNIT
 70
     2
  9
$DIMDEC
 70
     4
  9
$DIMTDEC
 70
     4
  9
$DIMALTU
 70
     2
  9
$DIMALTTD
 70
     2
  9
$DIMTXSTY
  7
STANDARD
  9
$DIMAUNIT
 70
     0
  9
$LUNITS
 70
     2
  9
$LUPREC
 70
     4
  9
$SKETCHINC
 40
0.1
  9
$FILLETRAD
 40
0.0
  9
$AUNITS
 70
     0
  9
$AUPREC
 70
     0
  9
$MENU
  1
.
  9
$ELEVATION
 40
0.0
  9
$PELEVATION
 40
0.0
  9
$THICKNESS
 40
0.0
  9
$LIMCHECK
 70
     0
  9
$BLIPMODE
 70
     0
  9
$CHAMFERA
 40
0.0
  9
$CHAMFERB
 40
0.0
  9
$CHAMFERC
 40
0.0
  9
$CHAMFERD
 40
0.0
  9
$SKPOLY
 70
     0
  9
$TDCREATE
 40
2455238.895135625
  9
$TDUPDATE
 40
2455238.899735775
  9
$TDINDWG
 40
0.0046003356
  9
$TDUSRTIMER
 40
0.0046003356
  9
$USRTIMER
 70
     1
  9
$ANGBASE
 50
0.0
  9
$ANGDIR
 70
     0
  9
$PDMODE
 70
     0
  9
$PDSIZE
 40
0.0
  9
$PLINEWID
 40
0.0
  9
$COORDS
 70
     1
  9
$SPLFRAME
 70
     0
  9
$SPLINETYPE
 70
     6
  9
$SPLINESEGS
 70
     8
  9
$ATTDIA
 70
     0
  9
$ATTREQ
 70
     1
  9
$HANDLING
 70
 22529
  9
$HANDSEED
  5
5BC
  9
$SURFTAB1
 70
     6
  9
$SURFTAB2
 70
     6
  9
$SURFTYPE
 70
     6
  9
$SURFU
 70
     6
  9
$SURFV
 70
     6
  9
$UCSNAME
  2

  9
$UCSORG
 10
0.0
 20
0.0
 30
0.0
  9
$UCSXDIR
 10
1.0
 20
0.0
 30
0.0
  9
$UCSYDIR
 10
0.0
 20
1.0
 30
0.0
  9
$PUCSNAME
  2

  9
$PUCSORG
 10
0.0
 20
0.0
 30
0.0
  9
$PUCSXDIR
 10
1.0
 20
0.0
 30
0.0
  9
$PUCSYDIR
 10
0.0
 20
1.0
 30
0.0
  9
$USERI1
 70
     0
  9
$USERI2
 70
     0
  9
$USERI3
 70
     0
  9
$USERI4
 70
     0
  9
$USERI5
 70
     0
  9
$USERR1
 40
0.0
  9
$USERR2
 40
0.0
  9
$USERR3
 40
0.0
  9
$USERR4
 40
0.0
  9
$USERR5
 40
0.0
  9
$WORLDVIEW
 70
     1
  9
$SHADEDGE
 70
     3
  9
$SHADEDIF
 70
    70
  9
$TILEMODE
 70
     1
  9
$MAXACTVP
 70
    64
  9
$PINSBASE
 10
0.0
 20
0.0
 30
0.0
  9
$PLIMCHECK
 70
     0
  9
$PEXTMIN
 10
1.000000000000000E+20
 20
1.000000000000000E+20
 30
1.000000000000000E+20
  9
$PEXTMAX
 10
-1.000000000000000E+20
 20
-1.000000000000000E+20
 30
-1.000000000000000E+20
  9
$PLIMMIN
 10
0.0
 20
0.0
  9
$PLIMMAX
 10
12.0
 20
9.0
  9
$UNITMODE
 70
     0
  9
$VISRETAIN
 70
     1
  9
$PLINEGEN
 70
     0
  9
$PSLTSCALE
 70
     1
  9
$TREEDEPTH
 70
  3020
  9
$PICKSTYLE
 70
     1
  9
$CMLSTYLE
  2
STANDARD
  9
$CMLJUST
 70
     0
  9
$CMLSCALE
 40
1.0
  9
$PROXYGRAPHICS
 70
     1
  9
$MEASUREMENT
 70
     0
  0
ENDSEC
  0
SECTION
  2
CLASSES
  0
CLASS
  1
ACDBDICTIONARYWDFLT
  2
AcDbDictionaryWithDefault
  3
AutoCAD 2000
 90
        0
280
     0
281
     0
  0
CLASS
  1
ACDBPLACEHOLDER
  2
AcDbPlaceHolder
  3
AutoCAD 2000
 90
        0
280
     0
281
     0
  0
CLASS
  1
LAYOUT
  2
AcDbLayout
  3
AutoCAD 2000
 90
        0
280
     0
281
     0
  0
CLASS
  1
DICTIONARYVAR
  2
AcDbDictionaryVar
  3
AutoCAD 2000
 90
        0
280
     0
281
     0
  0
CLASS
  1
LONG_TRANSACTION
  2
AcDbLongTransaction
  3
AutoCAD 2000
 90
        0
280
     0
281
     0
  0
CLASS
  1
LWPOLYLINE
  2
AcDbPolyline
  3
AutoCAD 2000
 90
        0
280
     0
281
     1
  0
CLASS
  1
HATCH
  2
AcDbHatch
  3
AutoCAD 2000
 90
        0
280
     0
281
     1
  0
CLASS
  1
XRECORD
  2
AcDbXrecord
  3
AutoCAD 2000
 90
        0
280
     0
281
     0
  0
ENDSEC
  0
SECTION
  2
TABLES
  0
TABLE
  2
VPORT
  5
8
330
0
100
AcDbSymbolTable
 70
     3
  0
VPORT
  5
597
330
8
100
AcDbSymbolTableRecord
100
AcDbViewportTableRecord
  2
*ACTIVE
 70
     0
 10
0.0
 20
0.0
 11
1.0
 21
1.0
 12
55.0
 22
60.0
 13
0.0
 23
0.0
 14
1.0
 24
1.0
 15
0.0
 25
0.0
 16
0.0
 26
0.0
 36
1.0
 17
0.0
 27
0.0
 37
0.0
 40
120.7877461706783
 41
2.041621029572836
 42
50.0
 43
0.0
 44
0.0
 50
0.0
 51
0.0
 71
     0
 72
   100
 73
     1
 74
     3
 75
     0
 76
     0
 77
     0
 78
     0
  0
ENDTAB
  0
TABLE
  2
LTYPE
  5
5
330
0
100
AcDbSymbolTable
 70
     1
  0
LTYPE
  5
13
330
5
100
AcDbSymbolTableRecord
100
AcDbLinetypeTableRecord
  2
BYBLOCK
 70
     0
  3

 72
    65
 73
     0
 40
0.0
  0
LTYPE
  5
14
330
5
100
AcDbSymbolTableRecord
100
AcDbLinetypeTableRecord
  2
BYLAYER
 70
     0
  3

 72
    65
 73
     0
 40
0.0
  0
LTYPE
  5
15
330
5
100
AcDbSymbolTableRecord
100
AcDbLinetypeTableRecord
  2
CONTINUOUS
 70
     0
  3
Solid line
 72
    65
 73
     0
 40
0.0
  0
ENDTAB
  0
TABLE
  2
LAYER
  5
2
330
0
100
AcDbSymbolTable
 70
     1
  0
LAYER
  5
10
330
2
100
AcDbSymbolTableRecord
100
AcDbLayerTableRecord
  2
0
 70
     0
 62
     7
  6
CONTINUOUS
  0
ENDTAB
  0
TABLE
  2
STYLE
  5
3
330
0
100
AcDbSymbolTable
 70
     1
  0
STYLE
  5
11
330
3
100
AcDbSymbolTableRecord
100
AcDbTextStyleTableRecord
  2
STANDARD
 70
     0
 40
0.0
 41
1.0
 50
0.0
 71
     0
 42
0.2
  3
txt
  4

  0
ENDTAB
  0
TABLE
  2
VIEW
  5
6
330
0
100
AcDbSymbolTable
 70
     0
  0
ENDTAB
  0
TABLE
  2
UCS
  5
7
330
0
100
AcDbSymbolTable
 70
     0
  0
ENDTAB
  0
TABLE
  2
APPID
  5
9
330
0
100
AcDbSymbolTable
 70
     1
  0
APPID
  5
12
330
9
100
AcDbSymbolTableRecord
100
AcDbRegAppTableRecord
  2
ACAD
 70
     0
  0
ENDTAB
  0
TABLE
  2
DIMSTYLE
  5
A
330
0
100
AcDbSymbolTable
 70
     1
  0
DIMSTYLE
105
4AA
330
A
100
AcDbSymbolTableRecord
100
AcDbDimStyleTableRecord
  2
STANDARD
 70
     0
  3

  4

  5

  6

  7

 40
1.0
 41
0.18
 42
0.0625
 43
0.38
 44
0.18
 45
0.0
 46
0.0
 47
0.0
 48
0.0
140
0.18
141
0.09
142
0.0
143
25.4
144
1.0
145
0.0
146
1.0
147
0.09
 71
     0
 72
     0
 73
     1
 74
     1
 75
     0
 76
     0
 77
     0
 78
     0
170
     0
171
     2
172
     0
173
     0
174
     0
175
     0
176
     0
177
     0
178
     0
270
     2
271
     4
272
     4
273
     2
274
     2
340
11
275
     0
280
     0
281
     0
282
     0
283
     1
284
     0
285
     0
286
     0
287
     3
288
     0
  0
ENDTAB
  0
TABLE
  2
BLOCK_RECORD
  5
1
330
0
100
AcDbSymbolTable
 70
     0
  0
BLOCK_RECORD
  5
1E
102
{ACAD_XDICTIONARY
360
5BA
102
}
330
1
100
AcDbSymbolTableRecord
100
AcDbBlockTableRecord
  2
*MODEL_SPACE
  0
BLOCK_RECORD
  5
1A
102
{ACAD_XDICTIONARY
360
5B8
102
}
330
1
100
AcDbSymbolTableRecord
100
AcDbBlockTableRecord
  2
*PAPER_SPACE
  0
ENDTAB
  0
ENDSEC
  0
SECTION
  2
BLOCKS
  0
BLOCK
  5
1F
330
1E
100
AcDbEntity
  8
0
100
AcDbBlockBegin
  2
*MODEL_SPACE
 70
     0
 10
0.0
 20
0.0
 30
0.0
  3
*MODEL_SPACE
  1

  0
ENDBLK
  5
20
330
1E
100
AcDbEntity
  8
0
100
AcDbBlockEnd
  0
BLOCK
  5
1B
330
1A
100
AcDbEntity
 67
     1
  8
0
100
AcDbBlockBegin
  2
*PAPER_SPACE
 70
     0
 10
0.0
 20
0.0
 30
0.0
  3
*PAPER_SPACE
  1

  0
ENDBLK
  5
1C
330
1A
100
AcDbEntity
 67
     1
  8
0
100
AcDbBlockEnd
  0
ENDSEC
  0
SECTION
  2
ENTITIES
  0
LINE
  5
22
330
1E
100
AcDbEntity
  8
0
100
AcDbLine
 10
21.5833333334005
 20
27.0195666666388
 30
0.0
 11
23.19118
 21
26.3529
 31
0.0
  0
LINE
  5
23
330
1E
100
AcDbEntity
  8
0
100
AcDbLine
 10
21.5833333333985
 20
27.0195666666396
 30
0.0
 11
23.19118
 21
26.3529
 31
0.0
  0
LINE
  5
24
330
1E
100
AcDbEntity
  8
0
100
AcDbLine
 10
23.19118
 20
26.3529
 30
0.0
 11
25.75
 21
26.0
 31
0.0
  0
LINE
  5
25
330
1E
100
AcDbEntity
  8
0
100
AcDbLine
 10
20.77939999999999
 20
27.3529
 30
0.0
 11
21.5833333340692
 21
27.01956666636149
 31
0.0
  0
LINE
  5
26
330
1E
100
AcDbEntity
  8
0
100
AcDbLine
 10
20.77939999999999
 20
27.3529
 30
0.0
 11
21.58333333403319
 21
27.0195666663765
 31
0.0
  0
LINE
  5
27
330
1E
100
AcDbEntity
  8
0
100
AcDbLine
 10
18.69118
 20
28.9412
 30
0.0
 11
20.08333333326469
 21
27.8823333333855
 31
0.0
  0
LINE
  5
28
330
1E
100
AcDbEntity
  8
0
100
AcDbLine
 10
18.69118
 20
28.9412
 30
0.0
 11
20.0833333332602
 21
27.882333333389
 31
0.0
  0
LINE
  5
2B
330
1E
100
AcDbEntity
  8
0
100
AcDbLine
 10
17.1029
 20
31.0294
 30
0.0
 11
18.161766666735
 21
29.6372666665769
 31
0.0
  0
LINE
  5
2C
330
1E
100
AcDbEntity
  8
0
100
AcDbLine
 10
17.1029
 20
31.0294
 30
0.0
 11
18.16176666673619
 21
29.63726666657519
 31
0.0
  0
LINE
  5
2D
330
1E
100
AcDbEntity
  8
0
100
AcDbLine
 10
16.1029
 20
33.4412
 30
0.0
 11
17.1029
 21
31.0294
 31
0.0
  0
LINE
  5
2E
330
1E
100
AcDbEntity
  8
0
100
AcDbLine
 10
0.250000000000002
 20
50.175
 30
0.0
 11
0.250000000000002
 21
49.875
 31
0.0
  0
LINE
  5
2F
330
1E
100
AcDbEntity
  8
0
100
AcDbLine
 10
0.250000000000002
 20
50.175
 30
0.0
 11
0.250000000000002
 21
50.975
 31
0.0
  0
LINE
  5
30
330
1E
100
AcDbEntity
  8
0
100
AcDbLine
 10
0.3653999999999989
 20
49.92499999999999
 30
0.0
 11
0.3653999999999989
 21
49.625
 31
0.0
  0
LINE
  5
31
330
1E
100
AcDbEntity
  8
0
100
AcDbLine
 10
0.3653999999999989
 20
49.92499999999999
 30
0.0
 11
0.3653999999999989
 21
50.75
 31
0.0
  0
LINE
  5
32
330
1E
100
AcDbEntity
  8
0
100
AcDbLine
 10
0.250000000000002
 20
49.875
 30
0.0
 11
0.3653999999999989
 21
49.625
 31
0.0
  0
LINE
  5
33
330
1E
100
AcDbEntity
  8
0
100
AcDbLine
 10
0.250000000000002
 20
49.875
 30
0.0
 11
0.250000000000002
 21
50.175
 31
0.0
  0
LINE
  5
34
330
1E
100
AcDbEntity
  8
0
100
AcDbLine
 10
4.25
 20
49.8
 30
0.0
 11
4.25
 21
50.65
 31
0.0
  0
LINE
  5
35
330
1E
100
AcDbEntity
  8
0
100
AcDbLine
 10
0.3653999999999989
 20
49.625
 30
0.0
 11
0.596200000000001
 21
49.5
 31
0.0
  0
LINE
  5
36
330
1E
100
AcDbEntity
  8
0
100
AcDbLine
 10
0.3653999999999989
 20
49.625
 30
0.0
 11
0.3653999999999989
 21
49.92499999999999
 31
0.0
  0
LINE
  5
37
330
1E
100
AcDbEntity
  8
0
100
AcDbLine
 10
0.596200000000001
 20
49.5
 30
0.0
 11
4.25
 21
49.5
 31
0.0
  0
LINE
  5
38
330
1E
100
AcDbEntity
  8
0
100
AcDbLine
 10
4.25
 20
49.5
 30
0.0
 11
4.25
 21
49.17049999999999
 31
0.0
  0
LINE
  5
39
330
1E
100
AcDbEntity
  8
0
100
AcDbLine
 10
4.25
 20
49.5
 30
0.0
 11
4.25
 21
49.8
 31
0.0
  0
LINE
  5
3A
330
1E
100
AcDbEntity
  8
0
100
AcDbLine
 10
0.250000000000002
 20
50.975
 30
0.0
 11
0.250000000000002
 21
50.175
 31
0.0
  0
LINE
  5
3B
330
1E
100
AcDbEntity
  8
0
100
AcDbLine
 10
0.250000000000002
 20
50.975
 30
0.0
 11
0.250000000000002
 21
52.25
 31
0.0
  0
LINE
  5
3C
330
1E
100
AcDbEntity
  8
0
100
AcDbLine
 10
0.250000000000002
 20
53.95
 30
0.0
 11
0.250000000000002
 21
52.25
 31
0.0
  0
LINE
  5
3D
330
1E
100
AcDbEntity
  8
0
100
AcDbLine
 10
0.250000000000002
 20
53.95
 30
0.0
 11
0.250000000000002
 21
55.89999999999999
 31
0.0
  0
LINE
  5
3E
330
1E
100
AcDbEntity
  8
0
100
AcDbLine
 10
0.3653999999999989
 20
53.825
 30
0.0
 11
0.3653999999999989
 21
52.075
 31
0.0
  0
LINE
  5
3F
330
1E
100
AcDbEntity
  8
0
100
AcDbLine
 10
0.3653999999999989
 20
53.825
 30
0.0
 11
0.3653999999999989
 21
55.85
 31
0.0
  0
LINE
  5
40
330
1E
100
AcDbEntity
  8
0
100
AcDbLine
 10
0.250000000000002
 20
52.25
 30
0.0
 11
0.250000000000002
 21
50.975
 31
0.0
  0
LINE
  5
41
330
1E
100
AcDbEntity
  8
0
100
AcDbLine
 10
0.250000000000002
 20
52.25
 30
0.0
 11
0.250000000000002
 21
53.95
 31
0.0
  0
LINE
  5
42
330
1E
100
AcDbEntity
  8
0
100
AcDbLine
 10
0.3653999999999989
 20
52.075
 30
0.0
 11
0.3653999999999989
 21
50.75
 31
0.0
  0
LINE
  5
43
330
1E
100
AcDbEntity
  8
0
100
AcDbLine
 10
0.3653999999999989
 20
52.075
 30
0.0
 11
0.3653999999999989
 21
53.825
 31
0.0
  0
LINE
  5
44
330
1E
100
AcDbEntity
  8
0
100
AcDbLine
 10
4.25
 20
52.0
 30
0.0
 11
4.25
 21
53.775
 31
0.0
  0
LINE
  5
45
330
1E
100
AcDbEntity
  8
0
100
AcDbLine
 10
4.25
 20
53.775
 30
0.0
 11
4.25
 21
55.825
 31
0.0
  0
LINE
  5
46
330
1E
100
AcDbEntity
  8
0
100
AcDbLine
 10
0.3653999999999989
 20
50.75
 30
0.0
 11
0.3653999999999989
 21
49.92499999999999
 31
0.0
  0
LINE
  5
47
330
1E
100
AcDbEntity
  8
0
100
AcDbLine
 10
0.3653999999999989
 20
50.75
 30
0.0
 11
0.3653999999999989
 21
52.075
 31
0.0
  0
LINE
  5
48
330
1E
100
AcDbEntity
  8
0
100
AcDbLine
 10
4.25
 20
50.65
 30
0.0
 11
4.25
 21
52.0
 31
0.0
  0
LINE
  5
49
330
1E
100
AcDbEntity
  8
0
100
AcDbLine
 10
4.25
 20
51.7477
 30
0.0
 11
4.25
 21
50.3636
 31
0.0
  0
LINE
  5
4C
330
1E
100
AcDbEntity
  8
0
100
AcDbLine
 10
4.25
 20
51.7477
 30
0.0
 11
4.25
 21
53.6091
 31
0.0
  0
LINE
  5
4D
330
1E
100
AcDbEntity
  8
0
100
AcDbLine
 10
4.25
 20
50.3636
 30
0.0
 11
4.25
 21
49.5046
 31
0.0
  0
LINE
  5
4E
330
1E
100
AcDbEntity
  8
0
100
AcDbLine
 10
4.25
 20
50.3636
 30
0.0
 11
4.25
 21
51.7477
 31
0.0
  0
LINE
  5
51
330
1E
100
AcDbEntity
  8
0
100
AcDbLine
 10
4.25
 20
53.6091
 30
0.0
 11
4.25
 21
51.7477
 31
0.0
  0
LINE
  5
54
330
1E
100
AcDbEntity
  8
0
100
AcDbLine
 10
4.25
 20
53.6091
 30
0.0
 11
4.25
 21
55.7091
 31
0.0
  0
LINE
  5
55
330
1E
100
AcDbEntity
  8
0
100
AcDbLine
 10
0.250000000000002
 20
55.89999999999999
 30
0.0
 11
0.250000000000002
 21
53.95
 31
0.0
  0
LINE
  5
56
330
1E
100
AcDbEntity
  8
0
100
AcDbLine
 10
0.250000000000002
 20
55.89999999999999
 30
0.0
 11
0.250000000000002
 21
58.0
 31
0.0
  0
LINE
  5
57
330
1E
100
AcDbEntity
  8
0
100
AcDbLine
 10
0.250000000000002
 20
58.0
 30
0.0
 11
0.250000000000002
 21
55.89999999999999
 31
0.0
  0
LINE
  5
58
330
1E
100
AcDbEntity
  8
0
100
AcDbLine
 10
0.250000000000002
 20
58.0
 30
0.0
 11
0.250000000000002
 21
60.1
 31
0.0
  0
LINE
  5
59
330
1E
100
AcDbEntity
  8
0
100
AcDbLine
 10
0.3653999999999989
 20
55.85
 30
0.0
 11
0.3653999999999989
 21
53.825
 31
0.0
  0
LINE
  5
5A
330
1E
100
AcDbEntity
  8
0
100
AcDbLine
 10
0.3653999999999989
 20
55.85
 30
0.0
 11
0.3653999999999989
 21
58.0
 31
0.0
  0
LINE
  5
5B
330
1E
100
AcDbEntity
  8
0
100
AcDbLine
 10
0.3653999999999989
 20
58.0
 30
0.0
 11
0.3653999999999989
 21
55.85
 31
0.0
  0
LINE
  5
5C
330
1E
100
AcDbEntity
  8
0
100
AcDbLine
 10
0.3653999999999989
 20
58.0
 30
0.0
 11
0.3653999999999989
 21
60.15
 31
0.0
  0
LINE
  5
5D
330
1E
100
AcDbEntity
  8
0
100
AcDbLine
 10
4.25
 20
55.825
 30
0.0
 11
4.25
 21
58.0
 31
0.0
  0
LINE
  5
5E
330
1E
100
AcDbEntity
  8
0
100
AcDbLine
 10
4.25
 20
55.7091
 30
0.0
 11
4.25
 21
53.6091
 31
0.0
  0
LINE
  5
60
330
1E
100
AcDbEntity
  8
0
100
AcDbLine
 10
4.25
 20
55.7091
 30
0.0
 11
4.25
 21
58.0
 31
0.0
  0
LINE
  5
62
330
1E
100
AcDbEntity
  8
0
100
AcDbLine
 10
4.25
 20
49.5046
 30
0.0
 11
4.25
 21
50.3636
 31
0.0
  0
LINE
  5
63
330
1E
100
AcDbEntity
  8
0
100
AcDbLine
 10
4.25
 20
49.17049999999999
 30
0.0
 11
4.45
 21
48.4545
 31
0.0
  0
LINE
  5
64
330
1E
100
AcDbEntity
  8
0
100
AcDbLine
 10
4.25
 20
49.17049999999999
 30
0.0
 11
4.25
 21
49.5
 31
0.0
  0
LINE
  5
65
330
1E
100
AcDbEntity
  8
0
100
AcDbLine
 10
5.5833
 20
47.5
 30
0.0
 11
8.916669999999999
 21
47.5
 31
0.0
  0
LINE
  5
66
330
1E
100
AcDbEntity
  8
0
100
AcDbLine
 10
4.916699999999999
 20
47.73859999999999
 30
0.0
 11
4.916699999999999
 21
47.90169999999999
 31
0.0
  0
LINE
  5
67
330
1E
100
AcDbEntity
  8
0
100
AcDbLine
 10
4.916699999999999
 20
47.73859999999999
 30
0.0
 11
5.5833
 21
47.5
 31
0.0
  0
LINE
  5
68
330
1E
100
AcDbEntity
  8
0
100
AcDbLine
 10
4.916699999999999
 20
47.90169999999999
 30
0.0
 11
4.916699999999999
 21
47.73859999999999
 31
0.0
  0
LINE
  5
69
330
1E
100
AcDbEntity
  8
0
100
AcDbLine
 10
8.916669999999999
 20
47.5
 30
0.0
 11
9.58333
 21
47.73859999999999
 31
0.0
  0
LINE
  5
6A
330
1E
100
AcDbEntity
  8
0
100
AcDbLine
 10
9.58333
 20
47.73859999999999
 30
0.0
 11
10.05
 21
48.4545
 31
0.0
  0
LINE
  5
6B
330
1E
100
AcDbEntity
  8
0
100
AcDbLine
 10
9.58333
 20
47.73859999999999
 30
0.0
 11
9.58333
 21
47.90169999999999
 31
0.0
  0
LINE
  5
6D
330
1E
100
AcDbEntity
  8
0
100
AcDbLine
 10
4.45
 20
48.4545
 30
0.0
 11
4.916699999999999
 21
47.73859999999999
 31
0.0
  0
LINE
  5
6E
330
1E
100
AcDbEntity
  8
0
100
AcDbLine
 10
4.529099999999999
 20
48.6754
 30
0.0
 11
4.916699999999999
 21
47.90169999999999
 31
0.0
  0
LINE
  5
70
330
1E
100
AcDbEntity
  8
0
100
AcDbLine
 10
9.58333
 20
47.90169999999999
 30
0.0
 11
9.97093
 21
48.6754
 31
0.0
  0
LINE
  5
72
330
1E
100
AcDbEntity
  8
0
100
AcDbLine
 10
9.58333
 20
47.90169999999999
 30
0.0
 11
9.58333
 21
47.73859999999999
 31
0.0
  0
LINE
  5
73
330
1E
100
AcDbEntity
  8
0
100
AcDbLine
 10
14.46659
 20
47.73859999999999
 30
0.0
 11
14.46659
 21
47.90169999999999
 31
0.0
  0
LINE
  5
74
330
1E
100
AcDbEntity
  8
0
100
AcDbLine
 10
14.46659
 20
47.73859999999999
 30
0.0
 11
15.11175
 21
47.5
 31
0.0
  0
LINE
  5
76
330
1E
100
AcDbEntity
  8
0
100
AcDbLine
 10
14.01498
 20
48.4545
 30
0.0
 11
14.46659
 21
47.73859999999999
 31
0.0
  0
LINE
  5
77
330
1E
100
AcDbEntity
  8
0
100
AcDbLine
 10
15.11175
 20
47.5
 30
0.0
 11
15.75
 21
47.5
 31
0.0
  0
LINE
  5
78
330
1E
100
AcDbEntity
  8
0
100
AcDbLine
 10
14.46659
 20
47.90169999999999
 30
0.0
 11
14.46659
 21
47.73859999999999
 31
0.0
  0
LINE
  5
79
330
1E
100
AcDbEntity
  8
0
100
AcDbLine
 10
13.82143
 20
49.17049999999999
 30
0.0
 11
14.01498
 21
48.4545
 31
0.0
  0
LINE
  5
7A
330
1E
100
AcDbEntity
  8
0
100
AcDbLine
 10
13.82143
 20
49.17049999999999
 30
0.0
 11
13.82143
 21
49.5
 31
0.0
  0
LINE
  5
7B
330
1E
100
AcDbEntity
  8
0
100
AcDbLine
 10
14.0915
 20
48.6754
 30
0.0
 11
14.46659
 21
47.90169999999999
 31
0.0
  0
LINE
  5
7D
330
1E
100
AcDbEntity
  8
0
100
AcDbLine
 10
10.05
 20
48.4545
 30
0.0
 11
10.25
 21
49.17049999999999
 31
0.0
  0
LINE
  5
7E
330
1E
100
AcDbEntity
  8
0
100
AcDbLine
 10
9.97093
 20
48.6754
 30
0.0
 11
10.11525
 21
49.94559999999999
 31
0.0
  0
LINE
  5
81
330
1E
100
AcDbEntity
  8
0
100
AcDbLine
 10
4.384699999999999
 20
49.94559999999999
 30
0.0
 11
4.492399999999999
 21
51.2227
 31
0.0
  0
LINE
  5
82
330
1E
100
AcDbEntity
  8
0
100
AcDbLine
 10
4.384699999999999
 20
49.94559999999999
 30
0.0
 11
4.529099999999999
 21
48.6754
 31
0.0
  0
LINE
  5
83
330
1E
100
AcDbEntity
  8
0
100
AcDbLine
 10
4.916699999999999
 20
52.8932
 30
0.0
 11
4.916699999999999
 21
52.11719999999999
 31
0.0
  0
LINE
  5
85
330
1E
100
AcDbEntity
  8
0
100
AcDbLine
 10
4.916699999999999
 20
52.8932
 30
0.0
 11
4.916699999999999
 21
53.36590000000001
 31
0.0
  0
LINE
  5
89
330
1E
100
AcDbEntity
  8
0
100
AcDbLine
 10
4.916699999999999
 20
53.36590000000001
 30
0.0
 11
4.916699999999999
 21
52.8932
 31
0.0
  0
LINE
  5
8A
330
1E
100
AcDbEntity
  8
0
100
AcDbLine
 10
4.41
 20
55.5945
 30
0.0
 11
4.916699999999999
 21
53.36590000000001
 31
0.0
  0
LINE
  5
8C
330
1E
100
AcDbEntity
  8
0
100
AcDbLine
 10
4.492399999999999
 20
51.2227
 30
0.0
 11
4.916699999999999
 21
52.11719999999999
 31
0.0
  0
LINE
  5
8E
330
1E
100
AcDbEntity
  8
0
100
AcDbLine
 10
10.25
 20
49.5
 30
0.0
 11
13.82143
 21
49.5
 31
0.0
  0
LINE
  5
8F
330
1E
100
AcDbEntity
  8
0
100
AcDbLine
 10
13.82143
 20
49.5
 30
0.0
 11
13.82143
 21
49.17049999999999
 31
0.0
  0
LINE
  5
90
330
1E
100
AcDbEntity
  8
0
100
AcDbLine
 10
13.82143
 20
49.5
 30
0.0
 11
13.82143
 21
49.8
 31
0.0
  0
LINE
  5
92
330
1E
100
AcDbEntity
  8
0
100
AcDbLine
 10
13.82143
 20
49.5046
 30
0.0
 11
13.82143
 21
50.3636
 31
0.0
  0
LINE
  5
93
330
1E
100
AcDbEntity
  8
0
100
AcDbLine
 10
13.82143
 20
49.8
 30
0.0
 11
13.82143
 21
50.65
 31
0.0
  0
LINE
  5
94
330
1E
100
AcDbEntity
  8
0
100
AcDbLine
 10
13.82143
 20
50.3636
 30
0.0
 11
13.82143
 21
49.5046
 31
0.0
  0
LINE
  5
95
330
1E
100
AcDbEntity
  8
0
100
AcDbLine
 10
13.82143
 20
50.3636
 30
0.0
 11
13.82143
 21
51.7477
 31
0.0
  0
LINE
  5
98
330
1E
100
AcDbEntity
  8
0
100
AcDbLine
 10
13.95182
 20
49.94559999999999
 30
0.0
 11
14.05601
 21
51.2227
 31
0.0
  0
LINE
  5
99
330
1E
100
AcDbEntity
  8
0
100
AcDbLine
 10
13.95182
 20
49.94559999999999
 30
0.0
 11
14.0915
 21
48.6754
 31
0.0
  0
LINE
  5
9A
330
1E
100
AcDbEntity
  8
0
100
AcDbLine
 10
13.82143
 20
50.65
 30
0.0
 11
13.82143
 21
52.0
 31
0.0
  0
LINE
  5
9B
330
1E
100
AcDbEntity
  8
0
100
AcDbLine
 10
13.82143
 20
52.0
 30
0.0
 11
13.82143
 21
53.775
 31
0.0
  0
LINE
  5
9C
330
1E
100
AcDbEntity
  8
0
100
AcDbLine
 10
13.82143
 20
51.7477
 30
0.0
 11
13.82143
 21
50.3636
 31
0.0
  0
LINE
  5
9F
330
1E
100
AcDbEntity
  8
0
100
AcDbLine
 10
13.82143
 20
51.7477
 30
0.0
 11
13.82143
 21
53.6091
 31
0.0
  0
LINE
  5
A0
330
1E
100
AcDbEntity
  8
0
100
AcDbLine
 10
14.05601
 20
51.2227
 30
0.0
 11
14.46659
 21
52.11719999999999
 31
0.0
  0
LINE
  5
A4
330
1E
100
AcDbEntity
  8
0
100
AcDbLine
 10
14.46659
 20
52.11719999999999
 30
0.0
 11
14.46659
 21
52.8932
 31
0.0
  0
LINE
  5
A9
330
1E
100
AcDbEntity
  8
0
100
AcDbLine
 10
10.25
 20
49.5046
 30
0.0
 11
10.25
 21
49.17049999999999
 31
0.0
  0
LINE
  5
AB
330
1E
100
AcDbEntity
  8
0
100
AcDbLine
 10
10.00758
 20
51.2227
 30
0.0
 11
10.11525
 21
49.94559999999999
 31
0.0
  0
LINE
  5
AD
330
1E
100
AcDbEntity
  8
0
100
AcDbLine
 10
9.58333
 20
52.8932
 30
0.0
 11
9.58333
 21
53.36590000000001
 31
0.0
  0
LINE
  5
AF
330
1E
100
AcDbEntity
  8
0
100
AcDbLine
 10
9.58333
 20
52.8932
 30
0.0
 11
9.58333
 21
52.11719999999999
 31
0.0
  0
LINE
  5
B0
330
1E
100
AcDbEntity
  8
0
100
AcDbLine
 10
5.5833
 20
52.7367
 30
0.0
 11
8.916669999999999
 21
52.7367
 31
0.0
  0
LINE
  5
B2
330
1E
100
AcDbEntity
  8
0
100
AcDbLine
 10
9.58333
 20
53.36590000000001
 30
0.0
 11
10.09
 21
55.5945
 31
0.0
  0
LINE
  5
B3
330
1E
100
AcDbEntity
  8
0
100
AcDbLine
 10
9.58333
 20
53.36590000000001
 30
0.0
 11
9.58333
 21
52.8932
 31
0.0
  0
LINE
  5
B4
330
1E
100
AcDbEntity
  8
0
100
AcDbLine
 10
13.82143
 20
53.775
 30
0.0
 11
13.82143
 21
55.825
 31
0.0
  0
LINE
  5
B5
330
1E
100
AcDbEntity
  8
0
100
AcDbLine
 10
13.82143
 20
53.6091
 30
0.0
 11
13.82143
 21
51.7477
 31
0.0
  0
LINE
  5
B8
330
1E
100
AcDbEntity
  8
0
100
AcDbLine
 10
13.82143
 20
53.6091
 30
0.0
 11
13.82143
 21
55.7091
 31
0.0
  0
LINE
  5
B9
330
1E
100
AcDbEntity
  8
0
100
AcDbLine
 10
13.82143
 20
55.825
 30
0.0
 11
13.82143
 21
58.0
 31
0.0
  0
LINE
  5
BA
330
1E
100
AcDbEntity
  8
0
100
AcDbLine
 10
13.82143
 20
55.7091
 30
0.0
 11
13.82143
 21
53.6091
 31
0.0
  0
LINE
  5
BC
330
1E
100
AcDbEntity
  8
0
100
AcDbLine
 10
13.82143
 20
55.7091
 30
0.0
 11
13.82143
 21
58.0
 31
0.0
  0
LINE
  5
BD
330
1E
100
AcDbEntity
  8
0
100
AcDbLine
 10
14.46659
 20
52.8932
 30
0.0
 11
14.46659
 21
52.11719999999999
 31
0.0
  0
LINE
  5
BF
330
1E
100
AcDbEntity
  8
0
100
AcDbLine
 10
14.46659
 20
52.8932
 30
0.0
 11
14.46659
 21
53.36590000000001
 31
0.0
  0
LINE
  5
C6
330
1E
100
AcDbEntity
  8
0
100
AcDbLine
 10
14.46659
 20
53.36590000000001
 30
0.0
 11
14.46659
 21
52.8932
 31
0.0
  0
LINE
  5
C7
330
1E
100
AcDbEntity
  8
0
100
AcDbLine
 10
13.97627
 20
55.5945
 30
0.0
 11
14.46659
 21
53.36590000000001
 31
0.0
  0
LINE
  5
C9
330
1E
100
AcDbEntity
  8
0
100
AcDbLine
 10
13.82143
 20
58.0
 30
0.0
 11
13.82143
 21
60.2909
 31
0.0
  0
LINE
  5
CA
330
1E
100
AcDbEntity
  8
0
100
AcDbLine
 10
13.82143
 20
58.0
 30
0.0
 11
13.82143
 21
55.7091
 31
0.0
  0
LINE
  5
CB
330
1E
100
AcDbEntity
  8
0
100
AcDbLine
 10
13.82143
 20
58.0
 30
0.0
 11
13.82143
 21
60.175
 31
0.0
  0
LINE
  5
CC
330
1E
100
AcDbEntity
  8
0
100
AcDbLine
 10
13.88595
 20
58.0
 30
0.0
 11
13.97627
 21
60.4055
 31
0.0
  0
LINE
  5
CD
330
1E
100
AcDbEntity
  8
0
100
AcDbLine
 10
13.88595
 20
58.0
 30
0.0
 11
13.97627
 21
55.5945
 31
0.0
  0
LINE
  5
CE
330
1E
100
AcDbEntity
  8
0
100
AcDbLine
 10
10.09
 20
55.5945
 30
0.0
 11
10.18332999999999
 21
58.0
 31
0.0
  0
LINE
  5
CF
330
1E
100
AcDbEntity
  8
0
100
AcDbLine
 10
9.58333
 20
52.11719999999999
 30
0.0
 11
10.00758
 21
51.2227
 31
0.0
  0
LINE
  5
D1
330
1E
100
AcDbEntity
  8
0
100
AcDbLine
 10
9.58333
 20
52.11719999999999
 30
0.0
 11
9.58333
 21
52.8932
 31
0.0
  0
LINE
  5
D4
330
1E
100
AcDbEntity
  8
0
100
AcDbLine
 10
4.916699999999999
 20
52.11719999999999
 30
0.0
 11
4.916699999999999
 21
52.8932
 31
0.0
  0
LINE
  5
D5
330
1E
100
AcDbEntity
  8
0
100
AcDbLine
 10
10.25
 20
49.17049999999999
 30
0.0
 11
10.25
 21
49.5046
 31
0.0
  0
LINE
  5
D6
330
1E
100
AcDbEntity
  8
0
100
AcDbLine
 10
4.25
 20
58.0
 30
0.0
 11
4.25
 21
60.2909
 31
0.0
  0
LINE
  5
D7
330
1E
100
AcDbEntity
  8
0
100
AcDbLine
 10
4.25
 20
58.0
 30
0.0
 11
4.25
 21
55.7091
 31
0.0
  0
LINE
  5
D8
330
1E
100
AcDbEntity
  8
0
100
AcDbLine
 10
4.25
 20
58.0
 30
0.0
 11
4.25
 21
60.175
 31
0.0
  0
LINE
  5
D9
330
1E
100
AcDbEntity
  8
0
100
AcDbLine
 10
0.250000000000002
 20
60.1
 30
0.0
 11
0.250000000000002
 21
58.0
 31
0.0
  0
LINE
  5
DA
330
1E
100
AcDbEntity
  8
0
100
AcDbLine
 10
0.250000000000002
 20
60.1
 30
0.0
 11
0.250000000000002
 21
62.05
 31
0.0
  0
LINE
  5
DB
330
1E
100
AcDbEntity
  8
0
100
AcDbLine
 10
0.3653999999999989
 20
60.15
 30
0.0
 11
0.3653999999999989
 21
58.0
 31
0.0
  0
LINE
  5
DC
330
1E
100
AcDbEntity
  8
0
100
AcDbLine
 10
0.3653999999999989
 20
60.15
 30
0.0
 11
0.3653999999999989
 21
62.175
 31
0.0
  0
LINE
  5
DD
330
1E
100
AcDbEntity
  8
0
100
AcDbLine
 10
4.25
 20
60.175
 30
0.0
 11
4.25
 21
62.225
 31
0.0
  0
LINE
  5
DF
330
1E
100
AcDbEntity
  8
0
100
AcDbLine
 10
4.25
 20
60.2909
 30
0.0
 11
4.25
 21
58.0
 31
0.0
  0
LINE
  5
E0
330
1E
100
AcDbEntity
  8
0
100
AcDbLine
 10
4.25
 20
60.2909
 30
0.0
 11
4.25
 21
62.3909
 31
0.0
  0
LINE
  5
E1
330
1E
100
AcDbEntity
  8
0
100
AcDbLine
 10
0.250000000000002
 20
62.05
 30
0.0
 11
0.250000000000002
 21
60.1
 31
0.0
  0
LINE
  5
E2
330
1E
100
AcDbEntity
  8
0
100
AcDbLine
 10
0.250000000000002
 20
62.05
 30
0.0
 11
0.250000000000002
 21
63.75
 31
0.0
  0
LINE
  5
E3
330
1E
100
AcDbEntity
  8
0
100
AcDbLine
 10
0.3653999999999989
 20
62.175
 30
0.0
 11
0.3653999999999989
 21
60.15
 31
0.0
  0
LINE
  5
E4
330
1E
100
AcDbEntity
  8
0
100
AcDbLine
 10
0.3653999999999989
 20
62.175
 30
0.0
 11
0.3653999999999989
 21
63.925
 31
0.0
  0
LINE
  5
E5
330
1E
100
AcDbEntity
  8
0
100
AcDbLine
 10
4.25
 20
62.225
 30
0.0
 11
4.25
 21
64.0
 31
0.0
  0
LINE
  5
E8
330
1E
100
AcDbEntity
  8
0
100
AcDbLine
 10
4.25
 20
62.3909
 30
0.0
 11
4.25
 21
60.2909
 31
0.0
  0
LINE
  5
E9
330
1E
100
AcDbEntity
  8
0
100
AcDbLine
 10
0.250000000000002
 20
63.75
 30
0.0
 11
0.250000000000002
 21
65.02500000000001
 31
0.0
  0
LINE
  5
EA
330
1E
100
AcDbEntity
  8
0
100
AcDbLine
 10
0.250000000000002
 20
63.75
 30
0.0
 11
0.250000000000002
 21
62.05
 31
0.0
  0
LINE
  5
EB
330
1E
100
AcDbEntity
  8
0
100
AcDbLine
 10
0.3653999999999989
 20
63.925
 30
0.0
 11
0.3653999999999989
 21
65.25
 31
0.0
  0
LINE
  5
EC
330
1E
100
AcDbEntity
  8
0
100
AcDbLine
 10
0.3653999999999989
 20
63.925
 30
0.0
 11
0.3653999999999989
 21
62.175
 31
0.0
  0
LINE
  5
ED
330
1E
100
AcDbEntity
  8
0
100
AcDbLine
 10
4.25
 20
64.0
 30
0.0
 11
4.25
 21
65.35
 31
0.0
  0
LINE
  5
EE
330
1E
100
AcDbEntity
  8
0
100
AcDbLine
 10
0.250000000000002
 20
65.02500000000001
 30
0.0
 11
0.250000000000002
 21
63.75
 31
0.0
  0
LINE
  5
EF
330
1E
100
AcDbEntity
  8
0
100
AcDbLine
 10
0.250000000000002
 20
65.02500000000001
 30
0.0
 11
0.250000000000002
 21
65.825
 31
0.0
  0
LINE
  5
F0
330
1E
100
AcDbEntity
  8
0
100
AcDbLine
 10
0.3653999999999989
 20
65.25
 30
0.0
 11
0.3653999999999989
 21
63.925
 31
0.0
  0
LINE
  5
F1
330
1E
100
AcDbEntity
  8
0
100
AcDbLine
 10
0.3653999999999989
 20
65.25
 30
0.0
 11
0.3653999999999989
 21
66.075
 31
0.0
  0
LINE
  5
F2
330
1E
100
AcDbEntity
  8
0
100
AcDbLine
 10
0.250000000000002
 20
65.825
 30
0.0
 11
0.250000000000002
 21
65.02500000000001
 31
0.0
  0
LINE
  5
F3
330
1E
100
AcDbEntity
  8
0
100
AcDbLine
 10
0.250000000000002
 20
65.825
 30
0.0
 11
0.250000000000002
 21
66.125
 31
0.0
  0
LINE
  5
F4
330
1E
100
AcDbEntity
  8
0
100
AcDbLine
 10
0.250000000000002
 20
66.125
 30
0.0
 11
0.250000000000002
 21
65.825
 31
0.0
  0
LINE
  5
F5
330
1E
100
AcDbEntity
  8
0
100
AcDbLine
 10
0.250000000000002
 20
66.125
 30
0.0
 11
0.3653999999999989
 21
66.375
 31
0.0
  0
LINE
  5
F6
330
1E
100
AcDbEntity
  8
0
100
AcDbLine
 10
0.3653999999999989
 20
66.075
 30
0.0
 11
0.3653999999999989
 21
65.25
 31
0.0
  0
LINE
  5
F7
330
1E
100
AcDbEntity
  8
0
100
AcDbLine
 10
0.3653999999999989
 20
66.075
 30
0.0
 11
0.3653999999999989
 21
66.375
 31
0.0
  0
LINE
  5
F8
330
1E
100
AcDbEntity
  8
0
100
AcDbLine
 10
0.3653999999999989
 20
66.375
 30
0.0
 11
0.3653999999999989
 21
66.075
 31
0.0
  0
LINE
  5
F9
330
1E
100
AcDbEntity
  8
0
100
AcDbLine
 10
0.3653999999999989
 20
66.375
 30
0.0
 11
0.596200000000001
 21
66.5
 31
0.0
  0
LINE
  5
FA
330
1E
100
AcDbEntity
  8
0
100
AcDbLine
 10
4.25
 20
65.35
 30
0.0
 11
4.25
 21
66.2
 31
0.0
  0
LINE
  5
FB
330
1E
100
AcDbEntity
  8
0
100
AcDbLine
 10
4.25
 20
66.2
 30
0.0
 11
4.25
 21
66.5
 31
0.0
  0
LINE
  5
FE
330
1E
100
AcDbEntity
  8
0
100
AcDbLine
 10
4.25
 20
64.2523
 30
0.0
 11
4.25
 21
65.63639999999999
 31
0.0
  0
LINE
  5
FF
330
1E
100
AcDbEntity
  8
0
100
AcDbLine
 10
4.916699999999999
 20
63.1068
 30
0.0
 11
4.916699999999999
 21
62.6341
 31
0.0
  0
LINE
  5
101
330
1E
100
AcDbEntity
  8
0
100
AcDbLine
 10
4.916699999999999
 20
63.1068
 30
0.0
 11
4.916699999999999
 21
63.8828
 31
0.0
  0
LINE
  5
104
330
1E
100
AcDbEntity
  8
0
100
AcDbLine
 10
4.492399999999999
 20
64.7773
 30
0.0
 11
4.916699999999999
 21
63.8828
 31
0.0
  0
LINE
  5
108
330
1E
100
AcDbEntity
  8
0
100
AcDbLine
 10
4.916699999999999
 20
63.8828
 30
0.0
 11
4.916699999999999
 21
63.1068
 31
0.0
  0
LINE
  5
10A
330
1E
100
AcDbEntity
  8
0
100
AcDbLine
 10
4.384699999999999
 20
66.0544
 30
0.0
 11
4.529099999999999
 21
67.3246
 31
0.0
  0
LINE
  5
10B
330
1E
100
AcDbEntity
  8
0
100
AcDbLine
 10
4.384699999999999
 20
66.0544
 30
0.0
 11
4.492399999999999
 21
64.7773
 31
0.0
  0
LINE
  5
10D
330
1E
100
AcDbEntity
  8
0
100
AcDbLine
 10
4.25
 20
65.63639999999999
 30
0.0
 11
4.25
 21
66.49550000000001
 31
0.0
  0
LINE
  5
10F
330
1E
100
AcDbEntity
  8
0
100
AcDbLine
 10
4.25
 20
65.63639999999999
 30
0.0
 11
4.25
 21
64.2523
 31
0.0
  0
LINE
  5
110
330
1E
100
AcDbEntity
  8
0
100
AcDbLine
 10
0.596200000000001
 20
66.5
 30
0.0
 11
4.25
 21
66.5
 31
0.0
  0
LINE
  5
111
330
1E
100
AcDbEntity
  8
0
100
AcDbLine
 10
4.25
 20
66.5
 30
0.0
 11
4.25
 21
66.82949999999999
 31
0.0
  0
LINE
  5
112
330
1E
100
AcDbEntity
  8
0
100
AcDbLine
 10
4.25
 20
66.82949999999999
 30
0.0
 11
4.45
 21
67.5455
 31
0.0
  0
LINE
  5
113
330
1E
100
AcDbEntity
  8
0
100
AcDbLine
 10
4.25
 20
66.82949999999999
 30
0.0
 11
4.25
 21
66.5
 31
0.0
  0
LINE
  5
114
330
1E
100
AcDbEntity
  8
0
100
AcDbLine
 10
4.45
 20
67.5455
 30
0.0
 11
4.916699999999999
 21
68.26139999999999
 31
0.0
  0
LINE
  5
116
330
1E
100
AcDbEntity
  8
0
100
AcDbLine
 10
4.916699999999999
 20
68.09829999999999
 30
0.0
 11
4.916699999999999
 21
68.26139999999999
 31
0.0
  0
LINE
  5
117
330
1E
100
AcDbEntity
  8
0
100
AcDbLine
 10
4.916699999999999
 20
68.26139999999999
 30
0.0
 11
4.916699999999999
 21
68.09829999999999
 31
0.0
  0
LINE
  5
118
330
1E
100
AcDbEntity
  8
0
100
AcDbLine
 10
4.916699999999999
 20
68.26139999999999
 30
0.0
 11
5.5833
 21
68.5
 31
0.0
  0
LINE
  5
119
330
1E
100
AcDbEntity
  8
0
100
AcDbLine
 10
5.5833
 20
68.5
 30
0.0
 11
8.916669999999999
 21
68.5
 31
0.0
  0
LINE
  5
11A
330
1E
100
AcDbEntity
  8
0
100
AcDbLine
 10
4.529099999999999
 20
67.3246
 30
0.0
 11
4.916699999999999
 21
68.09829999999999
 31
0.0
  0
LINE
  5
11D
330
1E
100
AcDbEntity
  8
0
100
AcDbLine
 10
4.25
 20
66.49550000000001
 30
0.0
 11
4.25
 21
65.63639999999999
 31
0.0
  0
LINE
  5
11F
330
1E
100
AcDbEntity
  8
0
100
AcDbLine
 10
9.58333
 20
63.1068
 30
0.0
 11
9.58333
 21
63.8828
 31
0.0
  0
LINE
  5
120
330
1E
100
AcDbEntity
  8
0
100
AcDbLine
 10
9.58333
 20
63.1068
 30
0.0
 11
9.58333
 21
62.6341
 31
0.0
  0
LINE
  5
121
330
1E
100
AcDbEntity
  8
0
100
AcDbLine
 10
8.916669999999999
 20
68.5
 30
0.0
 11
9.58333
 21
68.26139999999999
 31
0.0
  0
LINE
  5
122
330
1E
100
AcDbEntity
  8
0
100
AcDbLine
 10
9.58333
 20
68.26139999999999
 30
0.0
 11
10.05
 21
67.5455
 31
0.0
  0
LINE
  5
123
330
1E
100
AcDbEntity
  8
0
100
AcDbLine
 10
9.58333
 20
68.26139999999999
 30
0.0
 11
9.58333
 21
68.09829999999999
 31
0.0
  0
LINE
  5
124
330
1E
100
AcDbEntity
  8
0
100
AcDbLine
 10
9.58333
 20
68.09829999999999
 30
0.0
 11
9.97093
 21
67.3246
 31
0.0
  0
LINE
  5
125
330
1E
100
AcDbEntity
  8
0
100
AcDbLine
 10
9.58333
 20
68.09829999999999
 30
0.0
 11
9.58333
 21
68.26139999999999
 31
0.0
  0
LINE
  5
127
330
1E
100
AcDbEntity
  8
0
100
AcDbLine
 10
9.58333
 20
63.8828
 30
0.0
 11
10.00758
 21
64.7773
 31
0.0
  0
LINE
  5
129
330
1E
100
AcDbEntity
  8
0
100
AcDbLine
 10
9.58333
 20
63.8828
 30
0.0
 11
9.58333
 21
63.1068
 31
0.0
  0
LINE
  5
12A
330
1E
100
AcDbEntity
  8
0
100
AcDbLine
 10
5.5833
 20
63.2633
 30
0.0
 11
8.916669999999999
 21
63.2633
 31
0.0
  0
LINE
  5
12D
330
1E
100
AcDbEntity
  8
0
100
AcDbLine
 10
4.916699999999999
 20
62.6341
 30
0.0
 11
4.916699999999999
 21
63.1068
 31
0.0
  0
LINE
  5
12E
330
1E
100
AcDbEntity
  8
0
100
AcDbLine
 10
10.00758
 20
64.7773
 30
0.0
 11
10.11525
 21
66.0544
 31
0.0
  0
LINE
  5
12F
330
1E
100
AcDbEntity
  8
0
100
AcDbLine
 10
10.05
 20
67.5455
 30
0.0
 11
10.25
 21
66.82949999999999
 31
0.0
  0
LINE
  5
130
330
1E
100
AcDbEntity
  8
0
100
AcDbLine
 10
9.97093
 20
67.3246
 30
0.0
 11
10.11525
 21
66.0544
 31
0.0
  0
LINE
  5
132
330
1E
100
AcDbEntity
  8
0
100
AcDbLine
 10
9.58333
 20
62.6341
 30
0.0
 11
10.09
 21
60.4055
 31
0.0
  0
LINE
  5
133
330
1E
100
AcDbEntity
  8
0
100
AcDbLine
 10
9.58333
 20
62.6341
 30
0.0
 11
9.58333
 21
63.1068
 31
0.0
  0
LINE
  5
134
330
1E
100
AcDbEntity
  8
0
100
AcDbLine
 10
4.41
 20
60.4055
 30
0.0
 11
4.916699999999999
 21
62.6341
 31
0.0
  0
LINE
  5
136
330
1E
100
AcDbEntity
  8
0
100
AcDbLine
 10
13.82143
 20
60.175
 30
0.0
 11
13.82143
 21
62.225
 31
0.0
  0
LINE
  5
137
330
1E
100
AcDbEntity
  8
0
100
AcDbLine
 10
13.82143
 20
62.225
 30
0.0
 11
13.82143
 21
64.0
 31
0.0
  0
LINE
  5
138
330
1E
100
AcDbEntity
  8
0
100
AcDbLine
 10
13.82143
 20
64.0
 30
0.0
 11
13.82143
 21
65.35
 31
0.0
  0
LINE
  5
139
330
1E
100
AcDbEntity
  8
0
100
AcDbLine
 10
13.82143
 20
65.35
 30
0.0
 11
13.82143
 21
66.2
 31
0.0
  0
LINE
  5
13C
330
1E
100
AcDbEntity
  8
0
100
AcDbLine
 10
13.82143
 20
64.2523
 30
0.0
 11
13.82143
 21
65.63639999999999
 31
0.0
  0
LINE
  5
13F
330
1E
100
AcDbEntity
  8
0
100
AcDbLine
 10
13.82143
 20
62.3909
 30
0.0
 11
13.82143
 21
60.2909
 31
0.0
  0
LINE
  5
140
330
1E
100
AcDbEntity
  8
0
100
AcDbLine
 10
13.95182
 20
66.0544
 30
0.0
 11
14.0915
 21
67.3246
 31
0.0
  0
LINE
  5
141
330
1E
100
AcDbEntity
  8
0
100
AcDbLine
 10
13.95182
 20
66.0544
 30
0.0
 11
14.05601
 21
64.7773
 31
0.0
  0
LINE
  5
143
330
1E
100
AcDbEntity
  8
0
100
AcDbLine
 10
13.82143
 20
65.63639999999999
 30
0.0
 11
13.82143
 21
66.49550000000001
 31
0.0
  0
LINE
  5
145
330
1E
100
AcDbEntity
  8
0
100
AcDbLine
 10
13.82143
 20
65.63639999999999
 30
0.0
 11
13.82143
 21
64.2523
 31
0.0
  0
LINE
  5
147
330
1E
100
AcDbEntity
  8
0
100
AcDbLine
 10
13.82143
 20
60.2909
 30
0.0
 11
13.82143
 21
58.0
 31
0.0
  0
LINE
  5
148
330
1E
100
AcDbEntity
  8
0
100
AcDbLine
 10
13.82143
 20
60.2909
 30
0.0
 11
13.82143
 21
62.3909
 31
0.0
  0
LINE
  5
14A
330
1E
100
AcDbEntity
  8
0
100
AcDbLine
 10
14.46659
 20
63.1068
 30
0.0
 11
14.46659
 21
62.6341
 31
0.0
  0
LINE
  5
14C
330
1E
100
AcDbEntity
  8
0
100
AcDbLine
 10
14.46659
 20
63.1068
 30
0.0
 11
14.46659
 21
63.8828
 31
0.0
  0
LINE
  5
14F
330
1E
100
AcDbEntity
  8
0
100
AcDbLine
 10
14.05601
 20
64.7773
 30
0.0
 11
14.46659
 21
63.8828
 31
0.0
  0
LINE
  5
152
330
1E
100
AcDbEntity
  8
0
100
AcDbLine
 10
14.46659
 20
63.8828
 30
0.0
 11
14.46659
 21
63.1068
 31
0.0
  0
LINE
  5
157
330
1E
100
AcDbEntity
  8
0
100
AcDbLine
 10
14.46659
 20
62.6341
 30
0.0
 11
14.46659
 21
63.1068
 31
0.0
  0
LINE
  5
158
330
1E
100
AcDbEntity
  8
0
100
AcDbLine
 10
13.97627
 20
60.4055
 30
0.0
 11
14.46659
 21
62.6341
 31
0.0
  0
LINE
  5
15A
330
1E
100
AcDbEntity
  8
0
100
AcDbLine
 10
10.25
 20
66.5
 30
0.0
 11
13.82143
 21
66.5
 31
0.0
  0
LINE
  5
15B
330
1E
100
AcDbEntity
  8
0
100
AcDbLine
 10
13.82143
 20
66.2
 30
0.0
 11
13.82143
 21
66.5
 31
0.0
  0
LINE
  5
15C
330
1E
100
AcDbEntity
  8
0
100
AcDbLine
 10
13.82143
 20
66.5
 30
0.0
 11
13.82143
 21
66.82949999999999
 31
0.0
  0
LINE
  5
15D
330
1E
100
AcDbEntity
  8
0
100
AcDbLine
 10
13.82143
 20
66.82949999999999
 30
0.0
 11
14.01498
 21
67.5455
 31
0.0
  0
LINE
  5
15E
330
1E
100
AcDbEntity
  8
0
100
AcDbLine
 10
13.82143
 20
66.82949999999999
 30
0.0
 11
13.82143
 21
66.5
 31
0.0
  0
LINE
  5
15F
330
1E
100
AcDbEntity
  8
0
100
AcDbLine
 10
14.46659
 20
68.09829999999999
 30
0.0
 11
14.46659
 21
68.26139999999999
 31
0.0
  0
LINE
  5
160
330
1E
100
AcDbEntity
  8
0
100
AcDbLine
 10
14.46659
 20
68.26139999999999
 30
0.0
 11
14.46659
 21
68.09829999999999
 31
0.0
  0
LINE
  5
161
330
1E
100
AcDbEntity
  8
0
100
AcDbLine
 10
14.46659
 20
68.26139999999999
 30
0.0
 11
15.11175
 21
68.5
 31
0.0
  0
LINE
  5
162
330
1E
100
AcDbEntity
  8
0
100
AcDbLine
 10
14.01498
 20
67.5455
 30
0.0
 11
14.46659
 21
68.26139999999999
 31
0.0
  0
LINE
  5
164
330
1E
100
AcDbEntity
  8
0
100
AcDbLine
 10
15.11175
 20
68.5
 30
0.0
 11
15.75
 21
68.5
 31
0.0
  0
LINE
  5
165
330
1E
100
AcDbEntity
  8
0
100
AcDbLine
 10
14.0915
 20
67.3246
 30
0.0
 11
14.46659
 21
68.09829999999999
 31
0.0
  0
LINE
  5
168
330
1E
100
AcDbEntity
  8
0
100
AcDbLine
 10
13.82143
 20
66.49550000000001
 30
0.0
 11
13.82143
 21
65.63639999999999
 31
0.0
  0
LINE
  5
16A
330
1E
100
AcDbEntity
  8
0
100
AcDbLine
 10
10.09
 20
60.4055
 30
0.0
 11
10.18332999999999
 21
58.0
 31
0.0
  0
LINE
  5
16B
330
1E
100
AcDbEntity
  8
0
100
AcDbLine
 10
4.316699999999999
 20
58.0
 30
0.0
 11
4.41
 21
60.4055
 31
0.0
  0
LINE
  5
16C
330
1E
100
AcDbEntity
  8
0
100
AcDbLine
 10
4.316699999999999
 20
58.0
 30
0.0
 11
4.41
 21
55.5945
 31
0.0
  0
LINE
  5
16D
330
1E
100
AcDbEntity
  8
0
100
AcDbLine
 10
15.75
 20
47.5
 30
0.0
 11
15.75
 21
41.0
 31
0.0
  0
LINE
  5
16E
330
1E
100
AcDbEntity
  8
0
100
AcDbLine
 10
15.75
 20
41.0
 30
0.0
 11
15.75
 21
105.0
 31
0.0
  0
LINE
  5
16F
330
1E
100
AcDbEntity
  8
0
100
AcDbLine
 10
15.75
 20
41.0
 30
0.0
 11
15.75
 21
47.5
 31
0.0
  0
LINE
  5
170
330
1E
100
AcDbEntity
  8
0
100
AcDbLine
 10
15.75
 20
47.5
 30
0.0
 11
15.75
 21
36.0
 31
0.0
  0
LINE
  5
2CC
330
1E
100
AcDbEntity
  8
0
100
AcDbLine
 10
15.75
 20
98.50000000000001
 30
0.0
 11
15.75
 21
105.0
 31
0.0
  0
LINE
  5
2CD
330
1E
100
AcDbEntity
  8
0
100
AcDbLine
 10
15.75
 20
105.0
 30
0.0
 11
15.75
 21
98.50000000000001
 31
0.0
  0
LINE
  5
2CE
330
1E
100
AcDbEntity
  8
0
100
AcDbLine
 10
15.75
 20
105.0
 30
0.0
 11
15.75
 21
41.0
 31
0.0
  0
LINE
  5
2CF
330
1E
100
AcDbEntity
  8
0
100
AcDbLine
 10
15.75
 20
77.5
 30
0.0
 11
15.75
 21
68.5
 31
0.0
  0
LINE
  5
2D0
330
1E
100
AcDbEntity
  8
0
100
AcDbLine
 10
15.75
 20
77.5
 30
0.0
 11
15.75
 21
68.5
 31
0.0
  0
LINE
  5
2D1
330
1E
100
AcDbEntity
  8
0
100
AcDbLine
 10
15.75
 20
68.5
 30
0.0
 11
15.75
 21
77.5
 31
0.0
  0
LINE
  5
2D2
330
1E
100
AcDbEntity
  8
0
100
AcDbLine
 10
15.75
 20
98.50000000000001
 30
0.0
 11
15.75
 21
110.0
 31
0.0
  0
LINE
  5
2D3
330
1E
100
AcDbEntity
  8
0
100
AcDbLine
 10
15.75
 20
110.0
 30
0.0
 11
16.1029
 21
112.5588
 31
0.0
  0
LINE
  5
2D4
330
1E
100
AcDbEntity
  8
0
100
AcDbLine
 10
15.75
 20
110.0
 30
0.0
 11
15.897059
 21
110.0
 31
0.0
  0
LINE
  5
2D5
330
1E
100
AcDbEntity
  8
0
100
AcDbLine
 10
15.75
 20
110.0
 30
0.0
 11
15.75
 21
98.50000000000001
 31
0.0
  0
LINE
  5
2D6
330
1E
100
AcDbEntity
  8
0
100
AcDbLine
 10
15.75
 20
110.0
 30
0.0
 11
15.75
 21
36.0
 31
0.0
  0
LINE
  5
2D7
330
1E
100
AcDbEntity
  8
0
100
AcDbLine
 10
15.75
 20
110.0
 30
0.0
 11
15.8971
 21
110.0
 31
0.0
  0
LINE
  5
2DD
330
1E
100
AcDbEntity
  8
0
100
AcDbLine
 10
15.8971
 20
110.0
 30
0.0
 11
16.19119999999999
 21
110.0
 31
0.0
  0
LINE
  5
2E2
330
1E
100
AcDbEntity
  8
0
100
AcDbLine
 10
15.897059
 20
110.0
 30
0.0
 11
16.191176
 21
110.0
 31
0.0
  0
LINE
  5
2E4
330
1E
100
AcDbEntity
  8
0
100
AcDbLine
 10
17.1029
 20
114.9706
 30
0.0
 11
18.1617666666941
 21
116.362733333369
 31
0.0
  0
LINE
  5
2E5
330
1E
100
AcDbEntity
  8
0
100
AcDbLine
 10
17.1029
 20
114.9706
 30
0.0
 11
18.16176666669389
 21
116.362733333369
 31
0.0
  0
LINE
  5
2E6
330
1E
100
AcDbEntity
  8
0
100
AcDbLine
 10
16.1029
 20
112.5588
 30
0.0
 11
17.1029
 21
114.9706
 31
0.0
  0
LINE
  5
2E8
330
1E
100
AcDbEntity
  8
0
100
AcDbLine
 10
18.69118
 20
117.0588
 30
0.0
 11
20.0833333332581
 21
118.1176666666089
 31
0.0
  0
LINE
  5
2E9
330
1E
100
AcDbEntity
  8
0
100
AcDbLine
 10
18.69118
 20
117.0588
 30
0.0
 11
20.0833333332602
 21
118.117666666611
 31
0.0
  0
LINE
  5
2ED
330
1E
100
AcDbEntity
  8
0
100
AcDbLine
 10
15.75
 20
36.0
 30
0.0
 11
15.75
 21
110.0
 31
0.0
  0
LINE
  5
2EF
330
1E
100
AcDbEntity
  8
0
100
AcDbLine
 10
15.75
 20
36.0
 30
0.0
 11
16.1029
 21
33.4412
 31
0.0
  0
LINE
  5
2F0
330
1E
100
AcDbEntity
  8
0
100
AcDbLine
 10
15.75
 20
36.0
 30
0.0
 11
15.75
 21
47.5
 31
0.0
  0
LINE
  5
2F1
330
1E
100
AcDbEntity
  8
0
100
AcDbLine
 10
20.0833333329466
 20
27.8823333336275
 30
0.0
 11
20.77939999999999
 21
27.3529
 31
0.0
  0
LINE
  5
2F3
330
1E
100
AcDbEntity
  8
0
100
AcDbLine
 10
20.0833333329532
 20
27.88233333362239
 30
0.0
 11
20.77939999999999
 21
27.3529
 31
0.0
  0
LINE
  5
2F4
330
1E
100
AcDbEntity
  8
0
100
AcDbLine
 10
18.75
 20
35.0
 30
0.0
 11
18.96599999999999
 21
33.464
 31
0.0
  0
LINE
  5
2F5
330
1E
100
AcDbEntity
  8
0
100
AcDbLine
 10
18.75
 20
35.0
 30
0.0
 11
18.96599999999999
 21
36.536
 31
0.0
  0
LINE
  5
2F6
330
1E
100
AcDbEntity
  8
0
100
AcDbLine
 10
18.75
 20
111.0
 30
0.0
 11
18.96599999999999
 21
112.536
 31
0.0
  0
LINE
  5
2F7
330
1E
100
AcDbEntity
  8
0
100
AcDbLine
 10
18.75
 20
111.0
 30
0.0
 11
18.96599999999999
 21
109.464
 31
0.0
  0
LINE
  5
2F9
330
1E
100
AcDbEntity
  8
0
100
AcDbLine
 10
18.96599999999999
 20
36.536
 30
0.0
 11
19.542
 21
37.976
 31
0.0
  0
LINE
  5
2FA
330
1E
100
AcDbEntity
  8
0
100
AcDbLine
 10
18.96599999999999
 20
33.464
 30
0.0
 11
19.542
 21
32.024
 31
0.0
  0
LINE
  5
2FB
330
1E
100
AcDbEntity
  8
0
100
AcDbLine
 10
18.96599999999999
 20
109.464
 30
0.0
 11
19.542
 21
108.024
 31
0.0
  0
LINE
  5
2FC
330
1E
100
AcDbEntity
  8
0
100
AcDbLine
 10
18.96599999999999
 20
112.536
 30
0.0
 11
19.542
 21
113.976
 31
0.0
  0
LINE
  5
2FD
330
1E
100
AcDbEntity
  8
0
100
AcDbLine
 10
19.542
 20
32.024
 30
0.0
 11
20.50199999999999
 21
30.752
 31
0.0
  0
LINE
  5
2FE
330
1E
100
AcDbEntity
  8
0
100
AcDbLine
 10
19.542
 20
37.976
 30
0.0
 11
20.50199999999999
 21
39.248
 31
0.0
  0
LINE
  5
2FF
330
1E
100
AcDbEntity
  8
0
100
AcDbLine
 10
19.542
 20
108.024
 30
0.0
 11
20.50199999999999
 21
106.752
 31
0.0
  0
LINE
  5
300
330
1E
100
AcDbEntity
  8
0
100
AcDbLine
 10
19.542
 20
113.976
 30
0.0
 11
20.50199999999999
 21
115.2479999999999
 31
0.0
  0
LINE
  5
301
330
1E
100
AcDbEntity
  8
0
100
AcDbLine
 10
20.0833333332602
 20
118.117666666611
 30
0.0
 11
20.77939999999999
 21
118.6471
 31
0.0
  0
LINE
  5
302
330
1E
100
AcDbEntity
  8
0
100
AcDbLine
 10
20.50199999999999
 20
39.248
 30
0.0
 11
21.774
 21
40.208
 31
0.0
  0
LINE
  5
303
330
1E
100
AcDbEntity
  8
0
100
AcDbLine
 10
20.50199999999999
 20
30.752
 30
0.0
 11
21.774
 21
29.792
 31
0.0
  0
LINE
  5
304
330
1E
100
AcDbEntity
  8
0
100
AcDbLine
 10
20.50199999999999
 20
106.752
 30
0.0
 11
21.774
 21
105.7919999999999
 31
0.0
  0
LINE
  5
305
330
1E
100
AcDbEntity
  8
0
100
AcDbLine
 10
20.50199999999999
 20
115.2479999999999
 30
0.0
 11
21.774
 21
116.208
 31
0.0
  0
LINE
  5
306
330
1E
100
AcDbEntity
  8
0
100
AcDbLine
 10
20.08333333326469
 20
118.117666666614
 30
0.0
 11
20.77939999999999
 21
118.6471
 31
0.0
  0
LINE
  5
307
330
1E
100
AcDbEntity
  8
0
100
AcDbLine
 10
20.77939999999999
 20
118.6471
 30
0.0
 11
21.5833333334177
 21
118.980433333368
 31
0.0
  0
LINE
  5
308
330
1E
100
AcDbEntity
  8
0
100
AcDbLine
 10
20.77939999999999
 20
118.6471
 30
0.0
 11
21.5833333334196
 21
118.980433333369
 31
0.0
  0
LINE
  5
309
330
1E
100
AcDbEntity
  8
0
100
AcDbLine
 10
21.774
 20
40.208
 30
0.0
 11
23.214
 21
40.784
 31
0.0
  0
LINE
  5
30A
330
1E
100
AcDbEntity
  8
0
100
AcDbLine
 10
21.774
 20
29.792
 30
0.0
 11
23.214
 21
29.21599999999999
 31
0.0
  0
LINE
  5
30B
330
1E
100
AcDbEntity
  8
0
100
AcDbLine
 10
21.774
 20
105.7919999999999
 30
0.0
 11
23.214
 21
105.216
 31
0.0
  0
LINE
  5
30C
330
1E
100
AcDbEntity
  8
0
100
AcDbLine
 10
21.774
 20
116.208
 30
0.0
 11
23.214
 21
116.7839999999999
 31
0.0
  0
LINE
  5
30E
330
1E
100
AcDbEntity
  8
0
100
AcDbLine
 10
20.77941
 20
118.6471
 30
0.0
 11
23.19118
 21
119.6471
 31
0.0
  0
LINE
  5
30F
330
1E
100
AcDbEntity
  8
0
100
AcDbLine
 10
23.19118
 20
119.6471
 30
0.0
 11
25.75
 21
120.0
 31
0.0
  0
LINE
  5
313
330
1E
100
AcDbEntity
  8
0
100
AcDbLine
 10
75.75
 20
-0.0000000000000033
 30
0.0
 11
75.822
 21
0.0413999999999981
 31
0.0
  0
LINE
  5
314
330
1E
100
AcDbEntity
  8
0
100
AcDbLine
 10
75.75
 20
-0.0000000000000033
 30
0.0
 11
75.75
 21
15.5714
 31
0.0
  0
LINE
  5
315
330
1E
100
AcDbEntity
  8
0
100
AcDbLine
 10
75.822
 20
0.0413999999999981
 30
0.0
 11
76.01399999999999
 21
0.151699999999998
 31
0.0
  0
LINE
  5
316
330
1E
100
AcDbEntity
  8
0
100
AcDbLine
 10
76.01399999999999
 20
0.151699999999998
 30
0.0
 11
76.334
 21
0.3356999999999939
 31
0.0
  0
LINE
  5
317
330
1E
100
AcDbEntity
  8
0
100
AcDbLine
 10
76.334
 20
0.3356999999999939
 30
0.0
 11
76.75799999999999
 21
0.579399999999999
 31
0.0
  0
LINE
  5
318
330
1E
100
AcDbEntity
  8
0
100
AcDbLine
 10
76.75799999999999
 20
0.579399999999999
 30
0.0
 11
77.238
 21
0.855299999999994
 31
0.0
  0
LINE
  5
319
330
1E
100
AcDbEntity
  8
0
100
AcDbLine
 10
71.90789999999999
 20
18.30313999999999
 30
0.0
 11
72.1289
 21
18.30313999999999
 31
0.0
  0
LINE
  5
31A
330
1E
100
AcDbEntity
  8
0
100
AcDbLine
 10
72.1289
 20
18.30313999999999
 30
0.0
 11
72.6974
 21
18.30313999999999
 31
0.0
  0
LINE
  5
31B
330
1E
100
AcDbEntity
  8
0
100
AcDbLine
 10
72.1289
 20
18.30313999999999
 30
0.0
 11
72.3816
 21
18.30313999999999
 31
0.0
  0
LINE
  5
31C
330
1E
100
AcDbEntity
  8
0
100
AcDbLine
 10
71.75
 20
18.41241
 30
0.0
 11
71.75
 21
18.75842
 31
0.0
  0
LINE
  5
31D
330
1E
100
AcDbEntity
  8
0
100
AcDbLine
 10
71.75
 20
18.41241
 30
0.0
 11
71.75
 21
18.34867
 31
0.0
  0
LINE
  5
324
330
1E
100
AcDbEntity
  8
0
100
AcDbLine
 10
71.75
 20
18.34867
 30
0.0
 11
71.75
 21
18.41241
 31
0.0
  0
LINE
  5
325
330
1E
100
AcDbEntity
  8
0
100
AcDbLine
 10
71.75
 20
18.34867
 30
0.0
 11
71.90789999999999
 21
18.30313999999999
 31
0.0
  0
LINE
  5
326
330
1E
100
AcDbEntity
  8
0
100
AcDbLine
 10
71.75
 20
21.49012999999999
 30
0.0
 11
71.75
 21
19.21370999999999
 31
0.0
  0
LINE
  5
327
330
1E
100
AcDbEntity
  8
0
100
AcDbLine
 10
71.75
 20
19.21370999999999
 30
0.0
 11
71.75
 21
18.75842
 31
0.0
  0
LINE
  5
328
330
1E
100
AcDbEntity
  8
0
100
AcDbLine
 10
71.75
 20
19.21370999999999
 30
0.0
 11
71.75
 21
21.49012999999999
 31
0.0
  0
LINE
  5
329
330
1E
100
AcDbEntity
  8
0
100
AcDbLine
 10
71.75
 20
19.21370999999999
 30
0.0
 11
71.90439999999999
 21
19.21370999999999
 31
0.0
  0
LINE
  5
32C
330
1E
100
AcDbEntity
  8
0
100
AcDbLine
 10
71.75
 20
19.21370999999999
 30
0.0
 11
71.75
 21
21.49012999999999
 31
0.0
  0
LINE
  5
32D
330
1E
100
AcDbEntity
  8
0
100
AcDbLine
 10
71.75
 20
19.21370999999999
 30
0.0
 11
71.75
 21
18.75842
 31
0.0
  0
LINE
  5
32E
330
1E
100
AcDbEntity
  8
0
100
AcDbLine
 10
71.75
 20
21.49012999999999
 30
0.0
 11
71.75
 21
21.94541
 31
0.0
  0
LINE
  5
32F
330
1E
100
AcDbEntity
  8
0
100
AcDbLine
 10
71.75
 20
21.49012999999999
 30
0.0
 11
71.75
 21
19.21370999999999
 31
0.0
  0
LINE
  5
330
330
1E
100
AcDbEntity
  8
0
100
AcDbLine
 10
71.75
 20
22.35517
 30
0.0
 11
71.75
 21
22.29143
 31
0.0
  0
LINE
  5
331
330
1E
100
AcDbEntity
  8
0
100
AcDbLine
 10
71.75
 20
22.35517
 30
0.0
 11
71.90789999999999
 21
22.4007
 31
0.0
  0
LINE
  5
332
330
1E
100
AcDbEntity
  8
0
100
AcDbLine
 10
71.75
 20
21.94541
 30
0.0
 11
71.75
 21
22.29143
 31
0.0
  0
LINE
  5
333
330
1E
100
AcDbEntity
  8
0
100
AcDbLine
 10
71.75
 20
21.94541
 30
0.0
 11
71.8763
 21
21.94541
 31
0.0
  0
LINE
  5
334
330
1E
100
AcDbEntity
  8
0
100
AcDbLine
 10
71.75
 20
21.94541
 30
0.0
 11
71.75
 21
21.49012999999999
 31
0.0
  0
LINE
  5
336
330
1E
100
AcDbEntity
  8
0
100
AcDbLine
 10
71.8763
 20
21.94541
 30
0.0
 11
72.2642
 21
21.94541
 31
0.0
  0
LINE
  5
337
330
1E
100
AcDbEntity
  8
0
100
AcDbLine
 10
71.75
 20
22.29143
 30
0.0
 11
71.75
 21
21.94541
 31
0.0
  0
LINE
  5
338
330
1E
100
AcDbEntity
  8
0
100
AcDbLine
 10
71.75
 20
22.29143
 30
0.0
 11
71.75
 21
22.35517
 31
0.0
  0
LINE
  5
339
330
1E
100
AcDbEntity
  8
0
100
AcDbLine
 10
71.75
 20
18.75842
 30
0.0
 11
71.75
 21
18.41241
 31
0.0
  0
LINE
  5
33A
330
1E
100
AcDbEntity
  8
0
100
AcDbLine
 10
71.75
 20
18.75842
 30
0.0
 11
71.75
 21
19.21370999999999
 31
0.0
  0
LINE
  5
33C
330
1E
100
AcDbEntity
  8
0
100
AcDbLine
 10
71.75
 20
18.75842
 30
0.0
 11
71.75
 21
19.21370999999999
 31
0.0
  0
LINE
  5
33F
330
1E
100
AcDbEntity
  8
0
100
AcDbLine
 10
71.90789999999999
 20
22.4007
 30
0.0
 11
73.6132
 21
22.4007
 31
0.0
  0
LINE
  5
340
330
1E
100
AcDbEntity
  8
0
100
AcDbLine
 10
72.2642
 20
21.94541
 30
0.0
 11
73.26579999999999
 21
22.23513999999999
 31
0.0
  0
LINE
  5
342
330
1E
100
AcDbEntity
  8
0
100
AcDbLine
 10
72.2642
 20
18.75842
 30
0.0
 11
73.26579999999999
 21
18.46867999999999
 31
0.0
  0
LINE
  5
343
330
1E
100
AcDbEntity
  8
0
100
AcDbLine
 10
71.90439999999999
 20
19.21370999999999
 30
0.0
 11
72.2642
 21
18.75842
 31
0.0
  0
LINE
  5
344
330
1E
100
AcDbEntity
  8
0
100
AcDbLine
 10
72.3816
 20
18.30313999999999
 30
0.0
 11
72.3816
 21
15.8078
 31
0.0
  0
LINE
  5
345
330
1E
100
AcDbEntity
  8
0
100
AcDbLine
 10
72.3816
 20
18.30313999999999
 30
0.0
 11
72.5711
 21
18.30313999999999
 31
0.0
  0
LINE
  5
346
330
1E
100
AcDbEntity
  8
0
100
AcDbLine
 10
72.65
 20
15.6502
 30
0.0
 11
73.17109999999999
 21
15.6502
 31
0.0
  0
LINE
  5
347
330
1E
100
AcDbEntity
  8
0
100
AcDbLine
 10
74.11839999999999
 20
15.5714
 30
0.0
 11
75.1921
 21
15.5714
 31
0.0
  0
LINE
  5
348
330
1E
100
AcDbEntity
  8
0
100
AcDbLine
 10
75.1921
 20
15.5714
 30
0.0
 11
75.75
 21
15.5714
 31
0.0
  0
LINE
  5
349
330
1E
100
AcDbEntity
  8
0
100
AcDbLine
 10
73.17109999999999
 20
15.6502
 30
0.0
 11
74.0079
 21
15.6502
 31
0.0
  0
LINE
  5
34A
330
1E
100
AcDbEntity
  8
0
100
AcDbLine
 10
74.0079
 20
15.6502
 30
0.0
 11
75.11320000000001
 21
15.6502
 31
0.0
  0
LINE
  5
34B
330
1E
100
AcDbEntity
  8
0
100
AcDbLine
 10
75.11320000000001
 20
15.6502
 30
0.0
 11
76.3921
 21
15.6502
 31
0.0
  0
LINE
  5
34C
330
1E
100
AcDbEntity
  8
0
100
AcDbLine
 10
73.31319999999999
 20
15.5714
 30
0.0
 11
74.11839999999999
 21
15.5714
 31
0.0
  0
LINE
  5
34D
330
1E
100
AcDbEntity
  8
0
100
AcDbLine
 10
72.61839999999999
 20
15.5714
 30
0.0
 11
73.31319999999999
 21
15.5714
 31
0.0
  0
LINE
  5
34E
330
1E
100
AcDbEntity
  8
0
100
AcDbLine
 10
73.6132
 20
18.30313999999999
 30
0.0
 11
74.84480000000001
 21
18.30313999999999
 31
0.0
  0
LINE
  5
350
330
1E
100
AcDbEntity
  8
0
100
AcDbLine
 10
74.84480000000001
 20
18.30313999999999
 30
0.0
 11
76.2342
 21
18.30313999999999
 31
0.0
  0
LINE
  5
352
330
1E
100
AcDbEntity
  8
0
100
AcDbLine
 10
72.6974
 20
18.30313999999999
 30
0.0
 11
73.6132
 21
18.30313999999999
 31
0.0
  0
LINE
  5
353
330
1E
100
AcDbEntity
  8
0
100
AcDbLine
 10
73.1079
 20
18.30313999999999
 30
0.0
 11
73.96049999999999
 21
18.30313999999999
 31
0.0
  0
LINE
  5
354
330
1E
100
AcDbEntity
  8
0
100
AcDbLine
 10
72.5711
 20
18.30313999999999
 30
0.0
 11
73.1079
 21
18.30313999999999
 31
0.0
  0
LINE
  5
355
330
1E
100
AcDbEntity
  8
0
100
AcDbLine
 10
73.26579999999999
 20
22.23513999999999
 30
0.0
 11
74.6958
 21
22.30867
 31
0.0
  0
LINE
  5
356
330
1E
100
AcDbEntity
  8
0
100
AcDbLine
 10
73.6132
 20
22.4007
 30
0.0
 11
74.84480000000001
 21
22.4007
 31
0.0
  0
LINE
  5
358
330
1E
100
AcDbEntity
  8
0
100
AcDbLine
 10
74.84480000000001
 20
22.4007
 30
0.0
 11
76.2342
 21
22.4007
 31
0.0
  0
LINE
  5
359
330
1E
100
AcDbEntity
  8
0
100
AcDbLine
 10
74.6958
 20
22.30867
 30
0.0
 11
76.11799999999999
 21
22.21011
 31
0.0
  0
LINE
  5
35C
330
1E
100
AcDbEntity
  8
0
100
AcDbLine
 10
74.6958
 20
18.39515
 30
0.0
 11
76.11799999999999
 21
18.49371999999999
 31
0.0
  0
LINE
  5
35E
330
1E
100
AcDbEntity
  8
0
100
AcDbLine
 10
73.26579999999999
 20
18.46867999999999
 30
0.0
 11
74.6958
 21
18.39515
 31
0.0
  0
LINE
  5
360
330
1E
100
AcDbEntity
  8
0
100
AcDbLine
 10
73.96049999999999
 20
18.30313999999999
 30
0.0
 11
75.0816
 21
18.30313999999999
 31
0.0
  0
LINE
  5
361
330
1E
100
AcDbEntity
  8
0
100
AcDbLine
 10
75.0816
 20
18.30313999999999
 30
0.0
 11
76.3763
 21
18.30313999999999
 31
0.0
  0
LINE
  5
362
330
1E
100
AcDbEntity
  8
0
100
AcDbLine
 10
72.4605
 20
15.6502
 30
0.0
 11
72.61839999999999
 21
15.5714
 31
0.0
  0
LINE
  5
363
330
1E
100
AcDbEntity
  8
0
100
AcDbLine
 10
72.4605
 20
15.6502
 30
0.0
 11
72.65
 21
15.6502
 31
0.0
  0
LINE
  5
364
330
1E
100
AcDbEntity
  8
0
100
AcDbLine
 10
72.3816
 20
15.8078
 30
0.0
 11
72.3816
 21
18.30313999999999
 31
0.0
  0
LINE
  5
365
330
1E
100
AcDbEntity
  8
0
100
AcDbLine
 10
72.3816
 20
15.8078
 30
0.0
 11
72.4605
 21
15.6502
 31
0.0
  0
LINE
  5
366
330
1E
100
AcDbEntity
  8
0
100
AcDbLine
 10
71.90789999999999
 20
24.83972
 30
0.0
 11
72.1289
 21
24.83972
 31
0.0
  0
LINE
  5
367
330
1E
100
AcDbEntity
  8
0
100
AcDbLine
 10
72.1289
 20
24.83972
 30
0.0
 11
72.6974
 21
24.83972
 31
0.0
  0
LINE
  5
368
330
1E
100
AcDbEntity
  8
0
100
AcDbLine
 10
72.1289
 20
24.83972
 30
0.0
 11
72.3816
 21
24.83972
 31
0.0
  0
LINE
  5
369
330
1E
100
AcDbEntity
  8
0
100
AcDbLine
 10
72.6974
 20
24.83972
 30
0.0
 11
73.6132
 21
24.83972
 31
0.0
  0
LINE
  5
36A
330
1E
100
AcDbEntity
  8
0
100
AcDbLine
 10
73.6132
 20
24.83972
 30
0.0
 11
74.84480000000001
 21
24.83972
 31
0.0
  0
LINE
  5
36C
330
1E
100
AcDbEntity
  8
0
100
AcDbLine
 10
74.84480000000001
 20
24.83972
 30
0.0
 11
76.2342
 21
24.83972
 31
0.0
  0
LINE
  5
36E
330
1E
100
AcDbEntity
  8
0
100
AcDbLine
 10
73.1079
 20
24.83972
 30
0.0
 11
73.96049999999999
 21
24.83972
 31
0.0
  0
LINE
  5
36F
330
1E
100
AcDbEntity
  8
0
100
AcDbLine
 10
72.5711
 20
24.83972
 30
0.0
 11
73.1079
 21
24.83972
 31
0.0
  0
LINE
  5
370
330
1E
100
AcDbEntity
  8
0
100
AcDbLine
 10
72.3816
 20
24.83972
 30
0.0
 11
72.3816
 21
22.4007
 31
0.0
  0
LINE
  5
371
330
1E
100
AcDbEntity
  8
0
100
AcDbLine
 10
72.3816
 20
24.83972
 30
0.0
 11
72.5711
 21
24.83972
 31
0.0
  0
LINE
  5
372
330
1E
100
AcDbEntity
  8
0
100
AcDbLine
 10
71.75
 20
24.94547
 30
0.0
 11
71.75
 21
25.28032
 31
0.0
  0
LINE
  5
373
330
1E
100
AcDbEntity
  8
0
100
AcDbLine
 10
71.75
 20
24.94547
 30
0.0
 11
71.75
 21
24.88377999999999
 31
0.0
  0
LINE
  5
37A
330
1E
100
AcDbEntity
  8
0
100
AcDbLine
 10
71.75
 20
24.88377999999999
 30
0.0
 11
71.75
 21
24.94547
 31
0.0
  0
LINE
  5
37B
330
1E
100
AcDbEntity
  8
0
100
AcDbLine
 10
71.75
 20
24.88377999999999
 30
0.0
 11
71.90789999999999
 21
24.83972
 31
0.0
  0
LINE
  5
37C
330
1E
100
AcDbEntity
  8
0
100
AcDbLine
 10
71.75
 20
25.72092
 30
0.0
 11
71.75
 21
26.0
 31
0.0
  0
LINE
  5
37D
330
1E
100
AcDbEntity
  8
0
100
AcDbLine
 10
71.75
 20
25.72092
 30
0.0
 11
71.75
 21
25.28032
 31
0.0
  0
LINE
  5
37E
330
1E
100
AcDbEntity
  8
0
100
AcDbLine
 10
71.75
 20
25.72092
 30
0.0
 11
71.90439999999999
 21
25.72092
 31
0.0
  0
LINE
  5
381
330
1E
100
AcDbEntity
  8
0
100
AcDbLine
 10
71.75
 20
25.28032
 30
0.0
 11
71.75
 21
24.94547
 31
0.0
  0
LINE
  5
382
330
1E
100
AcDbEntity
  8
0
100
AcDbLine
 10
71.75
 20
25.28032
 30
0.0
 11
71.75
 21
25.72092
 31
0.0
  0
LINE
  5
386
330
1E
100
AcDbEntity
  8
0
100
AcDbLine
 10
74.6958
 20
24.92877
 30
0.0
 11
76.11799999999999
 21
25.02416
 31
0.0
  0
LINE
  5
388
330
1E
100
AcDbEntity
  8
0
100
AcDbLine
 10
73.26579999999999
 20
24.99992
 30
0.0
 11
74.6958
 21
24.92877
 31
0.0
  0
LINE
  5
38A
330
1E
100
AcDbEntity
  8
0
100
AcDbLine
 10
72.2642
 20
25.28032
 30
0.0
 11
73.26579999999999
 21
24.99992
 31
0.0
  0
LINE
  5
38B
330
1E
100
AcDbEntity
  8
0
100
AcDbLine
 10
71.90439999999999
 20
25.72092
 30
0.0
 11
72.2642
 21
25.28032
 31
0.0
  0
LINE
  5
38C
330
1E
100
AcDbEntity
  8
0
100
AcDbLine
 10
73.96049999999999
 20
24.83972
 30
0.0
 11
75.0816
 21
24.83972
 31
0.0
  0
LINE
  5
38D
330
1E
100
AcDbEntity
  8
0
100
AcDbLine
 10
75.0816
 20
24.83972
 30
0.0
 11
76.3763
 21
24.83972
 31
0.0
  0
LINE
  5
38E
330
1E
100
AcDbEntity
  8
0
100
AcDbLine
 10
72.3816
 20
22.4007
 30
0.0
 11
72.3816
 21
24.83972
 31
0.0
  0
LINE
  5
38F
330
1E
100
AcDbEntity
  8
0
100
AcDbLine
 10
81.3816
 20
15.5714
 30
0.0
 11
82.69209999999999
 21
15.5714
 31
0.0
  0
LINE
  5
390
330
1E
100
AcDbEntity
  8
0
100
AcDbLine
 10
82.88160000000001
 20
15.5714
 30
0.0
 11
83.0395
 21
15.6502
 31
0.0
  0
LINE
  5
391
330
1E
100
AcDbEntity
  8
0
100
AcDbLine
 10
82.69209999999999
 20
15.5714
 30
0.0
 11
82.88160000000001
 21
15.5714
 31
0.0
  0
LINE
  5
392
330
1E
100
AcDbEntity
  8
0
100
AcDbLine
 10
80.30790000000001
 20
15.5714
 30
0.0
 11
81.3816
 21
15.5714
 31
0.0
  0
LINE
  5
393
330
1E
100
AcDbEntity
  8
0
100
AcDbLine
 10
79.75
 20
2.29909999999999
 30
0.0
 11
79.75
 21
15.5714
 31
0.0
  0
LINE
  5
394
330
1E
100
AcDbEntity
  8
0
100
AcDbLine
 10
79.678
 20
2.257699999999999
 30
0.0
 11
79.75
 21
2.29909999999999
 31
0.0
  0
LINE
  5
395
330
1E
100
AcDbEntity
  8
0
100
AcDbLine
 10
79.486
 20
2.1474
 30
0.0
 11
79.678
 21
2.257699999999999
 31
0.0
  0
LINE
  5
396
330
1E
100
AcDbEntity
  8
0
100
AcDbLine
 10
79.16599999999999
 20
1.9634
 30
0.0
 11
79.486
 21
2.1474
 31
0.0
  0
LINE
  5
397
330
1E
100
AcDbEntity
  8
0
100
AcDbLine
 10
78.742
 20
1.7197
 30
0.0
 11
79.16599999999999
 21
1.9634
 31
0.0
  0
LINE
  5
398
330
1E
100
AcDbEntity
  8
0
100
AcDbLine
 10
78.262
 20
1.443799999999999
 30
0.0
 11
78.742
 21
1.7197
 31
0.0
  0
LINE
  5
399
330
1E
100
AcDbEntity
  8
0
100
AcDbLine
 10
77.75
 20
1.149599999999989
 30
0.0
 11
78.262
 21
1.443799999999999
 31
0.0
  0
LINE
  5
39A
330
1E
100
AcDbEntity
  8
0
100
AcDbLine
 10
76.3921
 20
15.6502
 30
0.0
 11
77.75
 21
15.6502
 31
0.0
  0
LINE
  5
39B
330
1E
100
AcDbEntity
  8
0
100
AcDbLine
 10
76.11799999999999
 20
22.21011
 30
0.0
 11
77.00839999999999
 21
21.94541
 31
0.0
  0
LINE
  5
39D
330
1E
100
AcDbEntity
  8
0
100
AcDbLine
 10
76.11799999999999
 20
18.49371999999999
 30
0.0
 11
77.00839999999999
 21
18.75842
 31
0.0
  0
LINE
  5
3A1
330
1E
100
AcDbEntity
  8
0
100
AcDbLine
 10
76.2342
 20
22.4007
 30
0.0
 11
77.75
 21
22.4007
 31
0.0
  0
LINE
  5
3A2
330
1E
100
AcDbEntity
  8
0
100
AcDbLine
 10
77.00839999999999
 20
18.75842
 30
0.0
 11
77.75
 21
18.75842
 31
0.0
  0
LINE
  5
3A4
330
1E
100
AcDbEntity
  8
0
100
AcDbLine
 10
77.00839999999999
 20
21.94541
 30
0.0
 11
77.75
 21
21.94541
 31
0.0
  0
LINE
  5
3A9
330
1E
100
AcDbEntity
  8
0
100
AcDbLine
 10
77.75
 20
18.75842
 30
0.0
 11
78.49160000000001
 21
18.75842
 31
0.0
  0
LINE
  5
3AE
330
1E
100
AcDbEntity
  8
0
100
AcDbLine
 10
77.75
 20
21.94541
 30
0.0
 11
78.49160000000001
 21
21.94541
 31
0.0
  0
LINE
  5
3AF
330
1E
100
AcDbEntity
  8
0
100
AcDbLine
 10
77.75
 20
22.4007
 30
0.0
 11
79.2658
 21
22.4007
 31
0.0
  0
LINE
  5
3B0
330
1E
100
AcDbEntity
  8
0
100
AcDbLine
 10
76.3763
 20
18.30313999999999
 30
0.0
 11
77.75
 21
18.30313999999999
 31
0.0
  0
LINE
  5
3B1
330
1E
100
AcDbEntity
  8
0
100
AcDbLine
 10
77.75
 20
15.6502
 30
0.0
 11
79.1079
 21
15.6502
 31
0.0
  0
LINE
  5
3B2
330
1E
100
AcDbEntity
  8
0
100
AcDbLine
 10
79.1079
 20
15.6502
 30
0.0
 11
80.38679999999999
 21
15.6502
 31
0.0
  0
LINE
  5
3B3
330
1E
100
AcDbEntity
  8
0
100
AcDbLine
 10
78.49160000000001
 20
21.94541
 30
0.0
 11
79.38200000000001
 21
22.21011
 31
0.0
  0
LINE
  5
3B4
330
1E
100
AcDbEntity
  8
0
100
AcDbLine
 10
78.49160000000001
 20
18.75842
 30
0.0
 11
79.38200000000001
 21
18.49371999999999
 31
0.0
  0
LINE
  5
3B5
330
1E
100
AcDbEntity
  8
0
100
AcDbLine
 10
79.1237
 20
18.30313999999999
 30
0.0
 11
80.4184
 21
18.30313999999999
 31
0.0
  0
LINE
  5
3B6
330
1E
100
AcDbEntity
  8
0
100
AcDbLine
 10
77.75
 20
18.30313999999999
 30
0.0
 11
79.1237
 21
18.30313999999999
 31
0.0
  0
LINE
  5
3B8
330
1E
100
AcDbEntity
  8
0
100
AcDbLine
 10
76.3763
 20
24.83972
 30
0.0
 11
77.75
 21
24.83972
 31
0.0
  0
LINE
  5
3B9
330
1E
100
AcDbEntity
  8
0
100
AcDbLine
 10
79.2658
 20
18.30313999999999
 30
0.0
 11
80.6553
 21
18.30313999999999
 31
0.0
  0
LINE
  5
3BC
330
1E
100
AcDbEntity
  8
0
100
AcDbLine
 10
80.6553
 20
18.30313999999999
 30
0.0
 11
81.88679999999999
 21
18.30313999999999
 31
0.0
  0
LINE
  5
3BD
330
1E
100
AcDbEntity
  8
0
100
AcDbLine
 10
81.4921
 20
15.6502
 30
0.0
 11
82.32890000000001
 21
15.6502
 31
0.0
  0
LINE
  5
3BE
330
1E
100
AcDbEntity
  8
0
100
AcDbLine
 10
81.5395
 20
18.30313999999999
 30
0.0
 11
82.39209999999999
 21
18.30313999999999
 31
0.0
  0
LINE
  5
3BF
330
1E
100
AcDbEntity
  8
0
100
AcDbLine
 10
80.38679999999999
 20
15.6502
 30
0.0
 11
81.4921
 21
15.6502
 31
0.0
  0
LINE
  5
3C2
330
1E
100
AcDbEntity
  8
0
100
AcDbLine
 10
79.2658
 20
22.4007
 30
0.0
 11
80.6553
 21
22.4007
 31
0.0
  0
LINE
  5
3C3
330
1E
100
AcDbEntity
  8
0
100
AcDbLine
 10
79.38200000000001
 20
22.21011
 30
0.0
 11
80.8042
 21
22.30867
 31
0.0
  0
LINE
  5
3C4
330
1E
100
AcDbEntity
  8
0
100
AcDbLine
 10
80.6553
 20
22.4007
 30
0.0
 11
81.88679999999999
 21
22.4007
 31
0.0
  0
LINE
  5
3C5
330
1E
100
AcDbEntity
  8
0
100
AcDbLine
 10
80.8042
 20
22.30867
 30
0.0
 11
82.2342
 21
22.23513999999999
 31
0.0
  0
LINE
  5
3C6
330
1E
100
AcDbEntity
  8
0
100
AcDbLine
 10
80.8042
 20
18.39515
 30
0.0
 11
82.2342
 21
18.46867999999999
 31
0.0
  0
LINE
  5
3C9
330
1E
100
AcDbEntity
  8
0
100
AcDbLine
 10
79.38200000000001
 20
18.49371999999999
 30
0.0
 11
80.8042
 21
18.39515
 31
0.0
  0
LINE
  5
3CB
330
1E
100
AcDbEntity
  8
0
100
AcDbLine
 10
80.6553
 20
24.83972
 30
0.0
 11
81.88679999999999
 21
24.83972
 31
0.0
  0
LINE
  5
3CC
330
1E
100
AcDbEntity
  8
0
100
AcDbLine
 10
79.2658
 20
24.83972
 30
0.0
 11
80.6553
 21
24.83972
 31
0.0
  0
LINE
  5
3CE
330
1E
100
AcDbEntity
  8
0
100
AcDbLine
 10
80.4184
 20
18.30313999999999
 30
0.0
 11
81.5395
 21
18.30313999999999
 31
0.0
  0
LINE
  5
3D1
330
1E
100
AcDbEntity
  8
0
100
AcDbLine
 10
82.8026
 20
18.30313999999999
 30
0.0
 11
83.3711
 21
18.30313999999999
 31
0.0
  0
LINE
  5
3D3
330
1E
100
AcDbEntity
  8
0
100
AcDbLine
 10
82.32890000000001
 20
15.6502
 30
0.0
 11
82.85
 21
15.6502
 31
0.0
  0
LINE
  5
3D4
330
1E
100
AcDbEntity
  8
0
100
AcDbLine
 10
81.88679999999999
 20
22.4007
 30
0.0
 11
83.3711
 21
22.4007
 31
0.0
  0
LINE
  5
3D5
330
1E
100
AcDbEntity
  8
0
100
AcDbLine
 10
82.2342
 20
22.23513999999999
 30
0.0
 11
83.2357
 21
21.94541
 31
0.0
  0
LINE
  5
3D6
330
1E
100
AcDbEntity
  8
0
100
AcDbLine
 10
82.2342
 20
18.46867999999999
 30
0.0
 11
83.2357
 21
18.75842
 31
0.0
  0
LINE
  5
3DA
330
1E
100
AcDbEntity
  8
0
100
AcDbLine
 10
82.8026
 20
24.83972
 30
0.0
 11
83.3711
 21
24.83972
 31
0.0
  0
LINE
  5
3DD
330
1E
100
AcDbEntity
  8
0
100
AcDbLine
 10
82.39209999999999
 20
18.30313999999999
 30
0.0
 11
82.92889999999999
 21
18.30313999999999
 31
0.0
  0
LINE
  5
3DE
330
1E
100
AcDbEntity
  8
0
100
AcDbLine
 10
81.5395
 20
24.83972
 30
0.0
 11
82.39209999999999
 21
24.83972
 31
0.0
  0
LINE
  5
3DF
330
1E
100
AcDbEntity
  8
0
100
AcDbLine
 10
82.39209999999999
 20
24.83972
 30
0.0
 11
82.92889999999999
 21
24.83972
 31
0.0
  0
LINE
  5
3E0
330
1E
100
AcDbEntity
  8
0
100
AcDbLine
 10
82.85
 20
15.6502
 30
0.0
 11
83.0395
 21
15.6502
 31
0.0
  0
LINE
  5
3E1
330
1E
100
AcDbEntity
  8
0
100
AcDbLine
 10
82.92889999999999
 20
18.30313999999999
 30
0.0
 11
83.1184
 21
18.30313999999999
 31
0.0
  0
LINE
  5
3E2
330
1E
100
AcDbEntity
  8
0
100
AcDbLine
 10
83.1184
 20
15.8078
 30
0.0
 11
83.1184
 21
18.30313999999999
 31
0.0
  0
LINE
  5
3E3
330
1E
100
AcDbEntity
  8
0
100
AcDbLine
 10
83.0395
 20
15.6502
 30
0.0
 11
83.1184
 21
15.8078
 31
0.0
  0
LINE
  5
3E4
330
1E
100
AcDbEntity
  8
0
100
AcDbLine
 10
83.1184
 20
18.30313999999999
 30
0.0
 11
83.1184
 21
15.8078
 31
0.0
  0
LINE
  5
3E5
330
1E
100
AcDbEntity
  8
0
100
AcDbLine
 10
83.1184
 20
18.30313999999999
 30
0.0
 11
83.3711
 21
18.30313999999999
 31
0.0
  0
LINE
  5
3E6
330
1E
100
AcDbEntity
  8
0
100
AcDbLine
 10
82.92889999999999
 20
24.83972
 30
0.0
 11
83.1184
 21
24.83972
 31
0.0
  0
LINE
  5
3E7
330
1E
100
AcDbEntity
  8
0
100
AcDbLine
 10
83.1184
 20
22.4007
 30
0.0
 11
83.1184
 21
24.83972
 31
0.0
  0
LINE
  5
3E8
330
1E
100
AcDbEntity
  8
0
100
AcDbLine
 10
80.4184
 20
24.83972
 30
0.0
 11
81.5395
 21
24.83972
 31
0.0
  0
LINE
  5
3E9
330
1E
100
AcDbEntity
  8
0
100
AcDbLine
 10
79.1237
 20
24.83972
 30
0.0
 11
80.4184
 21
24.83972
 31
0.0
  0
LINE
  5
3EA
330
1E
100
AcDbEntity
  8
0
100
AcDbLine
 10
77.00839999999999
 20
25.28032
 30
0.0
 11
77.75
 21
25.28032
 31
0.0
  0
LINE
  5
3EB
330
1E
100
AcDbEntity
  8
0
100
AcDbLine
 10
76.11799999999999
 20
25.02416
 30
0.0
 11
77.00839999999999
 21
25.28032
 31
0.0
  0
LINE
  5
3EE
330
1E
100
AcDbEntity
  8
0
100
AcDbLine
 10
76.11799999999999
 20
25.02416
 30
0.0
 11
76.2342
 21
24.83972
 31
0.0
  0
LINE
  5
3F3
330
1E
100
AcDbEntity
  8
0
100
AcDbLine
 10
77.75
 20
25.28032
 30
0.0
 11
78.49160000000001
 21
25.28032
 31
0.0
  0
LINE
  5
3F5
330
1E
100
AcDbEntity
  8
0
100
AcDbLine
 10
78.49160000000001
 20
25.28032
 30
0.0
 11
79.38200000000001
 21
25.02416
 31
0.0
  0
LINE
  5
3F6
330
1E
100
AcDbEntity
  8
0
100
AcDbLine
 10
80.8042
 20
24.92877
 30
0.0
 11
82.2342
 21
24.99992
 31
0.0
  0
LINE
  5
3F8
330
1E
100
AcDbEntity
  8
0
100
AcDbLine
 10
82.2342
 20
24.99992
 30
0.0
 11
83.2357
 21
25.28032
 31
0.0
  0
LINE
  5
3FC
330
1E
100
AcDbEntity
  8
0
100
AcDbLine
 10
79.38200000000001
 20
25.02416
 30
0.0
 11
80.8042
 21
24.92877
 31
0.0
  0
LINE
  5
3FD
330
1E
100
AcDbEntity
  8
0
100
AcDbLine
 10
77.75
 20
24.83972
 30
0.0
 11
79.1237
 21
24.83972
 31
0.0
  0
LINE
  5
401
330
1E
100
AcDbEntity
  8
0
100
AcDbLine
 10
83.2357
 20
21.94541
 30
0.0
 11
83.6237
 21
21.94541
 31
0.0
  0
LINE
  5
404
330
1E
100
AcDbEntity
  8
0
100
AcDbLine
 10
83.2357
 20
18.75842
 30
0.0
 11
83.5956
 21
19.21370999999999
 31
0.0
  0
LINE
  5
407
330
1E
100
AcDbEntity
  8
0
100
AcDbLine
 10
83.3711
 20
22.4007
 30
0.0
 11
83.5921
 21
22.4007
 31
0.0
  0
LINE
  5
409
330
1E
100
AcDbEntity
  8
0
100
AcDbLine
 10
83.3711
 20
18.30313999999999
 30
0.0
 11
83.5921
 21
18.30313999999999
 31
0.0
  0
LINE
  5
40C
330
1E
100
AcDbEntity
  8
0
100
AcDbLine
 10
83.5956
 20
19.21370999999999
 30
0.0
 11
83.75
 21
19.21370999999999
 31
0.0
  0
LINE
  5
40D
330
1E
100
AcDbEntity
  8
0
100
AcDbLine
 10
83.5921
 20
18.30313999999999
 30
0.0
 11
83.75
 21
18.34867
 31
0.0
  0
LINE
  5
40E
330
1E
100
AcDbEntity
  8
0
100
AcDbLine
 10
83.6237
 20
21.94541
 30
0.0
 11
83.75
 21
21.94541
 31
0.0
  0
LINE
  5
40F
330
1E
100
AcDbEntity
  8
0
100
AcDbLine
 10
83.75
 20
21.49012999999999
 30
0.0
 11
83.75
 21
19.21370999999999
 31
0.0
  0
LINE
  5
410
330
1E
100
AcDbEntity
  8
0
100
AcDbLine
 10
83.75
 20
19.21370999999999
 30
0.0
 11
83.75
 21
21.49012999999999
 31
0.0
  0
LINE
  5
411
330
1E
100
AcDbEntity
  8
0
100
AcDbLine
 10
83.75
 20
19.21370999999999
 30
0.0
 11
83.75
 21
18.75842
 31
0.0
  0
LINE
  5
412
330
1E
100
AcDbEntity
  8
0
100
AcDbLine
 10
83.75
 20
18.75842
 30
0.0
 11
83.75
 21
19.21370999999999
 31
0.0
  0
LINE
  5
413
330
1E
100
AcDbEntity
  8
0
100
AcDbLine
 10
83.75
 20
18.75842
 30
0.0
 11
83.75
 21
18.41241
 31
0.0
  0
LINE
  5
414
330
1E
100
AcDbEntity
  8
0
100
AcDbLine
 10
83.75
 20
21.94541
 30
0.0
 11
83.75
 21
22.29143
 31
0.0
  0
LINE
  5
415
330
1E
100
AcDbEntity
  8
0
100
AcDbLine
 10
83.75
 20
18.41241
 30
0.0
 11
83.75
 21
18.75842
 31
0.0
  0
LINE
  5
416
330
1E
100
AcDbEntity
  8
0
100
AcDbLine
 10
83.75
 20
18.41241
 30
0.0
 11
83.75
 21
18.34867
 31
0.0
  0
LINE
  5
417
330
1E
100
AcDbEntity
  8
0
100
AcDbLine
 10
83.5921
 20
22.4007
 30
0.0
 11
83.75
 21
22.35517
 31
0.0
  0
LINE
  5
418
330
1E
100
AcDbEntity
  8
0
100
AcDbLine
 10
83.75
 20
22.35517
 30
0.0
 11
83.75
 21
22.29143
 31
0.0
  0
LINE
  5
419
330
1E
100
AcDbEntity
  8
0
100
AcDbLine
 10
83.75
 20
22.29143
 30
0.0
 11
83.75
 21
22.35517
 31
0.0
  0
LINE
  5
41A
330
1E
100
AcDbEntity
  8
0
100
AcDbLine
 10
83.75
 20
22.29143
 30
0.0
 11
83.75
 21
21.94541
 31
0.0
  0
LINE
  5
41B
330
1E
100
AcDbEntity
  8
0
100
AcDbLine
 10
83.75
 20
18.34867
 30
0.0
 11
83.75
 21
18.41241
 31
0.0
  0
LINE
  5
41C
330
1E
100
AcDbEntity
  8
0
100
AcDbLine
 10
83.5921
 20
24.83972
 30
0.0
 11
83.75
 21
24.88377999999999
 31
0.0
  0
LINE
  5
41E
330
1E
100
AcDbEntity
  8
0
100
AcDbLine
 10
83.3711
 20
24.83972
 30
0.0
 11
83.5921
 21
24.83972
 31
0.0
  0
LINE
  5
423
330
1E
100
AcDbEntity
  8
0
100
AcDbLine
 10
83.2357
 20
25.28032
 30
0.0
 11
83.5956
 21
25.72092
 31
0.0
  0
LINE
  5
426
330
1E
100
AcDbEntity
  8
0
100
AcDbLine
 10
83.5956
 20
25.72092
 30
0.0
 11
83.75
 21
25.72092
 31
0.0
  0
LINE
  5
427
330
1E
100
AcDbEntity
  8
0
100
AcDbLine
 10
83.75
 20
25.72092
 30
0.0
 11
83.75
 21
26.0
 31
0.0
  0
LINE
  5
428
330
1E
100
AcDbEntity
  8
0
100
AcDbLine
 10
83.75
 20
25.72092
 30
0.0
 11
83.75
 21
25.28032
 31
0.0
  0
LINE
  5
429
330
1E
100
AcDbEntity
  8
0
100
AcDbLine
 10
83.75
 20
25.28032
 30
0.0
 11
83.75
 21
25.72092
 31
0.0
  0
LINE
  5
42A
330
1E
100
AcDbEntity
  8
0
100
AcDbLine
 10
83.75
 20
25.28032
 30
0.0
 11
83.75
 21
24.94547
 31
0.0
  0
LINE
  5
42B
330
1E
100
AcDbEntity
  8
0
100
AcDbLine
 10
83.75
 20
24.94547
 30
0.0
 11
83.75
 21
25.28032
 31
0.0
  0
LINE
  5
42C
330
1E
100
AcDbEntity
  8
0
100
AcDbLine
 10
83.75
 20
24.94547
 30
0.0
 11
83.75
 21
24.88377999999999
 31
0.0
  0
LINE
  5
42D
330
1E
100
AcDbEntity
  8
0
100
AcDbLine
 10
83.75
 20
24.88377999999999
 30
0.0
 11
83.75
 21
24.94547
 31
0.0
  0
LINE
  5
42E
330
1E
100
AcDbEntity
  8
0
100
AcDbLine
 10
83.1184
 20
24.83972
 30
0.0
 11
83.1184
 21
22.4007
 31
0.0
  0
LINE
  5
42F
330
1E
100
AcDbEntity
  8
0
100
AcDbLine
 10
83.1184
 20
24.83972
 30
0.0
 11
83.3711
 21
24.83972
 31
0.0
  0
LINE
  5
430
330
1E
100
AcDbEntity
  8
0
100
AcDbLine
 10
79.75
 20
15.5714
 30
0.0
 11
79.75
 21
2.29909999999999
 31
0.0
  0
LINE
  5
431
330
1E
100
AcDbEntity
  8
0
100
AcDbLine
 10
79.75
 20
15.5714
 30
0.0
 11
80.30790000000001
 21
15.5714
 31
0.0
  0
LINE
  5
432
330
1E
100
AcDbEntity
  8
0
100
AcDbLine
 10
75.75
 20
15.5714
 30
0.0
 11
75.75
 21
-0.0000000000000033
 31
0.0
  0
LINE
  5
433
330
1E
100
AcDbEntity
  8
0
100
AcDbLine
 10
77.238
 20
0.855299999999994
 30
0.0
 11
77.75
 21
1.149599999999989
 31
0.0
  0
LINE
  5
434
330
1E
100
AcDbEntity
  8
0
100
AcDbLine
 10
30.75
 20
26.0
 30
0.0
 11
71.75
 21
26.0
 31
0.0
  0
LINE
  5
435
330
1E
100
AcDbEntity
  8
0
100
AcDbLine
 10
30.75
 20
26.0
 30
0.0
 11
71.75
 21
26.0
 31
0.0
  0
LINE
  5
436
330
1E
100
AcDbEntity
  8
0
100
AcDbLine
 10
25.75
 20
26.0
 30
0.0
 11
71.75
 21
26.0
 31
0.0
  0
LINE
  5
437
330
1E
100
AcDbEntity
  8
0
100
AcDbLine
 10
83.75
 20
26.0
 30
0.0
 11
99.75000000000001
 21
26.0
 31
0.0
  0
LINE
  5
438
330
1E
100
AcDbEntity
  8
0
100
AcDbLine
 10
83.75
 20
26.0
 30
0.0
 11
94.74999999999999
 21
26.0
 31
0.0
  0
LINE
  5
439
330
1E
100
AcDbEntity
  8
0
100
AcDbLine
 10
99.75000000000001
 20
26.0
 30
0.0
 11
102.3087999999999
 21
26.3529
 31
0.0
  0
LINE
  5
43A
330
1E
100
AcDbEntity
  8
0
100
AcDbLine
 10
23.214
 20
40.784
 30
0.0
 11
24.75
 21
41.0
 31
0.0
  0
LINE
  5
43B
330
1E
100
AcDbEntity
  8
0
100
AcDbLine
 10
23.214
 20
29.21599999999999
 30
0.0
 11
24.75
 21
29.0
 31
0.0
  0
LINE
  5
43C
330
1E
100
AcDbEntity
  8
0
100
AcDbLine
 10
23.214
 20
105.216
 30
0.0
 11
24.75
 21
105.0
 31
0.0
  0
LINE
  5
43D
330
1E
100
AcDbEntity
  8
0
100
AcDbLine
 10
23.214
 20
116.7839999999999
 30
0.0
 11
24.75
 21
117.0
 31
0.0
  0
LINE
  5
43E
330
1E
100
AcDbEntity
  8
0
100
AcDbLine
 10
24.75
 20
41.0
 30
0.0
 11
26.286
 21
40.784
 31
0.0
  0
LINE
  5
43F
330
1E
100
AcDbEntity
  8
0
100
AcDbLine
 10
24.75
 20
29.0
 30
0.0
 11
26.286
 21
29.21599999999999
 31
0.0
  0
LINE
  5
440
330
1E
100
AcDbEntity
  8
0
100
AcDbLine
 10
24.75
 20
105.0
 30
0.0
 11
26.286
 21
105.216
 31
0.0
  0
LINE
  5
441
330
1E
100
AcDbEntity
  8
0
100
AcDbLine
 10
24.75
 20
117.0
 30
0.0
 11
26.286
 21
116.7839999999999
 31
0.0
  0
LINE
  5
444
330
1E
100
AcDbEntity
  8
0
100
AcDbLine
 10
71.75
 20
26.0
 30
0.0
 11
71.75
 21
25.72092
 31
0.0
  0
LINE
  5
445
330
1E
100
AcDbEntity
  8
0
100
AcDbLine
 10
83.75
 20
26.0
 30
0.0
 11
83.75
 21
25.72092
 31
0.0
  0
LINE
  5
446
330
1E
100
AcDbEntity
  8
0
100
AcDbLine
 10
30.75
 20
26.0
 30
0.0
 11
94.74999999999999
 21
26.0
 31
0.0
  0
LINE
  5
44A
330
1E
100
AcDbEntity
  8
0
100
AcDbLine
 10
26.286
 20
40.784
 30
0.0
 11
27.726
 21
40.208
 31
0.0
  0
LINE
  5
44B
330
1E
100
AcDbEntity
  8
0
100
AcDbLine
 10
27.726
 20
40.208
 30
0.0
 11
28.998
 21
39.248
 31
0.0
  0
LINE
  5
44C
330
1E
100
AcDbEntity
  8
0
100
AcDbLine
 10
26.286
 20
29.21599999999999
 30
0.0
 11
27.726
 21
29.792
 31
0.0
  0
LINE
  5
44D
330
1E
100
AcDbEntity
  8
0
100
AcDbLine
 10
27.726
 20
29.792
 30
0.0
 11
28.998
 21
30.752
 31
0.0
  0
LINE
  5
44E
330
1E
100
AcDbEntity
  8
0
100
AcDbLine
 10
26.286
 20
105.216
 30
0.0
 11
27.726
 21
105.7919999999999
 31
0.0
  0
LINE
  5
44F
330
1E
100
AcDbEntity
  8
0
100
AcDbLine
 10
28.998
 20
30.752
 30
0.0
 11
29.958
 21
32.024
 31
0.0
  0
LINE
  5
450
330
1E
100
AcDbEntity
  8
0
100
AcDbLine
 10
28.998
 20
39.248
 30
0.0
 11
29.958
 21
37.976
 31
0.0
  0
LINE
  5
451
330
1E
100
AcDbEntity
  8
0
100
AcDbLine
 10
29.958
 20
37.976
 30
0.0
 11
30.534
 21
36.536
 31
0.0
  0
LINE
  5
452
330
1E
100
AcDbEntity
  8
0
100
AcDbLine
 10
29.958
 20
32.024
 30
0.0
 11
30.534
 21
33.464
 31
0.0
  0
LINE
  5
453
330
1E
100
AcDbEntity
  8
0
100
AcDbLine
 10
27.726
 20
105.7919999999999
 30
0.0
 11
28.998
 21
106.752
 31
0.0
  0
LINE
  5
454
330
1E
100
AcDbEntity
  8
0
100
AcDbLine
 10
28.998
 20
106.752
 30
0.0
 11
29.958
 21
108.024
 31
0.0
  0
LINE
  5
455
330
1E
100
AcDbEntity
  8
0
100
AcDbLine
 10
30.534
 20
36.536
 30
0.0
 11
30.75
 21
35.0
 31
0.0
  0
LINE
  5
456
330
1E
100
AcDbEntity
  8
0
100
AcDbLine
 10
96.50200000000001
 20
30.752
 30
0.0
 11
97.774
 21
29.792
 31
0.0
  0
LINE
  5
457
330
1E
100
AcDbEntity
  8
0
100
AcDbLine
 10
95.54199999999999
 20
32.024
 30
0.0
 11
96.50200000000001
 21
30.752
 31
0.0
  0
LINE
  5
458
330
1E
100
AcDbEntity
  8
0
100
AcDbLine
 10
94.966
 20
33.464
 30
0.0
 11
95.54199999999999
 21
32.024
 31
0.0
  0
LINE
  5
459
330
1E
100
AcDbEntity
  8
0
100
AcDbLine
 10
94.966
 20
36.536
 30
0.0
 11
95.54199999999999
 21
37.976
 31
0.0
  0
LINE
  5
45A
330
1E
100
AcDbEntity
  8
0
100
AcDbLine
 10
96.50200000000001
 20
39.248
 30
0.0
 11
97.774
 21
40.208
 31
0.0
  0
LINE
  5
45B
330
1E
100
AcDbEntity
  8
0
100
AcDbLine
 10
95.54199999999999
 20
37.976
 30
0.0
 11
96.50200000000001
 21
39.248
 31
0.0
  0
LINE
  5
45C
330
1E
100
AcDbEntity
  8
0
100
AcDbLine
 10
94.74999999999999
 20
35.0
 30
0.0
 11
94.966
 21
33.464
 31
0.0
  0
LINE
  5
45D
330
1E
100
AcDbEntity
  8
0
100
AcDbLine
 10
94.74999999999999
 20
35.0
 30
0.0
 11
94.966
 21
36.536
 31
0.0
  0
LINE
  5
45E
330
1E
100
AcDbEntity
  8
0
100
AcDbLine
 10
30.534
 20
33.464
 30
0.0
 11
30.75
 21
35.0
 31
0.0
  0
LINE
  5
45F
330
1E
100
AcDbEntity
  8
0
100
AcDbLine
 10
95.54199999999999
 20
108.024
 30
0.0
 11
96.50200000000001
 21
106.752
 31
0.0
  0
LINE
  5
460
330
1E
100
AcDbEntity
  8
0
100
AcDbLine
 10
99.214
 20
29.21599999999999
 30
0.0
 11
100.75
 21
29.0
 31
0.0
  0
LINE
  5
461
330
1E
100
AcDbEntity
  8
0
100
AcDbLine
 10
97.774
 20
40.208
 30
0.0
 11
99.214
 21
40.784
 31
0.0
  0
LINE
  5
462
330
1E
100
AcDbEntity
  8
0
100
AcDbLine
 10
99.214
 20
40.784
 30
0.0
 11
100.75
 21
41.0
 31
0.0
  0
LINE
  5
463
330
1E
100
AcDbEntity
  8
0
100
AcDbLine
 10
97.774
 20
29.792
 30
0.0
 11
99.214
 21
29.21599999999999
 31
0.0
  0
LINE
  5
464
330
1E
100
AcDbEntity
  8
0
100
AcDbLine
 10
100.75
 20
41.0
 30
0.0
 11
102.286
 21
40.784
 31
0.0
  0
LINE
  5
465
330
1E
100
AcDbEntity
  8
0
100
AcDbLine
 10
100.75
 20
29.0
 30
0.0
 11
102.286
 21
29.21599999999999
 31
0.0
  0
LINE
  5
466
330
1E
100
AcDbEntity
  8
0
100
AcDbLine
 10
100.75
 20
105.0
 30
0.0
 11
102.286
 21
105.216
 31
0.0
  0
LINE
  5
467
330
1E
100
AcDbEntity
  8
0
100
AcDbLine
 10
99.214
 20
105.216
 30
0.0
 11
100.75
 21
105.0
 31
0.0
  0
LINE
  5
468
330
1E
100
AcDbEntity
  8
0
100
AcDbLine
 10
97.774
 20
105.7919999999999
 30
0.0
 11
99.214
 21
105.216
 31
0.0
  0
LINE
  5
469
330
1E
100
AcDbEntity
  8
0
100
AcDbLine
 10
96.50200000000001
 20
106.752
 30
0.0
 11
97.774
 21
105.7919999999999
 31
0.0
  0
LINE
  5
46A
330
1E
100
AcDbEntity
  8
0
100
AcDbLine
 10
94.966
 20
109.464
 30
0.0
 11
95.54199999999999
 21
108.024
 31
0.0
  0
LINE
  5
46B
330
1E
100
AcDbEntity
  8
0
100
AcDbLine
 10
29.958
 20
108.024
 30
0.0
 11
30.534
 21
109.464
 31
0.0
  0
LINE
  5
46C
330
1E
100
AcDbEntity
  8
0
100
AcDbLine
 10
30.534
 20
109.464
 30
0.0
 11
30.75
 21
111.0
 31
0.0
  0
LINE
  5
46D
330
1E
100
AcDbEntity
  8
0
100
AcDbLine
 10
102.286
 20
29.21599999999999
 30
0.0
 11
103.726
 21
29.792
 31
0.0
  0
LINE
  5
46E
330
1E
100
AcDbEntity
  8
0
100
AcDbLine
 10
103.726
 20
29.792
 30
0.0
 11
104.9979999999999
 21
30.752
 31
0.0
  0
LINE
  5
46F
330
1E
100
AcDbEntity
  8
0
100
AcDbLine
 10
104.9979999999999
 20
30.752
 30
0.0
 11
105.9579999999999
 21
32.024
 31
0.0
  0
LINE
  5
471
330
1E
100
AcDbEntity
  8
0
100
AcDbLine
 10
102.286
 20
40.784
 30
0.0
 11
103.726
 21
40.208
 31
0.0
  0
LINE
  5
472
330
1E
100
AcDbEntity
  8
0
100
AcDbLine
 10
103.726
 20
40.208
 30
0.0
 11
104.9979999999999
 21
39.248
 31
0.0
  0
LINE
  5
473
330
1E
100
AcDbEntity
  8
0
100
AcDbLine
 10
102.286
 20
105.216
 30
0.0
 11
103.726
 21
105.7919999999999
 31
0.0
  0
LINE
  5
474
330
1E
100
AcDbEntity
  8
0
100
AcDbLine
 10
104.9979999999999
 20
39.248
 30
0.0
 11
105.9579999999999
 21
37.976
 31
0.0
  0
LINE
  5
475
330
1E
100
AcDbEntity
  8
0
100
AcDbLine
 10
105.9579999999999
 20
37.976
 30
0.0
 11
106.5339999999999
 21
36.536
 31
0.0
  0
LINE
  5
476
330
1E
100
AcDbEntity
  8
0
100
AcDbLine
 10
105.9579999999999
 20
32.024
 30
0.0
 11
106.5339999999999
 21
33.464
 31
0.0
  0
LINE
  5
477
330
1E
100
AcDbEntity
  8
0
100
AcDbLine
 10
103.726
 20
105.7919999999999
 30
0.0
 11
104.9979999999999
 21
106.752
 31
0.0
  0
LINE
  5
478
330
1E
100
AcDbEntity
  8
0
100
AcDbLine
 10
104.9979999999999
 20
106.752
 30
0.0
 11
105.9579999999999
 21
108.024
 31
0.0
  0
LINE
  5
479
330
1E
100
AcDbEntity
  8
0
100
AcDbLine
 10
106.5339999999999
 20
36.536
 30
0.0
 11
106.75
 21
35.0
 31
0.0
  0
LINE
  5
47A
330
1E
100
AcDbEntity
  8
0
100
AcDbLine
 10
106.5339999999999
 20
33.464
 30
0.0
 11
106.75
 21
35.0
 31
0.0
  0
LINE
  5
47B
330
1E
100
AcDbEntity
  8
0
100
AcDbLine
 10
105.9579999999999
 20
108.024
 30
0.0
 11
106.5339999999999
 21
109.464
 31
0.0
  0
LINE
  5
47C
330
1E
100
AcDbEntity
  8
0
100
AcDbLine
 10
106.5339999999999
 20
109.464
 30
0.0
 11
106.75
 21
111.0
 31
0.0
  0
LINE
  5
481
330
1E
100
AcDbEntity
  8
0
100
AcDbLine
 10
102.3087999999999
 20
26.3529
 30
0.0
 11
104.7206
 21
27.3529
 31
0.0
  0
LINE
  5
484
330
1E
100
AcDbEntity
  8
0
100
AcDbLine
 10
109.7499999999999
 20
36.0
 30
0.0
 11
109.7499999999999
 21
110.0
 31
0.0
  0
LINE
  5
485
330
1E
100
AcDbEntity
  8
0
100
AcDbLine
 10
26.286
 20
116.7839999999999
 30
0.0
 11
27.726
 21
116.208
 31
0.0
  0
LINE
  5
486
330
1E
100
AcDbEntity
  8
0
100
AcDbLine
 10
27.726
 20
116.208
 30
0.0
 11
28.998
 21
115.2479999999999
 31
0.0
  0
LINE
  5
487
330
1E
100
AcDbEntity
  8
0
100
AcDbLine
 10
28.998
 20
115.2479999999999
 30
0.0
 11
29.958
 21
113.976
 31
0.0
  0
LINE
  5
488
330
1E
100
AcDbEntity
  8
0
100
AcDbLine
 10
29.958
 20
113.976
 30
0.0
 11
30.534
 21
112.536
 31
0.0
  0
LINE
  5
489
330
1E
100
AcDbEntity
  8
0
100
AcDbLine
 10
99.214
 20
116.7839999999999
 30
0.0
 11
100.75
 21
117.0
 31
0.0
  0
LINE
  5
48A
330
1E
100
AcDbEntity
  8
0
100
AcDbLine
 10
97.774
 20
116.208
 30
0.0
 11
99.214
 21
116.7839999999999
 31
0.0
  0
LINE
  5
48B
330
1E
100
AcDbEntity
  8
0
100
AcDbLine
 10
96.50200000000001
 20
115.2479999999999
 30
0.0
 11
97.774
 21
116.208
 31
0.0
  0
LINE
  5
48C
330
1E
100
AcDbEntity
  8
0
100
AcDbLine
 10
95.54199999999999
 20
113.976
 30
0.0
 11
96.50200000000001
 21
115.2479999999999
 31
0.0
  0
LINE
  5
48D
330
1E
100
AcDbEntity
  8
0
100
AcDbLine
 10
94.966
 20
112.536
 30
0.0
 11
95.54199999999999
 21
113.976
 31
0.0
  0
LINE
  5
48E
330
1E
100
AcDbEntity
  8
0
100
AcDbLine
 10
94.74999999999999
 20
111.0
 30
0.0
 11
94.966
 21
112.536
 31
0.0
  0
LINE
  5
48F
330
1E
100
AcDbEntity
  8
0
100
AcDbLine
 10
94.74999999999999
 20
111.0
 30
0.0
 11
94.966
 21
109.464
 31
0.0
  0
LINE
  5
490
330
1E
100
AcDbEntity
  8
0
100
AcDbLine
 10
30.534
 20
112.536
 30
0.0
 11
30.75
 21
111.0
 31
0.0
  0
LINE
  5
493
330
1E
100
AcDbEntity
  8
0
100
AcDbLine
 10
25.75
 20
120.0
 30
0.0
 11
99.75000000000001
 21
120.0
 31
0.0
  0
LINE
  5
494
330
1E
100
AcDbEntity
  8
0
100
AcDbLine
 10
25.75
 20
120.0
 30
0.0
 11
99.75000000000001
 21
120.0
 31
0.0
  0
LINE
  5
496
330
1E
100
AcDbEntity
  8
0
100
AcDbLine
 10
100.75
 20
117.0
 30
0.0
 11
102.286
 21
116.7839999999999
 31
0.0
  0
LINE
  5
497
330
1E
100
AcDbEntity
  8
0
100
AcDbLine
 10
102.286
 20
116.7839999999999
 30
0.0
 11
103.726
 21
116.208
 31
0.0
  0
LINE
  5
498
330
1E
100
AcDbEntity
  8
0
100
AcDbLine
 10
103.726
 20
116.208
 30
0.0
 11
104.9979999999999
 21
115.2479999999999
 31
0.0
  0
LINE
  5
49B
330
1E
100
AcDbEntity
  8
0
100
AcDbLine
 10
106.5339999999999
 20
112.536
 30
0.0
 11
106.75
 21
111.0
 31
0.0
  0
LINE
  5
49D
330
1E
100
AcDbEntity
  8
0
100
AcDbLine
 10
104.9979999999999
 20
115.2479999999999
 30
0.0
 11
105.9579999999999
 21
113.976
 31
0.0
  0
LINE
  5
49E
330
1E
100
AcDbEntity
  8
0
100
AcDbLine
 10
105.9579999999999
 20
113.976
 30
0.0
 11
106.5339999999999
 21
112.536
 31
0.0
  0
LINE
  5
4A1
330
1E
100
AcDbEntity
  8
0
100
AcDbLine
 10
106.8088
 20
117.0588
 30
0.0
 11
108.3971
 21
114.9706
 31
0.0
  0
LINE
  5
4A2
330
1E
100
AcDbEntity
  8
0
100
AcDbLine
 10
108.3971
 20
114.9706
 30
0.0
 11
109.3971
 21
112.5588
 31
0.0
  0
LINE
  5
4A3
330
1E
100
AcDbEntity
  8
0
100
AcDbLine
 10
109.3971
 20
112.5588
 30
0.0
 11
109.7499999999999
 21
110.0
 31
0.0
  0
LINE
  5
4A4
330
1E
100
AcDbEntity
  8
0
100
AcDbLine
 10
104.7206
 20
118.6471
 30
0.0
 11
106.8088
 21
117.0588
 31
0.0
  0
LINE
  5
4A5
330
1E
100
AcDbEntity
  8
0
100
AcDbLine
 10
102.3087999999999
 20
119.6471
 30
0.0
 11
104.7206
 21
118.6471
 31
0.0
  0
LINE
  5
4A6
330
1E
100
AcDbEntity
  8
0
100
AcDbLine
 10
99.75000000000001
 20
120.0
 30
0.0
 11
102.3087999999999
 21
119.6471
 31
0.0
  0
LINE
  5
4A7
330
1E
100
AcDbEntity
  8
0
100
AcDbLine
 10
109.7499999999999
 20
110.0
 30
0.0
 11
109.7499999999999
 21
36.0
 31
0.0
  0
LINE
  5
4A8
330
1E
100
AcDbEntity
  8
0
100
AcDbLine
 10
25.75
 20
26.0
 30
0.0
 11
71.75
 21
26.0
 31
0.0
  0
LINE
  5
4A9
330
1E
100
AcDbEntity
  8
0
100
AcDbLine
 10
23.19118
 20
26.3529
 30
0.0
 11
25.75
 21
26.0
 31
0.0
  0
LINE
  5
4AE
330
1E
100
AcDbEntity
  8
0
100
AcDbLine
 10
18.16176666669389
 20
116.362733333369
 30
0.0
 11
18.69118
 21
117.0588
 31
0.0
  0
LINE
  5
4AF
330
1E
100
AcDbEntity
  8
0
100
AcDbLine
 10
109.7499999999999
 20
36.0
 30
0.0
 11
109.3799237913465
 21
33.43824737976581
 31
0.0
  0
LINE
  5
4B0
330
1E
100
AcDbEntity
  8
0
100
AcDbLine
 10
109.3799237913465
 20
33.43824737976581
 30
0.0
 11
108.3952551293099
 21
31.04723700142574
 31
0.0
  0
LINE
  5
4B1
330
1E
100
AcDbEntity
  8
0
100
AcDbLine
 10
108.3952551293099
 20
31.04723700142574
 30
0.0
 11
106.8387024615192
 21
28.99411231611606
 31
0.0
  0
LINE
  5
4B2
330
1E
100
AcDbEntity
  8
0
100
AcDbLine
 10
106.8387024615192
 20
28.99411231611606
 30
0.0
 11
104.7206
 21
27.3529
 31
0.0
  0
LINE
  5
4B3
330
1E
100
AcDbEntity
  8
0
100
AcDbLine
 10
18.69118
 20
28.9412
 30
0.0
 11
18.161766666735
 21
29.6372666665769
 31
0.0
  0
LINE
  5
4B4
330
1E
100
AcDbEntity
  8
0
100
AcDbLine
 10
10.25
 20
66.82949999999999
 30
0.0
 11
10.25
 21
49.5
 31
0.0
  0
LINE
  5
4B5
330
1E
100
AcDbEntity
  8
0
100
AcDbLine
 10
10.25
 20
96.82949999999999
 30
0.0
 11
10.25
 21
79.5
 31
0.0
  0
LINE
  5
4B6
330
1E
100
AcDbEntity
  8
0
100
AcDbLine
 10
4.316699999999999
 20
88.0
 30
0.0
 11
4.41
 21
90.40550000000001
 31
0.0
  0
LINE
  5
4B7
330
1E
100
AcDbEntity
  8
0
100
AcDbLine
 10
10.09
 20
90.40550000000001
 30
0.0
 11
10.18332999999999
 21
88.0
 31
0.0
  0
LINE
  5
4B8
330
1E
100
AcDbEntity
  8
0
100
AcDbLine
 10
13.82143
 20
90.2909
 30
0.0
 11
13.82143
 21
88.0
 31
0.0
  0
LINE
  5
4B9
330
1E
100
AcDbEntity
  8
0
100
AcDbLine
 10
4.25
 20
90.2909
 30
0.0
 11
4.25
 21
88.0
 31
0.0
  0
LINE
  5
4BA
330
1E
100
AcDbEntity
  8
0
100
AcDbLine
 10
0.3653999999999989
 20
90.15
 30
0.0
 11
0.3653999999999989
 21
88.0
 31
0.0
  0
LINE
  5
4BB
330
1E
100
AcDbEntity
  8
0
100
AcDbLine
 10
0.250000000000002
 20
90.09999999999999
 30
0.0
 11
0.250000000000002
 21
88.0
 31
0.0
  0
LINE
  5
4BC
330
1E
100
AcDbEntity
  8
0
100
AcDbLine
 10
4.25
 20
88.0
 30
0.0
 11
4.25
 21
90.175
 31
0.0
  0
LINE
  5
4BD
330
1E
100
AcDbEntity
  8
0
100
AcDbLine
 10
4.25
 20
88.0
 30
0.0
 11
4.25
 21
90.2909
 31
0.0
  0
LINE
  5
4BE
330
1E
100
AcDbEntity
  8
0
100
AcDbLine
 10
13.88595
 20
88.0
 30
0.0
 11
13.97627
 21
90.40550000000001
 31
0.0
  0
LINE
  5
4BF
330
1E
100
AcDbEntity
  8
0
100
AcDbLine
 10
13.82143
 20
88.0
 30
0.0
 11
13.82143
 21
90.175
 31
0.0
  0
LINE
  5
4C0
330
1E
100
AcDbEntity
  8
0
100
AcDbLine
 10
13.82143
 20
88.0
 30
0.0
 11
13.82143
 21
90.2909
 31
0.0
  0
LINE
  5
4C1
330
1E
100
AcDbEntity
  8
0
100
AcDbLine
 10
0.3653999999999989
 20
88.0
 30
0.0
 11
0.3653999999999989
 21
90.15
 31
0.0
  0
LINE
  5
4C2
330
1E
100
AcDbEntity
  8
0
100
AcDbLine
 10
0.250000000000002
 20
88.0
 30
0.0
 11
0.250000000000002
 21
90.09999999999999
 31
0.0
  0
LINE
  5
4C3
330
1E
100
AcDbEntity
  8
0
100
AcDbLine
 10
0.596200000000001
 20
79.5
 30
0.0
 11
4.25
 21
79.5
 31
0.0
  0
LINE
  5
4C4
330
1E
100
AcDbEntity
  8
0
100
AcDbLine
 10
0.3653999999999989
 20
80.75000000000001
 30
0.0
 11
0.3653999999999989
 21
79.92499999999999
 31
0.0
  0
LINE
  5
4C5
330
1E
100
AcDbEntity
  8
0
100
AcDbLine
 10
0.250000000000002
 20
80.975
 30
0.0
 11
0.250000000000002
 21
80.175
 31
0.0
  0
LINE
  5
4C6
330
1E
100
AcDbEntity
  8
0
100
AcDbLine
 10
0.3653999999999989
 20
79.92499999999999
 30
0.0
 11
0.3653999999999989
 21
80.75000000000001
 31
0.0
  0
LINE
  5
4C7
330
1E
100
AcDbEntity
  8
0
100
AcDbLine
 10
0.250000000000002
 20
80.175
 30
0.0
 11
0.250000000000002
 21
80.975
 31
0.0
  0
LINE
  5
4C8
330
1E
100
AcDbEntity
  8
0
100
AcDbLine
 10
0.3653999999999989
 20
79.625
 30
0.0
 11
0.3653999999999989
 21
79.92499999999999
 31
0.0
  0
LINE
  5
4C9
330
1E
100
AcDbEntity
  8
0
100
AcDbLine
 10
0.3653999999999989
 20
79.625
 30
0.0
 11
0.596200000000001
 21
79.5
 31
0.0
  0
LINE
  5
4CA
330
1E
100
AcDbEntity
  8
0
100
AcDbLine
 10
0.250000000000002
 20
79.875
 30
0.0
 11
0.250000000000002
 21
80.175
 31
0.0
  0
LINE
  5
4CB
330
1E
100
AcDbEntity
  8
0
100
AcDbLine
 10
0.250000000000002
 20
79.875
 30
0.0
 11
0.3653999999999989
 21
79.625
 31
0.0
  0
LINE
  5
4CC
330
1E
100
AcDbEntity
  8
0
100
AcDbLine
 10
0.3653999999999989
 20
79.92499999999999
 30
0.0
 11
0.3653999999999989
 21
79.625
 31
0.0
  0
LINE
  5
4CD
330
1E
100
AcDbEntity
  8
0
100
AcDbLine
 10
0.250000000000002
 20
80.175
 30
0.0
 11
0.250000000000002
 21
79.875
 31
0.0
  0
LINE
  5
4CE
330
1E
100
AcDbEntity
  8
0
100
AcDbLine
 10
0.3653999999999989
 20
85.84999999999999
 30
0.0
 11
0.3653999999999989
 21
83.825
 31
0.0
  0
LINE
  5
4CF
330
1E
100
AcDbEntity
  8
0
100
AcDbLine
 10
0.250000000000002
 20
85.90000000000001
 30
0.0
 11
0.250000000000002
 21
83.95000000000001
 31
0.0
  0
LINE
  5
4D0
330
1E
100
AcDbEntity
  8
0
100
AcDbLine
 10
0.3653999999999989
 20
83.825
 30
0.0
 11
0.3653999999999989
 21
85.84999999999999
 31
0.0
  0
LINE
  5
4D1
330
1E
100
AcDbEntity
  8
0
100
AcDbLine
 10
0.250000000000002
 20
83.95000000000001
 30
0.0
 11
0.250000000000002
 21
85.90000000000001
 31
0.0
  0
LINE
  5
4D2
330
1E
100
AcDbEntity
  8
0
100
AcDbLine
 10
0.3653999999999989
 20
82.07500000000001
 30
0.0
 11
0.3653999999999989
 21
83.825
 31
0.0
  0
LINE
  5
4D3
330
1E
100
AcDbEntity
  8
0
100
AcDbLine
 10
0.250000000000002
 20
82.24999999999999
 30
0.0
 11
0.250000000000002
 21
83.95000000000001
 31
0.0
  0
LINE
  5
4D4
330
1E
100
AcDbEntity
  8
0
100
AcDbLine
 10
0.3653999999999989
 20
83.825
 30
0.0
 11
0.3653999999999989
 21
82.07500000000001
 31
0.0
  0
LINE
  5
4D5
330
1E
100
AcDbEntity
  8
0
100
AcDbLine
 10
0.250000000000002
 20
83.95000000000001
 30
0.0
 11
0.250000000000002
 21
82.24999999999999
 31
0.0
  0
LINE
  5
4D6
330
1E
100
AcDbEntity
  8
0
100
AcDbLine
 10
0.3653999999999989
 20
80.75000000000001
 30
0.0
 11
0.3653999999999989
 21
82.07500000000001
 31
0.0
  0
LINE
  5
4D7
330
1E
100
AcDbEntity
  8
0
100
AcDbLine
 10
0.3653999999999989
 20
82.07500000000001
 30
0.0
 11
0.3653999999999989
 21
80.75000000000001
 31
0.0
  0
LINE
  5
4D8
330
1E
100
AcDbEntity
  8
0
100
AcDbLine
 10
0.250000000000002
 20
82.24999999999999
 30
0.0
 11
0.250000000000002
 21
80.975
 31
0.0
  0
LINE
  5
4D9
330
1E
100
AcDbEntity
  8
0
100
AcDbLine
 10
0.250000000000002
 20
80.975
 30
0.0
 11
0.250000000000002
 21
82.24999999999999
 31
0.0
  0
LINE
  5
4DA
330
1E
100
AcDbEntity
  8
0
100
AcDbLine
 10
0.3653999999999989
 20
88.0
 30
0.0
 11
0.3653999999999989
 21
85.84999999999999
 31
0.0
  0
LINE
  5
4DB
330
1E
100
AcDbEntity
  8
0
100
AcDbLine
 10
0.3653999999999989
 20
85.84999999999999
 30
0.0
 11
0.3653999999999989
 21
88.0
 31
0.0
  0
LINE
  5
4DC
330
1E
100
AcDbEntity
  8
0
100
AcDbLine
 10
0.250000000000002
 20
88.0
 30
0.0
 11
0.250000000000002
 21
85.90000000000001
 31
0.0
  0
LINE
  5
4DD
330
1E
100
AcDbEntity
  8
0
100
AcDbLine
 10
0.250000000000002
 20
85.90000000000001
 30
0.0
 11
0.250000000000002
 21
88.0
 31
0.0
  0
LINE
  5
4DE
330
1E
100
AcDbEntity
  8
0
100
AcDbLine
 10
10.25
 20
79.5
 30
0.0
 11
13.82143
 21
79.5
 31
0.0
  0
LINE
  5
4DF
330
1E
100
AcDbEntity
  8
0
100
AcDbLine
 10
10.00758
 20
81.2227
 30
0.0
 11
10.11525
 21
79.94559999999999
 31
0.0
  0
LINE
  5
4E0
330
1E
100
AcDbEntity
  8
0
100
AcDbLine
 10
4.384699999999999
 20
79.94559999999999
 30
0.0
 11
4.492399999999999
 21
81.2227
 31
0.0
  0
LINE
  5
4E1
330
1E
100
AcDbEntity
  8
0
100
AcDbLine
 10
4.25
 20
80.3636
 30
0.0
 11
4.25
 21
81.7477
 31
0.0
  0
LINE
  5
4E2
330
1E
100
AcDbEntity
  8
0
100
AcDbLine
 10
4.25
 20
81.7477
 30
0.0
 11
4.25
 21
80.3636
 31
0.0
  0
LINE
  5
4E3
330
1E
100
AcDbEntity
  8
0
100
AcDbLine
 10
4.25
 20
79.8
 30
0.0
 11
4.25
 21
80.65000000000001
 31
0.0
  0
LINE
  5
4E4
330
1E
100
AcDbEntity
  8
0
100
AcDbLine
 10
5.5833
 20
77.5
 30
0.0
 11
8.916669999999999
 21
77.5
 31
0.0
  0
LINE
  5
4E5
330
1E
100
AcDbEntity
  8
0
100
AcDbLine
 10
4.916699999999999
 20
77.73859999999999
 30
0.0
 11
5.5833
 21
77.5
 31
0.0
  0
LINE
  5
4E6
330
1E
100
AcDbEntity
  8
0
100
AcDbLine
 10
4.529099999999999
 20
78.67539999999999
 30
0.0
 11
4.916699999999999
 21
77.9017
 31
0.0
  0
LINE
  5
4E7
330
1E
100
AcDbEntity
  8
0
100
AcDbLine
 10
4.45
 20
78.45449999999999
 30
0.0
 11
4.916699999999999
 21
77.73859999999999
 31
0.0
  0
LINE
  5
4E8
330
1E
100
AcDbEntity
  8
0
100
AcDbLine
 10
4.916699999999999
 20
77.9017
 30
0.0
 11
4.916699999999999
 21
77.73859999999999
 31
0.0
  0
LINE
  5
4E9
330
1E
100
AcDbEntity
  8
0
100
AcDbLine
 10
4.916699999999999
 20
77.73859999999999
 30
0.0
 11
4.916699999999999
 21
77.9017
 31
0.0
  0
LINE
  5
4EA
330
1E
100
AcDbEntity
  8
0
100
AcDbLine
 10
4.384699999999999
 20
79.94559999999999
 30
0.0
 11
4.529099999999999
 21
78.67539999999999
 31
0.0
  0
LINE
  5
4EB
330
1E
100
AcDbEntity
  8
0
100
AcDbLine
 10
4.25
 20
79.1705
 30
0.0
 11
4.25
 21
79.5
 31
0.0
  0
LINE
  5
4EC
330
1E
100
AcDbEntity
  8
0
100
AcDbLine
 10
4.25
 20
79.1705
 30
0.0
 11
4.45
 21
78.45449999999999
 31
0.0
  0
LINE
  5
4ED
330
1E
100
AcDbEntity
  8
0
100
AcDbLine
 10
4.25
 20
79.50460000000001
 30
0.0
 11
4.25
 21
80.3636
 31
0.0
  0
LINE
  5
4EE
330
1E
100
AcDbEntity
  8
0
100
AcDbLine
 10
4.25
 20
80.3636
 30
0.0
 11
4.25
 21
79.50460000000001
 31
0.0
  0
LINE
  5
4EF
330
1E
100
AcDbEntity
  8
0
100
AcDbLine
 10
4.25
 20
79.5
 30
0.0
 11
4.25
 21
79.8
 31
0.0
  0
LINE
  5
4F0
330
1E
100
AcDbEntity
  8
0
100
AcDbLine
 10
4.25
 20
79.5
 30
0.0
 11
4.25
 21
79.1705
 31
0.0
  0
LINE
  5
4F1
330
1E
100
AcDbEntity
  8
0
100
AcDbLine
 10
9.58333
 20
77.9017
 30
0.0
 11
9.97093
 21
78.67539999999999
 31
0.0
  0
LINE
  5
4F2
330
1E
100
AcDbEntity
  8
0
100
AcDbLine
 10
9.58333
 20
77.73859999999999
 30
0.0
 11
10.05
 21
78.45449999999999
 31
0.0
  0
LINE
  5
4F3
330
1E
100
AcDbEntity
  8
0
100
AcDbLine
 10
9.58333
 20
77.9017
 30
0.0
 11
9.58333
 21
77.73859999999999
 31
0.0
  0
LINE
  5
4F4
330
1E
100
AcDbEntity
  8
0
100
AcDbLine
 10
9.58333
 20
77.73859999999999
 30
0.0
 11
9.58333
 21
77.9017
 31
0.0
  0
LINE
  5
4F5
330
1E
100
AcDbEntity
  8
0
100
AcDbLine
 10
8.916669999999999
 20
77.5
 30
0.0
 11
9.58333
 21
77.73859999999999
 31
0.0
  0
LINE
  5
4F6
330
1E
100
AcDbEntity
  8
0
100
AcDbLine
 10
10.25
 20
79.1705
 30
0.0
 11
10.25
 21
79.50460000000001
 31
0.0
  0
LINE
  5
4F7
330
1E
100
AcDbEntity
  8
0
100
AcDbLine
 10
10.25
 20
79.50460000000001
 30
0.0
 11
10.25
 21
79.1705
 31
0.0
  0
LINE
  5
4F8
330
1E
100
AcDbEntity
  8
0
100
AcDbLine
 10
9.97093
 20
78.67539999999999
 30
0.0
 11
10.11525
 21
79.94559999999999
 31
0.0
  0
LINE
  5
4F9
330
1E
100
AcDbEntity
  8
0
100
AcDbLine
 10
10.05
 20
78.45449999999999
 30
0.0
 11
10.25
 21
79.1705
 31
0.0
  0
LINE
  5
4FA
330
1E
100
AcDbEntity
  8
0
100
AcDbLine
 10
5.5833
 20
82.7367
 30
0.0
 11
8.916669999999999
 21
82.7367
 31
0.0
  0
LINE
  5
4FB
330
1E
100
AcDbEntity
  8
0
100
AcDbLine
 10
4.41
 20
85.5945
 30
0.0
 11
4.916699999999999
 21
83.36590000000001
 31
0.0
  0
LINE
  5
4FC
330
1E
100
AcDbEntity
  8
0
100
AcDbLine
 10
4.25
 20
85.70910000000001
 30
0.0
 11
4.25
 21
83.6091
 31
0.0
  0
LINE
  5
4FD
330
1E
100
AcDbEntity
  8
0
100
AcDbLine
 10
4.25
 20
83.6091
 30
0.0
 11
4.25
 21
85.70910000000001
 31
0.0
  0
LINE
  5
4FE
330
1E
100
AcDbEntity
  8
0
100
AcDbLine
 10
4.25
 20
83.77500000000001
 30
0.0
 11
4.25
 21
85.82500000000001
 31
0.0
  0
LINE
  5
4FF
330
1E
100
AcDbEntity
  8
0
100
AcDbLine
 10
4.916699999999999
 20
83.36590000000001
 30
0.0
 11
4.916699999999999
 21
82.89320000000001
 31
0.0
  0
LINE
  5
500
330
1E
100
AcDbEntity
  8
0
100
AcDbLine
 10
4.916699999999999
 20
82.89320000000001
 30
0.0
 11
4.916699999999999
 21
83.36590000000001
 31
0.0
  0
LINE
  5
501
330
1E
100
AcDbEntity
  8
0
100
AcDbLine
 10
4.25
 20
83.6091
 30
0.0
 11
4.25
 21
81.7477
 31
0.0
  0
LINE
  5
502
330
1E
100
AcDbEntity
  8
0
100
AcDbLine
 10
4.25
 20
81.7477
 30
0.0
 11
4.25
 21
83.6091
 31
0.0
  0
LINE
  5
503
330
1E
100
AcDbEntity
  8
0
100
AcDbLine
 10
4.25
 20
82.0
 30
0.0
 11
4.25
 21
83.77500000000001
 31
0.0
  0
LINE
  5
504
330
1E
100
AcDbEntity
  8
0
100
AcDbLine
 10
4.492399999999999
 20
81.2227
 30
0.0
 11
4.916699999999999
 21
82.11719999999999
 31
0.0
  0
LINE
  5
505
330
1E
100
AcDbEntity
  8
0
100
AcDbLine
 10
4.25
 20
80.65000000000001
 30
0.0
 11
4.25
 21
82.0
 31
0.0
  0
LINE
  5
506
330
1E
100
AcDbEntity
  8
0
100
AcDbLine
 10
4.916699999999999
 20
82.11719999999999
 30
0.0
 11
4.916699999999999
 21
82.89320000000001
 31
0.0
  0
LINE
  5
507
330
1E
100
AcDbEntity
  8
0
100
AcDbLine
 10
4.916699999999999
 20
82.89320000000001
 30
0.0
 11
4.916699999999999
 21
82.11719999999999
 31
0.0
  0
LINE
  5
508
330
1E
100
AcDbEntity
  8
0
100
AcDbLine
 10
4.316699999999999
 20
88.0
 30
0.0
 11
4.41
 21
85.5945
 31
0.0
  0
LINE
  5
509
330
1E
100
AcDbEntity
  8
0
100
AcDbLine
 10
4.25
 20
88.0
 30
0.0
 11
4.25
 21
85.70910000000001
 31
0.0
  0
LINE
  5
50A
330
1E
100
AcDbEntity
  8
0
100
AcDbLine
 10
4.25
 20
85.70910000000001
 30
0.0
 11
4.25
 21
88.0
 31
0.0
  0
LINE
  5
50B
330
1E
100
AcDbEntity
  8
0
100
AcDbLine
 10
4.25
 20
85.82500000000001
 30
0.0
 11
4.25
 21
88.0
 31
0.0
  0
LINE
  5
50C
330
1E
100
AcDbEntity
  8
0
100
AcDbLine
 10
9.58333
 20
83.36590000000001
 30
0.0
 11
10.09
 21
85.5945
 31
0.0
  0
LINE
  5
50D
330
1E
100
AcDbEntity
  8
0
100
AcDbLine
 10
9.58333
 20
82.11719999999999
 30
0.0
 11
10.00758
 21
81.2227
 31
0.0
  0
LINE
  5
50E
330
1E
100
AcDbEntity
  8
0
100
AcDbLine
 10
9.58333
 20
83.36590000000001
 30
0.0
 11
9.58333
 21
82.89320000000001
 31
0.0
  0
LINE
  5
50F
330
1E
100
AcDbEntity
  8
0
100
AcDbLine
 10
9.58333
 20
82.89320000000001
 30
0.0
 11
9.58333
 21
83.36590000000001
 31
0.0
  0
LINE
  5
510
330
1E
100
AcDbEntity
  8
0
100
AcDbLine
 10
9.58333
 20
82.11719999999999
 30
0.0
 11
9.58333
 21
82.89320000000001
 31
0.0
  0
LINE
  5
511
330
1E
100
AcDbEntity
  8
0
100
AcDbLine
 10
9.58333
 20
82.89320000000001
 30
0.0
 11
9.58333
 21
82.11719999999999
 31
0.0
  0
LINE
  5
512
330
1E
100
AcDbEntity
  8
0
100
AcDbLine
 10
10.09
 20
85.5945
 30
0.0
 11
10.18332999999999
 21
88.0
 31
0.0
  0
LINE
  5
513
330
1E
100
AcDbEntity
  8
0
100
AcDbLine
 10
13.82143
 20
81.7477
 30
0.0
 11
13.82143
 21
80.3636
 31
0.0
  0
LINE
  5
514
330
1E
100
AcDbEntity
  8
0
100
AcDbLine
 10
13.95182
 20
79.94559999999999
 30
0.0
 11
14.05601
 21
81.2227
 31
0.0
  0
LINE
  5
515
330
1E
100
AcDbEntity
  8
0
100
AcDbLine
 10
13.82143
 20
80.3636
 30
0.0
 11
13.82143
 21
81.7477
 31
0.0
  0
LINE
  5
516
330
1E
100
AcDbEntity
  8
0
100
AcDbLine
 10
13.82143
 20
79.8
 30
0.0
 11
13.82143
 21
80.65000000000001
 31
0.0
  0
LINE
  5
517
330
1E
100
AcDbEntity
  8
0
100
AcDbLine
 10
14.0915
 20
78.67539999999999
 30
0.0
 11
14.46659
 21
77.9017
 31
0.0
  0
LINE
  5
518
330
1E
100
AcDbEntity
  8
0
100
AcDbLine
 10
14.01498
 20
78.45449999999999
 30
0.0
 11
14.46659
 21
77.73859999999999
 31
0.0
  0
LINE
  5
519
330
1E
100
AcDbEntity
  8
0
100
AcDbLine
 10
13.95182
 20
79.94559999999999
 30
0.0
 11
14.0915
 21
78.67539999999999
 31
0.0
  0
LINE
  5
51A
330
1E
100
AcDbEntity
  8
0
100
AcDbLine
 10
13.82143
 20
80.3636
 30
0.0
 11
13.82143
 21
79.50460000000001
 31
0.0
  0
LINE
  5
51B
330
1E
100
AcDbEntity
  8
0
100
AcDbLine
 10
13.82143
 20
79.50460000000001
 30
0.0
 11
13.82143
 21
80.3636
 31
0.0
  0
LINE
  5
51C
330
1E
100
AcDbEntity
  8
0
100
AcDbLine
 10
13.82143
 20
79.5
 30
0.0
 11
13.82143
 21
79.8
 31
0.0
  0
LINE
  5
51D
330
1E
100
AcDbEntity
  8
0
100
AcDbLine
 10
13.82143
 20
79.5
 30
0.0
 11
13.82143
 21
79.1705
 31
0.0
  0
LINE
  5
51E
330
1E
100
AcDbEntity
  8
0
100
AcDbLine
 10
13.82143
 20
79.1705
 30
0.0
 11
13.82143
 21
79.5
 31
0.0
  0
LINE
  5
51F
330
1E
100
AcDbEntity
  8
0
100
AcDbLine
 10
13.82143
 20
79.1705
 30
0.0
 11
14.01498
 21
78.45449999999999
 31
0.0
  0
LINE
  5
520
330
1E
100
AcDbEntity
  8
0
100
AcDbLine
 10
15.11175
 20
77.5
 30
0.0
 11
15.75
 21
77.5
 31
0.0
  0
LINE
  5
521
330
1E
100
AcDbEntity
  8
0
100
AcDbLine
 10
14.46659
 20
77.9017
 30
0.0
 11
14.46659
 21
77.73859999999999
 31
0.0
  0
LINE
  5
522
330
1E
100
AcDbEntity
  8
0
100
AcDbLine
 10
14.46659
 20
77.73859999999999
 30
0.0
 11
15.11175
 21
77.5
 31
0.0
  0
LINE
  5
523
330
1E
100
AcDbEntity
  8
0
100
AcDbLine
 10
14.46659
 20
77.73859999999999
 30
0.0
 11
14.46659
 21
77.9017
 31
0.0
  0
LINE
  5
524
330
1E
100
AcDbEntity
  8
0
100
AcDbLine
 10
13.97627
 20
85.5945
 30
0.0
 11
14.46659
 21
83.36590000000001
 31
0.0
  0
LINE
  5
525
330
1E
100
AcDbEntity
  8
0
100
AcDbLine
 10
13.82143
 20
85.70910000000001
 30
0.0
 11
13.82143
 21
83.6091
 31
0.0
  0
LINE
  5
526
330
1E
100
AcDbEntity
  8
0
100
AcDbLine
 10
13.82143
 20
83.6091
 30
0.0
 11
13.82143
 21
85.70910000000001
 31
0.0
  0
LINE
  5
527
330
1E
100
AcDbEntity
  8
0
100
AcDbLine
 10
13.82143
 20
83.77500000000001
 30
0.0
 11
13.82143
 21
85.82500000000001
 31
0.0
  0
LINE
  5
528
330
1E
100
AcDbEntity
  8
0
100
AcDbLine
 10
14.05601
 20
81.2227
 30
0.0
 11
14.46659
 21
82.11719999999999
 31
0.0
  0
LINE
  5
529
330
1E
100
AcDbEntity
  8
0
100
AcDbLine
 10
13.82143
 20
83.6091
 30
0.0
 11
13.82143
 21
81.7477
 31
0.0
  0
LINE
  5
52A
330
1E
100
AcDbEntity
  8
0
100
AcDbLine
 10
13.82143
 20
81.7477
 30
0.0
 11
13.82143
 21
83.6091
 31
0.0
  0
LINE
  5
52B
330
1E
100
AcDbEntity
  8
0
100
AcDbLine
 10
13.82143
 20
82.0
 30
0.0
 11
13.82143
 21
83.77500000000001
 31
0.0
  0
LINE
  5
52C
330
1E
100
AcDbEntity
  8
0
100
AcDbLine
 10
13.82143
 20
80.65000000000001
 30
0.0
 11
13.82143
 21
82.0
 31
0.0
  0
LINE
  5
52D
330
1E
100
AcDbEntity
  8
0
100
AcDbLine
 10
14.46659
 20
83.36590000000001
 30
0.0
 11
14.46659
 21
82.89320000000001
 31
0.0
  0
LINE
  5
52E
330
1E
100
AcDbEntity
  8
0
100
AcDbLine
 10
14.46659
 20
82.89320000000001
 30
0.0
 11
14.46659
 21
83.36590000000001
 31
0.0
  0
LINE
  5
52F
330
1E
100
AcDbEntity
  8
0
100
AcDbLine
 10
14.46659
 20
82.89320000000001
 30
0.0
 11
14.46659
 21
82.11719999999999
 31
0.0
  0
LINE
  5
530
330
1E
100
AcDbEntity
  8
0
100
AcDbLine
 10
14.46659
 20
82.11719999999999
 30
0.0
 11
14.46659
 21
82.89320000000001
 31
0.0
  0
LINE
  5
531
330
1E
100
AcDbEntity
  8
0
100
AcDbLine
 10
13.88595
 20
88.0
 30
0.0
 11
13.97627
 21
85.5945
 31
0.0
  0
LINE
  5
532
330
1E
100
AcDbEntity
  8
0
100
AcDbLine
 10
13.82143
 20
88.0
 30
0.0
 11
13.82143
 21
85.70910000000001
 31
0.0
  0
LINE
  5
533
330
1E
100
AcDbEntity
  8
0
100
AcDbLine
 10
13.82143
 20
85.70910000000001
 30
0.0
 11
13.82143
 21
88.0
 31
0.0
  0
LINE
  5
534
330
1E
100
AcDbEntity
  8
0
100
AcDbLine
 10
13.82143
 20
85.82500000000001
 30
0.0
 11
13.82143
 21
88.0
 31
0.0
  0
LINE
  5
535
330
1E
100
AcDbEntity
  8
0
100
AcDbLine
 10
0.596200000000001
 20
96.5
 30
0.0
 11
4.25
 21
96.5
 31
0.0
  0
LINE
  5
536
330
1E
100
AcDbEntity
  8
0
100
AcDbLine
 10
0.3653999999999989
 20
95.25
 30
0.0
 11
0.3653999999999989
 21
93.925
 31
0.0
  0
LINE
  5
537
330
1E
100
AcDbEntity
  8
0
100
AcDbLine
 10
0.250000000000002
 20
95.02500000000001
 30
0.0
 11
0.250000000000002
 21
93.75
 31
0.0
  0
LINE
  5
538
330
1E
100
AcDbEntity
  8
0
100
AcDbLine
 10
0.3653999999999989
 20
93.925
 30
0.0
 11
0.3653999999999989
 21
95.25
 31
0.0
  0
LINE
  5
539
330
1E
100
AcDbEntity
  8
0
100
AcDbLine
 10
0.250000000000002
 20
93.75
 30
0.0
 11
0.250000000000002
 21
95.02500000000001
 31
0.0
  0
LINE
  5
53A
330
1E
100
AcDbEntity
  8
0
100
AcDbLine
 10
0.3653999999999989
 20
93.925
 30
0.0
 11
0.3653999999999989
 21
92.17499999999999
 31
0.0
  0
LINE
  5
53B
330
1E
100
AcDbEntity
  8
0
100
AcDbLine
 10
0.250000000000002
 20
93.75
 30
0.0
 11
0.250000000000002
 21
92.05
 31
0.0
  0
LINE
  5
53C
330
1E
100
AcDbEntity
  8
0
100
AcDbLine
 10
0.3653999999999989
 20
92.17499999999999
 30
0.0
 11
0.3653999999999989
 21
93.925
 31
0.0
  0
LINE
  5
53D
330
1E
100
AcDbEntity
  8
0
100
AcDbLine
 10
0.250000000000002
 20
92.05
 30
0.0
 11
0.250000000000002
 21
93.75
 31
0.0
  0
LINE
  5
53E
330
1E
100
AcDbEntity
  8
0
100
AcDbLine
 10
0.3653999999999989
 20
92.17499999999999
 30
0.0
 11
0.3653999999999989
 21
90.15
 31
0.0
  0
LINE
  5
53F
330
1E
100
AcDbEntity
  8
0
100
AcDbLine
 10
0.250000000000002
 20
92.05
 30
0.0
 11
0.250000000000002
 21
90.09999999999999
 31
0.0
  0
LINE
  5
540
330
1E
100
AcDbEntity
  8
0
100
AcDbLine
 10
0.3653999999999989
 20
90.15
 30
0.0
 11
0.3653999999999989
 21
92.17499999999999
 31
0.0
  0
LINE
  5
541
330
1E
100
AcDbEntity
  8
0
100
AcDbLine
 10
0.250000000000002
 20
90.09999999999999
 30
0.0
 11
0.250000000000002
 21
92.05
 31
0.0
  0
LINE
  5
542
330
1E
100
AcDbEntity
  8
0
100
AcDbLine
 10
0.3653999999999989
 20
96.37500000000001
 30
0.0
 11
0.596200000000001
 21
96.5
 31
0.0
  0
LINE
  5
543
330
1E
100
AcDbEntity
  8
0
100
AcDbLine
 10
0.3653999999999989
 20
96.37500000000001
 30
0.0
 11
0.3653999999999989
 21
96.07500000000001
 31
0.0
  0
LINE
  5
544
330
1E
100
AcDbEntity
  8
0
100
AcDbLine
 10
0.3653999999999989
 20
96.07500000000001
 30
0.0
 11
0.3653999999999989
 21
96.37500000000001
 31
0.0
  0
LINE
  5
545
330
1E
100
AcDbEntity
  8
0
100
AcDbLine
 10
0.3653999999999989
 20
96.07500000000001
 30
0.0
 11
0.3653999999999989
 21
95.25
 31
0.0
  0
LINE
  5
546
330
1E
100
AcDbEntity
  8
0
100
AcDbLine
 10
0.250000000000002
 20
96.125
 30
0.0
 11
0.3653999999999989
 21
96.37500000000001
 31
0.0
  0
LINE
  5
547
330
1E
100
AcDbEntity
  8
0
100
AcDbLine
 10
0.250000000000002
 20
96.125
 30
0.0
 11
0.250000000000002
 21
95.82500000000001
 31
0.0
  0
LINE
  5
548
330
1E
100
AcDbEntity
  8
0
100
AcDbLine
 10
0.250000000000002
 20
95.82500000000001
 30
0.0
 11
0.250000000000002
 21
96.125
 31
0.0
  0
LINE
  5
549
330
1E
100
AcDbEntity
  8
0
100
AcDbLine
 10
0.250000000000002
 20
95.82500000000001
 30
0.0
 11
0.250000000000002
 21
95.02500000000001
 31
0.0
  0
LINE
  5
54A
330
1E
100
AcDbEntity
  8
0
100
AcDbLine
 10
0.3653999999999989
 20
95.25
 30
0.0
 11
0.3653999999999989
 21
96.07500000000001
 31
0.0
  0
LINE
  5
54B
330
1E
100
AcDbEntity
  8
0
100
AcDbLine
 10
0.250000000000002
 20
95.02500000000001
 30
0.0
 11
0.250000000000002
 21
95.82500000000001
 31
0.0
  0
LINE
  5
54C
330
1E
100
AcDbEntity
  8
0
100
AcDbLine
 10
10.25
 20
96.5
 30
0.0
 11
13.82143
 21
96.5
 31
0.0
  0
LINE
  5
54D
330
1E
100
AcDbEntity
  8
0
100
AcDbLine
 10
5.5833
 20
93.2633
 30
0.0
 11
8.916669999999999
 21
93.2633
 31
0.0
  0
LINE
  5
54E
330
1E
100
AcDbEntity
  8
0
100
AcDbLine
 10
5.5833
 20
98.50000000000001
 30
0.0
 11
8.916669999999999
 21
98.50000000000001
 31
0.0
  0
LINE
  5
54F
330
1E
100
AcDbEntity
  8
0
100
AcDbLine
 10
4.25
 20
95.63639999999999
 30
0.0
 11
4.25
 21
94.2523
 31
0.0
  0
LINE
  5
550
330
1E
100
AcDbEntity
  8
0
100
AcDbLine
 10
4.492399999999999
 20
94.77729999999999
 30
0.0
 11
4.916699999999999
 21
93.88279999999999
 31
0.0
  0
LINE
  5
551
330
1E
100
AcDbEntity
  8
0
100
AcDbLine
 10
4.25
 20
94.2523
 30
0.0
 11
4.25
 21
95.63639999999999
 31
0.0
  0
LINE
  5
552
330
1E
100
AcDbEntity
  8
0
100
AcDbLine
 10
4.25
 20
94.0
 30
0.0
 11
4.25
 21
95.35
 31
0.0
  0
LINE
  5
553
330
1E
100
AcDbEntity
  8
0
100
AcDbLine
 10
4.41
 20
90.40550000000001
 30
0.0
 11
4.916699999999999
 21
92.63409999999998
 31
0.0
  0
LINE
  5
554
330
1E
100
AcDbEntity
  8
0
100
AcDbLine
 10
4.25
 20
92.3909
 30
0.0
 11
4.25
 21
90.2909
 31
0.0
  0
LINE
  5
555
330
1E
100
AcDbEntity
  8
0
100
AcDbLine
 10
4.25
 20
92.225
 30
0.0
 11
4.25
 21
94.0
 31
0.0
  0
LINE
  5
556
330
1E
100
AcDbEntity
  8
0
100
AcDbLine
 10
4.25
 20
90.2909
 30
0.0
 11
4.25
 21
92.3909
 31
0.0
  0
LINE
  5
557
330
1E
100
AcDbEntity
  8
0
100
AcDbLine
 10
4.25
 20
90.175
 30
0.0
 11
4.25
 21
92.225
 31
0.0
  0
LINE
  5
558
330
1E
100
AcDbEntity
  8
0
100
AcDbLine
 10
4.916699999999999
 20
92.63409999999998
 30
0.0
 11
4.916699999999999
 21
93.10679999999999
 31
0.0
  0
LINE
  5
559
330
1E
100
AcDbEntity
  8
0
100
AcDbLine
 10
4.916699999999999
 20
93.88279999999999
 30
0.0
 11
4.916699999999999
 21
93.10679999999999
 31
0.0
  0
LINE
  5
55A
330
1E
100
AcDbEntity
  8
0
100
AcDbLine
 10
4.916699999999999
 20
93.10679999999999
 30
0.0
 11
4.916699999999999
 21
93.88279999999999
 31
0.0
  0
LINE
  5
55B
330
1E
100
AcDbEntity
  8
0
100
AcDbLine
 10
4.916699999999999
 20
93.10679999999999
 30
0.0
 11
4.916699999999999
 21
92.63409999999998
 31
0.0
  0
LINE
  5
55C
330
1E
100
AcDbEntity
  8
0
100
AcDbLine
 10
4.916699999999999
 20
98.2614
 30
0.0
 11
5.5833
 21
98.50000000000001
 31
0.0
  0
LINE
  5
55D
330
1E
100
AcDbEntity
  8
0
100
AcDbLine
 10
4.25
 20
96.82949999999999
 30
0.0
 11
4.45
 21
97.54550000000001
 31
0.0
  0
LINE
  5
55E
330
1E
100
AcDbEntity
  8
0
100
AcDbLine
 10
4.384699999999999
 20
96.05440000000001
 30
0.0
 11
4.529099999999999
 21
97.32460000000001
 31
0.0
  0
LINE
  5
55F
330
1E
100
AcDbEntity
  8
0
100
AcDbLine
 10
4.25
 20
96.49550000000001
 30
0.0
 11
4.25
 21
95.63639999999999
 31
0.0
  0
LINE
  5
560
330
1E
100
AcDbEntity
  8
0
100
AcDbLine
 10
4.25
 20
96.82949999999999
 30
0.0
 11
4.25
 21
96.5
 31
0.0
  0
LINE
  5
561
330
1E
100
AcDbEntity
  8
0
100
AcDbLine
 10
4.25
 20
96.5
 30
0.0
 11
4.25
 21
96.82949999999999
 31
0.0
  0
LINE
  5
562
330
1E
100
AcDbEntity
  8
0
100
AcDbLine
 10
4.25
 20
95.63639999999999
 30
0.0
 11
4.25
 21
96.49550000000001
 31
0.0
  0
LINE
  5
563
330
1E
100
AcDbEntity
  8
0
100
AcDbLine
 10
4.384699999999999
 20
96.05440000000001
 30
0.0
 11
4.492399999999999
 21
94.77729999999999
 31
0.0
  0
LINE
  5
564
330
1E
100
AcDbEntity
  8
0
100
AcDbLine
 10
4.25
 20
96.2
 30
0.0
 11
4.25
 21
96.5
 31
0.0
  0
LINE
  5
565
330
1E
100
AcDbEntity
  8
0
100
AcDbLine
 10
4.25
 20
95.35
 30
0.0
 11
4.25
 21
96.2
 31
0.0
  0
LINE
  5
566
330
1E
100
AcDbEntity
  8
0
100
AcDbLine
 10
4.45
 20
97.54550000000001
 30
0.0
 11
4.916699999999999
 21
98.2614
 31
0.0
  0
LINE
  5
567
330
1E
100
AcDbEntity
  8
0
100
AcDbLine
 10
4.529099999999999
 20
97.32460000000001
 30
0.0
 11
4.916699999999999
 21
98.09829999999999
 31
0.0
  0
LINE
  5
568
330
1E
100
AcDbEntity
  8
0
100
AcDbLine
 10
4.916699999999999
 20
98.2614
 30
0.0
 11
4.916699999999999
 21
98.09829999999999
 31
0.0
  0
LINE
  5
569
330
1E
100
AcDbEntity
  8
0
100
AcDbLine
 10
4.916699999999999
 20
98.09829999999999
 30
0.0
 11
4.916699999999999
 21
98.2614
 31
0.0
  0
LINE
  5
56A
330
1E
100
AcDbEntity
  8
0
100
AcDbLine
 10
9.58333
 20
93.88279999999999
 30
0.0
 11
10.00758
 21
94.77729999999999
 31
0.0
  0
LINE
  5
56B
330
1E
100
AcDbEntity
  8
0
100
AcDbLine
 10
9.58333
 20
92.63409999999998
 30
0.0
 11
10.09
 21
90.40550000000001
 31
0.0
  0
LINE
  5
56C
330
1E
100
AcDbEntity
  8
0
100
AcDbLine
 10
9.58333
 20
92.63409999999998
 30
0.0
 11
9.58333
 21
93.10679999999999
 31
0.0
  0
LINE
  5
56D
330
1E
100
AcDbEntity
  8
0
100
AcDbLine
 10
9.58333
 20
93.88279999999999
 30
0.0
 11
9.58333
 21
93.10679999999999
 31
0.0
  0
LINE
  5
56E
330
1E
100
AcDbEntity
  8
0
100
AcDbLine
 10
9.58333
 20
93.10679999999999
 30
0.0
 11
9.58333
 21
92.63409999999998
 31
0.0
  0
LINE
  5
56F
330
1E
100
AcDbEntity
  8
0
100
AcDbLine
 10
9.58333
 20
93.10679999999999
 30
0.0
 11
9.58333
 21
93.88279999999999
 31
0.0
  0
LINE
  5
570
330
1E
100
AcDbEntity
  8
0
100
AcDbLine
 10
9.58333
 20
98.09829999999999
 30
0.0
 11
9.97093
 21
97.32460000000001
 31
0.0
  0
LINE
  5
571
330
1E
100
AcDbEntity
  8
0
100
AcDbLine
 10
9.58333
 20
98.2614
 30
0.0
 11
10.05
 21
97.54550000000001
 31
0.0
  0
LINE
  5
572
330
1E
100
AcDbEntity
  8
0
100
AcDbLine
 10
9.58333
 20
98.09829999999999
 30
0.0
 11
9.58333
 21
98.2614
 31
0.0
  0
LINE
  5
573
330
1E
100
AcDbEntity
  8
0
100
AcDbLine
 10
9.58333
 20
98.2614
 30
0.0
 11
9.58333
 21
98.09829999999999
 31
0.0
  0
LINE
  5
574
330
1E
100
AcDbEntity
  8
0
100
AcDbLine
 10
8.916669999999999
 20
98.50000000000001
 30
0.0
 11
9.58333
 21
98.2614
 31
0.0
  0
LINE
  5
575
330
1E
100
AcDbEntity
  8
0
100
AcDbLine
 10
9.97093
 20
97.32460000000001
 30
0.0
 11
10.11525
 21
96.05440000000001
 31
0.0
  0
LINE
  5
576
330
1E
100
AcDbEntity
  8
0
100
AcDbLine
 10
10.05
 20
97.54550000000001
 30
0.0
 11
10.25
 21
96.82949999999999
 31
0.0
  0
LINE
  5
577
330
1E
100
AcDbEntity
  8
0
100
AcDbLine
 10
10.00758
 20
94.77729999999999
 30
0.0
 11
10.11525
 21
96.05440000000001
 31
0.0
  0
LINE
  5
578
330
1E
100
AcDbEntity
  8
0
100
AcDbLine
 10
14.05601
 20
94.77729999999999
 30
0.0
 11
14.46659
 21
93.88279999999999
 31
0.0
  0
LINE
  5
579
330
1E
100
AcDbEntity
  8
0
100
AcDbLine
 10
13.82143
 20
95.63639999999999
 30
0.0
 11
13.82143
 21
94.2523
 31
0.0
  0
LINE
  5
57A
330
1E
100
AcDbEntity
  8
0
100
AcDbLine
 10
13.82143
 20
94.2523
 30
0.0
 11
13.82143
 21
95.63639999999999
 31
0.0
  0
LINE
  5
57B
330
1E
100
AcDbEntity
  8
0
100
AcDbLine
 10
13.82143
 20
94.0
 30
0.0
 11
13.82143
 21
95.35
 31
0.0
  0
LINE
  5
57C
330
1E
100
AcDbEntity
  8
0
100
AcDbLine
 10
13.97627
 20
90.40550000000001
 30
0.0
 11
14.46659
 21
92.63409999999998
 31
0.0
  0
LINE
  5
57D
330
1E
100
AcDbEntity
  8
0
100
AcDbLine
 10
13.82143
 20
90.2909
 30
0.0
 11
13.82143
 21
92.3909
 31
0.0
  0
LINE
  5
57E
330
1E
100
AcDbEntity
  8
0
100
AcDbLine
 10
13.82143
 20
92.3909
 30
0.0
 11
13.82143
 21
90.2909
 31
0.0
  0
LINE
  5
57F
330
1E
100
AcDbEntity
  8
0
100
AcDbLine
 10
13.82143
 20
92.225
 30
0.0
 11
13.82143
 21
94.0
 31
0.0
  0
LINE
  5
580
330
1E
100
AcDbEntity
  8
0
100
AcDbLine
 10
13.82143
 20
90.175
 30
0.0
 11
13.82143
 21
92.225
 31
0.0
  0
LINE
  5
581
330
1E
100
AcDbEntity
  8
0
100
AcDbLine
 10
14.46659
 20
92.63409999999998
 30
0.0
 11
14.46659
 21
93.10679999999999
 31
0.0
  0
LINE
  5
582
330
1E
100
AcDbEntity
  8
0
100
AcDbLine
 10
14.46659
 20
93.88279999999999
 30
0.0
 11
14.46659
 21
93.10679999999999
 31
0.0
  0
LINE
  5
583
330
1E
100
AcDbEntity
  8
0
100
AcDbLine
 10
14.46659
 20
93.10679999999999
 30
0.0
 11
14.46659
 21
93.88279999999999
 31
0.0
  0
LINE
  5
584
330
1E
100
AcDbEntity
  8
0
100
AcDbLine
 10
14.46659
 20
93.10679999999999
 30
0.0
 11
14.46659
 21
92.63409999999998
 31
0.0
  0
LINE
  5
585
330
1E
100
AcDbEntity
  8
0
100
AcDbLine
 10
14.0915
 20
97.32460000000001
 30
0.0
 11
14.46659
 21
98.09829999999999
 31
0.0
  0
LINE
  5
586
330
1E
100
AcDbEntity
  8
0
100
AcDbLine
 10
14.01498
 20
97.54550000000001
 30
0.0
 11
14.46659
 21
98.2614
 31
0.0
  0
LINE
  5
587
330
1E
100
AcDbEntity
  8
0
100
AcDbLine
 10
13.82143
 20
96.82949999999999
 30
0.0
 11
14.01498
 21
97.54550000000001
 31
0.0
  0
LINE
  5
588
330
1E
100
AcDbEntity
  8
0
100
AcDbLine
 10
13.95182
 20
96.05440000000001
 30
0.0
 11
14.0915
 21
97.32460000000001
 31
0.0
  0
LINE
  5
589
330
1E
100
AcDbEntity
  8
0
100
AcDbLine
 10
13.82143
 20
96.49550000000001
 30
0.0
 11
13.82143
 21
95.63639999999999
 31
0.0
  0
LINE
  5
58A
330
1E
100
AcDbEntity
  8
0
100
AcDbLine
 10
13.82143
 20
96.82949999999999
 30
0.0
 11
13.82143
 21
96.5
 31
0.0
  0
LINE
  5
58B
330
1E
100
AcDbEntity
  8
0
100
AcDbLine
 10
13.82143
 20
96.5
 30
0.0
 11
13.82143
 21
96.82949999999999
 31
0.0
  0
LINE
  5
58C
330
1E
100
AcDbEntity
  8
0
100
AcDbLine
 10
13.82143
 20
96.2
 30
0.0
 11
13.82143
 21
96.5
 31
0.0
  0
LINE
  5
58D
330
1E
100
AcDbEntity
  8
0
100
AcDbLine
 10
13.82143
 20
95.63639999999999
 30
0.0
 11
13.82143
 21
96.49550000000001
 31
0.0
  0
LINE
  5
58E
330
1E
100
AcDbEntity
  8
0
100
AcDbLine
 10
13.95182
 20
96.05440000000001
 30
0.0
 11
14.05601
 21
94.77729999999999
 31
0.0
  0
LINE
  5
58F
330
1E
100
AcDbEntity
  8
0
100
AcDbLine
 10
13.82143
 20
95.35
 30
0.0
 11
13.82143
 21
96.2
 31
0.0
  0
LINE
  5
590
330
1E
100
AcDbEntity
  8
0
100
AcDbLine
 10
15.11175
 20
98.50000000000001
 30
0.0
 11
15.75
 21
98.50000000000001
 31
0.0
  0
LINE
  5
591
330
1E
100
AcDbEntity
  8
0
100
AcDbLine
 10
14.46659
 20
98.2614
 30
0.0
 11
15.11175
 21
98.50000000000001
 31
0.0
  0
LINE
  5
592
330
1E
100
AcDbEntity
  8
0
100
AcDbLine
 10
14.46659
 20
98.2614
 30
0.0
 11
14.46659
 21
98.09829999999999
 31
0.0
  0
LINE
  5
593
330
1E
100
AcDbEntity
  8
0
100
AcDbLine
 10
14.46659
 20
98.09829999999999
 30
0.0
 11
14.46659
 21
98.2614
 31
0.0
  0
ENDSEC
  0
SECTION
  2
OBJECTS
  0
DICTIONARY
  5
C
330
0
100
AcDbDictionary
  3
ACAD_GROUP
350
D
  3
ACAD_LAYOUT
350
19
  3
ACAD_MLINESTYLE
350
16
  3
ACAD_PLOTSETTINGS
350
18
  3
ACAD_PLOTSTYLENAME
350
E
  3
ACDBHEADERROUNDTRIPXREC
350
598
  3
ACDBVARIABLEDICTIONARY
350
595
  0
DICTIONARY
  5
5BA
330
1E
100
AcDbDictionary
280
     1
  3
ACAD_LAYOUTSELFREF
360
5BB
  0
DICTIONARY
  5
5B8
330
1A
100
AcDbDictionary
280
     1
  3
ACAD_LAYOUTSELFREF
360
5B9
  0
DICTIONARY
  5
D
102
{ACAD_REACTORS
330
C
102
}
330
C
100
AcDbDictionary
  0
DICTIONARY
  5
19
102
{ACAD_REACTORS
330
C
102
}
330
C
100
AcDbDictionary
  0
DICTIONARY
  5
16
102
{ACAD_REACTORS
330
C
102
}
330
C
100
AcDbDictionary
  3
STANDARD
350
17
  0
DICTIONARY
  5
18
102
{ACAD_REACTORS
330
C
102
}
330
C
100
AcDbDictionary
  0
ACDBDICTIONARYWDFLT
  5
E
102
{ACAD_REACTORS
330
C
102
}
330
C
100
AcDbDictionary
281
     1
  3
Normal
350
F
100
AcDbDictionaryWithDefault
340
F
  0
DICTIONARY
  5
598
102
{ACAD_REACTORS
330
C
102
}
330
C
100
AcDbDictionary
  3
CEPSNTYPE
350
5A2
  3
FINGERPRINTGUID
350
5A3
  3
HYPERLINKBASE
350
59B
  3
INSUNITS
350
5A1
  3
LAYOUTDICT
350
59D
  3
LWETCUNION
350
5A0
  3
PLOTSETDICT
350
59E
  3
PLOTSTYLNAMDICT
350
59F
  3
PSVPSCALE
350
5A5
  3
PUCSBASE
350
5A8
  3
PUCSORGBACK
350
5AE
  3
PUCSORGBOTTOM
350
5AA
  3
PUCSORGFRONT
350
5AD
  3
PUCSORGLEFT
350
5AB
  3
PUCSORGRIGHT
350
5AC
  3
PUCSORGTOP
350
5A9
  3
PUCSORTHOREF
350
5A6
  3
PUCSORTHOVIEW
350
5A7
  3
STYLESHEET
350
59C
  3
TSTACKALIGN
350
599
  3
TSTACKSIZE
350
59A
  3
UCSBASE
350
5B1
  3
UCSORGBACK
350
5B7
  3
UCSORGBOTTOM
350
5B3
  3
UCSORGFRONT
350
5B6
  3
UCSORGLEFT
350
5B4
  3
UCSORGRIGHT
350
5B5
  3
UCSORGTOP
350
5B2
  3
UCSORTHOREF
350
5AF
  3
UCSORTHOVIEW
350
5B0
  3
VERSIONGUID
350
5A4
  0
DICTIONARY
  5
595
102
{ACAD_REACTORS
330
C
102
}
330
C
100
AcDbDictionary
  3
DIMASSOC
350
596
  0
XRECORD
  5
5BB
102
{ACAD_REACTORS
330
5BA
102
}
330
5BA
100
AcDbXrecord
340
1E
  0
XRECORD
  5
5B9
102
{ACAD_REACTORS
330
5B8
102
}
330
5B8
100
AcDbXrecord
340
1A
  0
MLINESTYLE
  5
17
102
{ACAD_REACTORS
330
16
102
}
330
16
100
AcDbMlineStyle
  2
STANDARD
 70
     0
  3

 62
   256
 51
90.0
 52
90.0
 71
     2
 49
0.5
 62
   256
  6
BYLAYER
 49
-0.5
 62
   256
  6
BYLAYER
  0
ACDBPLACEHOLDER
  5
F
102
{ACAD_REACTORS
330
E
102
}
330
E
100
AcDbPlaceHolder
280
     0
  0
XRECORD
  5
5A2
102
{ACAD_REACTORS
330
598
102
}
330
598
100
AcDbXrecord
 90
        0
  0
XRECORD
  5
5A3
102
{ACAD_REACTORS
330
598
102
}
330
598
100
AcDbXrecord
  1
{0E71CEAC-6516-4C2D-A3FD-193E17477494}
  0
XRECORD
  5
59B
102
{ACAD_REACTORS
330
598
102
}
330
598
100
AcDbXrecord
  1

  0
XRECORD
  5
5A1
102
{ACAD_REACTORS
330
598
102
}
330
598
100
AcDbXrecord
 90
        0
  0
XRECORD
  5
59D
102
{ACAD_REACTORS
330
598
102
}
330
598
100
AcDbXrecord
340
19
  0
XRECORD
  5
5A0
102
{ACAD_REACTORS
330
598
102
}
330
598
100
AcDbXrecord
 90
    10781
  0
XRECORD
  5
59E
102
{ACAD_REACTORS
330
598
102
}
330
598
100
AcDbXrecord
340
18
  0
XRECORD
  5
59F
102
{ACAD_REACTORS
330
598
102
}
330
598
100
AcDbXrecord
340
E
  0
XRECORD
  5
5A5
102
{ACAD_REACTORS
330
598
102
}
330
598
100
AcDbXrecord
 40
0.0
  0
XRECORD
  5
5A8
102
{ACAD_REACTORS
330
598
102
}
330
598
100
AcDbXrecord
340
0
  0
XRECORD
  5
5AE
102
{ACAD_REACTORS
330
598
102
}
330
598
100
AcDbXrecord
 10
0.0
 20
0.0
 30
0.0
  0
XRECORD
  5
5AA
102
{ACAD_REACTORS
330
598
102
}
330
598
100
AcDbXrecord
 10
0.0
 20
0.0
 30
0.0
  0
XRECORD
  5
5AD
102
{ACAD_REACTORS
330
598
102
}
330
598
100
AcDbXrecord
 10
0.0
 20
0.0
 30
0.0
  0
XRECORD
  5
5AB
102
{ACAD_REACTORS
330
598
102
}
330
598
100
AcDbXrecord
 10
0.0
 20
0.0
 30
0.0
  0
XRECORD
  5
5AC
102
{ACAD_REACTORS
330
598
102
}
330
598
100
AcDbXrecord
 10
0.0
 20
0.0
 30
0.0
  0
XRECORD
  5
5A9
102
{ACAD_REACTORS
330
598
102
}
330
598
100
AcDbXrecord
 10
0.0
 20
0.0
 30
0.0
  0
XRECORD
  5
5A6
102
{ACAD_REACTORS
330
598
102
}
330
598
100
AcDbXrecord
340
0
  0
XRECORD
  5
5A7
102
{ACAD_REACTORS
330
598
102
}
330
598
100
AcDbXrecord
 70
     0
  0
XRECORD
  5
59C
102
{ACAD_REACTORS
330
598
102
}
330
598
100
AcDbXrecord
  1

  0
XRECORD
  5
599
102
{ACAD_REACTORS
330
598
102
}
330
598
100
AcDbXrecord
 90
        1
  0
XRECORD
  5
59A
102
{ACAD_REACTORS
330
598
102
}
330
598
100
AcDbXrecord
 90
       70
  0
XRECORD
  5
5B1
102
{ACAD_REACTORS
330
598
102
}
330
598
100
AcDbXrecord
340
0
  0
XRECORD
  5
5B7
102
{ACAD_REACTORS
330
598
102
}
330
598
100
AcDbXrecord
 10
0.0
 20
0.0
 30
0.0
  0
XRECORD
  5
5B3
102
{ACAD_REACTORS
330
598
102
}
330
598
100
AcDbXrecord
 10
0.0
 20
0.0
 30
0.0
  0
XRECORD
  5
5B6
102
{ACAD_REACTORS
330
598
102
}
330
598
100
AcDbXrecord
 10
0.0
 20
0.0
 30
0.0
  0
XRECORD
  5
5B4
102
{ACAD_REACTORS
330
598
102
}
330
598
100
AcDbXrecord
 10
0.0
 20
0.0
 30
0.0
  0
XRECORD
  5
5B5
102
{ACAD_REACTORS
330
598
102
}
330
598
100
AcDbXrecord
 10
0.0
 20
0.0
 30
0.0
  0
XRECORD
  5
5B2
102
{ACAD_REACTORS
330
598
102
}
330
598
100
AcDbXrecord
 10
0.0
 20
0.0
 30
0.0
  0
XRECORD
  5
5AF
102
{ACAD_REACTORS
330
598
102
}
330
598
100
AcDbXrecord
340
0
  0
XRECORD
  5
5B0
102
{ACAD_REACTORS
330
598
102
}
330
598
100
AcDbXrecord
 70
     1
  0
XRECORD
  5
5A4
102
{ACAD_REACTORS
330
598
102
}
330
598
100
AcDbXrecord
  1
{A408BA11-EFD5-434D-B742-3BFE45788108}
  0
DICTIONARYVAR
  5
596
102
{ACAD_REACTORS
330
595
102
}
330
595
100
DictionaryVariables
280
     0
  1
1
  0
ENDSEC
  0
EOF
