  0
SECTION
  2
HEADER
  9
$ACADVER
  1
AC1014
  9
$ACADMAINTVER
 70
     9
  9
$DWGCODEPAGE
  3
ANSI_1252
  9
$INSBASE
 10
0.0
 20
0.0
 30
0.0
  9
$EXTMIN
 10
0.0767649999999961
 20
0.249999999999993
 30
0.0
  9
$EXTMAX
 10
99.92323500000001
 20
80.75000000000001
 30
0.0
  9
$LIMMIN
 10
0.0
 20
0.0
  9
$LIMMAX
 10
12.0
 20
9.0
  9
$ORTHOMODE
 70
     0
  9
$REGENMODE
 70
     1
  9
$FILLMODE
 70
     1
  9
$QTEXTMODE
 70
     0
  9
$MIRRTEXT
 70
     1
  9
$DRAGMODE
 70
     2
  9
$LTSCALE
 40
1.0
  9
$OSMODE
 70
    37
  9
$ATTMODE
 70
     1
  9
$TEXTSIZE
 40
0.2
  9
$TRACEWID
 40
0.05
  9
$TEXTSTYLE
  7
STANDARD
  9
$CLAYER
  8
0
  9
$CELTYPE
  6
CONTINUOUS
  9
$CECOLOR
 62
   256
  9
$CELTSCALE
 40
1.0
  9
$DELOBJ
 70
     1
  9
$DISPSILH
 70
     0
  9
$DIMSCALE
 40
1.0
  9
$DIMASZ
 40
0.18
  9
$DIMEXO
 40
0.0625
  9
$DIMDLI
 40
0.38
  9
$DIMRND
 40
0.0
  9
$DIMDLE
 40
0.0
  9
$DIMEXE
 40
0.18
  9
$DIMTP
 40
0.0
  9
$DIMTM
 40
0.0
  9
$DIMTXT
 40
0.18
  9
$DIMCEN
 40
0.09
  9
$DIMTSZ
 40
0.0
  9
$DIMTOL
 70
     0
  9
$DIMLIM
 70
     0
  9
$DIMTIH
 70
     1
  9
$DIMTOH
 70
     1
  9
$DIMSE1
 70
     0
  9
$DIMSE2
 70
     0
  9
$DIMTAD
 70
     0
  9
$DIMZIN
 70
     0
  9
$DIMBLK
  1

  9
$DIMASO
 70
     1
  9
$DIMSHO
 70
     1
  9
$DIMPOST
  1

  9
$DIMAPOST
  1

  9
$DIMALT
 70
     0
  9
$DIMALTD
 70
     2
  9
$DIMALTF
 40
25.4
  9
$DIMLFAC
 40
1.0
  9
$DIMTOFL
 70
     0
  9
$DIMTVP
 40
0.0
  9
$DIMTIX
 70
     0
  9
$DIMSOXD
 70
     0
  9
$DIMSAH
 70
     0
  9
$DIMBLK1
  1

  9
$DIMBLK2
  1

  9
$DIMSTYLE
  2
STANDARD
  9
$DIMCLRD
 70
     0
  9
$DIMCLRE
 70
     0
  9
$DIMCLRT
 70
     0
  9
$DIMTFAC
 40
1.0
  9
$DIMGAP
 40
0.09
  9
$DIMJUST
 70
     0
  9
$DIMSD1
 70
     0
  9
$DIMSD2
 70
     0
  9
$DIMTOLJ
 70
     1
  9
$DIMTZIN
 70
     0
  9
$DIMALTZ
 70
     0
  9
$DIMALTTZ
 70
     0
  9
$DIMFIT
 70
     3
  9
$DIMUPT
 70
     0
  9
$DIMUNIT
 70
     2
  9
$DIMDEC
 70
     4
  9
$DIMTDEC
 70
     4
  9
$DIMALTU
 70
     2
  9
$DIMALTTD
 70
     2
  9
$DIMTXSTY
  7
STANDARD
  9
$DIMAUNIT
 70
     0
  9
$LUNITS
 70
     2
  9
$LUPREC
 70
     4
  9
$SKETCHINC
 40
0.1
  9
$FILLETRAD
 40
0.0
  9
$AUNITS
 70
     0
  9
$AUPREC
 70
     0
  9
$MENU
  1
.
  9
$ELEVATION
 40
0.0
  9
$PELEVATION
 40
0.0
  9
$THICKNESS
 40
0.0
  9
$LIMCHECK
 70
     0
  9
$BLIPMODE
 70
     0
  9
$CHAMFERA
 40
0.0
  9
$CHAMFERB
 40
0.0
  9
$CHAMFERC
 40
0.0
  9
$CHAMFERD
 40
0.0
  9
$SKPOLY
 70
     0
  9
$TDCREATE
 40
2454761.857063252
  9
$TDUPDATE
 40
2455235.758377997
  9
$TDINDWG
 40
0.0022515278
  9
$TDUSRTIMER
 40
0.0022513426
  9
$USRTIMER
 70
     1
  9
$ANGBASE
 50
0.0
  9
$ANGDIR
 70
     0
  9
$PDMODE
 70
     0
  9
$PDSIZE
 40
0.0
  9
$PLINEWID
 40
0.0
  9
$COORDS
 70
     1
  9
$SPLFRAME
 70
     0
  9
$SPLINETYPE
 70
     6
  9
$SPLINESEGS
 70
     8
  9
$ATTDIA
 70
     0
  9
$ATTREQ
 70
     1
  9
$HANDLING
 70
 22529
  9
$HANDSEED
  5
1DF
  9
$SURFTAB1
 70
     6
  9
$SURFTAB2
 70
     6
  9
$SURFTYPE
 70
     6
  9
$SURFU
 70
     6
  9
$SURFV
 70
     6
  9
$UCSNAME
  2

  9
$UCSORG
 10
0.0
 20
0.0
 30
0.0
  9
$UCSXDIR
 10
1.0
 20
0.0
 30
0.0
  9
$UCSYDIR
 10
0.0
 20
1.0
 30
0.0
  9
$PUCSNAME
  2

  9
$PUCSORG
 10
0.0
 20
0.0
 30
0.0
  9
$PUCSXDIR
 10
1.0
 20
0.0
 30
0.0
  9
$PUCSYDIR
 10
0.0
 20
1.0
 30
0.0
  9
$USERI1
 70
     0
  9
$USERI2
 70
     0
  9
$USERI3
 70
     0
  9
$USERI4
 70
     0
  9
$USERI5
 70
     0
  9
$USERR1
 40
0.0
  9
$USERR2
 40
0.0
  9
$USERR3
 40
0.0
  9
$USERR4
 40
0.0
  9
$USERR5
 40
0.0
  9
$WORLDVIEW
 70
     1
  9
$SHADEDGE
 70
     3
  9
$SHADEDIF
 70
    70
  9
$TILEMODE
 70
     1
  9
$MAXACTVP
 70
    64
  9
$PINSBASE
 10
0.0
 20
0.0
 30
0.0
  9
$PLIMCHECK
 70
     0
  9
$PEXTMIN
 10
1.000000000000000E+20
 20
1.000000000000000E+20
 30
1.000000000000000E+20
  9
$PEXTMAX
 10
-1.000000000000000E+20
 20
-1.000000000000000E+20
 30
-1.000000000000000E+20
  9
$PLIMMIN
 10
0.0
 20
0.0
  9
$PLIMMAX
 10
12.0
 20
9.0
  9
$UNITMODE
 70
     0
  9
$VISRETAIN
 70
     1
  9
$PLINEGEN
 70
     0
  9
$PSLTSCALE
 70
     1
  9
$TREEDEPTH
 70
  3020
  9
$PICKSTYLE
 70
     1
  9
$CMLSTYLE
  2
STANDARD
  9
$CMLJUST
 70
     0
  9
$CMLSCALE
 40
1.0
  9
$PROXYGRAPHICS
 70
     1
  9
$MEASUREMENT
 70
     0
  0
ENDSEC
  0
SECTION
  2
CLASSES
  0
CLASS
  1
ACDBDICTIONARYWDFLT
  2
AcDbDictionaryWithDefault
  3
AutoCAD 2000
 90
        0
280
     0
281
     0
  0
CLASS
  1
ACDBPLACEHOLDER
  2
AcDbPlaceHolder
  3
AutoCAD 2000
 90
        0
280
     0
281
     0
  0
CLASS
  1
LAYOUT
  2
AcDbLayout
  3
AutoCAD 2000
 90
        0
280
     0
281
     0
  0
CLASS
  1
DICTIONARYVAR
  2
AcDbDictionaryVar
  3
AutoCAD 2000
 90
        0
280
     0
281
     0
  0
CLASS
  1
LONG_TRANSACTION
  2
AcDbLongTransaction
  3
AutoCAD 2000
 90
        0
280
     0
281
     0
  0
CLASS
  1
LWPOLYLINE
  2
AcDbPolyline
  3
AutoCAD 2000
 90
        0
280
     0
281
     1
  0
CLASS
  1
HATCH
  2
AcDbHatch
  3
AutoCAD 2000
 90
        0
280
     0
281
     1
  0
CLASS
  1
XRECORD
  2
AcDbXrecord
  3
AutoCAD 2000
 90
        0
280
     0
281
     0
  0
ENDSEC
  0
SECTION
  2
TABLES
  0
TABLE
  2
VPORT
  5
8
330
0
100
AcDbSymbolTable
 70
     3
  0
VPORT
  5
1BA
330
8
100
AcDbSymbolTableRecord
100
AcDbViewportTableRecord
  2
*ACTIVE
 70
     0
 10
0.0
 20
0.0
 11
1.0
 21
1.0
 12
50.0
 22
40.49999999999999
 13
0.0
 23
0.0
 14
1.0
 24
1.0
 15
0.0
 25
0.0
 16
0.0
 26
0.0
 36
1.0
 17
0.0
 27
0.0
 37
0.0
 40
81.02844638949674
 41
2.041621029572836
 42
50.0
 43
0.0
 44
0.0
 50
0.0
 51
0.0
 71
     0
 72
   100
 73
     1
 74
     3
 75
     0
 76
     0
 77
     0
 78
     0
  0
ENDTAB
  0
TABLE
  2
LTYPE
  5
5
330
0
100
AcDbSymbolTable
 70
     1
  0
LTYPE
  5
13
330
5
100
AcDbSymbolTableRecord
100
AcDbLinetypeTableRecord
  2
BYBLOCK
 70
     0
  3

 72
    65
 73
     0
 40
0.0
  0
LTYPE
  5
14
330
5
100
AcDbSymbolTableRecord
100
AcDbLinetypeTableRecord
  2
BYLAYER
 70
     0
  3

 72
    65
 73
     0
 40
0.0
  0
LTYPE
  5
15
330
5
100
AcDbSymbolTableRecord
100
AcDbLinetypeTableRecord
  2
CONTINUOUS
 70
     0
  3
Solid line
 72
    65
 73
     0
 40
0.0
  0
ENDTAB
  0
TABLE
  2
LAYER
  5
2
330
0
100
AcDbSymbolTable
 70
     1
  0
LAYER
  5
10
330
2
100
AcDbSymbolTableRecord
100
AcDbLayerTableRecord
  2
0
 70
     0
 62
     7
  6
CONTINUOUS
  0
ENDTAB
  0
TABLE
  2
STYLE
  5
3
330
0
100
AcDbSymbolTable
 70
     1
  0
STYLE
  5
11
330
3
100
AcDbSymbolTableRecord
100
AcDbTextStyleTableRecord
  2
STANDARD
 70
     0
 40
0.0
 41
1.0
 50
0.0
 71
     0
 42
0.2
  3
txt
  4

  0
ENDTAB
  0
TABLE
  2
VIEW
  5
6
330
0
100
AcDbSymbolTable
 70
     0
  0
ENDTAB
  0
TABLE
  2
UCS
  5
7
330
0
100
AcDbSymbolTable
 70
     0
  0
ENDTAB
  0
TABLE
  2
APPID
  5
9
330
0
100
AcDbSymbolTable
 70
     1
  0
APPID
  5
12
330
9
100
AcDbSymbolTableRecord
100
AcDbRegAppTableRecord
  2
ACAD
 70
     0
  0
ENDTAB
  0
TABLE
  2
DIMSTYLE
  5
A
330
0
100
AcDbSymbolTable
 70
     1
  0
DIMSTYLE
105
1A2
330
A
100
AcDbSymbolTableRecord
100
AcDbDimStyleTableRecord
  2
STANDARD
 70
     0
  3

  4

  5

  6

  7

 40
1.0
 41
0.18
 42
0.0625
 43
0.38
 44
0.18
 45
0.0
 46
0.0
 47
0.0
 48
0.0
140
0.18
141
0.09
142
0.0
143
25.4
144
1.0
145
0.0
146
1.0
147
0.09
 71
     0
 72
     0
 73
     1
 74
     1
 75
     0
 76
     0
 77
     0
 78
     0
170
     0
171
     2
172
     0
173
     0
174
     0
175
     0
176
     0
177
     0
178
     0
270
     2
271
     4
272
     4
273
     2
274
     2
340
11
275
     0
280
     0
281
     0
282
     0
283
     1
284
     0
285
     0
286
     0
287
     3
288
     0
  0
ENDTAB
  0
TABLE
  2
BLOCK_RECORD
  5
1
330
0
100
AcDbSymbolTable
 70
     0
  0
BLOCK_RECORD
  5
1E
102
{ACAD_XDICTIONARY
360
1DD
102
}
330
1
100
AcDbSymbolTableRecord
100
AcDbBlockTableRecord
  2
*MODEL_SPACE
  0
BLOCK_RECORD
  5
1A
102
{ACAD_XDICTIONARY
360
1DB
102
}
330
1
100
AcDbSymbolTableRecord
100
AcDbBlockTableRecord
  2
*PAPER_SPACE
  0
ENDTAB
  0
ENDSEC
  0
SECTION
  2
BLOCKS
  0
BLOCK
  5
1F
330
1E
100
AcDbEntity
  8
0
100
AcDbBlockBegin
  2
*MODEL_SPACE
 70
     0
 10
0.0
 20
0.0
 30
0.0
  3
*MODEL_SPACE
  1

  0
ENDBLK
  5
20
330
1E
100
AcDbEntity
  8
0
100
AcDbBlockEnd
  0
BLOCK
  5
1B
330
1A
100
AcDbEntity
 67
     1
  8
0
100
AcDbBlockBegin
  2
*PAPER_SPACE
 70
     0
 10
0.0
 20
0.0
 30
0.0
  3
*PAPER_SPACE
  1

  0
ENDBLK
  5
1C
330
1A
100
AcDbEntity
 67
     1
  8
0
100
AcDbBlockEnd
  0
ENDSEC
  0
SECTION
  2
ENTITIES
  0
LINE
  5
22
330
1E
100
AcDbEntity
  8
0
100
AcDbLine
 10
1.463745
 20
16.218
 30
0.0
 11
2.117774999999999
 21
15.92999999999999
 31
0.0
  0
LINE
  5
23
330
1E
100
AcDbEntity
  8
0
100
AcDbLine
 10
2.117774999999999
 20
15.92999999999999
 30
0.0
 11
2.311704999999999
 21
15.85799999999998
 31
0.0
  0
LINE
  5
24
330
1E
100
AcDbEntity
  8
0
100
AcDbLine
 10
2.117774999999999
 20
15.92999999999999
 30
0.0
 11
2.828184999999998
 21
15.822
 31
0.0
  0
LINE
  5
25
330
1E
100
AcDbEntity
  8
0
100
AcDbLine
 10
0.8886549999999967
 20
16.686
 30
0.0
 11
1.463745
 21
16.218
 31
0.0
  0
LINE
  5
26
330
1E
100
AcDbEntity
  8
0
100
AcDbLine
 10
0.4488749999999972
 20
17.298
 30
0.0
 11
0.8886549999999967
 21
16.686
 31
0.0
  0
LINE
  5
27
330
1E
100
AcDbEntity
  8
0
100
AcDbLine
 10
0.178244999999997
 20
17.994
 30
0.0
 11
0.4488749999999972
 21
17.298
 31
0.0
  0
LINE
  5
28
330
1E
100
AcDbEntity
  8
0
100
AcDbLine
 10
2.311704999999999
 20
15.85799999999998
 30
0.0
 11
3.033395
 21
15.75
 31
0.0
  0
LINE
  5
29
330
1E
100
AcDbEntity
  8
0
100
AcDbLine
 10
0.0767649999999961
 20
18.75
 30
0.0
 11
0.178244999999997
 21
19.506
 31
0.0
  0
LINE
  5
2A
330
1E
100
AcDbEntity
  8
0
100
AcDbLine
 10
0.0767649999999961
 20
18.75
 30
0.0
 11
0.178244999999997
 21
17.994
 31
0.0
  0
LINE
  5
2B
330
1E
100
AcDbEntity
  8
0
100
AcDbLine
 10
2.117774999999999
 20
21.57
 30
0.0
 11
2.311704999999999
 21
21.642
 31
0.0
  0
LINE
  5
2C
330
1E
100
AcDbEntity
  8
0
100
AcDbLine
 10
2.117774999999999
 20
21.57
 30
0.0
 11
2.828184999999998
 21
21.678
 31
0.0
  0
LINE
  5
2D
330
1E
100
AcDbEntity
  8
0
100
AcDbLine
 10
1.463745
 20
21.28199999999999
 30
0.0
 11
2.117774999999999
 21
21.57
 31
0.0
  0
LINE
  5
2E
330
1E
100
AcDbEntity
  8
0
100
AcDbLine
 10
0.8886549999999967
 20
20.81399999999999
 30
0.0
 11
1.463745
 21
21.28199999999999
 31
0.0
  0
LINE
  5
2F
330
1E
100
AcDbEntity
  8
0
100
AcDbLine
 10
0.4488749999999972
 20
20.202
 30
0.0
 11
0.8886549999999967
 21
20.81399999999999
 31
0.0
  0
LINE
  5
30
330
1E
100
AcDbEntity
  8
0
100
AcDbLine
 10
0.178244999999997
 20
19.506
 30
0.0
 11
0.4488749999999972
 21
20.202
 31
0.0
  0
LINE
  5
31
330
1E
100
AcDbEntity
  8
0
100
AcDbLine
 10
0.0767649999999961
 20
18.75
 30
0.0
 11
0.178244999999997
 21
19.506
 31
0.0
  0
LINE
  5
32
330
1E
100
AcDbEntity
  8
0
100
AcDbLine
 10
0.0767649999999961
 20
18.75
 30
0.0
 11
0.178244999999997
 21
17.994
 31
0.0
  0
LINE
  5
33
330
1E
100
AcDbEntity
  8
0
100
AcDbLine
 10
3.033395
 20
15.75
 30
0.0
 11
6.384735
 21
15.75
 31
0.0
  0
LINE
  5
34
330
1E
100
AcDbEntity
  8
0
100
AcDbLine
 10
2.828184999999998
 20
15.822
 30
0.0
 11
3.538594999999998
 21
15.92999999999999
 31
0.0
  0
LINE
  5
35
330
1E
100
AcDbEntity
  8
0
100
AcDbLine
 10
2.311704999999999
 20
21.642
 30
0.0
 11
3.033395
 21
21.75
 31
0.0
  0
LINE
  5
36
330
1E
100
AcDbEntity
  8
0
100
AcDbLine
 10
2.828184999999998
 20
21.678
 30
0.0
 11
3.538594999999998
 21
21.57
 31
0.0
  0
LINE
  5
37
330
1E
100
AcDbEntity
  8
0
100
AcDbLine
 10
3.538594999999998
 20
15.92999999999999
 30
0.0
 11
4.192614999999999
 21
16.218
 31
0.0
  0
LINE
  5
38
330
1E
100
AcDbEntity
  8
0
100
AcDbLine
 10
4.192614999999999
 20
16.218
 30
0.0
 11
4.767705
 21
16.686
 31
0.0
  0
LINE
  5
39
330
1E
100
AcDbEntity
  8
0
100
AcDbLine
 10
4.767705
 20
16.686
 30
0.0
 11
5.207485
 21
17.298
 31
0.0
  0
LINE
  5
3A
330
1E
100
AcDbEntity
  8
0
100
AcDbLine
 10
6.384735
 20
0.249999999999993
 30
0.0
 11
37.46173499999999
 21
0.249999999999993
 31
0.0
  0
LINE
  5
3B
330
1E
100
AcDbEntity
  8
0
100
AcDbLine
 10
38.384735
 20
0.249999999999993
 30
0.0
 11
99.461235
 21
0.249999999999993
 31
0.0
  0
LINE
  5
3C
330
1E
100
AcDbEntity
  8
0
100
AcDbLine
 10
38.384735
 20
0.249999999999993
 30
0.0
 11
99.461235
 21
0.249999999999993
 31
0.0
  0
LINE
  5
3D
330
1E
100
AcDbEntity
  8
0
100
AcDbLine
 10
38.384735
 20
0.249999999999993
 30
0.0
 11
38.384735
 21
0.9159999999999929
 31
0.0
  0
LINE
  5
3E
330
1E
100
AcDbEntity
  8
0
100
AcDbLine
 10
37.46173499999999
 20
0.249999999999993
 30
0.0
 11
37.923235
 21
0.6939999999999929
 31
0.0
  0
LINE
  5
3F
330
1E
100
AcDbEntity
  8
0
100
AcDbLine
 10
6.384735
 20
0.249999999999993
 30
0.0
 11
37.46173499999999
 21
0.249999999999993
 31
0.0
  0
LINE
  5
40
330
1E
100
AcDbEntity
  8
0
100
AcDbLine
 10
6.384735
 20
0.249999999999993
 30
0.0
 11
6.384735
 21
0.9159999999999929
 31
0.0
  0
LINE
  5
41
330
1E
100
AcDbEntity
  8
0
100
AcDbLine
 10
5.923235
 20
1.359999999999988
 30
0.0
 11
5.923235
 21
3.13599999999999
 31
0.0
  0
LINE
  5
42
330
1E
100
AcDbEntity
  8
0
100
AcDbLine
 10
5.923235
 20
1.359999999999988
 30
0.0
 11
5.923235
 21
0.6939999999999929
 31
0.0
  0
LINE
  5
43
330
1E
100
AcDbEntity
  8
0
100
AcDbLine
 10
5.923235
 20
3.13599999999999
 30
0.0
 11
5.923235
 21
6.02199999999999
 31
0.0
  0
LINE
  5
44
330
1E
100
AcDbEntity
  8
0
100
AcDbLine
 10
5.923235
 20
3.13599999999999
 30
0.0
 11
5.923235
 21
1.359999999999988
 31
0.0
  0
LINE
  5
45
330
1E
100
AcDbEntity
  8
0
100
AcDbLine
 10
5.923235
 20
1.359999999999988
 30
0.0
 11
5.923235
 21
0.6939999999999929
 31
0.0
  0
LINE
  5
46
330
1E
100
AcDbEntity
  8
0
100
AcDbLine
 10
5.923235
 20
1.359999999999988
 30
0.0
 11
5.923235
 21
3.13599999999999
 31
0.0
  0
LINE
  5
47
330
1E
100
AcDbEntity
  8
0
100
AcDbLine
 10
5.923235
 20
0.6939999999999929
 30
0.0
 11
6.384735
 21
0.249999999999993
 31
0.0
  0
LINE
  5
48
330
1E
100
AcDbEntity
  8
0
100
AcDbLine
 10
5.923235
 20
0.6939999999999929
 30
0.0
 11
5.923235
 21
1.359999999999988
 31
0.0
  0
LINE
  5
49
330
1E
100
AcDbEntity
  8
0
100
AcDbLine
 10
5.923235
 20
0.6939999999999929
 30
0.0
 11
5.923235
 21
1.359999999999988
 31
0.0
  0
LINE
  5
4A
330
1E
100
AcDbEntity
  8
0
100
AcDbLine
 10
5.923235
 20
0.6939999999999929
 30
0.0
 11
6.384735
 21
0.249999999999993
 31
0.0
  0
LINE
  5
4B
330
1E
100
AcDbEntity
  8
0
100
AcDbLine
 10
5.923235
 20
3.13599999999999
 30
0.0
 11
5.923235
 21
1.359999999999988
 31
0.0
  0
LINE
  5
4C
330
1E
100
AcDbEntity
  8
0
100
AcDbLine
 10
5.923235
 20
3.13599999999999
 30
0.0
 11
5.923235
 21
6.02199999999999
 31
0.0
  0
LINE
  5
4D
330
1E
100
AcDbEntity
  8
0
100
AcDbLine
 10
5.923235
 20
6.02199999999999
 30
0.0
 11
5.923235
 21
9.79599999999999
 31
0.0
  0
LINE
  5
4E
330
1E
100
AcDbEntity
  8
0
100
AcDbLine
 10
5.923235
 20
6.02199999999999
 30
0.0
 11
5.923235
 21
3.13599999999999
 31
0.0
  0
LINE
  5
4F
330
1E
100
AcDbEntity
  8
0
100
AcDbLine
 10
5.923235
 20
9.79599999999999
 30
0.0
 11
5.923235
 21
14.088
 31
0.0
  0
LINE
  5
50
330
1E
100
AcDbEntity
  8
0
100
AcDbLine
 10
5.923235
 20
9.79599999999999
 30
0.0
 11
5.923235
 21
6.02199999999999
 31
0.0
  0
LINE
  5
51
330
1E
100
AcDbEntity
  8
0
100
AcDbLine
 10
5.923235
 20
6.02199999999999
 30
0.0
 11
5.923235
 21
3.13599999999999
 31
0.0
  0
LINE
  5
52
330
1E
100
AcDbEntity
  8
0
100
AcDbLine
 10
5.923235
 20
6.02199999999999
 30
0.0
 11
5.923235
 21
9.79599999999999
 31
0.0
  0
LINE
  5
53
330
1E
100
AcDbEntity
  8
0
100
AcDbLine
 10
5.923235
 20
9.79599999999999
 30
0.0
 11
5.923235
 21
6.02199999999999
 31
0.0
  0
LINE
  5
54
330
1E
100
AcDbEntity
  8
0
100
AcDbLine
 10
5.923235
 20
9.79599999999999
 30
0.0
 11
5.923235
 21
14.088
 31
0.0
  0
LINE
  5
55
330
1E
100
AcDbEntity
  8
0
100
AcDbLine
 10
5.923235
 20
14.088
 30
0.0
 11
5.923235
 21
15.75
 31
0.0
  0
LINE
  5
56
330
1E
100
AcDbEntity
  8
0
100
AcDbLine
 10
5.923235
 20
14.088
 30
0.0
 11
5.923235
 21
9.79599999999999
 31
0.0
  0
LINE
  5
57
330
1E
100
AcDbEntity
  8
0
100
AcDbLine
 10
5.923235
 20
14.088
 30
0.0
 11
5.923235
 21
9.79599999999999
 31
0.0
  0
LINE
  5
58
330
1E
100
AcDbEntity
  8
0
100
AcDbLine
 10
5.923235
 20
14.088
 30
0.0
 11
5.923235
 21
15.75
 31
0.0
  0
LINE
  5
59
330
1E
100
AcDbEntity
  8
0
100
AcDbLine
 10
6.384735
 20
0.9159999999999929
 30
0.0
 11
6.384735
 21
2.69199999999999
 31
0.0
  0
LINE
  5
5A
330
1E
100
AcDbEntity
  8
0
100
AcDbLine
 10
6.384735
 20
0.9159999999999929
 30
0.0
 11
6.384735
 21
0.249999999999993
 31
0.0
  0
LINE
  5
5B
330
1E
100
AcDbEntity
  8
0
100
AcDbLine
 10
6.384735
 20
2.69199999999999
 30
0.0
 11
6.384735
 21
5.65199999999999
 31
0.0
  0
LINE
  5
5C
330
1E
100
AcDbEntity
  8
0
100
AcDbLine
 10
6.384735
 20
2.69199999999999
 30
0.0
 11
6.384735
 21
0.9159999999999929
 31
0.0
  0
LINE
  5
5D
330
1E
100
AcDbEntity
  8
0
100
AcDbLine
 10
6.384735
 20
5.65199999999999
 30
0.0
 11
6.384735
 21
9.57399999999999
 31
0.0
  0
LINE
  5
5E
330
1E
100
AcDbEntity
  8
0
100
AcDbLine
 10
6.384735
 20
5.65199999999999
 30
0.0
 11
6.384735
 21
2.69199999999999
 31
0.0
  0
LINE
  5
5F
330
1E
100
AcDbEntity
  8
0
100
AcDbLine
 10
37.46173499999999
 20
0.9159999999999929
 30
0.0
 11
37.46173499999999
 21
0.249999999999993
 31
0.0
  0
LINE
  5
60
330
1E
100
AcDbEntity
  8
0
100
AcDbLine
 10
37.46173499999999
 20
0.9159999999999929
 30
0.0
 11
37.46173499999999
 21
2.69199999999999
 31
0.0
  0
LINE
  5
61
330
1E
100
AcDbEntity
  8
0
100
AcDbLine
 10
37.46173499999999
 20
2.69199999999999
 30
0.0
 11
37.46173499999999
 21
0.9159999999999929
 31
0.0
  0
LINE
  5
62
330
1E
100
AcDbEntity
  8
0
100
AcDbLine
 10
37.46173499999999
 20
2.69199999999999
 30
0.0
 11
37.46173499999999
 21
5.65199999999999
 31
0.0
  0
LINE
  5
63
330
1E
100
AcDbEntity
  8
0
100
AcDbLine
 10
37.46173499999999
 20
5.65199999999999
 30
0.0
 11
37.46173499999999
 21
2.69199999999999
 31
0.0
  0
LINE
  5
64
330
1E
100
AcDbEntity
  8
0
100
AcDbLine
 10
37.46173499999999
 20
5.65199999999999
 30
0.0
 11
37.46173499999999
 21
9.57399999999999
 31
0.0
  0
LINE
  5
65
330
1E
100
AcDbEntity
  8
0
100
AcDbLine
 10
37.923235
 20
0.6939999999999929
 30
0.0
 11
37.923235
 21
1.359999999999988
 31
0.0
  0
LINE
  5
66
330
1E
100
AcDbEntity
  8
0
100
AcDbLine
 10
37.923235
 20
0.6939999999999929
 30
0.0
 11
38.384735
 21
0.249999999999993
 31
0.0
  0
LINE
  5
67
330
1E
100
AcDbEntity
  8
0
100
AcDbLine
 10
37.923235
 20
0.6939999999999929
 30
0.0
 11
38.384735
 21
0.249999999999993
 31
0.0
  0
LINE
  5
68
330
1E
100
AcDbEntity
  8
0
100
AcDbLine
 10
37.923235
 20
1.359999999999988
 30
0.0
 11
37.923235
 21
0.6939999999999929
 31
0.0
  0
LINE
  5
69
330
1E
100
AcDbEntity
  8
0
100
AcDbLine
 10
37.923235
 20
1.359999999999988
 30
0.0
 11
37.923235
 21
3.13599999999999
 31
0.0
  0
LINE
  5
6A
330
1E
100
AcDbEntity
  8
0
100
AcDbLine
 10
37.923235
 20
3.13599999999999
 30
0.0
 11
37.923235
 21
1.359999999999988
 31
0.0
  0
LINE
  5
6B
330
1E
100
AcDbEntity
  8
0
100
AcDbLine
 10
37.923235
 20
3.13599999999999
 30
0.0
 11
37.923235
 21
6.02199999999999
 31
0.0
  0
LINE
  5
6C
330
1E
100
AcDbEntity
  8
0
100
AcDbLine
 10
38.384735
 20
0.9159999999999929
 30
0.0
 11
38.384735
 21
2.69199999999999
 31
0.0
  0
LINE
  5
6D
330
1E
100
AcDbEntity
  8
0
100
AcDbLine
 10
38.384735
 20
0.9159999999999929
 30
0.0
 11
38.384735
 21
0.249999999999993
 31
0.0
  0
LINE
  5
6E
330
1E
100
AcDbEntity
  8
0
100
AcDbLine
 10
38.384735
 20
2.69199999999999
 30
0.0
 11
38.384735
 21
5.65199999999999
 31
0.0
  0
LINE
  5
6F
330
1E
100
AcDbEntity
  8
0
100
AcDbLine
 10
38.384735
 20
2.69199999999999
 30
0.0
 11
38.384735
 21
0.9159999999999929
 31
0.0
  0
LINE
  5
70
330
1E
100
AcDbEntity
  8
0
100
AcDbLine
 10
38.384735
 20
5.65199999999999
 30
0.0
 11
38.384735
 21
9.57399999999999
 31
0.0
  0
LINE
  5
71
330
1E
100
AcDbEntity
  8
0
100
AcDbLine
 10
38.384735
 20
5.65199999999999
 30
0.0
 11
38.384735
 21
2.69199999999999
 31
0.0
  0
LINE
  5
72
330
1E
100
AcDbEntity
  8
0
100
AcDbLine
 10
38.384735
 20
9.57399999999999
 30
0.0
 11
38.384735
 21
14.014
 31
0.0
  0
LINE
  5
73
330
1E
100
AcDbEntity
  8
0
100
AcDbLine
 10
38.384735
 20
9.57399999999999
 30
0.0
 11
38.384735
 21
5.65199999999999
 31
0.0
  0
LINE
  5
74
330
1E
100
AcDbEntity
  8
0
100
AcDbLine
 10
37.923235
 20
6.02199999999999
 30
0.0
 11
37.923235
 21
3.13599999999999
 31
0.0
  0
LINE
  5
75
330
1E
100
AcDbEntity
  8
0
100
AcDbLine
 10
37.923235
 20
6.02199999999999
 30
0.0
 11
37.923235
 21
9.79599999999999
 31
0.0
  0
LINE
  5
76
330
1E
100
AcDbEntity
  8
0
100
AcDbLine
 10
38.384735
 20
14.014
 30
0.0
 11
38.384735
 21
18.75
 31
0.0
  0
LINE
  5
77
330
1E
100
AcDbEntity
  8
0
100
AcDbLine
 10
38.384735
 20
14.014
 30
0.0
 11
38.384735
 21
9.57399999999999
 31
0.0
  0
LINE
  5
78
330
1E
100
AcDbEntity
  8
0
100
AcDbLine
 10
37.923235
 20
9.79599999999999
 30
0.0
 11
37.923235
 21
6.02199999999999
 31
0.0
  0
LINE
  5
79
330
1E
100
AcDbEntity
  8
0
100
AcDbLine
 10
37.923235
 20
9.79599999999999
 30
0.0
 11
37.923235
 21
14.088
 31
0.0
  0
LINE
  5
7A
330
1E
100
AcDbEntity
  8
0
100
AcDbLine
 10
37.46173499999999
 20
9.57399999999999
 30
0.0
 11
37.46173499999999
 21
5.65199999999999
 31
0.0
  0
LINE
  5
7B
330
1E
100
AcDbEntity
  8
0
100
AcDbLine
 10
37.46173499999999
 20
9.57399999999999
 30
0.0
 11
37.46173499999999
 21
14.014
 31
0.0
  0
LINE
  5
7C
330
1E
100
AcDbEntity
  8
0
100
AcDbLine
 10
37.46173499999999
 20
14.014
 30
0.0
 11
37.46173499999999
 21
9.57399999999999
 31
0.0
  0
LINE
  5
7D
330
1E
100
AcDbEntity
  8
0
100
AcDbLine
 10
37.46173499999999
 20
14.014
 30
0.0
 11
37.46173499999999
 21
18.75
 31
0.0
  0
LINE
  5
7E
330
1E
100
AcDbEntity
  8
0
100
AcDbLine
 10
6.384735
 20
9.57399999999999
 30
0.0
 11
6.384735
 21
14.014
 31
0.0
  0
LINE
  5
7F
330
1E
100
AcDbEntity
  8
0
100
AcDbLine
 10
6.384735
 20
9.57399999999999
 30
0.0
 11
6.384735
 21
5.65199999999999
 31
0.0
  0
LINE
  5
80
330
1E
100
AcDbEntity
  8
0
100
AcDbLine
 10
37.923235
 20
14.088
 30
0.0
 11
37.923235
 21
9.79599999999999
 31
0.0
  0
LINE
  5
81
330
1E
100
AcDbEntity
  8
0
100
AcDbLine
 10
37.923235
 20
14.088
 30
0.0
 11
37.923235
 21
18.75
 31
0.0
  0
LINE
  5
82
330
1E
100
AcDbEntity
  8
0
100
AcDbLine
 10
6.384735
 20
15.75
 30
0.0
 11
6.384735
 21
14.014
 31
0.0
  0
LINE
  5
83
330
1E
100
AcDbEntity
  8
0
100
AcDbLine
 10
6.384735
 20
14.014
 30
0.0
 11
6.384735
 21
15.75
 31
0.0
  0
LINE
  5
84
330
1E
100
AcDbEntity
  8
0
100
AcDbLine
 10
6.384735
 20
14.014
 30
0.0
 11
6.384735
 21
9.57399999999999
 31
0.0
  0
LINE
  5
85
330
1E
100
AcDbEntity
  8
0
100
AcDbLine
 10
5.923235
 20
15.75
 30
0.0
 11
5.923235
 21
14.088
 31
0.0
  0
LINE
  5
86
330
1E
100
AcDbEntity
  8
0
100
AcDbLine
 10
5.923235
 20
15.75
 30
0.0
 11
5.923235
 21
14.088
 31
0.0
  0
LINE
  5
87
330
1E
100
AcDbEntity
  8
0
100
AcDbLine
 10
37.46173499999999
 20
0.249999999999993
 30
0.0
 11
37.923235
 21
0.6939999999999929
 31
0.0
  0
LINE
  5
88
330
1E
100
AcDbEntity
  8
0
100
AcDbLine
 10
37.46173499999999
 20
0.249999999999993
 30
0.0
 11
37.46173499999999
 21
0.9159999999999929
 31
0.0
  0
LINE
  5
89
330
1E
100
AcDbEntity
  8
0
100
AcDbLine
 10
42.423235
 20
13.25
 30
0.0
 11
44.123235
 21
10.94999999999999
 31
0.0
  0
LINE
  5
8A
330
1E
100
AcDbEntity
  8
0
100
AcDbLine
 10
41.323235
 20
15.94999999999999
 30
0.0
 11
42.423235
 21
13.25
 31
0.0
  0
LINE
  5
8B
330
1E
100
AcDbEntity
  8
0
100
AcDbLine
 10
42.423235
 20
13.25
 30
0.0
 11
44.123235
 21
10.94999999999999
 31
0.0
  0
LINE
  5
8C
330
1E
100
AcDbEntity
  8
0
100
AcDbLine
 10
41.323235
 20
15.94999999999999
 30
0.0
 11
42.423235
 21
13.25
 31
0.0
  0
LINE
  5
8D
330
1E
100
AcDbEntity
  8
0
100
AcDbLine
 10
46.42323499999998
 20
9.250000000000008
 30
0.0
 11
49.123235
 21
8.150000000000007
 31
0.0
  0
LINE
  5
8E
330
1E
100
AcDbEntity
  8
0
100
AcDbLine
 10
44.123235
 20
10.94999999999999
 30
0.0
 11
46.42323499999998
 21
9.250000000000008
 31
0.0
  0
LINE
  5
8F
330
1E
100
AcDbEntity
  8
0
100
AcDbLine
 10
46.42323499999998
 20
9.250000000000008
 30
0.0
 11
49.123235
 21
8.150000000000007
 31
0.0
  0
LINE
  5
90
330
1E
100
AcDbEntity
  8
0
100
AcDbLine
 10
44.123235
 20
10.94999999999999
 30
0.0
 11
46.42323499999998
 21
9.250000000000008
 31
0.0
  0
LINE
  5
91
330
1E
100
AcDbEntity
  8
0
100
AcDbLine
 10
49.123235
 20
8.150000000000007
 30
0.0
 11
51.923235
 21
7.750000000000007
 31
0.0
  0
LINE
  5
92
330
1E
100
AcDbEntity
  8
0
100
AcDbLine
 10
51.923235
 20
7.750000000000007
 30
0.0
 11
54.72323499999999
 21
8.150000000000007
 31
0.0
  0
LINE
  5
93
330
1E
100
AcDbEntity
  8
0
100
AcDbLine
 10
51.923235
 20
7.750000000000007
 30
0.0
 11
54.72323499999999
 21
8.150000000000007
 31
0.0
  0
LINE
  5
94
330
1E
100
AcDbEntity
  8
0
100
AcDbLine
 10
99.461235
 20
0.249999999999993
 30
0.0
 11
99.92323500000001
 21
0.6939999999999929
 31
0.0
  0
LINE
  5
95
330
1E
100
AcDbEntity
  8
0
100
AcDbLine
 10
82.222235
 20
1.04448599999999
 30
0.0
 11
85.222235
 21
1.390899999999988
 31
0.0
  0
LINE
  5
96
330
1E
100
AcDbEntity
  8
0
100
AcDbLine
 10
85.222235
 20
1.390899999999988
 30
0.0
 11
87.922235
 21
2.34351999999999
 31
0.0
  0
LINE
  5
97
330
1E
100
AcDbEntity
  8
0
100
AcDbLine
 10
87.922235
 20
2.34351999999999
 30
0.0
 11
90.32223499999998
 21
3.98896999999999
 31
0.0
  0
LINE
  5
98
330
1E
100
AcDbEntity
  8
0
100
AcDbLine
 10
79.222235
 20
1.390899999999988
 30
0.0
 11
82.222235
 21
1.04448599999999
 31
0.0
  0
LINE
  5
99
330
1E
100
AcDbEntity
  8
0
100
AcDbLine
 10
76.52223499999998
 20
2.34351999999999
 30
0.0
 11
79.222235
 21
1.390899999999988
 31
0.0
  0
LINE
  5
9A
330
1E
100
AcDbEntity
  8
0
100
AcDbLine
 10
99.461235
 20
0.9159999999999929
 30
0.0
 11
99.461235
 21
0.249999999999993
 31
0.0
  0
LINE
  5
9B
330
1E
100
AcDbEntity
  8
0
100
AcDbLine
 10
99.461235
 20
0.9159999999999929
 30
0.0
 11
99.461235
 21
2.69199999999999
 31
0.0
  0
LINE
  5
9C
330
1E
100
AcDbEntity
  8
0
100
AcDbLine
 10
90.32223499999998
 20
3.98896999999999
 30
0.0
 11
91.8424745042483
 21
5.65199999999999
 31
0.0
  0
LINE
  5
9D
330
1E
100
AcDbEntity
  8
0
100
AcDbLine
 10
74.122235
 20
3.98896999999999
 30
0.0
 11
76.52223499999998
 21
2.34351999999999
 31
0.0
  0
LINE
  5
9E
330
1E
100
AcDbEntity
  8
0
100
AcDbLine
 10
72.60199549575171
 20
5.65199999999999
 30
0.0
 11
74.122235
 21
3.98896999999999
 31
0.0
  0
LINE
  5
9F
330
1E
100
AcDbEntity
  8
0
100
AcDbLine
 10
99.461235
 20
2.69199999999999
 30
0.0
 11
99.461235
 21
0.9159999999999929
 31
0.0
  0
LINE
  5
A0
330
1E
100
AcDbEntity
  8
0
100
AcDbLine
 10
99.461235
 20
2.69199999999999
 30
0.0
 11
99.461235
 21
5.65199999999999
 31
0.0
  0
LINE
  5
A1
330
1E
100
AcDbEntity
  8
0
100
AcDbLine
 10
99.92323500000001
 20
0.6939999999999929
 30
0.0
 11
99.92323500000001
 21
1.359999999999988
 31
0.0
  0
LINE
  5
A2
330
1E
100
AcDbEntity
  8
0
100
AcDbLine
 10
99.92323500000001
 20
1.359999999999988
 30
0.0
 11
99.92323500000001
 21
0.6939999999999929
 31
0.0
  0
LINE
  5
A3
330
1E
100
AcDbEntity
  8
0
100
AcDbLine
 10
99.92323500000001
 20
1.359999999999988
 30
0.0
 11
99.92323500000001
 21
3.13599999999999
 31
0.0
  0
LINE
  5
A4
330
1E
100
AcDbEntity
  8
0
100
AcDbLine
 10
99.92323500000001
 20
3.13599999999999
 30
0.0
 11
99.92323500000001
 21
1.359999999999988
 31
0.0
  0
LINE
  5
A5
330
1E
100
AcDbEntity
  8
0
100
AcDbLine
 10
99.92323500000001
 20
3.13599999999999
 30
0.0
 11
99.92323500000001
 21
6.02199999999999
 31
0.0
  0
LINE
  5
A6
330
1E
100
AcDbEntity
  8
0
100
AcDbLine
 10
99.92323500000001
 20
6.02199999999999
 30
0.0
 11
99.92323500000001
 21
3.13599999999999
 31
0.0
  0
LINE
  5
A7
330
1E
100
AcDbEntity
  8
0
100
AcDbLine
 10
99.92323500000001
 20
6.02199999999999
 30
0.0
 11
99.92323500000001
 21
9.79599999999999
 31
0.0
  0
LINE
  5
A8
330
1E
100
AcDbEntity
  8
0
100
AcDbLine
 10
99.461235
 20
5.65199999999999
 30
0.0
 11
99.461235
 21
2.69199999999999
 31
0.0
  0
LINE
  5
A9
330
1E
100
AcDbEntity
  8
0
100
AcDbLine
 10
99.461235
 20
5.65199999999999
 30
0.0
 11
99.461235
 21
9.57399999999999
 31
0.0
  0
LINE
  5
AA
330
1E
100
AcDbEntity
  8
0
100
AcDbLine
 10
99.461235
 20
0.249999999999993
 30
0.0
 11
99.92323500000001
 21
0.6939999999999929
 31
0.0
  0
LINE
  5
AB
330
1E
100
AcDbEntity
  8
0
100
AcDbLine
 10
99.461235
 20
0.249999999999993
 30
0.0
 11
99.461235
 21
0.9159999999999929
 31
0.0
  0
LINE
  5
AC
330
1E
100
AcDbEntity
  8
0
100
AcDbLine
 10
54.72323499999999
 20
8.150000000000007
 30
0.0
 11
57.423235
 21
9.250000000000008
 31
0.0
  0
LINE
  5
AD
330
1E
100
AcDbEntity
  8
0
100
AcDbLine
 10
54.72323499999999
 20
8.150000000000007
 30
0.0
 11
57.423235
 21
9.250000000000008
 31
0.0
  0
LINE
  5
AE
330
1E
100
AcDbEntity
  8
0
100
AcDbLine
 10
51.923235
 20
8.250000000000008
 30
0.0
 11
54.623235
 21
8.650000000000007
 31
0.0
  0
LINE
  5
AF
330
1E
100
AcDbEntity
  8
0
100
AcDbLine
 10
54.623235
 20
8.650000000000007
 30
0.0
 11
57.123235
 21
9.650000000000007
 31
0.0
  0
LINE
  5
B0
330
1E
100
AcDbEntity
  8
0
100
AcDbLine
 10
49.123235
 20
8.150000000000007
 30
0.0
 11
51.923235
 21
7.750000000000007
 31
0.0
  0
LINE
  5
B1
330
1E
100
AcDbEntity
  8
0
100
AcDbLine
 10
57.423235
 20
9.250000000000008
 30
0.0
 11
59.72323499999999
 21
10.94999999999999
 31
0.0
  0
LINE
  5
B2
330
1E
100
AcDbEntity
  8
0
100
AcDbLine
 10
57.423235
 20
9.250000000000008
 30
0.0
 11
59.72323499999999
 21
10.94999999999999
 31
0.0
  0
LINE
  5
B3
330
1E
100
AcDbEntity
  8
0
100
AcDbLine
 10
57.123235
 20
9.650000000000007
 30
0.0
 11
59.32323499999998
 21
11.35
 31
0.0
  0
LINE
  5
B4
330
1E
100
AcDbEntity
  8
0
100
AcDbLine
 10
99.92323500000001
 20
9.79599999999999
 30
0.0
 11
99.92323500000001
 21
6.02199999999999
 31
0.0
  0
LINE
  5
B5
330
1E
100
AcDbEntity
  8
0
100
AcDbLine
 10
99.92323500000001
 20
9.79599999999999
 30
0.0
 11
99.92323500000001
 21
14.088
 31
0.0
  0
LINE
  5
B6
330
1E
100
AcDbEntity
  8
0
100
AcDbLine
 10
99.461235
 20
9.57399999999999
 30
0.0
 11
99.461235
 21
5.65199999999999
 31
0.0
  0
LINE
  5
B7
330
1E
100
AcDbEntity
  8
0
100
AcDbLine
 10
99.461235
 20
9.57399999999999
 30
0.0
 11
99.461235
 21
14.014
 31
0.0
  0
LINE
  5
B8
330
1E
100
AcDbEntity
  8
0
100
AcDbLine
 10
59.72323499999999
 20
10.94999999999999
 30
0.0
 11
61.42323499999999
 21
13.25
 31
0.0
  0
LINE
  5
B9
330
1E
100
AcDbEntity
  8
0
100
AcDbLine
 10
59.72323499999999
 20
10.94999999999999
 30
0.0
 11
61.42323499999999
 21
13.25
 31
0.0
  0
LINE
  5
BA
330
1E
100
AcDbEntity
  8
0
100
AcDbLine
 10
59.32323499999998
 20
11.35
 30
0.0
 11
61.023235
 21
13.55
 31
0.0
  0
LINE
  5
BB
330
1E
100
AcDbEntity
  8
0
100
AcDbLine
 10
59.32323499999998
 20
11.35
 30
0.0
 11
61.023235
 21
13.55
 31
0.0
  0
LINE
  5
BC
330
1E
100
AcDbEntity
  8
0
100
AcDbLine
 10
49.223235
 20
8.650000000000007
 30
0.0
 11
51.923235
 21
8.250000000000008
 31
0.0
  0
LINE
  5
BD
330
1E
100
AcDbEntity
  8
0
100
AcDbLine
 10
46.723235
 20
9.650000000000007
 30
0.0
 11
49.223235
 21
8.650000000000007
 31
0.0
  0
LINE
  5
BE
330
1E
100
AcDbEntity
  8
0
100
AcDbLine
 10
61.023235
 20
13.55
 30
0.0
 11
62.023235
 21
16.05
 31
0.0
  0
LINE
  5
BF
330
1E
100
AcDbEntity
  8
0
100
AcDbLine
 10
61.42323499999999
 20
13.25
 30
0.0
 11
62.523235
 21
15.94999999999999
 31
0.0
  0
LINE
  5
C0
330
1E
100
AcDbEntity
  8
0
100
AcDbLine
 10
61.42323499999999
 20
13.25
 30
0.0
 11
62.523235
 21
15.94999999999999
 31
0.0
  0
LINE
  5
C1
330
1E
100
AcDbEntity
  8
0
100
AcDbLine
 10
61.023235
 20
13.55
 30
0.0
 11
62.023235
 21
16.05
 31
0.0
  0
LINE
  5
C2
330
1E
100
AcDbEntity
  8
0
100
AcDbLine
 10
61.023235
 20
13.55
 30
0.0
 11
62.023235
 21
16.05
 31
0.0
  0
LINE
  5
C3
330
1E
100
AcDbEntity
  8
0
100
AcDbLine
 10
92.222235
 20
15.94009999999999
 30
0.0
 11
93.32223500000001
 21
13.6019
 31
0.0
  0
LINE
  5
C4
330
1E
100
AcDbEntity
  8
0
100
AcDbLine
 10
72.222235
 20
15.94009999999999
 30
0.0
 11
74.122235
 21
18.01859999999998
 31
0.0
  0
LINE
  5
C5
330
1E
100
AcDbEntity
  8
0
100
AcDbLine
 10
71.122235
 20
13.6019
 30
0.0
 11
72.222235
 21
15.94009999999999
 31
0.0
  0
LINE
  5
C6
330
1E
100
AcDbEntity
  8
0
100
AcDbLine
 10
99.92323500000001
 20
14.088
 30
0.0
 11
99.92323500000001
 21
9.79599999999999
 31
0.0
  0
LINE
  5
C7
330
1E
100
AcDbEntity
  8
0
100
AcDbLine
 10
99.92323500000001
 20
14.088
 30
0.0
 11
99.92323500000001
 21
18.75
 31
0.0
  0
LINE
  5
C8
330
1E
100
AcDbEntity
  8
0
100
AcDbLine
 10
99.461235
 20
14.014
 30
0.0
 11
99.461235
 21
9.57399999999999
 31
0.0
  0
LINE
  5
C9
330
1E
100
AcDbEntity
  8
0
100
AcDbLine
 10
99.461235
 20
14.014
 30
0.0
 11
99.461235
 21
18.75
 31
0.0
  0
LINE
  5
CA
330
1E
100
AcDbEntity
  8
0
100
AcDbLine
 10
62.523235
 20
15.94999999999999
 30
0.0
 11
62.923235
 21
18.75
 31
0.0
  0
LINE
  5
CB
330
1E
100
AcDbEntity
  8
0
100
AcDbLine
 10
62.023235
 20
16.05
 30
0.0
 11
62.423235
 21
18.75
 31
0.0
  0
LINE
  5
CC
330
1E
100
AcDbEntity
  8
0
100
AcDbLine
 10
44.523235
 20
11.35
 30
0.0
 11
46.723235
 21
9.650000000000007
 31
0.0
  0
LINE
  5
CD
330
1E
100
AcDbEntity
  8
0
100
AcDbLine
 10
42.82323499999999
 20
13.55
 30
0.0
 11
44.523235
 21
11.35
 31
0.0
  0
LINE
  5
CE
330
1E
100
AcDbEntity
  8
0
100
AcDbLine
 10
41.82323499999998
 20
16.05
 30
0.0
 11
42.82323499999999
 21
13.55
 31
0.0
  0
LINE
  5
CF
330
1E
100
AcDbEntity
  8
0
100
AcDbLine
 10
5.207485
 20
17.298
 30
0.0
 11
5.478114999999998
 21
17.994
 31
0.0
  0
LINE
  5
D0
330
1E
100
AcDbEntity
  8
0
100
AcDbLine
 10
38.384735
 20
18.75
 30
0.0
 11
38.384735
 21
14.014
 31
0.0
  0
LINE
  5
D1
330
1E
100
AcDbEntity
  8
0
100
AcDbLine
 10
38.384735
 20
18.75
 30
0.0
 11
38.384735
 21
23.486
 31
0.0
  0
LINE
  5
D2
330
1E
100
AcDbEntity
  8
0
100
AcDbLine
 10
37.923235
 20
18.75
 30
0.0
 11
37.923235
 21
14.088
 31
0.0
  0
LINE
  5
D3
330
1E
100
AcDbEntity
  8
0
100
AcDbLine
 10
37.923235
 20
18.75
 30
0.0
 11
37.923235
 21
23.412
 31
0.0
  0
LINE
  5
D4
330
1E
100
AcDbEntity
  8
0
100
AcDbLine
 10
37.46173499999999
 20
18.75
 30
0.0
 11
37.46173499999999
 21
14.014
 31
0.0
  0
LINE
  5
D5
330
1E
100
AcDbEntity
  8
0
100
AcDbLine
 10
37.46173499999999
 20
18.75
 30
0.0
 11
37.46173499999999
 21
23.486
 31
0.0
  0
LINE
  5
D6
330
1E
100
AcDbEntity
  8
0
100
AcDbLine
 10
40.923235
 20
18.75
 30
0.0
 11
41.323235
 21
15.94999999999999
 31
0.0
  0
LINE
  5
D7
330
1E
100
AcDbEntity
  8
0
100
AcDbLine
 10
40.923235
 20
18.75
 30
0.0
 11
40.923235
 21
80.75000000000001
 31
0.0
  0
LINE
  5
D8
330
1E
100
AcDbEntity
  8
0
100
AcDbLine
 10
40.923235
 20
18.75
 30
0.0
 11
41.323235
 21
15.94999999999999
 31
0.0
  0
LINE
  5
D9
330
1E
100
AcDbEntity
  8
0
100
AcDbLine
 10
40.923235
 20
18.75
 30
0.0
 11
40.923235
 21
80.75000000000001
 31
0.0
  0
LINE
  5
DA
330
1E
100
AcDbEntity
  8
0
100
AcDbLine
 10
90.32223499999998
 20
18.01859999999998
 30
0.0
 11
92.222235
 21
15.94009999999999
 31
0.0
  0
LINE
  5
DB
330
1E
100
AcDbEntity
  8
0
100
AcDbLine
 10
74.122235
 20
18.01859999999998
 30
0.0
 11
76.52223499999998
 21
19.664
 31
0.0
  0
LINE
  5
DC
330
1E
100
AcDbEntity
  8
0
100
AcDbLine
 10
99.92323500000001
 20
18.75
 30
0.0
 11
99.92323500000001
 21
14.088
 31
0.0
  0
LINE
  5
DD
330
1E
100
AcDbEntity
  8
0
100
AcDbLine
 10
99.92323500000001
 20
18.75
 30
0.0
 11
99.92323500000001
 21
23.412
 31
0.0
  0
LINE
  5
DE
330
1E
100
AcDbEntity
  8
0
100
AcDbLine
 10
99.461235
 20
18.75
 30
0.0
 11
99.461235
 21
14.014
 31
0.0
  0
LINE
  5
DF
330
1E
100
AcDbEntity
  8
0
100
AcDbLine
 10
99.461235
 20
18.75
 30
0.0
 11
99.461235
 21
23.486
 31
0.0
  0
LINE
  5
E0
330
1E
100
AcDbEntity
  8
0
100
AcDbLine
 10
62.923235
 20
18.75
 30
0.0
 11
62.923235
 21
80.75000000000001
 31
0.0
  0
LINE
  5
E1
330
1E
100
AcDbEntity
  8
0
100
AcDbLine
 10
62.423235
 20
18.75
 30
0.0
 11
62.423235
 21
80.25
 31
0.0
  0
LINE
  5
E2
330
1E
100
AcDbEntity
  8
0
100
AcDbLine
 10
41.42323499999998
 20
18.75
 30
0.0
 11
41.82323499999998
 21
16.05
 31
0.0
  0
LINE
  5
E3
330
1E
100
AcDbEntity
  8
0
100
AcDbLine
 10
41.42323499999998
 20
18.75
 30
0.0
 11
41.42323499999998
 21
80.25
 31
0.0
  0
LINE
  5
E4
330
1E
100
AcDbEntity
  8
0
100
AcDbLine
 10
5.478114999999998
 20
17.994
 30
0.0
 11
5.579604999999999
 21
18.75
 31
0.0
  0
LINE
  5
E5
330
1E
100
AcDbEntity
  8
0
100
AcDbLine
 10
3.033395
 20
15.75
 30
0.0
 11
6.384735
 21
15.75
 31
0.0
  0
LINE
  5
E6
330
1E
100
AcDbEntity
  8
0
100
AcDbLine
 10
3.033395
 20
21.75
 30
0.0
 11
6.384735
 21
21.75
 31
0.0
  0
LINE
  5
E7
330
1E
100
AcDbEntity
  8
0
100
AcDbLine
 10
3.538594999999998
 20
21.57
 30
0.0
 11
4.192614999999999
 21
21.28199999999999
 31
0.0
  0
LINE
  5
E8
330
1E
100
AcDbEntity
  8
0
100
AcDbLine
 10
4.192614999999999
 20
21.28199999999999
 30
0.0
 11
4.767705
 21
20.81399999999999
 31
0.0
  0
LINE
  5
E9
330
1E
100
AcDbEntity
  8
0
100
AcDbLine
 10
4.767705
 20
20.81399999999999
 30
0.0
 11
5.207485
 21
20.202
 31
0.0
  0
LINE
  5
EA
330
1E
100
AcDbEntity
  8
0
100
AcDbLine
 10
5.923235
 20
21.75
 30
0.0
 11
5.923235
 21
23.412
 31
0.0
  0
LINE
  5
EB
330
1E
100
AcDbEntity
  8
0
100
AcDbLine
 10
5.923235
 20
31.478
 30
0.0
 11
5.923235
 21
34.364
 31
0.0
  0
LINE
  5
EC
330
1E
100
AcDbEntity
  8
0
100
AcDbLine
 10
5.923235
 20
31.478
 30
0.0
 11
5.923235
 21
27.704
 31
0.0
  0
LINE
  5
ED
330
1E
100
AcDbEntity
  8
0
100
AcDbLine
 10
5.923235
 20
36.14
 30
0.0
 11
5.923235
 21
36.806
 31
0.0
  0
LINE
  5
EE
330
1E
100
AcDbEntity
  8
0
100
AcDbLine
 10
5.923235
 20
36.14
 30
0.0
 11
5.923235
 21
34.364
 31
0.0
  0
LINE
  5
EF
330
1E
100
AcDbEntity
  8
0
100
AcDbLine
 10
5.923235
 20
34.364
 30
0.0
 11
5.923235
 21
36.14
 31
0.0
  0
LINE
  5
F0
330
1E
100
AcDbEntity
  8
0
100
AcDbLine
 10
5.923235
 20
34.364
 30
0.0
 11
5.923235
 21
31.478
 31
0.0
  0
LINE
  5
F1
330
1E
100
AcDbEntity
  8
0
100
AcDbLine
 10
5.923235
 20
36.806
 30
0.0
 11
5.923235
 21
36.14
 31
0.0
  0
LINE
  5
F2
330
1E
100
AcDbEntity
  8
0
100
AcDbLine
 10
5.923235
 20
36.806
 30
0.0
 11
6.384735
 21
37.25
 31
0.0
  0
LINE
  5
F3
330
1E
100
AcDbEntity
  8
0
100
AcDbLine
 10
5.923235
 20
36.806
 30
0.0
 11
5.923235
 21
36.14
 31
0.0
  0
LINE
  5
F4
330
1E
100
AcDbEntity
  8
0
100
AcDbLine
 10
5.923235
 20
36.14
 30
0.0
 11
5.923235
 21
34.364
 31
0.0
  0
LINE
  5
F5
330
1E
100
AcDbEntity
  8
0
100
AcDbLine
 10
5.923235
 20
36.14
 30
0.0
 11
5.923235
 21
36.806
 31
0.0
  0
LINE
  5
F6
330
1E
100
AcDbEntity
  8
0
100
AcDbLine
 10
5.923235
 20
34.364
 30
0.0
 11
5.923235
 21
31.478
 31
0.0
  0
LINE
  5
F7
330
1E
100
AcDbEntity
  8
0
100
AcDbLine
 10
5.923235
 20
34.364
 30
0.0
 11
5.923235
 21
36.14
 31
0.0
  0
LINE
  5
F8
330
1E
100
AcDbEntity
  8
0
100
AcDbLine
 10
5.923235
 20
31.478
 30
0.0
 11
5.923235
 21
27.704
 31
0.0
  0
LINE
  5
F9
330
1E
100
AcDbEntity
  8
0
100
AcDbLine
 10
5.923235
 20
31.478
 30
0.0
 11
5.923235
 21
34.364
 31
0.0
  0
LINE
  5
FA
330
1E
100
AcDbEntity
  8
0
100
AcDbLine
 10
5.923235
 20
27.704
 30
0.0
 11
5.923235
 21
23.412
 31
0.0
  0
LINE
  5
FB
330
1E
100
AcDbEntity
  8
0
100
AcDbLine
 10
5.923235
 20
27.704
 30
0.0
 11
5.923235
 21
31.478
 31
0.0
  0
LINE
  5
FC
330
1E
100
AcDbEntity
  8
0
100
AcDbLine
 10
5.923235
 20
27.704
 30
0.0
 11
5.923235
 21
31.478
 31
0.0
  0
LINE
  5
FD
330
1E
100
AcDbEntity
  8
0
100
AcDbLine
 10
6.384735
 20
36.584
 30
0.0
 11
6.384735
 21
37.25
 31
0.0
  0
LINE
  5
FE
330
1E
100
AcDbEntity
  8
0
100
AcDbLine
 10
6.384735
 20
36.584
 30
0.0
 11
6.384735
 21
34.808
 31
0.0
  0
LINE
  5
FF
330
1E
100
AcDbEntity
  8
0
100
AcDbLine
 10
6.384735
 20
37.25
 30
0.0
 11
37.46173499999999
 21
37.25
 31
0.0
  0
LINE
  5
100
330
1E
100
AcDbEntity
  8
0
100
AcDbLine
 10
6.384735
 20
37.25
 30
0.0
 11
6.384735
 21
36.584
 31
0.0
  0
LINE
  5
101
330
1E
100
AcDbEntity
  8
0
100
AcDbLine
 10
37.46173499999999
 20
36.584
 30
0.0
 11
37.46173499999999
 21
34.808
 31
0.0
  0
LINE
  5
102
330
1E
100
AcDbEntity
  8
0
100
AcDbLine
 10
37.46173499999999
 20
36.584
 30
0.0
 11
37.46173499999999
 21
37.25
 31
0.0
  0
LINE
  5
103
330
1E
100
AcDbEntity
  8
0
100
AcDbLine
 10
6.384735
 20
34.808
 30
0.0
 11
6.384735
 21
36.584
 31
0.0
  0
LINE
  5
104
330
1E
100
AcDbEntity
  8
0
100
AcDbLine
 10
6.384735
 20
34.808
 30
0.0
 11
6.384735
 21
31.848
 31
0.0
  0
LINE
  5
105
330
1E
100
AcDbEntity
  8
0
100
AcDbLine
 10
37.46173499999999
 20
34.808
 30
0.0
 11
37.46173499999999
 21
31.848
 31
0.0
  0
LINE
  5
106
330
1E
100
AcDbEntity
  8
0
100
AcDbLine
 10
37.46173499999999
 20
34.808
 30
0.0
 11
37.46173499999999
 21
36.584
 31
0.0
  0
LINE
  5
107
330
1E
100
AcDbEntity
  8
0
100
AcDbLine
 10
6.384735
 20
31.848
 30
0.0
 11
6.384735
 21
34.808
 31
0.0
  0
LINE
  5
108
330
1E
100
AcDbEntity
  8
0
100
AcDbLine
 10
6.384735
 20
31.848
 30
0.0
 11
6.384735
 21
27.926
 31
0.0
  0
LINE
  5
109
330
1E
100
AcDbEntity
  8
0
100
AcDbLine
 10
37.46173499999999
 20
31.848
 30
0.0
 11
37.46173499999999
 21
27.926
 31
0.0
  0
LINE
  5
10A
330
1E
100
AcDbEntity
  8
0
100
AcDbLine
 10
37.46173499999999
 20
31.848
 30
0.0
 11
37.46173499999999
 21
34.808
 31
0.0
  0
LINE
  5
10B
330
1E
100
AcDbEntity
  8
0
100
AcDbLine
 10
6.384735
 20
27.926
 30
0.0
 11
6.384735
 21
31.848
 31
0.0
  0
LINE
  5
10C
330
1E
100
AcDbEntity
  8
0
100
AcDbLine
 10
6.384735
 20
27.926
 30
0.0
 11
6.384735
 21
23.486
 31
0.0
  0
LINE
  5
10D
330
1E
100
AcDbEntity
  8
0
100
AcDbLine
 10
37.46173499999999
 20
27.926
 30
0.0
 11
37.46173499999999
 21
23.486
 31
0.0
  0
LINE
  5
10E
330
1E
100
AcDbEntity
  8
0
100
AcDbLine
 10
37.46173499999999
 20
27.926
 30
0.0
 11
37.46173499999999
 21
31.848
 31
0.0
  0
LINE
  5
10F
330
1E
100
AcDbEntity
  8
0
100
AcDbLine
 10
6.384735
 20
23.486
 30
0.0
 11
6.384735
 21
27.926
 31
0.0
  0
LINE
  5
110
330
1E
100
AcDbEntity
  8
0
100
AcDbLine
 10
6.384735
 20
23.486
 30
0.0
 11
6.384735
 21
21.75
 31
0.0
  0
LINE
  5
111
330
1E
100
AcDbEntity
  8
0
100
AcDbLine
 10
37.46173499999999
 20
23.486
 30
0.0
 11
37.46173499999999
 21
18.75
 31
0.0
  0
LINE
  5
112
330
1E
100
AcDbEntity
  8
0
100
AcDbLine
 10
37.46173499999999
 20
23.486
 30
0.0
 11
37.46173499999999
 21
27.926
 31
0.0
  0
LINE
  5
113
330
1E
100
AcDbEntity
  8
0
100
AcDbLine
 10
6.384735
 20
21.75
 30
0.0
 11
6.384735
 21
23.486
 31
0.0
  0
LINE
  5
114
330
1E
100
AcDbEntity
  8
0
100
AcDbLine
 10
5.923235
 20
23.412
 30
0.0
 11
5.923235
 21
21.75
 31
0.0
  0
LINE
  5
115
330
1E
100
AcDbEntity
  8
0
100
AcDbLine
 10
5.923235
 20
23.412
 30
0.0
 11
5.923235
 21
27.704
 31
0.0
  0
LINE
  5
116
330
1E
100
AcDbEntity
  8
0
100
AcDbLine
 10
6.384735
 20
37.25
 30
0.0
 11
37.46173499999999
 21
37.25
 31
0.0
  0
LINE
  5
117
330
1E
100
AcDbEntity
  8
0
100
AcDbLine
 10
87.922235
 20
19.664
 30
0.0
 11
90.32223499999998
 21
18.01859999999998
 31
0.0
  0
LINE
  5
118
330
1E
100
AcDbEntity
  8
0
100
AcDbLine
 10
82.222235
 20
20.9631
 30
0.0
 11
85.222235
 21
20.6167
 31
0.0
  0
LINE
  5
119
330
1E
100
AcDbEntity
  8
0
100
AcDbLine
 10
85.222235
 20
20.6167
 30
0.0
 11
87.922235
 21
19.664
 31
0.0
  0
LINE
  5
11A
330
1E
100
AcDbEntity
  8
0
100
AcDbLine
 10
79.222235
 20
20.6167
 30
0.0
 11
82.222235
 21
20.9631
 31
0.0
  0
LINE
  5
11B
330
1E
100
AcDbEntity
  8
0
100
AcDbLine
 10
76.52223499999998
 20
19.664
 30
0.0
 11
79.222235
 21
20.6167
 31
0.0
  0
LINE
  5
11C
330
1E
100
AcDbEntity
  8
0
100
AcDbLine
 10
99.92323500000001
 20
23.412
 30
0.0
 11
99.92323500000001
 21
18.75
 31
0.0
  0
LINE
  5
11D
330
1E
100
AcDbEntity
  8
0
100
AcDbLine
 10
99.92323500000001
 20
23.412
 30
0.0
 11
99.92323500000001
 21
27.704
 31
0.0
  0
LINE
  5
11E
330
1E
100
AcDbEntity
  8
0
100
AcDbLine
 10
37.923235
 20
36.806
 30
0.0
 11
37.923235
 21
36.14
 31
0.0
  0
LINE
  5
11F
330
1E
100
AcDbEntity
  8
0
100
AcDbLine
 10
37.923235
 20
36.806
 30
0.0
 11
38.384735
 21
37.25
 31
0.0
  0
LINE
  5
120
330
1E
100
AcDbEntity
  8
0
100
AcDbLine
 10
37.923235
 20
36.14
 30
0.0
 11
37.923235
 21
34.364
 31
0.0
  0
LINE
  5
121
330
1E
100
AcDbEntity
  8
0
100
AcDbLine
 10
37.923235
 20
36.14
 30
0.0
 11
37.923235
 21
36.806
 31
0.0
  0
LINE
  5
122
330
1E
100
AcDbEntity
  8
0
100
AcDbLine
 10
37.923235
 20
34.364
 30
0.0
 11
37.923235
 21
31.478
 31
0.0
  0
LINE
  5
123
330
1E
100
AcDbEntity
  8
0
100
AcDbLine
 10
37.923235
 20
34.364
 30
0.0
 11
37.923235
 21
36.14
 31
0.0
  0
LINE
  5
124
330
1E
100
AcDbEntity
  8
0
100
AcDbLine
 10
37.923235
 20
31.478
 30
0.0
 11
37.923235
 21
27.704
 31
0.0
  0
LINE
  5
125
330
1E
100
AcDbEntity
  8
0
100
AcDbLine
 10
37.923235
 20
31.478
 30
0.0
 11
37.923235
 21
34.364
 31
0.0
  0
LINE
  5
126
330
1E
100
AcDbEntity
  8
0
100
AcDbLine
 10
38.384735
 20
36.584
 30
0.0
 11
38.384735
 21
37.25
 31
0.0
  0
LINE
  5
127
330
1E
100
AcDbEntity
  8
0
100
AcDbLine
 10
38.384735
 20
36.584
 30
0.0
 11
38.384735
 21
34.808
 31
0.0
  0
LINE
  5
128
330
1E
100
AcDbEntity
  8
0
100
AcDbLine
 10
38.384735
 20
37.25
 30
0.0
 11
40.923235
 21
37.25
 31
0.0
  0
LINE
  5
129
330
1E
100
AcDbEntity
  8
0
100
AcDbLine
 10
38.384735
 20
37.25
 30
0.0
 11
38.384735
 21
36.584
 31
0.0
  0
LINE
  5
12A
330
1E
100
AcDbEntity
  8
0
100
AcDbLine
 10
38.384735
 20
34.808
 30
0.0
 11
38.384735
 21
36.584
 31
0.0
  0
LINE
  5
12B
330
1E
100
AcDbEntity
  8
0
100
AcDbLine
 10
38.384735
 20
34.808
 30
0.0
 11
38.384735
 21
31.848
 31
0.0
  0
LINE
  5
12C
330
1E
100
AcDbEntity
  8
0
100
AcDbLine
 10
38.384735
 20
31.848
 30
0.0
 11
38.384735
 21
34.808
 31
0.0
  0
LINE
  5
12D
330
1E
100
AcDbEntity
  8
0
100
AcDbLine
 10
38.384735
 20
31.848
 30
0.0
 11
38.384735
 21
27.926
 31
0.0
  0
LINE
  5
12E
330
1E
100
AcDbEntity
  8
0
100
AcDbLine
 10
38.384735
 20
27.926
 30
0.0
 11
38.384735
 21
31.848
 31
0.0
  0
LINE
  5
12F
330
1E
100
AcDbEntity
  8
0
100
AcDbLine
 10
38.384735
 20
27.926
 30
0.0
 11
38.384735
 21
23.486
 31
0.0
  0
LINE
  5
130
330
1E
100
AcDbEntity
  8
0
100
AcDbLine
 10
38.384735
 20
23.486
 30
0.0
 11
38.384735
 21
27.926
 31
0.0
  0
LINE
  5
131
330
1E
100
AcDbEntity
  8
0
100
AcDbLine
 10
38.384735
 20
23.486
 30
0.0
 11
38.384735
 21
18.75
 31
0.0
  0
LINE
  5
132
330
1E
100
AcDbEntity
  8
0
100
AcDbLine
 10
38.384735
 20
37.25
 30
0.0
 11
40.923235
 21
37.25
 31
0.0
  0
LINE
  5
135
330
1E
100
AcDbEntity
  8
0
100
AcDbLine
 10
99.461235
 20
36.584
 30
0.0
 11
99.461235
 21
34.808
 31
0.0
  0
LINE
  5
136
330
1E
100
AcDbEntity
  8
0
100
AcDbLine
 10
99.461235
 20
36.584
 30
0.0
 11
99.461235
 21
37.25
 31
0.0
  0
LINE
  5
137
330
1E
100
AcDbEntity
  8
0
100
AcDbLine
 10
99.461235
 20
34.808
 30
0.0
 11
99.461235
 21
31.848
 31
0.0
  0
LINE
  5
138
330
1E
100
AcDbEntity
  8
0
100
AcDbLine
 10
99.461235
 20
34.808
 30
0.0
 11
99.461235
 21
36.584
 31
0.0
  0
LINE
  5
139
330
1E
100
AcDbEntity
  8
0
100
AcDbLine
 10
99.461235
 20
31.848
 30
0.0
 11
99.461235
 21
27.926
 31
0.0
  0
LINE
  5
13A
330
1E
100
AcDbEntity
  8
0
100
AcDbLine
 10
99.461235
 20
31.848
 30
0.0
 11
99.461235
 21
34.808
 31
0.0
  0
LINE
  5
13B
330
1E
100
AcDbEntity
  8
0
100
AcDbLine
 10
99.92323500000001
 20
36.806
 30
0.0
 11
99.92323500000001
 21
36.14
 31
0.0
  0
LINE
  5
13C
330
1E
100
AcDbEntity
  8
0
100
AcDbLine
 10
99.92323500000001
 20
36.14
 30
0.0
 11
99.92323500000001
 21
34.364
 31
0.0
  0
LINE
  5
13D
330
1E
100
AcDbEntity
  8
0
100
AcDbLine
 10
99.92323500000001
 20
36.14
 30
0.0
 11
99.92323500000001
 21
36.806
 31
0.0
  0
LINE
  5
13E
330
1E
100
AcDbEntity
  8
0
100
AcDbLine
 10
99.92323500000001
 20
34.364
 30
0.0
 11
99.92323500000001
 21
31.478
 31
0.0
  0
LINE
  5
13F
330
1E
100
AcDbEntity
  8
0
100
AcDbLine
 10
99.92323500000001
 20
34.364
 30
0.0
 11
99.92323500000001
 21
36.14
 31
0.0
  0
LINE
  5
140
330
1E
100
AcDbEntity
  8
0
100
AcDbLine
 10
99.92323500000001
 20
31.478
 30
0.0
 11
99.92323500000001
 21
27.704
 31
0.0
  0
LINE
  5
141
330
1E
100
AcDbEntity
  8
0
100
AcDbLine
 10
99.92323500000001
 20
31.478
 30
0.0
 11
99.92323500000001
 21
34.364
 31
0.0
  0
LINE
  5
142
330
1E
100
AcDbEntity
  8
0
100
AcDbLine
 10
99.92323500000001
 20
27.704
 30
0.0
 11
99.92323500000001
 21
23.412
 31
0.0
  0
LINE
  5
143
330
1E
100
AcDbEntity
  8
0
100
AcDbLine
 10
99.92323500000001
 20
27.704
 30
0.0
 11
99.92323500000001
 21
31.478
 31
0.0
  0
LINE
  5
144
330
1E
100
AcDbEntity
  8
0
100
AcDbLine
 10
99.461235
 20
27.926
 30
0.0
 11
99.461235
 21
23.486
 31
0.0
  0
LINE
  5
145
330
1E
100
AcDbEntity
  8
0
100
AcDbLine
 10
99.461235
 20
27.926
 30
0.0
 11
99.461235
 21
31.848
 31
0.0
  0
LINE
  5
146
330
1E
100
AcDbEntity
  8
0
100
AcDbLine
 10
99.461235
 20
23.486
 30
0.0
 11
99.461235
 21
18.75
 31
0.0
  0
LINE
  5
147
330
1E
100
AcDbEntity
  8
0
100
AcDbLine
 10
99.461235
 20
23.486
 30
0.0
 11
99.461235
 21
27.926
 31
0.0
  0
LINE
  5
148
330
1E
100
AcDbEntity
  8
0
100
AcDbLine
 10
62.923235
 20
37.25
 30
0.0
 11
99.461235
 21
37.25
 31
0.0
  0
LINE
  5
149
330
1E
100
AcDbEntity
  8
0
100
AcDbLine
 10
99.461235
 20
37.25
 30
0.0
 11
99.92323500000001
 21
36.806
 31
0.0
  0
LINE
  5
14A
330
1E
100
AcDbEntity
  8
0
100
AcDbLine
 10
99.461235
 20
37.25
 30
0.0
 11
99.461235
 21
36.584
 31
0.0
  0
LINE
  5
14B
330
1E
100
AcDbEntity
  8
0
100
AcDbLine
 10
37.923235
 20
27.704
 30
0.0
 11
37.923235
 21
23.412
 31
0.0
  0
LINE
  5
14C
330
1E
100
AcDbEntity
  8
0
100
AcDbLine
 10
37.923235
 20
27.704
 30
0.0
 11
37.923235
 21
31.478
 31
0.0
  0
LINE
  5
14D
330
1E
100
AcDbEntity
  8
0
100
AcDbLine
 10
37.923235
 20
23.412
 30
0.0
 11
37.923235
 21
18.75
 31
0.0
  0
LINE
  5
14E
330
1E
100
AcDbEntity
  8
0
100
AcDbLine
 10
37.923235
 20
23.412
 30
0.0
 11
37.923235
 21
27.704
 31
0.0
  0
LINE
  5
14F
330
1E
100
AcDbEntity
  8
0
100
AcDbLine
 10
37.46173499999999
 20
37.25
 30
0.0
 11
37.923235
 21
36.806
 31
0.0
  0
LINE
  5
150
330
1E
100
AcDbEntity
  8
0
100
AcDbLine
 10
37.46173499999999
 20
37.25
 30
0.0
 11
37.46173499999999
 21
36.584
 31
0.0
  0
LINE
  5
151
330
1E
100
AcDbEntity
  8
0
100
AcDbLine
 10
40.923235
 20
80.75000000000001
 30
0.0
 11
41.42323499999998
 21
80.25
 31
0.0
  0
LINE
  5
152
330
1E
100
AcDbEntity
  8
0
100
AcDbLine
 10
40.923235
 20
80.75000000000001
 30
0.0
 11
51.923235
 21
80.75000000000001
 31
0.0
  0
LINE
  5
153
330
1E
100
AcDbEntity
  8
0
100
AcDbLine
 10
40.923235
 20
80.75000000000001
 30
0.0
 11
40.923235
 21
18.75
 31
0.0
  0
LINE
  5
195
330
1E
100
AcDbEntity
  8
0
100
AcDbLine
 10
62.423235
 20
80.25
 30
0.0
 11
62.923235
 21
80.75000000000001
 31
0.0
  0
LINE
  5
196
330
1E
100
AcDbEntity
  8
0
100
AcDbLine
 10
62.423235
 20
80.25
 30
0.0
 11
62.423235
 21
18.75
 31
0.0
  0
LINE
  5
197
330
1E
100
AcDbEntity
  8
0
100
AcDbLine
 10
51.923235
 20
80.25
 30
0.0
 11
62.423235
 21
80.25
 31
0.0
  0
LINE
  5
198
330
1E
100
AcDbEntity
  8
0
100
AcDbLine
 10
62.923235
 20
80.75000000000001
 30
0.0
 11
62.923235
 21
18.75
 31
0.0
  0
LINE
  5
199
330
1E
100
AcDbEntity
  8
0
100
AcDbLine
 10
51.923235
 20
80.75000000000001
 30
0.0
 11
62.923235
 21
80.75000000000001
 31
0.0
  0
LINE
  5
19A
330
1E
100
AcDbEntity
  8
0
100
AcDbLine
 10
41.42323499999998
 20
80.25
 30
0.0
 11
51.923235
 21
80.25
 31
0.0
  0
LINE
  5
19B
330
1E
100
AcDbEntity
  8
0
100
AcDbLine
 10
41.42323499999998
 20
80.25
 30
0.0
 11
41.42323499999998
 21
18.75
 31
0.0
  0
LINE
  5
19C
330
1E
100
AcDbEntity
  8
0
100
AcDbLine
 10
40.923235
 20
80.75000000000001
 30
0.0
 11
40.923235
 21
37.25
 31
0.0
  0
LINE
  5
19D
330
1E
100
AcDbEntity
  8
0
100
AcDbLine
 10
40.923235
 20
37.25
 30
0.0
 11
40.923235
 21
80.75000000000001
 31
0.0
  0
LINE
  5
19E
330
1E
100
AcDbEntity
  8
0
100
AcDbLine
 10
40.923235
 20
37.25
 30
0.0
 11
40.923235
 21
80.75000000000001
 31
0.0
  0
LINE
  5
19F
330
1E
100
AcDbEntity
  8
0
100
AcDbLine
 10
5.207485
 20
20.202
 30
0.0
 11
5.478114999999998
 21
19.506
 31
0.0
  0
LINE
  5
1A0
330
1E
100
AcDbEntity
  8
0
100
AcDbLine
 10
5.478114999999998
 20
19.506
 30
0.0
 11
5.579604999999999
 21
18.75
 31
0.0
  0
LINE
  5
1A1
330
1E
100
AcDbEntity
  8
0
100
AcDbLine
 10
3.033395
 20
21.75
 30
0.0
 11
6.384735
 21
21.75
 31
0.0
  0
LINE
  5
1A6
330
1E
100
AcDbEntity
  8
0
100
AcDbLine
 10
72.60199549575171
 20
5.65199999999999
 30
0.0
 11
71.55927862815615
 21
7.243679337170107
 31
0.0
  0
LINE
  5
1A7
330
1E
100
AcDbEntity
  8
0
100
AcDbLine
 10
71.55927862815615
 20
7.243679337170107
 30
0.0
 11
70.97224796735509
 21
8.902457951846912
 31
0.0
  0
LINE
  5
1A8
330
1E
100
AcDbEntity
  8
0
100
AcDbLine
 10
70.97224796735509
 20
8.902457951846912
 30
0.0
 11
70.66861143219887
 21
10.39940458947234
 31
0.0
  0
LINE
  5
1A9
330
1E
100
AcDbEntity
  8
0
100
AcDbLine
 10
70.66861143219887
 20
10.39940458947234
 30
0.0
 11
70.72933866073316
 21
11.71429011126494
 31
0.0
  0
LINE
  5
1AA
330
1E
100
AcDbEntity
  8
0
100
AcDbLine
 10
70.72933866073316
 20
11.71429011126494
 30
0.0
 11
70.93176314833226
 21
13.11009162158322
 31
0.0
  0
LINE
  5
1AB
330
1E
100
AcDbEntity
  8
0
100
AcDbLine
 10
70.93176314833226
 20
13.11009162158322
 30
0.0
 11
71.122235
 21
13.6019
 31
0.0
  0
LINE
  5
1AC
330
1E
100
AcDbEntity
  8
0
100
AcDbLine
 10
93.32223500000001
 20
13.6019
 30
0.0
 11
93.6887041972654
 21
11.94846371571546
 31
0.0
  0
LINE
  5
1AD
330
1E
100
AcDbEntity
  8
0
100
AcDbLine
 10
93.6887041972654
 20
11.94846371571546
 30
0.0
 11
93.81621940639739
 21
10.29186386775059
 31
0.0
  0
LINE
  5
1AE
330
1E
100
AcDbEntity
  8
0
100
AcDbLine
 10
93.81621940639739
 20
10.29186386775059
 30
0.0
 11
93.58669187296579
 21
8.762694864490782
 31
0.0
  0
LINE
  5
1AF
330
1E
100
AcDbEntity
  8
0
100
AcDbLine
 10
93.58669187296579
 20
8.762694864490782
 30
0.0
 11
92.97461831965312
 21
7.36095651706924
 31
0.0
  0
LINE
  5
1B0
330
1E
100
AcDbEntity
  8
0
100
AcDbLine
 10
92.97461831965312
 20
7.36095651706924
 30
0.0
 11
92.31153821170579
 21
6.31602427040832
 31
0.0
  0
LINE
  5
1B1
330
1E
100
AcDbEntity
  8
0
100
AcDbLine
 10
92.31153821170579
 20
6.31602427040832
 30
0.0
 11
91.8424745042483
 21
5.65199999999999
 31
0.0
  0
ENDSEC
  0
SECTION
  2
OBJECTS
  0
DICTIONARY
  5
C
330
0
100
AcDbDictionary
  3
ACAD_GROUP
350
D
  3
ACAD_LAYOUT
350
19
  3
ACAD_MLINESTYLE
350
16
  3
ACAD_PLOTSETTINGS
350
18
  3
ACAD_PLOTSTYLENAME
350
E
  3
ACDBHEADERROUNDTRIPXREC
350
1BB
  3
ACDBVARIABLEDICTIONARY
350
1B2
  0
DICTIONARY
  5
1DD
330
1E
100
AcDbDictionary
280
     1
  3
ACAD_LAYOUTSELFREF
360
1DE
  0
DICTIONARY
  5
1DB
330
1A
100
AcDbDictionary
280
     1
  3
ACAD_LAYOUTSELFREF
360
1DC
  0
DICTIONARY
  5
D
102
{ACAD_REACTORS
330
C
102
}
330
C
100
AcDbDictionary
  0
DICTIONARY
  5
19
102
{ACAD_REACTORS
330
C
102
}
330
C
100
AcDbDictionary
  0
DICTIONARY
  5
16
102
{ACAD_REACTORS
330
C
102
}
330
C
100
AcDbDictionary
  3
STANDARD
350
17
  0
DICTIONARY
  5
18
102
{ACAD_REACTORS
330
C
102
}
330
C
100
AcDbDictionary
  0
ACDBDICTIONARYWDFLT
  5
E
102
{ACAD_REACTORS
330
C
102
}
330
C
100
AcDbDictionary
281
     1
  3
Normal
350
F
100
AcDbDictionaryWithDefault
340
F
  0
DICTIONARY
  5
1BB
102
{ACAD_REACTORS
330
C
102
}
330
C
100
AcDbDictionary
  3
CEPSNTYPE
350
1C5
  3
FINGERPRINTGUID
350
1C6
  3
HYPERLINKBASE
350
1BE
  3
INSUNITS
350
1C4
  3
LAYOUTDICT
350
1C0
  3
LWETCUNION
350
1C3
  3
PLOTSETDICT
350
1C1
  3
PLOTSTYLNAMDICT
350
1C2
  3
PSVPSCALE
350
1C8
  3
PUCSBASE
350
1CB
  3
PUCSORGBACK
350
1D1
  3
PUCSORGBOTTOM
350
1CD
  3
PUCSORGFRONT
350
1D0
  3
PUCSORGLEFT
350
1CE
  3
PUCSORGRIGHT
350
1CF
  3
PUCSORGTOP
350
1CC
  3
PUCSORTHOREF
350
1C9
  3
PUCSORTHOVIEW
350
1CA
  3
STYLESHEET
350
1BF
  3
TSTACKALIGN
350
1BC
  3
TSTACKSIZE
350
1BD
  3
UCSBASE
350
1D4
  3
UCSORGBACK
350
1DA
  3
UCSORGBOTTOM
350
1D6
  3
UCSORGFRONT
350
1D9
  3
UCSORGLEFT
350
1D7
  3
UCSORGRIGHT
350
1D8
  3
UCSORGTOP
350
1D5
  3
UCSORTHOREF
350
1D2
  3
UCSORTHOVIEW
350
1D3
  3
VERSIONGUID
350
1C7
  0
DICTIONARY
  5
1B2
102
{ACAD_REACTORS
330
C
102
}
330
C
100
AcDbDictionary
  3
DIMASSOC
350
1B3
  0
XRECORD
  5
1DE
102
{ACAD_REACTORS
330
1DD
102
}
330
1DD
100
AcDbXrecord
340
1E
  0
XRECORD
  5
1DC
102
{ACAD_REACTORS
330
1DB
102
}
330
1DB
100
AcDbXrecord
340
1A
  0
MLINESTYLE
  5
17
102
{ACAD_REACTORS
330
16
102
}
330
16
100
AcDbMlineStyle
  2
STANDARD
 70
     0
  3

 62
   256
 51
90.0
 52
90.0
 71
     2
 49
0.5
 62
   256
  6
BYLAYER
 49
-0.5
 62
   256
  6
BYLAYER
  0
ACDBPLACEHOLDER
  5
F
102
{ACAD_REACTORS
330
E
102
}
330
E
100
AcDbPlaceHolder
280
     0
  0
XRECORD
  5
1C5
102
{ACAD_REACTORS
330
1BB
102
}
330
1BB
100
AcDbXrecord
 90
        0
  0
XRECORD
  5
1C6
102
{ACAD_REACTORS
330
1BB
102
}
330
1BB
100
AcDbXrecord
  1
{B57B2047-D219-46C7-83B2-7935A5173A6D}
  0
XRECORD
  5
1BE
102
{ACAD_REACTORS
330
1BB
102
}
330
1BB
100
AcDbXrecord
  1

  0
XRECORD
  5
1C4
102
{ACAD_REACTORS
330
1BB
102
}
330
1BB
100
AcDbXrecord
 90
        0
  0
XRECORD
  5
1C0
102
{ACAD_REACTORS
330
1BB
102
}
330
1BB
100
AcDbXrecord
340
19
  0
XRECORD
  5
1C3
102
{ACAD_REACTORS
330
1BB
102
}
330
1BB
100
AcDbXrecord
 90
    10781
  0
XRECORD
  5
1C1
102
{ACAD_REACTORS
330
1BB
102
}
330
1BB
100
AcDbXrecord
340
18
  0
XRECORD
  5
1C2
102
{ACAD_REACTORS
330
1BB
102
}
330
1BB
100
AcDbXrecord
340
E
  0
XRECORD
  5
1C8
102
{ACAD_REACTORS
330
1BB
102
}
330
1BB
100
AcDbXrecord
 40
0.0
  0
XRECORD
  5
1CB
102
{ACAD_REACTORS
330
1BB
102
}
330
1BB
100
AcDbXrecord
340
0
  0
XRECORD
  5
1D1
102
{ACAD_REACTORS
330
1BB
102
}
330
1BB
100
AcDbXrecord
 10
0.0
 20
0.0
 30
0.0
  0
XRECORD
  5
1CD
102
{ACAD_REACTORS
330
1BB
102
}
330
1BB
100
AcDbXrecord
 10
0.0
 20
0.0
 30
0.0
  0
XRECORD
  5
1D0
102
{ACAD_REACTORS
330
1BB
102
}
330
1BB
100
AcDbXrecord
 10
0.0
 20
0.0
 30
0.0
  0
XRECORD
  5
1CE
102
{ACAD_REACTORS
330
1BB
102
}
330
1BB
100
AcDbXrecord
 10
0.0
 20
0.0
 30
0.0
  0
XRECORD
  5
1CF
102
{ACAD_REACTORS
330
1BB
102
}
330
1BB
100
AcDbXrecord
 10
0.0
 20
0.0
 30
0.0
  0
XRECORD
  5
1CC
102
{ACAD_REACTORS
330
1BB
102
}
330
1BB
100
AcDbXrecord
 10
0.0
 20
0.0
 30
0.0
  0
XRECORD
  5
1C9
102
{ACAD_REACTORS
330
1BB
102
}
330
1BB
100
AcDbXrecord
340
0
  0
XRECORD
  5
1CA
102
{ACAD_REACTORS
330
1BB
102
}
330
1BB
100
AcDbXrecord
 70
     0
  0
XRECORD
  5
1BF
102
{ACAD_REACTORS
330
1BB
102
}
330
1BB
100
AcDbXrecord
  1

  0
XRECORD
  5
1BC
102
{ACAD_REACTORS
330
1BB
102
}
330
1BB
100
AcDbXrecord
 90
        1
  0
XRECORD
  5
1BD
102
{ACAD_REACTORS
330
1BB
102
}
330
1BB
100
AcDbXrecord
 90
       70
  0
XRECORD
  5
1D4
102
{ACAD_REACTORS
330
1BB
102
}
330
1BB
100
AcDbXrecord
340
0
  0
XRECORD
  5
1DA
102
{ACAD_REACTORS
330
1BB
102
}
330
1BB
100
AcDbXrecord
 10
0.0
 20
0.0
 30
0.0
  0
XRECORD
  5
1D6
102
{ACAD_REACTORS
330
1BB
102
}
330
1BB
100
AcDbXrecord
 10
0.0
 20
0.0
 30
0.0
  0
XRECORD
  5
1D9
102
{ACAD_REACTORS
330
1BB
102
}
330
1BB
100
AcDbXrecord
 10
0.0
 20
0.0
 30
0.0
  0
XRECORD
  5
1D7
102
{ACAD_REACTORS
330
1BB
102
}
330
1BB
100
AcDbXrecord
 10
0.0
 20
0.0
 30
0.0
  0
XRECORD
  5
1D8
102
{ACAD_REACTORS
330
1BB
102
}
330
1BB
100
AcDbXrecord
 10
0.0
 20
0.0
 30
0.0
  0
XRECORD
  5
1D5
102
{ACAD_REACTORS
330
1BB
102
}
330
1BB
100
AcDbXrecord
 10
0.0
 20
0.0
 30
0.0
  0
XRECORD
  5
1D2
102
{ACAD_REACTORS
330
1BB
102
}
330
1BB
100
AcDbXrecord
340
0
  0
XRECORD
  5
1D3
102
{ACAD_REACTORS
330
1BB
102
}
330
1BB
100
AcDbXrecord
 70
     1
  0
XRECORD
  5
1C7
102
{ACAD_REACTORS
330
1BB
102
}
330
1BB
100
AcDbXrecord
  1
{D1F0A039-E527-4474-8447-6AD052F0126D}
  0
DICTIONARYVAR
  5
1B3
102
{ACAD_REACTORS
330
1B2
102
}
330
1B2
100
DictionaryVariables
280
     0
  1
1
  0
ENDSEC
  0
EOF
