  0
SECTION
  2
HEADER
  9
$ACADVER
  1
AC1014
  9
$ACADMAINTVER
 70
     9
  9
$DWGCODEPAGE
  3
ANSI_1252
  9
$INSBASE
 10
0.0
 20
0.0
 30
0.0
  9
$EXTMIN
 10
0.0
 20
0.0000000000000002
 30
0.0
  9
$EXTMAX
 10
74.0
 20
74.0
 30
0.0
  9
$LIMMIN
 10
0.0
 20
0.0
  9
$LIMMAX
 10
12.0
 20
9.0
  9
$ORTHOMODE
 70
     0
  9
$REGENMODE
 70
     1
  9
$FILLMODE
 70
     1
  9
$QTEXTMODE
 70
     0
  9
$MIRRTEXT
 70
     1
  9
$DRAGMODE
 70
     2
  9
$LTSCALE
 40
1.0
  9
$OSMODE
 70
    37
  9
$ATTMODE
 70
     1
  9
$TEXTSIZE
 40
0.2
  9
$TRACEWID
 40
0.05
  9
$TEXTSTYLE
  7
STANDARD
  9
$CLAYER
  8
0
  9
$CELTYPE
  6
CONTINUOUS
  9
$CECOLOR
 62
   256
  9
$CELTSCALE
 40
1.0
  9
$DELOBJ
 70
     1
  9
$DISPSILH
 70
     0
  9
$DIMSCALE
 40
1.0
  9
$DIMASZ
 40
0.18
  9
$DIMEXO
 40
0.0625
  9
$DIMDLI
 40
0.38
  9
$DIMRND
 40
0.0
  9
$DIMDLE
 40
0.0
  9
$DIMEXE
 40
0.18
  9
$DIMTP
 40
0.0
  9
$DIMTM
 40
0.0
  9
$DIMTXT
 40
0.18
  9
$DIMCEN
 40
0.09
  9
$DIMTSZ
 40
0.0
  9
$DIMTOL
 70
     0
  9
$DIMLIM
 70
     0
  9
$DIMTIH
 70
     1
  9
$DIMTOH
 70
     1
  9
$DIMSE1
 70
     0
  9
$DIMSE2
 70
     0
  9
$DIMTAD
 70
     0
  9
$DIMZIN
 70
     0
  9
$DIMBLK
  1

  9
$DIMASO
 70
     1
  9
$DIMSHO
 70
     1
  9
$DIMPOST
  1

  9
$DIMAPOST
  1

  9
$DIMALT
 70
     0
  9
$DIMALTD
 70
     2
  9
$DIMALTF
 40
25.4
  9
$DIMLFAC
 40
1.0
  9
$DIMTOFL
 70
     0
  9
$DIMTVP
 40
0.0
  9
$DIMTIX
 70
     0
  9
$DIMSOXD
 70
     0
  9
$DIMSAH
 70
     0
  9
$DIMBLK1
  1

  9
$DIMBLK2
  1

  9
$DIMSTYLE
  2
STANDARD
  9
$DIMCLRD
 70
     0
  9
$DIMCLRE
 70
     0
  9
$DIMCLRT
 70
     0
  9
$DIMTFAC
 40
1.0
  9
$DIMGAP
 40
0.09
  9
$DIMJUST
 70
     0
  9
$DIMSD1
 70
     0
  9
$DIMSD2
 70
     0
  9
$DIMTOLJ
 70
     1
  9
$DIMTZIN
 70
     0
  9
$DIMALTZ
 70
     0
  9
$DIMALTTZ
 70
     0
  9
$DIMFIT
 70
     3
  9
$DIMUPT
 70
     0
  9
$DIMUNIT
 70
     2
  9
$DIMDEC
 70
     4
  9
$DIMTDEC
 70
     4
  9
$DIMALTU
 70
     2
  9
$DIMALTTD
 70
     2
  9
$DIMTXSTY
  7
STANDARD
  9
$DIMAUNIT
 70
     0
  9
$LUNITS
 70
     2
  9
$LUPREC
 70
     4
  9
$SKETCHINC
 40
0.1
  9
$FILLETRAD
 40
0.0
  9
$AUNITS
 70
     0
  9
$AUPREC
 70
     0
  9
$MENU
  1
.
  9
$ELEVATION
 40
0.0
  9
$PELEVATION
 40
0.0
  9
$THICKNESS
 40
0.0
  9
$LIMCHECK
 70
     0
  9
$BLIPMODE
 70
     0
  9
$CHAMFERA
 40
0.0
  9
$CHAMFERB
 40
0.0
  9
$CHAMFERC
 40
0.0
  9
$CHAMFERD
 40
0.0
  9
$SKPOLY
 70
     0
  9
$TDCREATE
 40
2455239.904485127
  9
$TDUPDATE
 40
2455239.906260845
  9
$TDINDWG
 40
0.0017757176
  9
$TDUSRTIMER
 40
0.0017757176
  9
$USRTIMER
 70
     1
  9
$ANGBASE
 50
0.0
  9
$ANGDIR
 70
     0
  9
$PDMODE
 70
     0
  9
$PDSIZE
 40
0.0
  9
$PLINEWID
 40
0.0
  9
$COORDS
 70
     1
  9
$SPLFRAME
 70
     0
  9
$SPLINETYPE
 70
     6
  9
$SPLINESEGS
 70
     8
  9
$ATTDIA
 70
     0
  9
$ATTREQ
 70
     1
  9
$HANDLING
 70
 22529
  9
$HANDSEED
  5
1DA
  9
$SURFTAB1
 70
     6
  9
$SURFTAB2
 70
     6
  9
$SURFTYPE
 70
     6
  9
$SURFU
 70
     6
  9
$SURFV
 70
     6
  9
$UCSNAME
  2

  9
$UCSORG
 10
0.0
 20
0.0
 30
0.0
  9
$UCSXDIR
 10
1.0
 20
0.0
 30
0.0
  9
$UCSYDIR
 10
0.0
 20
1.0
 30
0.0
  9
$PUCSNAME
  2

  9
$PUCSORG
 10
0.0
 20
0.0
 30
0.0
  9
$PUCSXDIR
 10
1.0
 20
0.0
 30
0.0
  9
$PUCSYDIR
 10
0.0
 20
1.0
 30
0.0
  9
$USERI1
 70
     0
  9
$USERI2
 70
     0
  9
$USERI3
 70
     0
  9
$USERI4
 70
     0
  9
$USERI5
 70
     0
  9
$USERR1
 40
0.0
  9
$USERR2
 40
0.0
  9
$USERR3
 40
0.0
  9
$USERR4
 40
0.0
  9
$USERR5
 40
0.0
  9
$WORLDVIEW
 70
     1
  9
$SHADEDGE
 70
     3
  9
$SHADEDIF
 70
    70
  9
$TILEMODE
 70
     1
  9
$MAXACTVP
 70
    64
  9
$PINSBASE
 10
0.0
 20
0.0
 30
0.0
  9
$PLIMCHECK
 70
     0
  9
$PEXTMIN
 10
1.000000000000000E+20
 20
1.000000000000000E+20
 30
1.000000000000000E+20
  9
$PEXTMAX
 10
-1.000000000000000E+20
 20
-1.000000000000000E+20
 30
-1.000000000000000E+20
  9
$PLIMMIN
 10
0.0
 20
0.0
  9
$PLIMMAX
 10
12.0
 20
9.0
  9
$UNITMODE
 70
     0
  9
$VISRETAIN
 70
     1
  9
$PLINEGEN
 70
     0
  9
$PSLTSCALE
 70
     1
  9
$TREEDEPTH
 70
  3020
  9
$PICKSTYLE
 70
     1
  9
$CMLSTYLE
  2
STANDARD
  9
$CMLJUST
 70
     0
  9
$CMLSCALE
 40
1.0
  9
$PROXYGRAPHICS
 70
     1
  9
$MEASUREMENT
 70
     0
  0
ENDSEC
  0
SECTION
  2
CLASSES
  0
CLASS
  1
ACDBDICTIONARYWDFLT
  2
AcDbDictionaryWithDefault
  3
AutoCAD 2000
 90
        0
280
     0
281
     0
  0
CLASS
  1
ACDBPLACEHOLDER
  2
AcDbPlaceHolder
  3
AutoCAD 2000
 90
        0
280
     0
281
     0
  0
CLASS
  1
LAYOUT
  2
AcDbLayout
  3
AutoCAD 2000
 90
        0
280
     0
281
     0
  0
CLASS
  1
DICTIONARYVAR
  2
AcDbDictionaryVar
  3
AutoCAD 2000
 90
        0
280
     0
281
     0
  0
CLASS
  1
LONG_TRANSACTION
  2
AcDbLongTransaction
  3
AutoCAD 2000
 90
        0
280
     0
281
     0
  0
CLASS
  1
LWPOLYLINE
  2
AcDbPolyline
  3
AutoCAD 2000
 90
        0
280
     0
281
     1
  0
CLASS
  1
HATCH
  2
AcDbHatch
  3
AutoCAD 2000
 90
        0
280
     0
281
     1
  0
CLASS
  1
XRECORD
  2
AcDbXrecord
  3
AutoCAD 2000
 90
        0
280
     0
281
     0
  0
ENDSEC
  0
SECTION
  2
TABLES
  0
TABLE
  2
VPORT
  5
8
330
0
100
AcDbSymbolTable
 70
     3
  0
VPORT
  5
1B5
330
8
100
AcDbSymbolTableRecord
100
AcDbViewportTableRecord
  2
*ACTIVE
 70
     0
 10
0.0
 20
0.0
 11
1.0
 21
1.0
 12
37.0
 22
37.0
 13
0.0
 23
0.0
 14
1.0
 24
1.0
 15
0.0
 25
0.0
 16
0.0
 26
0.0
 36
1.0
 17
0.0
 27
0.0
 37
0.0
 40
74.48577680525165
 41
2.041621029572836
 42
50.0
 43
0.0
 44
0.0
 50
0.0
 51
0.0
 71
     0
 72
   100
 73
     1
 74
     3
 75
     0
 76
     0
 77
     0
 78
     0
  0
ENDTAB
  0
TABLE
  2
LTYPE
  5
5
330
0
100
AcDbSymbolTable
 70
     1
  0
LTYPE
  5
13
330
5
100
AcDbSymbolTableRecord
100
AcDbLinetypeTableRecord
  2
BYBLOCK
 70
     0
  3

 72
    65
 73
     0
 40
0.0
  0
LTYPE
  5
14
330
5
100
AcDbSymbolTableRecord
100
AcDbLinetypeTableRecord
  2
BYLAYER
 70
     0
  3

 72
    65
 73
     0
 40
0.0
  0
LTYPE
  5
15
330
5
100
AcDbSymbolTableRecord
100
AcDbLinetypeTableRecord
  2
CONTINUOUS
 70
     0
  3
Solid line
 72
    65
 73
     0
 40
0.0
  0
ENDTAB
  0
TABLE
  2
LAYER
  5
2
330
0
100
AcDbSymbolTable
 70
     1
  0
LAYER
  5
10
330
2
100
AcDbSymbolTableRecord
100
AcDbLayerTableRecord
  2
0
 70
     0
 62
     7
  6
CONTINUOUS
  0
ENDTAB
  0
TABLE
  2
STYLE
  5
3
330
0
100
AcDbSymbolTable
 70
     1
  0
STYLE
  5
11
330
3
100
AcDbSymbolTableRecord
100
AcDbTextStyleTableRecord
  2
STANDARD
 70
     0
 40
0.0
 41
1.0
 50
0.0
 71
     0
 42
0.2
  3
txt
  4

  0
ENDTAB
  0
TABLE
  2
VIEW
  5
6
330
0
100
AcDbSymbolTable
 70
     0
  0
ENDTAB
  0
TABLE
  2
UCS
  5
7
330
0
100
AcDbSymbolTable
 70
     0
  0
ENDTAB
  0
TABLE
  2
APPID
  5
9
330
0
100
AcDbSymbolTable
 70
     1
  0
APPID
  5
12
330
9
100
AcDbSymbolTableRecord
100
AcDbRegAppTableRecord
  2
ACAD
 70
     0
  0
ENDTAB
  0
TABLE
  2
DIMSTYLE
  5
A
330
0
100
AcDbSymbolTable
 70
     1
  0
DIMSTYLE
105
11E
330
A
100
AcDbSymbolTableRecord
100
AcDbDimStyleTableRecord
  2
STANDARD
 70
     0
  3

  4

  5

  6

  7

 40
1.0
 41
0.18
 42
0.0625
 43
0.38
 44
0.18
 45
0.0
 46
0.0
 47
0.0
 48
0.0
140
0.18
141
0.09
142
0.0
143
25.4
144
1.0
145
0.0
146
1.0
147
0.09
 71
     0
 72
     0
 73
     1
 74
     1
 75
     0
 76
     0
 77
     0
 78
     0
170
     0
171
     2
172
     0
173
     0
174
     0
175
     0
176
     0
177
     0
178
     0
270
     2
271
     4
272
     4
273
     2
274
     2
340
11
275
     0
280
     0
281
     0
282
     0
283
     1
284
     0
285
     0
286
     0
287
     3
288
     0
  0
ENDTAB
  0
TABLE
  2
BLOCK_RECORD
  5
1
330
0
100
AcDbSymbolTable
 70
     0
  0
BLOCK_RECORD
  5
1E
102
{ACAD_XDICTIONARY
360
1D8
102
}
330
1
100
AcDbSymbolTableRecord
100
AcDbBlockTableRecord
  2
*MODEL_SPACE
  0
BLOCK_RECORD
  5
1A
102
{ACAD_XDICTIONARY
360
1D6
102
}
330
1
100
AcDbSymbolTableRecord
100
AcDbBlockTableRecord
  2
*PAPER_SPACE
  0
ENDTAB
  0
ENDSEC
  0
SECTION
  2
BLOCKS
  0
BLOCK
  5
1F
330
1E
100
AcDbEntity
  8
0
100
AcDbBlockBegin
  2
*MODEL_SPACE
 70
     0
 10
0.0
 20
0.0
 30
0.0
  3
*MODEL_SPACE
  1

  0
ENDBLK
  5
20
330
1E
100
AcDbEntity
  8
0
100
AcDbBlockEnd
  0
BLOCK
  5
1B
330
1A
100
AcDbEntity
 67
     1
  8
0
100
AcDbBlockBegin
  2
*PAPER_SPACE
 70
     0
 10
0.0
 20
0.0
 30
0.0
  3
*PAPER_SPACE
  1

  0
ENDBLK
  5
1C
330
1A
100
AcDbEntity
 67
     1
  8
0
100
AcDbBlockEnd
  0
ENDSEC
  0
SECTION
  2
ENTITIES
  0
LINE
  5
22
330
1E
100
AcDbEntity
  8
0
100
AcDbLine
 10
0.0
 20
37.0
 30
0.0
 11
1.331999999999999
 21
27.528
 31
0.0
  0
LINE
  5
24
330
1E
100
AcDbEntity
  8
0
100
AcDbLine
 10
10.804
 20
10.804
 30
0.0
 11
18.64799999999999
 21
4.883999999999999
 31
0.0
  0
LINE
  5
25
330
1E
100
AcDbEntity
  8
0
100
AcDbLine
 10
10.804
 20
10.804
 30
0.0
 11
18.64799999999999
 21
4.883999999999999
 31
0.0
  0
LINE
  5
26
330
1E
100
AcDbEntity
  8
0
100
AcDbLine
 10
4.883999999999999
 20
18.64799999999999
 30
0.0
 11
10.804
 21
10.804
 31
0.0
  0
LINE
  5
27
330
1E
100
AcDbEntity
  8
0
100
AcDbLine
 10
27.528
 20
1.331999999999999
 30
0.0
 11
37.0
 21
0.0000000000000003
 31
0.0
  0
LINE
  5
28
330
1E
100
AcDbEntity
  8
0
100
AcDbLine
 10
27.528
 20
1.331999999999999
 30
0.0
 11
37.0
 21
0.0000000000000002
 31
0.0
  0
LINE
  5
29
330
1E
100
AcDbEntity
  8
0
100
AcDbLine
 10
27.528
 20
1.331999999999999
 30
0.0
 11
37.0
 21
0.0000000000000009
 31
0.0
  0
LINE
  5
2A
330
1E
100
AcDbEntity
  8
0
100
AcDbLine
 10
27.528
 20
1.331999999999999
 30
0.0
 11
37.0
 21
0.0000000000000008
 31
0.0
  0
LINE
  5
2B
330
1E
100
AcDbEntity
  8
0
100
AcDbLine
 10
27.528
 20
1.331999999999999
 30
0.0
 11
37.0
 21
0.0000000000000007
 31
0.0
  0
LINE
  5
2C
330
1E
100
AcDbEntity
  8
0
100
AcDbLine
 10
27.528
 20
1.331999999999999
 30
0.0
 11
37.0
 21
0.0000000000000006
 31
0.0
  0
LINE
  5
2D
330
1E
100
AcDbEntity
  8
0
100
AcDbLine
 10
27.528
 20
1.331999999999999
 30
0.0
 11
37.0
 21
0.0000000000000005
 31
0.0
  0
LINE
  5
2E
330
1E
100
AcDbEntity
  8
0
100
AcDbLine
 10
18.64799999999999
 20
4.883999999999999
 30
0.0
 11
27.528
 21
1.331999999999999
 31
0.0
  0
LINE
  5
2F
330
1E
100
AcDbEntity
  8
0
100
AcDbLine
 10
18.64799999999999
 20
4.883999999999999
 30
0.0
 11
27.528
 21
1.331999999999999
 31
0.0
  0
LINE
  5
30
330
1E
100
AcDbEntity
  8
0
100
AcDbLine
 10
18.64799999999999
 20
4.883999999999999
 30
0.0
 11
27.528
 21
1.331999999999999
 31
0.0
  0
LINE
  5
31
330
1E
100
AcDbEntity
  8
0
100
AcDbLine
 10
18.64799999999999
 20
4.883999999999999
 30
0.0
 11
27.528
 21
1.331999999999999
 31
0.0
  0
LINE
  5
32
330
1E
100
AcDbEntity
  8
0
100
AcDbLine
 10
18.64799999999999
 20
4.883999999999999
 30
0.0
 11
27.528
 21
1.331999999999999
 31
0.0
  0
LINE
  5
3F
330
1E
100
AcDbEntity
  8
0
100
AcDbLine
 10
27.784
 20
2.295999999999999
 30
0.0
 11
37.0
 21
1.0
 31
0.0
  0
LINE
  5
40
330
1E
100
AcDbEntity
  8
0
100
AcDbLine
 10
27.784
 20
2.295999999999999
 30
0.0
 11
37.0
 21
1.0
 31
0.0
  0
LINE
  5
47
330
1E
100
AcDbEntity
  8
0
100
AcDbLine
 10
30.665
 20
13.73099999999999
 30
0.0
 11
37.0
 21
13.0
 31
0.0
  0
LINE
  5
48
330
1E
100
AcDbEntity
  8
0
100
AcDbLine
 10
24.9391
 20
16.1675
 30
0.0
 11
30.665
 21
13.73099999999999
 31
0.0
  0
LINE
  5
49
330
1E
100
AcDbEntity
  8
0
100
AcDbLine
 10
19.144
 20
5.752
 30
0.0
 11
27.784
 21
2.295999999999999
 31
0.0
  0
LINE
  5
4A
330
1E
100
AcDbEntity
  8
0
100
AcDbLine
 10
11.512
 20
11.512
 30
0.0
 11
19.144
 21
5.752
 31
0.0
  0
LINE
  5
4B
330
1E
100
AcDbEntity
  8
0
100
AcDbLine
 10
2.295999999999999
 20
27.784
 30
0.0
 11
5.752
 21
19.144
 31
0.0
  0
LINE
  5
4C
330
1E
100
AcDbEntity
  8
0
100
AcDbLine
 10
1.331999999999999
 20
27.528
 30
0.0
 11
4.883999999999999
 21
18.64799999999999
 31
0.0
  0
LINE
  5
5E
330
1E
100
AcDbEntity
  8
0
100
AcDbLine
 10
32.85159999999999
 20
21.6016
 30
0.0
 11
37.0
 21
21.1094
 31
0.0
  0
LINE
  5
61
330
1E
100
AcDbEntity
  8
0
100
AcDbLine
 10
32.42969999999999
 20
20.1953
 30
0.0
 11
37.0
 21
19.5625
 31
0.0
  0
LINE
  5
6D
330
1E
100
AcDbEntity
  8
0
100
AcDbLine
 10
33.625
 20
24.4844
 30
0.0
 11
37.0
 21
24.0625
 31
0.0
  0
LINE
  5
70
330
1E
100
AcDbEntity
  8
0
100
AcDbLine
 10
29.0547
 20
23.2891
 30
0.0
 11
32.85159999999999
 21
21.6016
 31
0.0
  0
LINE
  5
73
330
1E
100
AcDbEntity
  8
0
100
AcDbLine
 10
28.2813
 20
21.9531
 30
0.0
 11
32.42969999999999
 21
20.1953
 31
0.0
  0
LINE
  5
74
330
1E
100
AcDbEntity
  8
0
100
AcDbLine
 10
24.6953
 20
24.6953
 30
0.0
 11
28.2813
 21
21.9531
 31
0.0
  0
LINE
  5
77
330
1E
100
AcDbEntity
  8
0
100
AcDbLine
 10
23.2891
 20
29.0547
 30
0.0
 11
25.75
 21
25.75
 31
0.0
  0
LINE
  5
7A
330
1E
100
AcDbEntity
  8
0
100
AcDbLine
 10
21.9531
 20
28.2813
 30
0.0
 11
24.6953
 21
24.6953
 31
0.0
  0
LINE
  5
80
330
1E
100
AcDbEntity
  8
0
100
AcDbLine
 10
30.5313
 20
25.89059999999999
 30
0.0
 11
33.625
 21
24.4844
 31
0.0
  0
LINE
  5
81
330
1E
100
AcDbEntity
  8
0
100
AcDbLine
 10
25.89059999999999
 20
30.5313
 30
0.0
 11
27.8594
 21
27.8594
 31
0.0
  0
LINE
  5
89
330
1E
100
AcDbEntity
  8
0
100
AcDbLine
 10
27.8594
 20
27.8594
 30
0.0
 11
30.5313
 21
25.89059999999999
 31
0.0
  0
LINE
  5
8B
330
1E
100
AcDbEntity
  8
0
100
AcDbLine
 10
25.75
 20
25.75
 30
0.0
 11
29.0547
 21
23.2891
 31
0.0
  0
LINE
  5
91
330
1E
100
AcDbEntity
  8
0
100
AcDbLine
 10
19.94419999999999
 20
19.94419999999999
 30
0.0
 11
24.9391
 21
16.1675
 31
0.0
  0
LINE
  5
92
330
1E
100
AcDbEntity
  8
0
100
AcDbLine
 10
16.1675
 20
24.9391
 30
0.0
 11
19.94419999999999
 21
19.94419999999999
 31
0.0
  0
LINE
  5
96
330
1E
100
AcDbEntity
  8
0
100
AcDbLine
 10
19.5625
 20
37.0
 30
0.0
 11
20.1953
 21
32.42969999999999
 31
0.0
  0
LINE
  5
9F
330
1E
100
AcDbEntity
  8
0
100
AcDbLine
 10
21.1094
 20
37.0
 30
0.0
 11
21.6016
 21
32.85159999999999
 31
0.0
  0
LINE
  5
B6
330
1E
100
AcDbEntity
  8
0
100
AcDbLine
 10
24.0625
 20
37.0
 30
0.0
 11
24.4844
 21
33.625
 31
0.0
  0
LINE
  5
D6
330
1E
100
AcDbEntity
  8
0
100
AcDbLine
 10
24.4844
 20
33.625
 30
0.0
 11
25.89059999999999
 21
30.5313
 31
0.0
  0
LINE
  5
D9
330
1E
100
AcDbEntity
  8
0
100
AcDbLine
 10
21.6016
 20
32.85159999999999
 30
0.0
 11
23.2891
 21
29.0547
 31
0.0
  0
LINE
  5
DC
330
1E
100
AcDbEntity
  8
0
100
AcDbLine
 10
20.1953
 20
32.42969999999999
 30
0.0
 11
21.9531
 21
28.2813
 31
0.0
  0
LINE
  5
118
330
1E
100
AcDbEntity
  8
0
100
AcDbLine
 10
13.73099999999999
 20
30.665
 30
0.0
 11
16.1675
 21
24.9391
 31
0.0
  0
LINE
  5
119
330
1E
100
AcDbEntity
  8
0
100
AcDbLine
 10
13.0
 20
37.0
 30
0.0
 11
13.73099999999999
 21
30.665
 31
0.0
  0
LINE
  5
11B
330
1E
100
AcDbEntity
  8
0
100
AcDbLine
 10
5.752
 20
19.144
 30
0.0
 11
11.512
 21
11.512
 31
0.0
  0
LINE
  5
11C
330
1E
100
AcDbEntity
  8
0
100
AcDbLine
 10
1.0
 20
37.0
 30
0.0
 11
2.295999999999999
 21
27.784
 31
0.0
  0
LINE
  5
122
330
1E
100
AcDbEntity
  8
0
100
AcDbLine
 10
11.512
 20
62.488
 30
0.0
 11
19.144
 21
68.248
 31
0.0
  0
LINE
  5
123
330
1E
100
AcDbEntity
  8
0
100
AcDbLine
 10
10.804
 20
63.196
 30
0.0
 11
18.64799999999999
 21
69.11599999999999
 31
0.0
  0
LINE
  5
124
330
1E
100
AcDbEntity
  8
0
100
AcDbLine
 10
10.804
 20
63.196
 30
0.0
 11
18.64799999999999
 21
69.11599999999999
 31
0.0
  0
LINE
  5
125
330
1E
100
AcDbEntity
  8
0
100
AcDbLine
 10
13.73099999999999
 20
43.33499999999999
 30
0.0
 11
16.1675
 21
49.0609
 31
0.0
  0
LINE
  5
126
330
1E
100
AcDbEntity
  8
0
100
AcDbLine
 10
5.752
 20
54.85599999999999
 30
0.0
 11
11.512
 21
62.488
 31
0.0
  0
LINE
  5
127
330
1E
100
AcDbEntity
  8
0
100
AcDbLine
 10
4.883999999999999
 20
55.352
 30
0.0
 11
10.804
 21
63.196
 31
0.0
  0
LINE
  5
128
330
1E
100
AcDbEntity
  8
0
100
AcDbLine
 10
1.331999999999999
 20
46.47199999999999
 30
0.0
 11
4.883999999999999
 21
55.352
 31
0.0
  0
LINE
  5
129
330
1E
100
AcDbEntity
  8
0
100
AcDbLine
 10
2.295999999999999
 20
46.21599999999999
 30
0.0
 11
5.752
 21
54.85599999999999
 31
0.0
  0
LINE
  5
12A
330
1E
100
AcDbEntity
  8
0
100
AcDbLine
 10
1.0
 20
37.0
 30
0.0
 11
2.295999999999999
 21
46.21599999999999
 31
0.0
  0
LINE
  5
12B
330
1E
100
AcDbEntity
  8
0
100
AcDbLine
 10
0.0
 20
37.0
 30
0.0
 11
1.331999999999999
 21
46.47199999999999
 31
0.0
  0
LINE
  5
12C
330
1E
100
AcDbEntity
  8
0
100
AcDbLine
 10
13.0
 20
37.0
 30
0.0
 11
13.73099999999999
 21
43.33499999999999
 31
0.0
  0
LINE
  5
12D
330
1E
100
AcDbEntity
  8
0
100
AcDbLine
 10
24.9391
 20
57.83249999999999
 30
0.0
 11
30.665
 21
60.269
 31
0.0
  0
LINE
  5
12E
330
1E
100
AcDbEntity
  8
0
100
AcDbLine
 10
19.144
 20
68.248
 30
0.0
 11
27.784
 21
71.70399999999999
 31
0.0
  0
LINE
  5
12F
330
1E
100
AcDbEntity
  8
0
100
AcDbLine
 10
18.64799999999999
 20
69.11599999999999
 30
0.0
 11
27.528
 21
72.668
 31
0.0
  0
LINE
  5
130
330
1E
100
AcDbEntity
  8
0
100
AcDbLine
 10
18.64799999999999
 20
69.11599999999999
 30
0.0
 11
27.528
 21
72.668
 31
0.0
  0
LINE
  5
131
330
1E
100
AcDbEntity
  8
0
100
AcDbLine
 10
18.64799999999999
 20
69.11599999999999
 30
0.0
 11
27.528
 21
72.668
 31
0.0
  0
LINE
  5
132
330
1E
100
AcDbEntity
  8
0
100
AcDbLine
 10
18.64799999999999
 20
69.11599999999999
 30
0.0
 11
27.528
 21
72.668
 31
0.0
  0
LINE
  5
133
330
1E
100
AcDbEntity
  8
0
100
AcDbLine
 10
18.64799999999999
 20
69.11599999999999
 30
0.0
 11
27.528
 21
72.668
 31
0.0
  0
LINE
  5
134
330
1E
100
AcDbEntity
  8
0
100
AcDbLine
 10
27.784
 20
71.70399999999999
 30
0.0
 11
37.0
 21
73.0
 31
0.0
  0
LINE
  5
135
330
1E
100
AcDbEntity
  8
0
100
AcDbLine
 10
27.784
 20
71.70399999999999
 30
0.0
 11
37.0
 21
73.0
 31
0.0
  0
LINE
  5
136
330
1E
100
AcDbEntity
  8
0
100
AcDbLine
 10
27.528
 20
72.668
 30
0.0
 11
37.0
 21
74.0
 31
0.0
  0
LINE
  5
137
330
1E
100
AcDbEntity
  8
0
100
AcDbLine
 10
27.528
 20
72.668
 30
0.0
 11
37.0
 21
74.0
 31
0.0
  0
LINE
  5
138
330
1E
100
AcDbEntity
  8
0
100
AcDbLine
 10
27.528
 20
72.668
 30
0.0
 11
37.0
 21
74.0
 31
0.0
  0
LINE
  5
139
330
1E
100
AcDbEntity
  8
0
100
AcDbLine
 10
27.528
 20
72.668
 30
0.0
 11
37.0
 21
74.0
 31
0.0
  0
LINE
  5
13A
330
1E
100
AcDbEntity
  8
0
100
AcDbLine
 10
27.528
 20
72.668
 30
0.0
 11
37.0
 21
74.0
 31
0.0
  0
LINE
  5
13B
330
1E
100
AcDbEntity
  8
0
100
AcDbLine
 10
27.528
 20
72.668
 30
0.0
 11
37.0
 21
74.0
 31
0.0
  0
LINE
  5
13C
330
1E
100
AcDbEntity
  8
0
100
AcDbLine
 10
27.528
 20
72.668
 30
0.0
 11
37.0
 21
74.0
 31
0.0
  0
LINE
  5
13D
330
1E
100
AcDbEntity
  8
0
100
AcDbLine
 10
30.665
 20
60.269
 30
0.0
 11
37.0
 21
61.0
 31
0.0
  0
LINE
  5
13E
330
1E
100
AcDbEntity
  8
0
100
AcDbLine
 10
24.6953
 20
49.30469999999999
 30
0.0
 11
28.2813
 21
52.0469
 31
0.0
  0
LINE
  5
13F
330
1E
100
AcDbEntity
  8
0
100
AcDbLine
 10
24.4844
 20
40.375
 30
0.0
 11
25.89059999999999
 21
43.4687
 31
0.0
  0
LINE
  5
140
330
1E
100
AcDbEntity
  8
0
100
AcDbLine
 10
23.2891
 20
44.9453
 30
0.0
 11
25.75
 21
48.25
 31
0.0
  0
LINE
  5
141
330
1E
100
AcDbEntity
  8
0
100
AcDbLine
 10
21.9531
 20
45.71869999999999
 30
0.0
 11
24.6953
 21
49.30469999999999
 31
0.0
  0
LINE
  5
142
330
1E
100
AcDbEntity
  8
0
100
AcDbLine
 10
16.1675
 20
49.0609
 30
0.0
 11
19.94419999999999
 21
54.0558
 31
0.0
  0
LINE
  5
143
330
1E
100
AcDbEntity
  8
0
100
AcDbLine
 10
19.94419999999999
 20
54.0558
 30
0.0
 11
24.9391
 21
57.83249999999999
 31
0.0
  0
LINE
  5
144
330
1E
100
AcDbEntity
  8
0
100
AcDbLine
 10
19.5625
 20
37.0
 30
0.0
 11
20.1953
 21
41.5703
 31
0.0
  0
LINE
  5
145
330
1E
100
AcDbEntity
  8
0
100
AcDbLine
 10
20.1953
 20
41.5703
 30
0.0
 11
21.9531
 21
45.71869999999999
 31
0.0
  0
LINE
  5
146
330
1E
100
AcDbEntity
  8
0
100
AcDbLine
 10
21.6016
 20
41.1484
 30
0.0
 11
23.2891
 21
44.9453
 31
0.0
  0
LINE
  5
147
330
1E
100
AcDbEntity
  8
0
100
AcDbLine
 10
21.1094
 20
37.0
 30
0.0
 11
21.6016
 21
41.1484
 31
0.0
  0
LINE
  5
148
330
1E
100
AcDbEntity
  8
0
100
AcDbLine
 10
24.0625
 20
37.0
 30
0.0
 11
24.4844
 21
40.375
 31
0.0
  0
LINE
  5
149
330
1E
100
AcDbEntity
  8
0
100
AcDbLine
 10
30.5313
 20
48.1094
 30
0.0
 11
33.625
 21
49.5156
 31
0.0
  0
LINE
  5
14A
330
1E
100
AcDbEntity
  8
0
100
AcDbLine
 10
25.75
 20
48.25
 30
0.0
 11
29.0547
 21
50.71089999999999
 31
0.0
  0
LINE
  5
14B
330
1E
100
AcDbEntity
  8
0
100
AcDbLine
 10
29.0547
 20
50.71089999999999
 30
0.0
 11
32.85159999999999
 21
52.3984
 31
0.0
  0
LINE
  5
14C
330
1E
100
AcDbEntity
  8
0
100
AcDbLine
 10
28.2813
 20
52.0469
 30
0.0
 11
32.42969999999999
 21
53.80469999999999
 31
0.0
  0
LINE
  5
14D
330
1E
100
AcDbEntity
  8
0
100
AcDbLine
 10
32.42969999999999
 20
53.80469999999999
 30
0.0
 11
37.0
 21
54.4375
 31
0.0
  0
LINE
  5
14E
330
1E
100
AcDbEntity
  8
0
100
AcDbLine
 10
33.625
 20
49.5156
 30
0.0
 11
37.0
 21
49.9375
 31
0.0
  0
LINE
  5
14F
330
1E
100
AcDbEntity
  8
0
100
AcDbLine
 10
32.85159999999999
 20
52.3984
 30
0.0
 11
37.0
 21
52.8906
 31
0.0
  0
LINE
  5
150
330
1E
100
AcDbEntity
  8
0
100
AcDbLine
 10
27.8594
 20
46.1406
 30
0.0
 11
30.5313
 21
48.1094
 31
0.0
  0
LINE
  5
151
330
1E
100
AcDbEntity
  8
0
100
AcDbLine
 10
25.89059999999999
 20
43.4687
 30
0.0
 11
27.8594
 21
46.1406
 31
0.0
  0
LINE
  5
152
330
1E
100
AcDbEntity
  8
0
100
AcDbLine
 10
49.9375
 20
37.0
 30
0.0
 11
49.5156
 21
40.375
 31
0.0
  0
LINE
  5
153
330
1E
100
AcDbEntity
  8
0
100
AcDbLine
 10
52.8906
 20
37.0
 30
0.0
 11
52.3984
 21
41.1484
 31
0.0
  0
LINE
  5
154
330
1E
100
AcDbEntity
  8
0
100
AcDbLine
 10
54.4375
 20
37.0
 30
0.0
 11
53.80469999999999
 21
41.5703
 31
0.0
  0
LINE
  5
155
330
1E
100
AcDbEntity
  8
0
100
AcDbLine
 10
61.0
 20
37.0
 30
0.0
 11
60.269
 21
43.33499999999999
 31
0.0
  0
LINE
  5
156
330
1E
100
AcDbEntity
  8
0
100
AcDbLine
 10
74.0
 20
37.0
 30
0.0
 11
72.668
 21
46.47199999999999
 31
0.0
  0
LINE
  5
157
330
1E
100
AcDbEntity
  8
0
100
AcDbLine
 10
73.0
 20
37.0
 30
0.0
 11
71.70399999999999
 21
46.21599999999999
 31
0.0
  0
LINE
  5
158
330
1E
100
AcDbEntity
  8
0
100
AcDbLine
 10
62.488
 20
11.512
 30
0.0
 11
54.85599999999999
 21
5.752
 31
0.0
  0
LINE
  5
159
330
1E
100
AcDbEntity
  8
0
100
AcDbLine
 10
63.196
 20
10.804
 30
0.0
 11
55.352
 21
4.883999999999999
 31
0.0
  0
LINE
  5
15A
330
1E
100
AcDbEntity
  8
0
100
AcDbLine
 10
63.196
 20
10.804
 30
0.0
 11
55.352
 21
4.883999999999999
 31
0.0
  0
LINE
  5
15B
330
1E
100
AcDbEntity
  8
0
100
AcDbLine
 10
60.269
 20
30.665
 30
0.0
 11
57.83249999999999
 21
24.9391
 31
0.0
  0
LINE
  5
15C
330
1E
100
AcDbEntity
  8
0
100
AcDbLine
 10
68.248
 20
19.144
 30
0.0
 11
62.488
 21
11.512
 31
0.0
  0
LINE
  5
15D
330
1E
100
AcDbEntity
  8
0
100
AcDbLine
 10
69.11599999999999
 20
18.64799999999999
 30
0.0
 11
63.196
 21
10.804
 31
0.0
  0
LINE
  5
15E
330
1E
100
AcDbEntity
  8
0
100
AcDbLine
 10
72.668
 20
27.528
 30
0.0
 11
69.11599999999999
 21
18.64799999999999
 31
0.0
  0
LINE
  5
15F
330
1E
100
AcDbEntity
  8
0
100
AcDbLine
 10
71.70399999999999
 20
27.784
 30
0.0
 11
68.248
 21
19.144
 31
0.0
  0
LINE
  5
160
330
1E
100
AcDbEntity
  8
0
100
AcDbLine
 10
73.0
 20
37.0
 30
0.0
 11
71.70399999999999
 21
27.784
 31
0.0
  0
LINE
  5
161
330
1E
100
AcDbEntity
  8
0
100
AcDbLine
 10
74.0
 20
37.0
 30
0.0
 11
72.668
 21
27.528
 31
0.0
  0
LINE
  5
162
330
1E
100
AcDbEntity
  8
0
100
AcDbLine
 10
61.0
 20
37.0
 30
0.0
 11
60.269
 21
30.665
 31
0.0
  0
LINE
  5
163
330
1E
100
AcDbEntity
  8
0
100
AcDbLine
 10
49.0609
 20
16.1675
 30
0.0
 11
43.33499999999999
 21
13.73099999999999
 31
0.0
  0
LINE
  5
164
330
1E
100
AcDbEntity
  8
0
100
AcDbLine
 10
54.85599999999999
 20
5.752
 30
0.0
 11
46.21599999999999
 21
2.295999999999999
 31
0.0
  0
LINE
  5
165
330
1E
100
AcDbEntity
  8
0
100
AcDbLine
 10
55.352
 20
4.883999999999999
 30
0.0
 11
46.47199999999999
 21
1.331999999999999
 31
0.0
  0
LINE
  5
166
330
1E
100
AcDbEntity
  8
0
100
AcDbLine
 10
55.352
 20
4.883999999999999
 30
0.0
 11
46.47199999999999
 21
1.331999999999999
 31
0.0
  0
LINE
  5
167
330
1E
100
AcDbEntity
  8
0
100
AcDbLine
 10
55.352
 20
4.883999999999999
 30
0.0
 11
46.47199999999999
 21
1.331999999999999
 31
0.0
  0
LINE
  5
168
330
1E
100
AcDbEntity
  8
0
100
AcDbLine
 10
55.352
 20
4.883999999999999
 30
0.0
 11
46.47199999999999
 21
1.331999999999999
 31
0.0
  0
LINE
  5
169
330
1E
100
AcDbEntity
  8
0
100
AcDbLine
 10
55.352
 20
4.883999999999999
 30
0.0
 11
46.47199999999999
 21
1.331999999999999
 31
0.0
  0
LINE
  5
16A
330
1E
100
AcDbEntity
  8
0
100
AcDbLine
 10
46.21599999999999
 20
2.295999999999999
 30
0.0
 11
37.0
 21
1.0
 31
0.0
  0
LINE
  5
16B
330
1E
100
AcDbEntity
  8
0
100
AcDbLine
 10
46.21599999999999
 20
2.295999999999999
 30
0.0
 11
37.0
 21
1.0
 31
0.0
  0
LINE
  5
16C
330
1E
100
AcDbEntity
  8
0
100
AcDbLine
 10
46.47199999999999
 20
1.331999999999999
 30
0.0
 11
37.0
 21
0.0000000000000005
 31
0.0
  0
LINE
  5
16D
330
1E
100
AcDbEntity
  8
0
100
AcDbLine
 10
46.47199999999999
 20
1.331999999999999
 30
0.0
 11
37.0
 21
0.0000000000000006
 31
0.0
  0
LINE
  5
16E
330
1E
100
AcDbEntity
  8
0
100
AcDbLine
 10
46.47199999999999
 20
1.331999999999999
 30
0.0
 11
37.0
 21
0.0000000000000007
 31
0.0
  0
LINE
  5
16F
330
1E
100
AcDbEntity
  8
0
100
AcDbLine
 10
46.47199999999999
 20
1.331999999999999
 30
0.0
 11
37.0
 21
0.0000000000000008
 31
0.0
  0
LINE
  5
170
330
1E
100
AcDbEntity
  8
0
100
AcDbLine
 10
46.47199999999999
 20
1.331999999999999
 30
0.0
 11
37.0
 21
0.0000000000000009
 31
0.0
  0
LINE
  5
171
330
1E
100
AcDbEntity
  8
0
100
AcDbLine
 10
46.47199999999999
 20
1.331999999999999
 30
0.0
 11
37.0
 21
0.0000000000000002
 31
0.0
  0
LINE
  5
172
330
1E
100
AcDbEntity
  8
0
100
AcDbLine
 10
46.47199999999999
 20
1.331999999999999
 30
0.0
 11
37.0
 21
0.0000000000000003
 31
0.0
  0
LINE
  5
173
330
1E
100
AcDbEntity
  8
0
100
AcDbLine
 10
43.33499999999999
 20
13.73099999999999
 30
0.0
 11
37.0
 21
13.0
 31
0.0
  0
LINE
  5
174
330
1E
100
AcDbEntity
  8
0
100
AcDbLine
 10
49.30469999999999
 20
24.6953
 30
0.0
 11
45.71869999999999
 21
21.9531
 31
0.0
  0
LINE
  5
175
330
1E
100
AcDbEntity
  8
0
100
AcDbLine
 10
49.5156
 20
33.625
 30
0.0
 11
48.1094
 21
30.5313
 31
0.0
  0
LINE
  5
176
330
1E
100
AcDbEntity
  8
0
100
AcDbLine
 10
50.71089999999999
 20
29.0547
 30
0.0
 11
48.25
 21
25.75
 31
0.0
  0
LINE
  5
177
330
1E
100
AcDbEntity
  8
0
100
AcDbLine
 10
52.0469
 20
28.2813
 30
0.0
 11
49.30469999999999
 21
24.6953
 31
0.0
  0
LINE
  5
178
330
1E
100
AcDbEntity
  8
0
100
AcDbLine
 10
57.83249999999999
 20
24.9391
 30
0.0
 11
54.0558
 21
19.94419999999999
 31
0.0
  0
LINE
  5
179
330
1E
100
AcDbEntity
  8
0
100
AcDbLine
 10
54.0558
 20
19.94419999999999
 30
0.0
 11
49.0609
 21
16.1675
 31
0.0
  0
LINE
  5
17A
330
1E
100
AcDbEntity
  8
0
100
AcDbLine
 10
54.4375
 20
37.0
 30
0.0
 11
53.80469999999999
 21
32.42969999999999
 31
0.0
  0
LINE
  5
17B
330
1E
100
AcDbEntity
  8
0
100
AcDbLine
 10
53.80469999999999
 20
32.42969999999999
 30
0.0
 11
52.0469
 21
28.2813
 31
0.0
  0
LINE
  5
17C
330
1E
100
AcDbEntity
  8
0
100
AcDbLine
 10
52.3984
 20
32.85159999999999
 30
0.0
 11
50.71089999999999
 21
29.0547
 31
0.0
  0
LINE
  5
17D
330
1E
100
AcDbEntity
  8
0
100
AcDbLine
 10
52.8906
 20
37.0
 30
0.0
 11
52.3984
 21
32.85159999999999
 31
0.0
  0
LINE
  5
17E
330
1E
100
AcDbEntity
  8
0
100
AcDbLine
 10
49.9375
 20
37.0
 30
0.0
 11
49.5156
 21
33.625
 31
0.0
  0
LINE
  5
17F
330
1E
100
AcDbEntity
  8
0
100
AcDbLine
 10
43.4687
 20
25.89059999999999
 30
0.0
 11
40.375
 21
24.4844
 31
0.0
  0
LINE
  5
180
330
1E
100
AcDbEntity
  8
0
100
AcDbLine
 10
48.25
 20
25.75
 30
0.0
 11
44.9453
 21
23.2891
 31
0.0
  0
LINE
  5
181
330
1E
100
AcDbEntity
  8
0
100
AcDbLine
 10
44.9453
 20
23.2891
 30
0.0
 11
41.1484
 21
21.6016
 31
0.0
  0
LINE
  5
182
330
1E
100
AcDbEntity
  8
0
100
AcDbLine
 10
45.71869999999999
 20
21.9531
 30
0.0
 11
41.5703
 21
20.1953
 31
0.0
  0
LINE
  5
183
330
1E
100
AcDbEntity
  8
0
100
AcDbLine
 10
41.5703
 20
20.1953
 30
0.0
 11
37.0
 21
19.5625
 31
0.0
  0
LINE
  5
184
330
1E
100
AcDbEntity
  8
0
100
AcDbLine
 10
40.375
 20
24.4844
 30
0.0
 11
37.0
 21
24.0625
 31
0.0
  0
LINE
  5
185
330
1E
100
AcDbEntity
  8
0
100
AcDbLine
 10
41.1484
 20
21.6016
 30
0.0
 11
37.0
 21
21.1094
 31
0.0
  0
LINE
  5
186
330
1E
100
AcDbEntity
  8
0
100
AcDbLine
 10
46.1406
 20
27.8594
 30
0.0
 11
43.4687
 21
25.89059999999999
 31
0.0
  0
LINE
  5
187
330
1E
100
AcDbEntity
  8
0
100
AcDbLine
 10
48.1094
 20
30.5313
 30
0.0
 11
46.1406
 21
27.8594
 31
0.0
  0
LINE
  5
188
330
1E
100
AcDbEntity
  8
0
100
AcDbLine
 10
60.269
 20
43.33499999999999
 30
0.0
 11
57.83249999999999
 21
49.0609
 31
0.0
  0
LINE
  5
189
330
1E
100
AcDbEntity
  8
0
100
AcDbLine
 10
63.196
 20
63.196
 30
0.0
 11
55.352
 21
69.11599999999999
 31
0.0
  0
LINE
  5
18A
330
1E
100
AcDbEntity
  8
0
100
AcDbLine
 10
63.196
 20
63.196
 30
0.0
 11
55.352
 21
69.11599999999999
 31
0.0
  0
LINE
  5
18B
330
1E
100
AcDbEntity
  8
0
100
AcDbLine
 10
62.488
 20
62.488
 30
0.0
 11
54.85599999999999
 21
68.248
 31
0.0
  0
LINE
  5
18C
330
1E
100
AcDbEntity
  8
0
100
AcDbLine
 10
69.11599999999999
 20
55.352
 30
0.0
 11
63.196
 21
63.196
 31
0.0
  0
LINE
  5
18D
330
1E
100
AcDbEntity
  8
0
100
AcDbLine
 10
68.248
 20
54.85599999999999
 30
0.0
 11
62.488
 21
62.488
 31
0.0
  0
LINE
  5
18E
330
1E
100
AcDbEntity
  8
0
100
AcDbLine
 10
71.70399999999999
 20
46.21599999999999
 30
0.0
 11
68.248
 21
54.85599999999999
 31
0.0
  0
LINE
  5
18F
330
1E
100
AcDbEntity
  8
0
100
AcDbLine
 10
72.668
 20
46.47199999999999
 30
0.0
 11
69.11599999999999
 21
55.352
 31
0.0
  0
LINE
  5
190
330
1E
100
AcDbEntity
  8
0
100
AcDbLine
 10
49.0609
 20
57.83249999999999
 30
0.0
 11
43.33499999999999
 21
60.269
 31
0.0
  0
LINE
  5
191
330
1E
100
AcDbEntity
  8
0
100
AcDbLine
 10
50.71089999999999
 20
44.9453
 30
0.0
 11
48.25
 21
48.25
 31
0.0
  0
LINE
  5
192
330
1E
100
AcDbEntity
  8
0
100
AcDbLine
 10
49.5156
 20
40.375
 30
0.0
 11
48.1094
 21
43.4687
 31
0.0
  0
LINE
  5
193
330
1E
100
AcDbEntity
  8
0
100
AcDbLine
 10
49.30469999999999
 20
49.30469999999999
 30
0.0
 11
45.71869999999999
 21
52.0469
 31
0.0
  0
LINE
  5
194
330
1E
100
AcDbEntity
  8
0
100
AcDbLine
 10
52.0469
 20
45.71869999999999
 30
0.0
 11
49.30469999999999
 21
49.30469999999999
 31
0.0
  0
LINE
  5
195
330
1E
100
AcDbEntity
  8
0
100
AcDbLine
 10
52.3984
 20
41.1484
 30
0.0
 11
50.71089999999999
 21
44.9453
 31
0.0
  0
LINE
  5
196
330
1E
100
AcDbEntity
  8
0
100
AcDbLine
 10
53.80469999999999
 20
41.5703
 30
0.0
 11
52.0469
 21
45.71869999999999
 31
0.0
  0
LINE
  5
197
330
1E
100
AcDbEntity
  8
0
100
AcDbLine
 10
57.83249999999999
 20
49.0609
 30
0.0
 11
54.0558
 21
54.0558
 31
0.0
  0
LINE
  5
198
330
1E
100
AcDbEntity
  8
0
100
AcDbLine
 10
54.0558
 20
54.0558
 30
0.0
 11
49.0609
 21
57.83249999999999
 31
0.0
  0
LINE
  5
199
330
1E
100
AcDbEntity
  8
0
100
AcDbLine
 10
48.25
 20
48.25
 30
0.0
 11
44.9453
 21
50.71089999999999
 31
0.0
  0
LINE
  5
19A
330
1E
100
AcDbEntity
  8
0
100
AcDbLine
 10
43.4687
 20
48.1094
 30
0.0
 11
40.375
 21
49.5156
 31
0.0
  0
LINE
  5
19B
330
1E
100
AcDbEntity
  8
0
100
AcDbLine
 10
46.1406
 20
46.1406
 30
0.0
 11
43.4687
 21
48.1094
 31
0.0
  0
LINE
  5
19C
330
1E
100
AcDbEntity
  8
0
100
AcDbLine
 10
48.1094
 20
43.4687
 30
0.0
 11
46.1406
 21
46.1406
 31
0.0
  0
LINE
  5
19D
330
1E
100
AcDbEntity
  8
0
100
AcDbLine
 10
45.71869999999999
 20
52.0469
 30
0.0
 11
41.5703
 21
53.80469999999999
 31
0.0
  0
LINE
  5
19E
330
1E
100
AcDbEntity
  8
0
100
AcDbLine
 10
44.9453
 20
50.71089999999999
 30
0.0
 11
41.1484
 21
52.3984
 31
0.0
  0
LINE
  5
19F
330
1E
100
AcDbEntity
  8
0
100
AcDbLine
 10
41.5703
 20
53.80469999999999
 30
0.0
 11
37.0
 21
54.4375
 31
0.0
  0
LINE
  5
1A0
330
1E
100
AcDbEntity
  8
0
100
AcDbLine
 10
41.1484
 20
52.3984
 30
0.0
 11
37.0
 21
52.8906
 31
0.0
  0
LINE
  5
1A1
330
1E
100
AcDbEntity
  8
0
100
AcDbLine
 10
40.375
 20
49.5156
 30
0.0
 11
37.0
 21
49.9375
 31
0.0
  0
LINE
  5
1A2
330
1E
100
AcDbEntity
  8
0
100
AcDbLine
 10
55.352
 20
69.11599999999999
 30
0.0
 11
46.47199999999999
 21
72.668
 31
0.0
  0
LINE
  5
1A3
330
1E
100
AcDbEntity
  8
0
100
AcDbLine
 10
55.352
 20
69.11599999999999
 30
0.0
 11
46.47199999999999
 21
72.668
 31
0.0
  0
LINE
  5
1A4
330
1E
100
AcDbEntity
  8
0
100
AcDbLine
 10
55.352
 20
69.11599999999999
 30
0.0
 11
46.47199999999999
 21
72.668
 31
0.0
  0
LINE
  5
1A5
330
1E
100
AcDbEntity
  8
0
100
AcDbLine
 10
55.352
 20
69.11599999999999
 30
0.0
 11
46.47199999999999
 21
72.668
 31
0.0
  0
LINE
  5
1A6
330
1E
100
AcDbEntity
  8
0
100
AcDbLine
 10
55.352
 20
69.11599999999999
 30
0.0
 11
46.47199999999999
 21
72.668
 31
0.0
  0
LINE
  5
1A7
330
1E
100
AcDbEntity
  8
0
100
AcDbLine
 10
54.85599999999999
 20
68.248
 30
0.0
 11
46.21599999999999
 21
71.70399999999999
 31
0.0
  0
LINE
  5
1A8
330
1E
100
AcDbEntity
  8
0
100
AcDbLine
 10
43.33499999999999
 20
60.269
 30
0.0
 11
37.0
 21
61.0
 31
0.0
  0
LINE
  5
1A9
330
1E
100
AcDbEntity
  8
0
100
AcDbLine
 10
46.47199999999999
 20
72.668
 30
0.0
 11
37.0
 21
74.0
 31
0.0
  0
LINE
  5
1AA
330
1E
100
AcDbEntity
  8
0
100
AcDbLine
 10
46.47199999999999
 20
72.668
 30
0.0
 11
37.0
 21
74.0
 31
0.0
  0
LINE
  5
1AB
330
1E
100
AcDbEntity
  8
0
100
AcDbLine
 10
46.47199999999999
 20
72.668
 30
0.0
 11
37.0
 21
74.0
 31
0.0
  0
LINE
  5
1AC
330
1E
100
AcDbEntity
  8
0
100
AcDbLine
 10
46.47199999999999
 20
72.668
 30
0.0
 11
37.0
 21
74.0
 31
0.0
  0
LINE
  5
1AD
330
1E
100
AcDbEntity
  8
0
100
AcDbLine
 10
46.47199999999999
 20
72.668
 30
0.0
 11
37.0
 21
74.0
 31
0.0
  0
LINE
  5
1AE
330
1E
100
AcDbEntity
  8
0
100
AcDbLine
 10
46.47199999999999
 20
72.668
 30
0.0
 11
37.0
 21
74.0
 31
0.0
  0
LINE
  5
1AF
330
1E
100
AcDbEntity
  8
0
100
AcDbLine
 10
46.47199999999999
 20
72.668
 30
0.0
 11
37.0
 21
74.0
 31
0.0
  0
LINE
  5
1B0
330
1E
100
AcDbEntity
  8
0
100
AcDbLine
 10
46.21599999999999
 20
71.70399999999999
 30
0.0
 11
37.0
 21
73.0
 31
0.0
  0
LINE
  5
1B1
330
1E
100
AcDbEntity
  8
0
100
AcDbLine
 10
46.21599999999999
 20
71.70399999999999
 30
0.0
 11
37.0
 21
73.0
 31
0.0
  0
ENDSEC
  0
SECTION
  2
OBJECTS
  0
DICTIONARY
  5
C
330
0
100
AcDbDictionary
  3
ACAD_GROUP
350
D
  3
ACAD_LAYOUT
350
19
  3
ACAD_MLINESTYLE
350
16
  3
ACAD_PLOTSETTINGS
350
18
  3
ACAD_PLOTSTYLENAME
350
E
  3
ACDBHEADERROUNDTRIPXREC
350
1B6
  3
ACDBVARIABLEDICTIONARY
350
1B3
  0
DICTIONARY
  5
1D8
330
1E
100
AcDbDictionary
280
     1
  3
ACAD_LAYOUTSELFREF
360
1D9
  0
DICTIONARY
  5
1D6
330
1A
100
AcDbDictionary
280
     1
  3
ACAD_LAYOUTSELFREF
360
1D7
  0
DICTIONARY
  5
D
102
{ACAD_REACTORS
330
C
102
}
330
C
100
AcDbDictionary
  0
DICTIONARY
  5
19
102
{ACAD_REACTORS
330
C
102
}
330
C
100
AcDbDictionary
  0
DICTIONARY
  5
16
102
{ACAD_REACTORS
330
C
102
}
330
C
100
AcDbDictionary
  3
STANDARD
350
17
  0
DICTIONARY
  5
18
102
{ACAD_REACTORS
330
C
102
}
330
C
100
AcDbDictionary
  0
ACDBDICTIONARYWDFLT
  5
E
102
{ACAD_REACTORS
330
C
102
}
330
C
100
AcDbDictionary
281
     1
  3
Normal
350
F
100
AcDbDictionaryWithDefault
340
F
  0
DICTIONARY
  5
1B6
102
{ACAD_REACTORS
330
C
102
}
330
C
100
AcDbDictionary
  3
CEPSNTYPE
350
1C0
  3
FINGERPRINTGUID
350
1C1
  3
HYPERLINKBASE
350
1B9
  3
INSUNITS
350
1BF
  3
LAYOUTDICT
350
1BB
  3
LWETCUNION
350
1BE
  3
PLOTSETDICT
350
1BC
  3
PLOTSTYLNAMDICT
350
1BD
  3
PSVPSCALE
350
1C3
  3
PUCSBASE
350
1C6
  3
PUCSORGBACK
350
1CC
  3
PUCSORGBOTTOM
350
1C8
  3
PUCSORGFRONT
350
1CB
  3
PUCSORGLEFT
350
1C9
  3
PUCSORGRIGHT
350
1CA
  3
PUCSORGTOP
350
1C7
  3
PUCSORTHOREF
350
1C4
  3
PUCSORTHOVIEW
350
1C5
  3
STYLESHEET
350
1BA
  3
TSTACKALIGN
350
1B7
  3
TSTACKSIZE
350
1B8
  3
UCSBASE
350
1CF
  3
UCSORGBACK
350
1D5
  3
UCSORGBOTTOM
350
1D1
  3
UCSORGFRONT
350
1D4
  3
UCSORGLEFT
350
1D2
  3
UCSORGRIGHT
350
1D3
  3
UCSORGTOP
350
1D0
  3
UCSORTHOREF
350
1CD
  3
UCSORTHOVIEW
350
1CE
  3
VERSIONGUID
350
1C2
  0
DICTIONARY
  5
1B3
102
{ACAD_REACTORS
330
C
102
}
330
C
100
AcDbDictionary
  3
DIMASSOC
350
1B4
  0
XRECORD
  5
1D9
102
{ACAD_REACTORS
330
1D8
102
}
330
1D8
100
AcDbXrecord
340
1E
  0
XRECORD
  5
1D7
102
{ACAD_REACTORS
330
1D6
102
}
330
1D6
100
AcDbXrecord
340
1A
  0
MLINESTYLE
  5
17
102
{ACAD_REACTORS
330
16
102
}
330
16
100
AcDbMlineStyle
  2
STANDARD
 70
     0
  3

 62
   256
 51
90.0
 52
90.0
 71
     2
 49
0.5
 62
   256
  6
BYLAYER
 49
-0.5
 62
   256
  6
BYLAYER
  0
ACDBPLACEHOLDER
  5
F
102
{ACAD_REACTORS
330
E
102
}
330
E
100
AcDbPlaceHolder
280
     0
  0
XRECORD
  5
1C0
102
{ACAD_REACTORS
330
1B6
102
}
330
1B6
100
AcDbXrecord
 90
        0
  0
XRECORD
  5
1C1
102
{ACAD_REACTORS
330
1B6
102
}
330
1B6
100
AcDbXrecord
  1
{6A8BEC1E-A4E1-49A9-9681-4BC1666DECC3}
  0
XRECORD
  5
1B9
102
{ACAD_REACTORS
330
1B6
102
}
330
1B6
100
AcDbXrecord
  1

  0
XRECORD
  5
1BF
102
{ACAD_REACTORS
330
1B6
102
}
330
1B6
100
AcDbXrecord
 90
        0
  0
XRECORD
  5
1BB
102
{ACAD_REACTORS
330
1B6
102
}
330
1B6
100
AcDbXrecord
340
19
  0
XRECORD
  5
1BE
102
{ACAD_REACTORS
330
1B6
102
}
330
1B6
100
AcDbXrecord
 90
    10781
  0
XRECORD
  5
1BC
102
{ACAD_REACTORS
330
1B6
102
}
330
1B6
100
AcDbXrecord
340
18
  0
XRECORD
  5
1BD
102
{ACAD_REACTORS
330
1B6
102
}
330
1B6
100
AcDbXrecord
340
E
  0
XRECORD
  5
1C3
102
{ACAD_REACTORS
330
1B6
102
}
330
1B6
100
AcDbXrecord
 40
0.0
  0
XRECORD
  5
1C6
102
{ACAD_REACTORS
330
1B6
102
}
330
1B6
100
AcDbXrecord
340
0
  0
XRECORD
  5
1CC
102
{ACAD_REACTORS
330
1B6
102
}
330
1B6
100
AcDbXrecord
 10
0.0
 20
0.0
 30
0.0
  0
XRECORD
  5
1C8
102
{ACAD_REACTORS
330
1B6
102
}
330
1B6
100
AcDbXrecord
 10
0.0
 20
0.0
 30
0.0
  0
XRECORD
  5
1CB
102
{ACAD_REACTORS
330
1B6
102
}
330
1B6
100
AcDbXrecord
 10
0.0
 20
0.0
 30
0.0
  0
XRECORD
  5
1C9
102
{ACAD_REACTORS
330
1B6
102
}
330
1B6
100
AcDbXrecord
 10
0.0
 20
0.0
 30
0.0
  0
XRECORD
  5
1CA
102
{ACAD_REACTORS
330
1B6
102
}
330
1B6
100
AcDbXrecord
 10
0.0
 20
0.0
 30
0.0
  0
XRECORD
  5
1C7
102
{ACAD_REACTORS
330
1B6
102
}
330
1B6
100
AcDbXrecord
 10
0.0
 20
0.0
 30
0.0
  0
XRECORD
  5
1C4
102
{ACAD_REACTORS
330
1B6
102
}
330
1B6
100
AcDbXrecord
340
0
  0
XRECORD
  5
1C5
102
{ACAD_REACTORS
330
1B6
102
}
330
1B6
100
AcDbXrecord
 70
     0
  0
XRECORD
  5
1BA
102
{ACAD_REACTORS
330
1B6
102
}
330
1B6
100
AcDbXrecord
  1

  0
XRECORD
  5
1B7
102
{ACAD_REACTORS
330
1B6
102
}
330
1B6
100
AcDbXrecord
 90
        1
  0
XRECORD
  5
1B8
102
{ACAD_REACTORS
330
1B6
102
}
330
1B6
100
AcDbXrecord
 90
       70
  0
XRECORD
  5
1CF
102
{ACAD_REACTORS
330
1B6
102
}
330
1B6
100
AcDbXrecord
340
0
  0
XRECORD
  5
1D5
102
{ACAD_REACTORS
330
1B6
102
}
330
1B6
100
AcDbXrecord
 10
0.0
 20
0.0
 30
0.0
  0
XRECORD
  5
1D1
102
{ACAD_REACTORS
330
1B6
102
}
330
1B6
100
AcDbXrecord
 10
0.0
 20
0.0
 30
0.0
  0
XRECORD
  5
1D4
102
{ACAD_REACTORS
330
1B6
102
}
330
1B6
100
AcDbXrecord
 10
0.0
 20
0.0
 30
0.0
  0
XRECORD
  5
1D2
102
{ACAD_REACTORS
330
1B6
102
}
330
1B6
100
AcDbXrecord
 10
0.0
 20
0.0
 30
0.0
  0
XRECORD
  5
1D3
102
{ACAD_REACTORS
330
1B6
102
}
330
1B6
100
AcDbXrecord
 10
0.0
 20
0.0
 30
0.0
  0
XRECORD
  5
1D0
102
{ACAD_REACTORS
330
1B6
102
}
330
1B6
100
AcDbXrecord
 10
0.0
 20
0.0
 30
0.0
  0
XRECORD
  5
1CD
102
{ACAD_REACTORS
330
1B6
102
}
330
1B6
100
AcDbXrecord
340
0
  0
XRECORD
  5
1CE
102
{ACAD_REACTORS
330
1B6
102
}
330
1B6
100
AcDbXrecord
 70
     1
  0
XRECORD
  5
1C2
102
{ACAD_REACTORS
330
1B6
102
}
330
1B6
100
AcDbXrecord
  1
{4200EFB4-4168-450A-8410-DC0020DE62CB}
  0
DICTIONARYVAR
  5
1B4
102
{ACAD_REACTORS
330
1B3
102
}
330
1B3
100
DictionaryVariables
280
     0
  1
1
  0
ENDSEC
  0
EOF
