  0
SECTION
  2
HEADER
  9
$ACADVER
  1
AC1014
  9
$ACADMAINTVER
 70
     9
  9
$DWGCODEPAGE
  3
ANSI_1252
  9
$INSBASE
 10
0.0
 20
0.0
 30
0.0
  9
$EXTMIN
 10
0.0000000000000002
 20
-0.0631090000000042
 30
0.0
  9
$EXTMAX
 10
74.0
 20
91.063109
 30
0.0
  9
$LIMMIN
 10
0.0
 20
0.0
  9
$LIMMAX
 10
12.0
 20
9.0
  9
$ORTHOMODE
 70
     0
  9
$REGENMODE
 70
     1
  9
$FILLMODE
 70
     1
  9
$QTEXTMODE
 70
     0
  9
$MIRRTEXT
 70
     1
  9
$DRAGMODE
 70
     2
  9
$LTSCALE
 40
1.0
  9
$OSMODE
 70
    37
  9
$ATTMODE
 70
     1
  9
$TEXTSIZE
 40
0.2
  9
$TRACEWID
 40
0.05
  9
$TEXTSTYLE
  7
STANDARD
  9
$CLAYER
  8
0
  9
$CELTYPE
  6
CONTINUOUS
  9
$CECOLOR
 62
   256
  9
$CELTSCALE
 40
1.0
  9
$DELOBJ
 70
     1
  9
$DISPSILH
 70
     0
  9
$DIMSCALE
 40
1.0
  9
$DIMASZ
 40
0.18
  9
$DIMEXO
 40
0.0625
  9
$DIMDLI
 40
0.38
  9
$DIMRND
 40
0.0
  9
$DIMDLE
 40
0.0
  9
$DIMEXE
 40
0.18
  9
$DIMTP
 40
0.0
  9
$DIMTM
 40
0.0
  9
$DIMTXT
 40
0.18
  9
$DIMCEN
 40
0.09
  9
$DIMTSZ
 40
0.0
  9
$DIMTOL
 70
     0
  9
$DIMLIM
 70
     0
  9
$DIMTIH
 70
     1
  9
$DIMTOH
 70
     1
  9
$DIMSE1
 70
     0
  9
$DIMSE2
 70
     0
  9
$DIMTAD
 70
     0
  9
$DIMZIN
 70
     0
  9
$DIMBLK
  1

  9
$DIMASO
 70
     1
  9
$DIMSHO
 70
     1
  9
$DIMPOST
  1

  9
$DIMAPOST
  1

  9
$DIMALT
 70
     0
  9
$DIMALTD
 70
     2
  9
$DIMALTF
 40
25.4
  9
$DIMLFAC
 40
1.0
  9
$DIMTOFL
 70
     0
  9
$DIMTVP
 40
0.0
  9
$DIMTIX
 70
     0
  9
$DIMSOXD
 70
     0
  9
$DIMSAH
 70
     0
  9
$DIMBLK1
  1

  9
$DIMBLK2
  1

  9
$DIMSTYLE
  2
STANDARD
  9
$DIMCLRD
 70
     0
  9
$DIMCLRE
 70
     0
  9
$DIMCLRT
 70
     0
  9
$DIMTFAC
 40
1.0
  9
$DIMGAP
 40
0.09
  9
$DIMJUST
 70
     0
  9
$DIMSD1
 70
     0
  9
$DIMSD2
 70
     0
  9
$DIMTOLJ
 70
     1
  9
$DIMTZIN
 70
     0
  9
$DIMALTZ
 70
     0
  9
$DIMALTTZ
 70
     0
  9
$DIMFIT
 70
     3
  9
$DIMUPT
 70
     0
  9
$DIMUNIT
 70
     2
  9
$DIMDEC
 70
     4
  9
$DIMTDEC
 70
     4
  9
$DIMALTU
 70
     2
  9
$DIMALTTD
 70
     2
  9
$DIMTXSTY
  7
STANDARD
  9
$DIMAUNIT
 70
     0
  9
$LUNITS
 70
     2
  9
$LUPREC
 70
     4
  9
$SKETCHINC
 40
0.1
  9
$FILLETRAD
 40
0.0
  9
$AUNITS
 70
     0
  9
$AUPREC
 70
     0
  9
$MENU
  1
.
  9
$ELEVATION
 40
0.0
  9
$PELEVATION
 40
0.0
  9
$THICKNESS
 40
0.0
  9
$LIMCHECK
 70
     0
  9
$BLIPMODE
 70
     0
  9
$CHAMFERA
 40
0.0
  9
$CHAMFERB
 40
0.0
  9
$CHAMFERC
 40
0.0
  9
$CHAMFERD
 40
0.0
  9
$SKPOLY
 70
     0
  9
$TDCREATE
 40
2455239.904481874
  9
$TDUPDATE
 40
2455239.907748657
  9
$TDINDWG
 40
0.0032667824
  9
$TDUSRTIMER
 40
0.0032667824
  9
$USRTIMER
 70
     1
  9
$ANGBASE
 50
0.0
  9
$ANGDIR
 70
     0
  9
$PDMODE
 70
     0
  9
$PDSIZE
 40
0.0
  9
$PLINEWID
 40
0.0
  9
$COORDS
 70
     1
  9
$SPLFRAME
 70
     0
  9
$SPLINETYPE
 70
     6
  9
$SPLINESEGS
 70
     8
  9
$ATTDIA
 70
     0
  9
$ATTREQ
 70
     1
  9
$HANDLING
 70
 22529
  9
$HANDSEED
  5
434
  9
$SURFTAB1
 70
     6
  9
$SURFTAB2
 70
     6
  9
$SURFTYPE
 70
     6
  9
$SURFU
 70
     6
  9
$SURFV
 70
     6
  9
$UCSNAME
  2

  9
$UCSORG
 10
0.0
 20
0.0
 30
0.0
  9
$UCSXDIR
 10
1.0
 20
0.0
 30
0.0
  9
$UCSYDIR
 10
0.0
 20
1.0
 30
0.0
  9
$PUCSNAME
  2

  9
$PUCSORG
 10
0.0
 20
0.0
 30
0.0
  9
$PUCSXDIR
 10
1.0
 20
0.0
 30
0.0
  9
$PUCSYDIR
 10
0.0
 20
1.0
 30
0.0
  9
$USERI1
 70
     0
  9
$USERI2
 70
     0
  9
$USERI3
 70
     0
  9
$USERI4
 70
     0
  9
$USERI5
 70
     0
  9
$USERR1
 40
0.0
  9
$USERR2
 40
0.0
  9
$USERR3
 40
0.0
  9
$USERR4
 40
0.0
  9
$USERR5
 40
0.0
  9
$WORLDVIEW
 70
     1
  9
$SHADEDGE
 70
     3
  9
$SHADEDIF
 70
    70
  9
$TILEMODE
 70
     1
  9
$MAXACTVP
 70
    64
  9
$PINSBASE
 10
0.0
 20
0.0
 30
0.0
  9
$PLIMCHECK
 70
     0
  9
$PEXTMIN
 10
1.000000000000000E+20
 20
1.000000000000000E+20
 30
1.000000000000000E+20
  9
$PEXTMAX
 10
-1.000000000000000E+20
 20
-1.000000000000000E+20
 30
-1.000000000000000E+20
  9
$PLIMMIN
 10
0.0
 20
0.0
  9
$PLIMMAX
 10
12.0
 20
9.0
  9
$UNITMODE
 70
     0
  9
$VISRETAIN
 70
     1
  9
$PLINEGEN
 70
     0
  9
$PSLTSCALE
 70
     1
  9
$TREEDEPTH
 70
  3020
  9
$PICKSTYLE
 70
     1
  9
$CMLSTYLE
  2
STANDARD
  9
$CMLJUST
 70
     0
  9
$CMLSCALE
 40
1.0
  9
$PROXYGRAPHICS
 70
     1
  9
$MEASUREMENT
 70
     0
  0
ENDSEC
  0
SECTION
  2
CLASSES
  0
CLASS
  1
ACDBDICTIONARYWDFLT
  2
AcDbDictionaryWithDefault
  3
AutoCAD 2000
 90
        0
280
     0
281
     0
  0
CLASS
  1
ACDBPLACEHOLDER
  2
AcDbPlaceHolder
  3
AutoCAD 2000
 90
        0
280
     0
281
     0
  0
CLASS
  1
LAYOUT
  2
AcDbLayout
  3
AutoCAD 2000
 90
        0
280
     0
281
     0
  0
CLASS
  1
DICTIONARYVAR
  2
AcDbDictionaryVar
  3
AutoCAD 2000
 90
        0
280
     0
281
     0
  0
CLASS
  1
LONG_TRANSACTION
  2
AcDbLongTransaction
  3
AutoCAD 2000
 90
        0
280
     0
281
     0
  0
CLASS
  1
LWPOLYLINE
  2
AcDbPolyline
  3
AutoCAD 2000
 90
        0
280
     0
281
     1
  0
CLASS
  1
HATCH
  2
AcDbHatch
  3
AutoCAD 2000
 90
        0
280
     0
281
     1
  0
CLASS
  1
XRECORD
  2
AcDbXrecord
  3
AutoCAD 2000
 90
        0
280
     0
281
     0
  0
ENDSEC
  0
SECTION
  2
TABLES
  0
TABLE
  2
VPORT
  5
8
330
0
100
AcDbSymbolTable
 70
     4
  0
VPORT
  5
40F
330
8
100
AcDbSymbolTableRecord
100
AcDbViewportTableRecord
  2
*ACTIVE
 70
     0
 10
0.0
 20
0.0
 11
1.0
 21
1.0
 12
37.0
 22
45.49999999999999
 13
0.0
 23
0.0
 14
1.0
 24
1.0
 15
0.0
 25
0.0
 16
0.0
 26
0.0
 36
1.0
 17
0.0
 27
0.0
 37
0.0
 40
91.72442074398249
 41
2.041621029572836
 42
50.0
 43
0.0
 44
0.0
 50
0.0
 51
0.0
 71
     0
 72
   100
 73
     1
 74
     3
 75
     0
 76
     0
 77
     0
 78
     0
  0
ENDTAB
  0
TABLE
  2
LTYPE
  5
5
330
0
100
AcDbSymbolTable
 70
     1
  0
LTYPE
  5
13
330
5
100
AcDbSymbolTableRecord
100
AcDbLinetypeTableRecord
  2
BYBLOCK
 70
     0
  3

 72
    65
 73
     0
 40
0.0
  0
LTYPE
  5
14
330
5
100
AcDbSymbolTableRecord
100
AcDbLinetypeTableRecord
  2
BYLAYER
 70
     0
  3

 72
    65
 73
     0
 40
0.0
  0
LTYPE
  5
15
330
5
100
AcDbSymbolTableRecord
100
AcDbLinetypeTableRecord
  2
CONTINUOUS
 70
     0
  3
Solid line
 72
    65
 73
     0
 40
0.0
  0
ENDTAB
  0
TABLE
  2
LAYER
  5
2
330
0
100
AcDbSymbolTable
 70
     1
  0
LAYER
  5
10
330
2
100
AcDbSymbolTableRecord
100
AcDbLayerTableRecord
  2
0
 70
     0
 62
     7
  6
CONTINUOUS
  0
ENDTAB
  0
TABLE
  2
STYLE
  5
3
330
0
100
AcDbSymbolTable
 70
     1
  0
STYLE
  5
11
330
3
100
AcDbSymbolTableRecord
100
AcDbTextStyleTableRecord
  2
STANDARD
 70
     0
 40
0.0
 41
1.0
 50
0.0
 71
     0
 42
0.2
  3
txt
  4

  0
ENDTAB
  0
TABLE
  2
VIEW
  5
6
330
0
100
AcDbSymbolTable
 70
     0
  0
ENDTAB
  0
TABLE
  2
UCS
  5
7
330
0
100
AcDbSymbolTable
 70
     0
  0
ENDTAB
  0
TABLE
  2
APPID
  5
9
330
0
100
AcDbSymbolTable
 70
     1
  0
APPID
  5
12
330
9
100
AcDbSymbolTableRecord
100
AcDbRegAppTableRecord
  2
ACAD
 70
     0
  0
ENDTAB
  0
TABLE
  2
DIMSTYLE
  5
A
330
0
100
AcDbSymbolTable
 70
     1
  0
DIMSTYLE
105
3E3
330
A
100
AcDbSymbolTableRecord
100
AcDbDimStyleTableRecord
  2
STANDARD
 70
     0
  3

  4

  5

  6

  7

 40
1.0
 41
0.18
 42
0.0625
 43
0.38
 44
0.18
 45
0.0
 46
0.0
 47
0.0
 48
0.0
140
0.18
141
0.09
142
0.0
143
25.4
144
1.0
145
0.0
146
1.0
147
0.09
 71
     0
 72
     0
 73
     1
 74
     1
 75
     0
 76
     0
 77
     0
 78
     0
170
     0
171
     2
172
     0
173
     0
174
     0
175
     0
176
     0
177
     0
178
     0
270
     2
271
     4
272
     4
273
     2
274
     2
340
11
275
     0
280
     0
281
     0
282
     0
283
     1
284
     0
285
     0
286
     0
287
     3
288
     0
  0
ENDTAB
  0
TABLE
  2
BLOCK_RECORD
  5
1
330
0
100
AcDbSymbolTable
 70
     0
  0
BLOCK_RECORD
  5
1E
102
{ACAD_XDICTIONARY
360
432
102
}
330
1
100
AcDbSymbolTableRecord
100
AcDbBlockTableRecord
  2
*MODEL_SPACE
  0
BLOCK_RECORD
  5
1A
102
{ACAD_XDICTIONARY
360
430
102
}
330
1
100
AcDbSymbolTableRecord
100
AcDbBlockTableRecord
  2
*PAPER_SPACE
  0
ENDTAB
  0
ENDSEC
  0
SECTION
  2
BLOCKS
  0
BLOCK
  5
1F
330
1E
100
AcDbEntity
  8
0
100
AcDbBlockBegin
  2
*MODEL_SPACE
 70
     0
 10
0.0
 20
0.0
 30
0.0
  3
*MODEL_SPACE
  1

  0
ENDBLK
  5
20
330
1E
100
AcDbEntity
  8
0
100
AcDbBlockEnd
  0
BLOCK
  5
1B
330
1A
100
AcDbEntity
 67
     1
  8
0
100
AcDbBlockBegin
  2
*PAPER_SPACE
 70
     0
 10
0.0
 20
0.0
 30
0.0
  3
*PAPER_SPACE
  1

  0
ENDBLK
  5
1C
330
1A
100
AcDbEntity
 67
     1
  8
0
100
AcDbBlockEnd
  0
ENDSEC
  0
SECTION
  2
ENTITIES
  0
LINE
  5
22
330
1E
100
AcDbEntity
  8
0
100
AcDbLine
 10
0.0000000000000005
 20
9.063108999999998
 30
0.0
 11
1.331999999999999
 21
9.063108999999998
 31
0.0
  0
LINE
  5
23
330
1E
100
AcDbEntity
  8
0
100
AcDbLine
 10
0.0000000000000005
 20
9.063108999999998
 30
0.0
 11
1.0
 21
10.06310899999999
 31
0.0
  0
LINE
  5
24
330
1E
100
AcDbEntity
  8
0
100
AcDbLine
 10
0.0000000000000003
 20
4.063108999999999
 30
0.0
 11
2.0
 21
3.063108999999999
 31
0.0
  0
LINE
  5
25
330
1E
100
AcDbEntity
  8
0
100
AcDbLine
 10
0.0000000000000003
 20
4.063108999999999
 30
0.0
 11
1.331999999999999
 21
4.063108999999999
 31
0.0
  0
LINE
  5
26
330
1E
100
AcDbEntity
  8
0
100
AcDbLine
 10
1.331999999999999
 20
4.063108999999999
 30
0.0
 11
4.883999999999999
 21
4.063108999999999
 31
0.0
  0
LINE
  5
27
330
1E
100
AcDbEntity
  8
0
100
AcDbLine
 10
1.0
 20
10.06310899999999
 30
0.0
 11
2.295999999999999
 21
10.06310899999999
 31
0.0
  0
LINE
  5
28
330
1E
100
AcDbEntity
  8
0
100
AcDbLine
 10
0.0000000000000008
 20
11.06310899999999
 30
0.0
 11
1.331999999999999
 21
11.06310899999999
 31
0.0
  0
LINE
  5
29
330
1E
100
AcDbEntity
  8
0
100
AcDbLine
 10
1.0
 20
10.06310899999999
 30
0.0
 11
2.295999999999999
 21
10.06310899999999
 31
0.0
  0
LINE
  5
2A
330
1E
100
AcDbEntity
  8
0
100
AcDbLine
 10
1.331999999999999
 20
11.06310899999999
 30
0.0
 11
4.883999999999999
 21
11.06310899999999
 31
0.0
  0
LINE
  5
2B
330
1E
100
AcDbEntity
  8
0
100
AcDbLine
 10
1.331999999999999
 20
11.06310899999999
 30
0.0
 11
4.883999999999999
 21
11.06310899999999
 31
0.0
  0
LINE
  5
2C
330
1E
100
AcDbEntity
  8
0
100
AcDbLine
 10
1.331999999999999
 20
9.063108999999998
 30
0.0
 11
4.883999999999999
 21
9.063108999999998
 31
0.0
  0
LINE
  5
2D
330
1E
100
AcDbEntity
  8
0
100
AcDbLine
 10
1.331999999999999
 20
4.063108999999999
 30
0.0
 11
4.883999999999999
 21
4.063108999999999
 31
0.0
  0
LINE
  5
2E
330
1E
100
AcDbEntity
  8
0
100
AcDbLine
 10
2.0
 20
3.063108999999999
 30
0.0
 11
6.124752867455799
 21
2.51314195100589
 31
0.0
  0
LINE
  5
2F
330
1E
100
AcDbEntity
  8
0
100
AcDbLine
 10
2.0
 20
3.063108999999999
 30
0.0
 11
6.124752867455799
 21
2.51314195100589
 31
0.0
  0
LINE
  5
30
330
1E
100
AcDbEntity
  8
0
100
AcDbLine
 10
0.0000000000000006
 20
11.06310899999999
 30
0.0
 11
1.0
 21
10.06310899999999
 31
0.0
  0
LINE
  5
31
330
1E
100
AcDbEntity
  8
0
100
AcDbLine
 10
0.0000000000000006
 20
9.063108999999998
 30
0.0
 11
1.0
 21
10.06310899999999
 31
0.0
  0
LINE
  5
32
330
1E
100
AcDbEntity
  8
0
100
AcDbLine
 10
0.0000000000000006
 20
9.063108999999998
 30
0.0
 11
1.331999999999999
 21
9.063108999999998
 31
0.0
  0
LINE
  5
33
330
1E
100
AcDbEntity
  8
0
100
AcDbLine
 10
0.0000000000000008
 20
14.063109
 30
0.0
 11
1.331999999999999
 21
14.063109
 31
0.0
  0
LINE
  5
34
330
1E
100
AcDbEntity
  8
0
100
AcDbLine
 10
0.0000000000000009
 20
14.063109
 30
0.0
 11
1.0
 21
15.06310899999999
 31
0.0
  0
LINE
  5
35
330
1E
100
AcDbEntity
  8
0
100
AcDbLine
 10
1.331999999999999
 20
14.063109
 30
0.0
 11
4.883999999999999
 21
14.063109
 31
0.0
  0
LINE
  5
36
330
1E
100
AcDbEntity
  8
0
100
AcDbLine
 10
1.0
 20
15.06310899999999
 30
0.0
 11
2.295999999999999
 21
15.06310899999999
 31
0.0
  0
LINE
  5
37
330
1E
100
AcDbEntity
  8
0
100
AcDbLine
 10
1.331999999999999
 20
14.063109
 30
0.0
 11
4.883999999999999
 21
14.063109
 31
0.0
  0
LINE
  5
38
330
1E
100
AcDbEntity
  8
0
100
AcDbLine
 10
0.0000000000000009
 20
14.063109
 30
0.0
 11
1.0
 21
15.06310899999999
 31
0.0
  0
LINE
  5
39
330
1E
100
AcDbEntity
  8
0
100
AcDbLine
 10
0.0000000000000009
 20
14.063109
 30
0.0
 11
1.331999999999999
 21
14.063109
 31
0.0
  0
LINE
  5
3A
330
1E
100
AcDbEntity
  8
0
100
AcDbLine
 10
0.0000000000000007
 20
11.06310899999999
 30
0.0
 11
0.0000000000000009
 21
14.063109
 31
0.0
  0
LINE
  5
3B
330
1E
100
AcDbEntity
  8
0
100
AcDbLine
 10
0.0000000000000007
 20
11.06310899999999
 30
0.0
 11
1.331999999999999
 21
11.06310899999999
 31
0.0
  0
LINE
  5
3C
330
1E
100
AcDbEntity
  8
0
100
AcDbLine
 10
0.0000000000000007
 20
11.06310899999999
 30
0.0
 11
1.0
 21
10.06310899999999
 31
0.0
  0
LINE
  5
3D
330
1E
100
AcDbEntity
  8
0
100
AcDbLine
 10
0.0000000000000002
 20
4.063108999999999
 30
0.0
 11
0.0000000000000006
 21
9.063108999999998
 31
0.0
  0
LINE
  5
3E
330
1E
100
AcDbEntity
  8
0
100
AcDbLine
 10
0.0000000000000002
 20
4.063108999999999
 30
0.0
 11
1.331999999999999
 21
4.063108999999999
 31
0.0
  0
LINE
  5
3F
330
1E
100
AcDbEntity
  8
0
100
AcDbLine
 10
0.0000000000000002
 20
4.063108999999999
 30
0.0
 11
2.0
 21
3.063108999999999
 31
0.0
  0
LINE
  5
40
330
1E
100
AcDbEntity
  8
0
100
AcDbLine
 10
1.0
 20
20.063109
 30
0.0
 11
2.0
 21
32.063109
 31
0.0
  0
LINE
  5
41
330
1E
100
AcDbEntity
  8
0
100
AcDbLine
 10
1.0
 20
15.06310899999999
 30
0.0
 11
1.0
 21
20.063109
 31
0.0
  0
LINE
  5
42
330
1E
100
AcDbEntity
  8
0
100
AcDbLine
 10
1.0
 20
15.06310899999999
 30
0.0
 11
2.295999999999999
 21
15.06310899999999
 31
0.0
  0
LINE
  5
43
330
1E
100
AcDbEntity
  8
0
100
AcDbLine
 10
2.295999999999999
 20
10.06310899999999
 30
0.0
 11
5.752
 21
10.06310899999999
 31
0.0
  0
LINE
  5
44
330
1E
100
AcDbEntity
  8
0
100
AcDbLine
 10
4.883999999999999
 20
14.063109
 30
0.0
 11
10.804
 21
14.063109
 31
0.0
  0
LINE
  5
45
330
1E
100
AcDbEntity
  8
0
100
AcDbLine
 10
4.883999999999999
 20
11.06310899999999
 30
0.0
 11
10.804
 21
11.06310899999999
 31
0.0
  0
LINE
  5
46
330
1E
100
AcDbEntity
  8
0
100
AcDbLine
 10
4.883999999999999
 20
9.063108999999998
 30
0.0
 11
10.804
 21
9.063108999999998
 31
0.0
  0
LINE
  5
47
330
1E
100
AcDbEntity
  8
0
100
AcDbLine
 10
4.883999999999999
 20
4.063108999999999
 30
0.0
 11
10.804
 21
4.063108999999999
 31
0.0
  0
LINE
  5
48
330
1E
100
AcDbEntity
  8
0
100
AcDbLine
 10
2.295999999999999
 20
15.06310899999999
 30
0.0
 11
5.752
 21
15.06310899999999
 31
0.0
  0
LINE
  5
49
330
1E
100
AcDbEntity
  8
0
100
AcDbLine
 10
2.0
 20
32.063109
 30
0.0
 11
3.0
 21
38.063109
 31
0.0
  0
LINE
  5
4A
330
1E
100
AcDbEntity
  8
0
100
AcDbLine
 10
3.0
 20
38.063109
 30
0.0
 11
5.0
 21
43.063109
 31
0.0
  0
LINE
  5
4B
330
1E
100
AcDbEntity
  8
0
100
AcDbLine
 10
5.752
 20
10.06310899999999
 30
0.0
 11
11.512
 21
10.06310899999999
 31
0.0
  0
LINE
  5
4C
330
1E
100
AcDbEntity
  8
0
100
AcDbLine
 10
6.083319999999999
 20
2.093388999999999
 30
0.0
 11
6.381869999999999
 21
2.063918999999999
 31
0.0
  0
LINE
  5
4D
330
1E
100
AcDbEntity
  8
0
100
AcDbLine
 10
6.083319999999999
 20
2.093388999999999
 30
0.0
 11
6.124752867455799
 21
2.51314195100589
 31
0.0
  0
LINE
  5
4E
330
1E
100
AcDbEntity
  8
0
100
AcDbLine
 10
6.381869999999999
 20
2.063918999999999
 30
0.0
 11
7.078489999999999
 21
1.995158999999999
 31
0.0
  0
LINE
  5
51
330
1E
100
AcDbEntity
  8
0
100
AcDbLine
 10
5.752
 20
15.06310899999999
 30
0.0
 11
11.512
 21
15.06310899999999
 31
0.0
  0
LINE
  5
52
330
1E
100
AcDbEntity
  8
0
100
AcDbLine
 10
21.6312
 20
0.415147999999997
 30
0.0
 11
22.2296
 21
0.406652999999997
 31
0.0
  0
LINE
  5
55
330
1E
100
AcDbEntity
  8
0
100
AcDbLine
 10
21.11349999999999
 20
0.415147999999997
 30
0.0
 11
21.8673
 21
0.406652999999997
 31
0.0
  0
LINE
  5
56
330
1E
100
AcDbEntity
  8
0
100
AcDbLine
 10
22.3382
 20
0.403011999999997
 30
0.0
 11
22.3431179637037
 21
0.823320723874284
 31
0.0
  0
LINE
  5
57
330
1E
100
AcDbEntity
  8
0
100
AcDbLine
 10
22.3382
 20
0.403011999999997
 30
0.0
 11
22.3431179637037
 21
0.823320723874284
 31
0.0
  0
LINE
  5
58
330
1E
100
AcDbEntity
  8
0
100
AcDbLine
 10
22.2296
 20
0.406652999999997
 30
0.0
 11
22.3382
 21
0.403011999999997
 31
0.0
  0
LINE
  5
5A
330
1E
100
AcDbEntity
  8
0
100
AcDbLine
 10
21.8673
 20
0.406652999999997
 30
0.0
 11
22.3382
 21
0.403011999999997
 31
0.0
  0
LINE
  5
5B
330
1E
100
AcDbEntity
  8
0
100
AcDbLine
 10
20.4065
 20
0.4272839999999971
 30
0.0
 11
20.41194356017539
 21
0.892511821991227
 31
0.0
  0
LINE
  5
5C
330
1E
100
AcDbEntity
  8
0
100
AcDbLine
 10
20.4065
 20
0.4272839999999971
 30
0.0
 11
20.4123057571643
 21
0.9234665852093158
 31
0.0
  0
LINE
  5
5D
330
1E
100
AcDbEntity
  8
0
100
AcDbLine
 10
20.8774
 20
0.4236429999999971
 30
0.0
 11
21.6312
 21
0.415147999999997
 31
0.0
  0
LINE
  5
60
330
1E
100
AcDbEntity
  8
0
100
AcDbLine
 10
20.51509999999999
 20
0.4236429999999971
 30
0.0
 11
21.11349999999999
 21
0.415147999999997
 31
0.0
  0
LINE
  5
61
330
1E
100
AcDbEntity
  8
0
100
AcDbLine
 10
20.4065
 20
0.4272839999999971
 30
0.0
 11
20.51509999999999
 21
0.4236429999999971
 31
0.0
  0
LINE
  5
62
330
1E
100
AcDbEntity
  8
0
100
AcDbLine
 10
20.4065
 20
0.4272839999999971
 30
0.0
 11
20.41194356017539
 21
0.8925118219912258
 31
0.0
  0
LINE
  5
63
330
1E
100
AcDbEntity
  8
0
100
AcDbLine
 10
20.4065
 20
0.4272839999999971
 30
0.0
 11
20.8774
 21
0.4236429999999971
 31
0.0
  0
LINE
  5
64
330
1E
100
AcDbEntity
  8
0
100
AcDbLine
 10
20.4065
 20
0.4272839999999971
 30
0.0
 11
20.4123057571643
 21
0.9234665852093158
 31
0.0
  0
LINE
  5
65
330
1E
100
AcDbEntity
  8
0
100
AcDbLine
 10
24.5698
 20
0.4236429999999971
 30
0.0
 11
24.5720435903946
 21
0.684506820480265
 31
0.0
  0
LINE
  5
66
330
1E
100
AcDbEntity
  8
0
100
AcDbLine
 10
24.5698
 20
0.4236429999999971
 30
0.0
 11
24.5742464424751
 21
0.940633968751754
 31
0.0
  0
LINE
  5
67
330
1E
100
AcDbEntity
  8
0
100
AcDbLine
 10
27.4965
 20
0.193338999999996
 30
0.0
 11
27.5003615111671
 21
0.5380909244416429
 31
0.0
  0
LINE
  5
69
330
1E
100
AcDbEntity
  8
0
100
AcDbLine
 10
30.4178
 20
0.172707999999996
 30
0.0
 11
30.60589999999999
 21
0.176348999999996
 31
0.0
  0
LINE
  5
6A
330
1E
100
AcDbEntity
  8
0
100
AcDbLine
 10
30.60589999999999
 20
0.176348999999996
 30
0.0
 11
30.6091628161988
 21
0.514439309590479
 31
0.0
  0
LINE
  5
6B
330
1E
100
AcDbEntity
  8
0
100
AcDbLine
 10
30.60589999999999
 20
0.176348999999996
 30
0.0
 11
30.6091628161988
 21
0.514439309590479
 31
0.0
  0
LINE
  5
6D
330
1E
100
AcDbEntity
  8
0
100
AcDbLine
 10
30.2333
 20
0.184843999999996
 30
0.0
 11
30.60589999999999
 21
0.176348999999996
 31
0.0
  0
LINE
  5
6F
330
1E
100
AcDbEntity
  8
0
100
AcDbLine
 10
29.75369999999999
 20
0.176348999999996
 30
0.0
 11
30.4178
 21
0.172707999999996
 31
0.0
  0
LINE
  5
70
330
1E
100
AcDbEntity
  8
0
100
AcDbLine
 10
29.01569999999999
 20
0.184843999999997
 30
0.0
 11
29.75369999999999
 21
0.176348999999996
 31
0.0
  0
LINE
  5
71
330
1E
100
AcDbEntity
  8
0
100
AcDbLine
 10
28.7898
 20
0.176348999999997
 30
0.0
 11
29.3349
 21
0.172707999999996
 31
0.0
  0
LINE
  5
72
330
1E
100
AcDbEntity
  8
0
100
AcDbLine
 10
28.6431
 20
0.193338999999996
 30
0.0
 11
28.6464695085794
 21
0.5443031527316
 31
0.0
  0
LINE
  5
74
330
1E
100
AcDbEntity
  8
0
100
AcDbLine
 10
28.6431
 20
0.193338999999997
 30
0.0
 11
28.83119999999999
 21
0.196979999999996
 31
0.0
  0
LINE
  5
75
330
1E
100
AcDbEntity
  8
0
100
AcDbLine
 10
28.6431
 20
0.193338999999997
 30
0.0
 11
29.01569999999999
 21
0.184843999999997
 31
0.0
  0
LINE
  5
76
330
1E
100
AcDbEntity
  8
0
100
AcDbLine
 10
28.6431
 20
0.193338999999997
 30
0.0
 11
28.6464695085794
 21
0.5443031527316
 31
0.0
  0
LINE
  5
77
330
1E
100
AcDbEntity
  8
0
100
AcDbLine
 10
28.83119999999999
 20
0.196979999999996
 30
0.0
 11
29.4953
 21
0.193338999999996
 31
0.0
  0
LINE
  5
79
330
1E
100
AcDbEntity
  8
0
100
AcDbLine
 10
29.4953
 20
0.193338999999996
 30
0.0
 11
30.2333
 21
0.184843999999996
 31
0.0
  0
LINE
  5
7C
330
1E
100
AcDbEntity
  8
0
100
AcDbLine
 10
28.0284
 20
0.184843999999997
 30
0.0
 11
28.7898
 21
0.176348999999997
 31
0.0
  0
LINE
  5
7E
330
1E
100
AcDbEntity
  8
0
100
AcDbLine
 10
27.4965
 20
0.193338999999997
 30
0.0
 11
28.0284
 21
0.184843999999997
 31
0.0
  0
LINE
  5
7F
330
1E
100
AcDbEntity
  8
0
100
AcDbLine
 10
27.4965
 20
0.193338999999997
 30
0.0
 11
27.5003615111671
 21
0.538090924441642
 31
0.0
  0
LINE
  5
81
330
1E
100
AcDbEntity
  8
0
100
AcDbLine
 10
26.5497
 20
0.406652999999997
 30
0.0
 11
26.55307093892799
 21
0.8008864760644058
 31
0.0
  0
LINE
  5
82
330
1E
100
AcDbEntity
  8
0
100
AcDbLine
 10
26.5497
 20
0.406652999999997
 30
0.0
 11
26.55307093892799
 21
0.8008864760644069
 31
0.0
  0
LINE
  5
83
330
1E
100
AcDbEntity
  8
0
100
AcDbLine
 10
26.26689999999999
 20
0.415147999999997
 30
0.0
 11
26.5497
 21
0.406652999999997
 31
0.0
  0
LINE
  5
85
330
1E
100
AcDbEntity
  8
0
100
AcDbLine
 10
26.2668
 20
0.403011999999997
 30
0.0
 11
26.5497
 21
0.406652999999997
 31
0.0
  0
LINE
  5
86
330
1E
100
AcDbEntity
  8
0
100
AcDbLine
 10
27.4872
 20
0.196979999999997
 30
0.0
 11
27.49104302969449
 21
0.5385568485152702
 31
0.0
  0
LINE
  5
87
330
1E
100
AcDbEntity
  8
0
100
AcDbLine
 10
27.4872
 20
0.196979999999997
 30
0.0
 11
27.49104302969449
 21
0.5385568485152702
 31
0.0
  0
LINE
  5
88
330
1E
100
AcDbEntity
  8
0
100
AcDbLine
 10
25.5597
 20
0.406652999999997
 30
0.0
 11
26.2668
 21
0.403011999999997
 31
0.0
  0
LINE
  5
8A
330
1E
100
AcDbEntity
  8
0
100
AcDbLine
 10
24.85269999999999
 20
0.4272839999999971
 30
0.0
 11
25.55979999999999
 21
0.4236429999999971
 31
0.0
  0
LINE
  5
8C
330
1E
100
AcDbEntity
  8
0
100
AcDbLine
 10
25.55979999999999
 20
0.4236429999999971
 30
0.0
 11
26.26689999999999
 21
0.415147999999997
 31
0.0
  0
LINE
  5
8E
330
1E
100
AcDbEntity
  8
0
100
AcDbLine
 10
24.85269999999999
 20
0.415147999999997
 30
0.0
 11
25.5597
 21
0.406652999999997
 31
0.0
  0
LINE
  5
8F
330
1E
100
AcDbEntity
  8
0
100
AcDbLine
 10
24.5698
 20
0.4236429999999971
 30
0.0
 11
24.85269999999999
 21
0.415147999999997
 31
0.0
  0
LINE
  5
90
330
1E
100
AcDbEntity
  8
0
100
AcDbLine
 10
24.5698
 20
0.4236429999999971
 30
0.0
 11
24.5720435903946
 21
0.684506820480265
 31
0.0
  0
LINE
  5
91
330
1E
100
AcDbEntity
  8
0
100
AcDbLine
 10
24.5698
 20
0.4236429999999971
 30
0.0
 11
24.85269999999999
 21
0.4272839999999971
 31
0.0
  0
LINE
  5
92
330
1E
100
AcDbEntity
  8
0
100
AcDbLine
 10
24.5698
 20
0.4236429999999971
 30
0.0
 11
24.5742464424751
 21
0.940633968751754
 31
0.0
  0
LINE
  5
93
330
1E
100
AcDbEntity
  8
0
100
AcDbLine
 10
14.98949999999999
 20
1.044463999999999
 30
0.0
 11
15.0014797372621
 21
1.166864259579909
 31
0.0
  0
LINE
  5
94
330
1E
100
AcDbEntity
  8
0
100
AcDbLine
 10
22.34279792686459
 20
0.7959691036567691
 30
0.0
 11
24.5720435903946
 21
0.684506820480265
 31
0.0
  0
LINE
  5
95
330
1E
100
AcDbEntity
  8
0
100
AcDbLine
 10
17.0
 20
1.063109
 30
0.0
 11
20.41194356017539
 21
0.892511821991227
 31
0.0
  0
LINE
  5
98
330
1E
100
AcDbEntity
  8
0
100
AcDbLine
 10
14.98949999999999
 20
1.044463999999999
 30
0.0
 11
15.0014797372621
 21
1.166864259579909
 31
0.0
  0
LINE
  5
9B
330
1E
100
AcDbEntity
  8
0
100
AcDbLine
 10
16.4973123465829
 20
1.13013402045561
 30
0.0
 11
17.0
 21
1.063109
 31
0.0
  0
LINE
  5
9D
330
1E
100
AcDbEntity
  8
0
100
AcDbLine
 10
15.9458
 20
1.073929
 30
0.0
 11
16.4895
 21
1.044463999999999
 31
0.0
  0
LINE
  5
9E
330
1E
100
AcDbEntity
  8
0
100
AcDbLine
 10
14.6021
 20
1.073929
 30
0.0
 11
14.98949999999999
 21
1.044463999999999
 31
0.0
  0
LINE
  5
A0
330
1E
100
AcDbEntity
  8
0
100
AcDbLine
 10
17.0
 20
1.063109
 30
0.0
 11
20.41194356017539
 21
0.892511821991227
 31
0.0
  0
LINE
  5
A1
330
1E
100
AcDbEntity
  8
0
100
AcDbLine
 10
26.5512296582565
 20
0.5855475170871721
 30
0.0
 11
28.6458599862056
 21
0.480816000689717
 31
0.0
  0
LINE
  5
A4
330
1E
100
AcDbEntity
  8
0
100
AcDbLine
 10
22.7482
 20
1.073929
 30
0.0
 11
23.4852
 21
1.044463999999999
 31
0.0
  0
LINE
  5
A6
330
1E
100
AcDbEntity
  8
0
100
AcDbLine
 10
23.4852
 20
1.044463999999999
 30
0.0
 11
23.85879999999999
 21
1.073929
 31
0.0
  0
LINE
  5
A7
330
1E
100
AcDbEntity
  8
0
100
AcDbLine
 10
22.34279792686459
 20
0.7959691036567691
 30
0.0
 11
24.5720435903946
 21
0.684506820480265
 31
0.0
  0
LINE
  5
A8
330
1E
100
AcDbEntity
  8
0
100
AcDbLine
 10
26.5512296582565
 20
0.5855475170871721
 30
0.0
 11
28.6458599862056
 21
0.480816000689717
 31
0.0
  0
LINE
  5
AA
330
1E
100
AcDbEntity
  8
0
100
AcDbLine
 10
32.5262
 20
-0.0388370000000038
 30
0.0
 11
32.5302557094137
 21
0.294942210092646
 31
0.0
  0
LINE
  5
AB
330
1E
100
AcDbEntity
  8
0
100
AcDbLine
 10
32.5262
 20
-0.0388370000000038
 30
0.0
 11
32.8262
 21
-0.0424780000000038
 31
0.0
  0
LINE
  5
AC
330
1E
100
AcDbEntity
  8
0
100
AcDbLine
 10
32.5262
 20
-0.0388370000000038
 30
0.0
 11
32.5302557094137
 21
0.294942210092646
 31
0.0
  0
LINE
  5
AE
330
1E
100
AcDbEntity
  8
0
100
AcDbLine
 10
37.0
 20
-0.0631090000000041
 30
0.0
 11
37.7
 21
-0.0594680000000041
 31
0.0
  0
LINE
  5
AF
330
1E
100
AcDbEntity
  8
0
100
AcDbLine
 10
36.0
 20
-0.050973000000004
 30
0.0
 11
36.29999999999999
 21
-0.059468000000004
 31
0.0
  0
LINE
  5
B0
330
1E
100
AcDbEntity
  8
0
100
AcDbLine
 10
36.0
 20
-0.050973000000004
 30
0.0
 11
36.0
 21
0.113108999999996
 31
0.0
  0
LINE
  5
B1
330
1E
100
AcDbEntity
  8
0
100
AcDbLine
 10
36.0
 20
-0.050973000000004
 30
0.0
 11
36.29999999999999
 21
-0.042478000000004
 31
0.0
  0
LINE
  5
B3
330
1E
100
AcDbEntity
  8
0
100
AcDbLine
 10
36.29999999999999
 20
-0.059468000000004
 30
0.0
 11
37.0
 21
-0.0631090000000041
 31
0.0
  0
LINE
  5
B4
330
1E
100
AcDbEntity
  8
0
100
AcDbLine
 10
34.52599999999999
 20
-0.0631090000000039
 30
0.0
 11
34.5290909022587
 21
0.191268185567491
 31
0.0
  0
LINE
  5
B5
330
1E
100
AcDbEntity
  8
0
100
AcDbLine
 10
34.52599999999999
 20
-0.0631090000000039
 30
0.0
 11
34.5290909022587
 21
0.191268185567491
 31
0.0
  0
LINE
  5
B6
330
1E
100
AcDbEntity
  8
0
100
AcDbLine
 10
34.2261
 20
-0.0594680000000039
 30
0.0
 11
34.52599999999999
 21
-0.0631090000000039
 31
0.0
  0
LINE
  5
B9
330
1E
100
AcDbEntity
  8
0
100
AcDbLine
 10
37.0
 20
-0.038837000000004
 30
0.0
 11
37.7
 21
-0.0424780000000041
 31
0.0
  0
LINE
  5
BB
330
1E
100
AcDbEntity
  8
0
100
AcDbLine
 10
36.29999999999999
 20
-0.042478000000004
 30
0.0
 11
37.0
 21
-0.038837000000004
 31
0.0
  0
LINE
  5
BD
330
1E
100
AcDbEntity
  8
0
100
AcDbLine
 10
36.0
 20
0.113108999999996
 30
0.0
 11
36.0
 21
-0.050973000000004
 31
0.0
  0
LINE
  5
BF
330
1E
100
AcDbEntity
  8
0
100
AcDbLine
 10
33.5261
 20
-0.0509730000000038
 30
0.0
 11
34.2261
 21
-0.0594680000000039
 31
0.0
  0
LINE
  5
C1
330
1E
100
AcDbEntity
  8
0
100
AcDbLine
 10
32.8262
 20
-0.0424780000000038
 30
0.0
 11
33.5261
 21
-0.0509730000000038
 31
0.0
  0
LINE
  5
C3
330
1E
100
AcDbEntity
  8
0
100
AcDbLine
 10
30.6078915756829
 20
0.382714421215851
 30
0.0
 11
32.5301543598403
 21
0.286601282007981
 31
0.0
  0
LINE
  5
C5
330
1E
100
AcDbEntity
  8
0
100
AcDbLine
 10
31.8467
 20
0.4151479999999961
 30
0.0
 11
31.9553
 21
0.4236429999999961
 31
0.0
  0
LINE
  5
C6
330
1E
100
AcDbEntity
  8
0
100
AcDbLine
 10
31.8467
 20
0.4151479999999961
 30
0.0
 11
32.31759999999999
 21
0.4066529999999961
 31
0.0
  0
LINE
  5
CA
330
1E
100
AcDbEntity
  8
0
100
AcDbLine
 10
32.31759999999999
 20
0.4066529999999961
 30
0.0
 11
33.07139999999999
 21
0.4030119999999961
 31
0.0
  0
LINE
  5
CB
330
1E
100
AcDbEntity
  8
0
100
AcDbLine
 10
33.07139999999999
 20
0.4030119999999961
 30
0.0
 11
33.66989999999999
 21
0.4066529999999961
 31
0.0
  0
LINE
  5
CE
330
1E
100
AcDbEntity
  8
0
100
AcDbLine
 10
33.66989999999999
 20
0.4066529999999961
 30
0.0
 11
33.7785
 21
0.4151479999999961
 31
0.0
  0
LINE
  5
CF
330
1E
100
AcDbEntity
  8
0
100
AcDbLine
 10
33.3076
 20
0.4236429999999961
 30
0.0
 11
33.7785
 21
0.4151479999999961
 31
0.0
  0
LINE
  5
D1
330
1E
100
AcDbEntity
  8
0
100
AcDbLine
 10
32.5538
 20
0.4272839999999961
 30
0.0
 11
33.3076
 21
0.4236429999999961
 31
0.0
  0
LINE
  5
D3
330
1E
100
AcDbEntity
  8
0
100
AcDbLine
 10
31.9553
 20
0.4236429999999961
 30
0.0
 11
32.5538
 21
0.4272839999999961
 31
0.0
  0
LINE
  5
D5
330
1E
100
AcDbEntity
  8
0
100
AcDbLine
 10
33.3693
 20
1.073929
 30
0.0
 11
34.1023
 21
1.044463999999999
 31
0.0
  0
LINE
  5
D6
330
1E
100
AcDbEntity
  8
0
100
AcDbLine
 10
34.5290348754893
 20
0.186657256225531
 30
0.0
 11
36.0
 21
0.113108999999996
 31
0.0
  0
LINE
  5
D9
330
1E
100
AcDbEntity
  8
0
100
AcDbLine
 10
34.1023
 20
1.044463999999999
 30
0.0
 11
34.7573
 21
1.073929
 31
0.0
  0
LINE
  5
DA
330
1E
100
AcDbEntity
  8
0
100
AcDbLine
 10
34.7573
 20
1.073929
 30
0.0
 11
34.9638
 21
1.142688999999999
 31
0.0
  0
LINE
  5
DB
330
1E
100
AcDbEntity
  8
0
100
AcDbLine
 10
34.5290348754893
 20
0.186657256225531
 30
0.0
 11
36.0
 21
0.113108999999996
 31
0.0
  0
LINE
  5
DC
330
1E
100
AcDbEntity
  8
0
100
AcDbLine
 10
30.6078915756829
 20
0.382714421215851
 30
0.0
 11
32.5301543598403
 21
0.286601282007981
 31
0.0
  0
LINE
  5
DD
330
1E
100
AcDbEntity
  8
0
100
AcDbLine
 10
9.059289999999998
 20
1.896929
 30
0.0
 11
9.093550519612788
 21
2.25625553947264
 31
0.0
  0
LINE
  5
DE
330
1E
100
AcDbEntity
  8
0
100
AcDbLine
 10
8.95209
 20
1.926388999999999
 30
0.0
 11
9.059289999999998
 21
1.896929
 31
0.0
  0
LINE
  5
E0
330
1E
100
AcDbEntity
  8
0
100
AcDbLine
 10
8.07365
 20
1.896929
 30
0.0
 11
8.081157837813369
 21
1.972990283501539
 31
0.0
  0
LINE
  5
E1
330
1E
100
AcDbEntity
  8
0
100
AcDbLine
 10
8.07365
 20
1.896929
 30
0.0
 11
8.081157837813369
 21
1.972990283501539
 31
0.0
  0
LINE
  5
E2
330
1E
100
AcDbEntity
  8
0
100
AcDbLine
 10
7.7751
 20
1.926388999999999
 30
0.0
 11
8.07365
 21
1.896929
 31
0.0
  0
LINE
  5
E4
330
1E
100
AcDbEntity
  8
0
100
AcDbLine
 10
7.243989999999999
 20
2.063918999999999
 30
0.0
 11
7.83922
 21
1.995158999999999
 31
0.0
  0
LINE
  5
E5
330
1E
100
AcDbEntity
  8
0
100
AcDbLine
 10
7.136779999999999
 20
2.093388999999999
 30
0.0
 11
7.60633
 21
2.063918999999999
 31
0.0
  0
LINE
  5
E6
330
1E
100
AcDbEntity
  8
0
100
AcDbLine
 10
7.136779999999999
 20
2.093388999999999
 30
0.0
 11
7.243989999999999
 21
2.063918999999999
 31
0.0
  0
LINE
  5
E9
330
1E
100
AcDbEntity
  8
0
100
AcDbLine
 10
8.356860000000001
 20
1.995158999999999
 30
0.0
 11
8.95209
 21
1.926388999999999
 31
0.0
  0
LINE
  5
EB
330
1E
100
AcDbEntity
  8
0
100
AcDbLine
 10
7.83922
 20
1.995158999999999
 30
0.0
 11
8.589739999999999
 21
1.926388999999999
 31
0.0
  0
LINE
  5
EC
330
1E
100
AcDbEntity
  8
0
100
AcDbLine
 10
7.60633
 20
2.063918999999999
 30
0.0
 11
8.356860000000001
 21
1.995158999999999
 31
0.0
  0
LINE
  5
EE
330
1E
100
AcDbEntity
  8
0
100
AcDbLine
 10
7.078489999999999
 20
1.995158999999999
 30
0.0
 11
7.7751
 21
1.926388999999999
 31
0.0
  0
LINE
  5
F1
330
1E
100
AcDbEntity
  8
0
100
AcDbLine
 10
8.589739999999999
 20
1.926388999999999
 30
0.0
 11
9.059289999999998
 21
1.896929
 31
0.0
  0
LINE
  5
F3
330
1E
100
AcDbEntity
  8
0
100
AcDbLine
 10
13.01619999999999
 20
1.240919
 30
0.0
 11
13.0503392965014
 21
1.589730427133149
 31
0.0
  0
LINE
  5
F4
330
1E
100
AcDbEntity
  8
0
100
AcDbLine
 10
15.95279999999999
 20
1.142688999999999
 30
0.0
 11
16.4815
 21
1.073929
 31
0.0
  0
LINE
  5
F6
330
1E
100
AcDbEntity
  8
0
100
AcDbLine
 10
15.1874
 20
1.142688999999999
 30
0.0
 11
15.9458
 21
1.073929
 31
0.0
  0
LINE
  5
F8
330
1E
100
AcDbEntity
  8
0
100
AcDbLine
 10
14.6586
 20
1.211448999999999
 30
0.0
 11
15.1874
 21
1.142688999999999
 31
0.0
  0
LINE
  5
F9
330
1E
100
AcDbEntity
  8
0
100
AcDbLine
 10
14.6507
 20
1.240919
 30
0.0
 11
15.1944
 21
1.211448999999999
 31
0.0
  0
LINE
  5
FB
330
1E
100
AcDbEntity
  8
0
100
AcDbLine
 10
15.1944
 20
1.211448999999999
 30
0.0
 11
15.95279999999999
 21
1.142688999999999
 31
0.0
  0
LINE
  5
FD
330
1E
100
AcDbEntity
  8
0
100
AcDbLine
 10
13.87229999999999
 20
1.142688999999999
 30
0.0
 11
14.6021
 21
1.073929
 31
0.0
  0
LINE
  5
FF
330
1E
100
AcDbEntity
  8
0
100
AcDbLine
 10
13.2208
 20
1.211448999999999
 30
0.0
 11
13.87229999999999
 21
1.142688999999999
 31
0.0
  0
LINE
  5
102
330
1E
100
AcDbEntity
  8
0
100
AcDbLine
 10
11.58719999999999
 20
1.995158999999999
 30
0.0
 11
12.0405
 21
1.926388999999999
 31
0.0
  0
LINE
  5
104
330
1E
100
AcDbEntity
  8
0
100
AcDbLine
 10
11.949
 20
1.896929
 30
0.0
 11
12.0405
 21
1.926388999999999
 31
0.0
  0
LINE
  5
105
330
1E
100
AcDbEntity
  8
0
100
AcDbLine
 10
11.3405
 20
1.926388999999999
 30
0.0
 11
11.949
 21
1.896929
 31
0.0
  0
LINE
  5
106
330
1E
100
AcDbEntity
  8
0
100
AcDbLine
 10
10.58719999999999
 20
1.995158999999999
 30
0.0
 11
11.3405
 21
1.926388999999999
 31
0.0
  0
LINE
  5
107
330
1E
100
AcDbEntity
  8
0
100
AcDbLine
 10
10.1339
 20
2.063918999999999
 30
0.0
 11
10.2254
 21
2.093388999999999
 31
0.0
  0
LINE
  5
108
330
1E
100
AcDbEntity
  8
0
100
AcDbLine
 10
10.1339
 20
2.063918999999999
 30
0.0
 11
10.58719999999999
 21
1.995158999999999
 31
0.0
  0
LINE
  5
10A
330
1E
100
AcDbEntity
  8
0
100
AcDbLine
 10
9.080468128988428
 20
2.119046582801539
 30
0.0
 11
14.6629016276749
 21
1.37472211631001
 31
0.0
  0
LINE
  5
10B
330
1E
100
AcDbEntity
  8
0
100
AcDbLine
 10
10.2254
 20
2.093388999999999
 30
0.0
 11
10.8339
 21
2.063918999999999
 31
0.0
  0
LINE
  5
10E
330
1E
100
AcDbEntity
  8
0
100
AcDbLine
 10
10.8339
 20
2.063918999999999
 30
0.0
 11
11.58719999999999
 21
1.995158999999999
 31
0.0
  0
LINE
  5
111
330
1E
100
AcDbEntity
  8
0
100
AcDbLine
 10
15.8399
 20
1.926388999999999
 30
0.0
 11
16.546
 21
1.896929
 31
0.0
  0
LINE
  5
112
330
1E
100
AcDbEntity
  8
0
100
AcDbLine
 10
15.13519999999999
 20
1.995158999999999
 30
0.0
 11
15.8399
 21
1.926388999999999
 31
0.0
  0
LINE
  5
113
330
1E
100
AcDbEntity
  8
0
100
AcDbLine
 10
14.8547
 20
2.063918999999999
 30
0.0
 11
15.1386
 21
2.093388999999999
 31
0.0
  0
LINE
  5
114
330
1E
100
AcDbEntity
  8
0
100
AcDbLine
 10
14.8547
 20
2.063918999999999
 30
0.0
 11
15.13519999999999
 21
1.995158999999999
 31
0.0
  0
LINE
  5
116
330
1E
100
AcDbEntity
  8
0
100
AcDbLine
 10
15.1386
 20
2.093388999999999
 30
0.0
 11
15.8447
 21
2.063918999999999
 31
0.0
  0
LINE
  5
119
330
1E
100
AcDbEntity
  8
0
100
AcDbLine
 10
16.54939999999999
 20
1.995158999999999
 30
0.0
 11
16.8299
 21
1.926388999999999
 31
0.0
  0
LINE
  5
11C
330
1E
100
AcDbEntity
  8
0
100
AcDbLine
 10
16.546
 20
1.896929
 30
0.0
 11
16.8299
 21
1.926388999999999
 31
0.0
  0
LINE
  5
11D
330
1E
100
AcDbEntity
  8
0
100
AcDbLine
 10
15.8447
 20
2.063918999999999
 30
0.0
 11
16.54939999999999
 21
1.995158999999999
 31
0.0
  0
LINE
  5
11F
330
1E
100
AcDbEntity
  8
0
100
AcDbLine
 10
13.01619999999999
 20
1.240919
 30
0.0
 11
13.2208
 21
1.211448999999999
 31
0.0
  0
LINE
  5
120
330
1E
100
AcDbEntity
  8
0
100
AcDbLine
 10
13.01619999999999
 20
1.240919
 30
0.0
 11
13.0503392965014
 21
1.589730427133149
 31
0.0
  0
LINE
  5
121
330
1E
100
AcDbEntity
  8
0
100
AcDbLine
 10
21.89999999999999
 20
1.211448999999999
 30
0.0
 11
22.08609999999999
 21
1.142688999999999
 31
0.0
  0
LINE
  5
123
330
1E
100
AcDbEntity
  8
0
100
AcDbLine
 10
21.89999999999999
 20
1.211448999999999
 30
0.0
 11
22.2736
 21
1.240919
 31
0.0
  0
LINE
  5
127
330
1E
100
AcDbEntity
  8
0
100
AcDbLine
 10
22.2736
 20
1.240919
 30
0.0
 11
23.0107
 21
1.211448999999999
 31
0.0
  0
LINE
  5
12A
330
1E
100
AcDbEntity
  8
0
100
AcDbLine
 10
22.08609999999999
 20
1.142688999999999
 30
0.0
 11
22.7482
 21
1.073929
 31
0.0
  0
LINE
  5
12B
330
1E
100
AcDbEntity
  8
0
100
AcDbLine
 10
21.1732
 20
1.995158999999999
 30
0.0
 11
21.7813
 21
1.926388999999999
 31
0.0
  0
LINE
  5
12C
330
1E
100
AcDbEntity
  8
0
100
AcDbLine
 10
21.7813
 20
1.926388999999999
 30
0.0
 11
22.5368
 21
1.896929
 31
0.0
  0
LINE
  5
12F
330
1E
100
AcDbEntity
  8
0
100
AcDbLine
 10
23.6728
 20
1.142688999999999
 30
0.0
 11
23.85879999999999
 21
1.073929
 31
0.0
  0
LINE
  5
131
330
1E
100
AcDbEntity
  8
0
100
AcDbLine
 10
23.0107
 20
1.211448999999999
 30
0.0
 11
23.6728
 21
1.142688999999999
 31
0.0
  0
LINE
  5
138
330
1E
100
AcDbEntity
  8
0
100
AcDbLine
 10
22.5368
 20
1.896929
 30
0.0
 11
22.9938
 21
1.926388999999999
 31
0.0
  0
LINE
  5
139
330
1E
100
AcDbEntity
  8
0
100
AcDbLine
 10
22.90529999999999
 20
1.995158999999999
 30
0.0
 11
22.9938
 21
1.926388999999999
 31
0.0
  0
LINE
  5
13B
330
1E
100
AcDbEntity
  8
0
100
AcDbLine
 10
22.29719999999999
 20
2.063918999999999
 30
0.0
 11
22.90529999999999
 21
1.995158999999999
 31
0.0
  0
LINE
  5
13D
330
1E
100
AcDbEntity
  8
0
100
AcDbLine
 10
21.5417
 20
2.093388999999999
 30
0.0
 11
22.29719999999999
 21
2.063918999999999
 31
0.0
  0
LINE
  5
140
330
1E
100
AcDbEntity
  8
0
100
AcDbLine
 10
21.0847
 20
2.063918999999999
 30
0.0
 11
21.1732
 21
1.995158999999999
 31
0.0
  0
LINE
  5
141
330
1E
100
AcDbEntity
  8
0
100
AcDbLine
 10
21.0847
 20
2.063918999999999
 30
0.0
 11
21.5417
 21
2.093388999999999
 31
0.0
  0
LINE
  5
144
330
1E
100
AcDbEntity
  8
0
100
AcDbLine
 10
28.75989999999999
 20
1.926388999999999
 30
0.0
 11
29.5133
 21
1.896929
 31
0.0
  0
LINE
  5
145
330
1E
100
AcDbEntity
  8
0
100
AcDbLine
 10
29.5133
 20
1.896929
 30
0.0
 11
30.1122
 21
1.926388999999999
 31
0.0
  0
LINE
  5
14A
330
1E
100
AcDbEntity
  8
0
100
AcDbLine
 10
34.57549999999999
 20
1.211448999999999
 30
0.0
 11
34.9638
 21
1.142688999999999
 31
0.0
  0
LINE
  5
14D
330
1E
100
AcDbEntity
  8
0
100
AcDbLine
 10
36.29999999999999
 20
1.926388999999999
 30
0.0
 11
37.0
 21
1.896929
 31
0.0
  0
LINE
  5
14E
330
1E
100
AcDbEntity
  8
0
100
AcDbLine
 10
37.0
 20
1.896929
 30
0.0
 11
37.7
 21
1.926388999999999
 31
0.0
  0
LINE
  5
14F
330
1E
100
AcDbEntity
  8
0
100
AcDbLine
 10
36.0
 20
1.995158999999999
 30
0.0
 11
36.29999999999999
 21
2.063918999999999
 31
0.0
  0
LINE
  5
150
330
1E
100
AcDbEntity
  8
0
100
AcDbLine
 10
36.0
 20
1.995158999999999
 30
0.0
 11
36.29999999999999
 21
1.926388999999999
 31
0.0
  0
LINE
  5
151
330
1E
100
AcDbEntity
  8
0
100
AcDbLine
 10
33.8425
 20
1.240919
 30
0.0
 11
34.57549999999999
 21
1.211448999999999
 31
0.0
  0
LINE
  5
153
330
1E
100
AcDbEntity
  8
0
100
AcDbLine
 10
33.1874
 20
1.211448999999999
 30
0.0
 11
33.8425
 21
1.240919
 31
0.0
  0
LINE
  5
155
330
1E
100
AcDbEntity
  8
0
100
AcDbLine
 10
32.9809
 20
1.142688999999999
 30
0.0
 11
33.1874
 21
1.211448999999999
 31
0.0
  0
LINE
  5
156
330
1E
100
AcDbEntity
  8
0
100
AcDbLine
 10
32.9809
 20
1.142688999999999
 30
0.0
 11
33.3693
 21
1.073929
 31
0.0
  0
LINE
  5
158
330
1E
100
AcDbEntity
  8
0
100
AcDbLine
 10
30.1122
 20
1.926388999999999
 30
0.0
 11
30.2217
 21
1.995158999999999
 31
0.0
  0
LINE
  5
159
330
1E
100
AcDbEntity
  8
0
100
AcDbLine
 10
37.0
 20
2.093388999999999
 30
0.0
 11
37.7
 21
2.063918999999999
 31
0.0
  0
LINE
  5
15A
330
1E
100
AcDbEntity
  8
0
100
AcDbLine
 10
36.29999999999999
 20
2.063918999999999
 30
0.0
 11
37.0
 21
2.093388999999999
 31
0.0
  0
LINE
  5
15B
330
1E
100
AcDbEntity
  8
0
100
AcDbLine
 10
29.7516
 20
2.063918999999999
 30
0.0
 11
30.2217
 21
1.995158999999999
 31
0.0
  0
LINE
  5
15E
330
1E
100
AcDbEntity
  8
0
100
AcDbLine
 10
28.9982
 20
2.093388999999999
 30
0.0
 11
29.7516
 21
2.063918999999999
 31
0.0
  0
LINE
  5
160
330
1E
100
AcDbEntity
  8
0
100
AcDbLine
 10
28.3993
 20
2.063918999999999
 30
0.0
 11
28.9982
 21
2.093388999999999
 31
0.0
  0
LINE
  5
163
330
1E
100
AcDbEntity
  8
0
100
AcDbLine
 10
28.28979999999999
 20
1.995158999999999
 30
0.0
 11
28.3993
 21
2.063918999999999
 31
0.0
  0
LINE
  5
164
330
1E
100
AcDbEntity
  8
0
100
AcDbLine
 10
28.28979999999999
 20
1.995158999999999
 30
0.0
 11
28.75989999999999
 21
1.926388999999999
 31
0.0
  0
LINE
  5
165
330
1E
100
AcDbEntity
  8
0
100
AcDbLine
 10
10.804
 20
14.063109
 30
0.0
 11
18.64799999999999
 21
14.063109
 31
0.0
  0
LINE
  5
166
330
1E
100
AcDbEntity
  8
0
100
AcDbLine
 10
10.804
 20
11.06310899999999
 30
0.0
 11
18.64799999999999
 21
11.06310899999999
 31
0.0
  0
LINE
  5
167
330
1E
100
AcDbEntity
  8
0
100
AcDbLine
 10
11.512
 20
10.06310899999999
 30
0.0
 11
19.144
 21
10.06310899999999
 31
0.0
  0
LINE
  5
168
330
1E
100
AcDbEntity
  8
0
100
AcDbLine
 10
18.64799999999999
 20
14.063109
 30
0.0
 11
27.528
 21
14.063109
 31
0.0
  0
LINE
  5
169
330
1E
100
AcDbEntity
  8
0
100
AcDbLine
 10
18.64799999999999
 20
11.06310899999999
 30
0.0
 11
27.528
 21
11.06310899999999
 31
0.0
  0
LINE
  5
16A
330
1E
100
AcDbEntity
  8
0
100
AcDbLine
 10
10.804
 20
9.063108999999998
 30
0.0
 11
18.64799999999999
 21
9.063108999999998
 31
0.0
  0
LINE
  5
16B
330
1E
100
AcDbEntity
  8
0
100
AcDbLine
 10
10.804
 20
4.063108999999999
 30
0.0
 11
18.64799999999999
 21
4.063108999999999
 31
0.0
  0
LINE
  5
16C
330
1E
100
AcDbEntity
  8
0
100
AcDbLine
 10
19.144
 20
10.06310899999999
 30
0.0
 11
27.784
 21
10.06310899999999
 31
0.0
  0
LINE
  5
16D
330
1E
100
AcDbEntity
  8
0
100
AcDbLine
 10
27.528
 20
14.063109
 30
0.0
 11
37.0
 21
14.063109
 31
0.0
  0
LINE
  5
16E
330
1E
100
AcDbEntity
  8
0
100
AcDbLine
 10
27.528
 20
11.06310899999999
 30
0.0
 11
37.0
 21
11.06310899999999
 31
0.0
  0
LINE
  5
16F
330
1E
100
AcDbEntity
  8
0
100
AcDbLine
 10
18.64799999999999
 20
9.063108999999998
 30
0.0
 11
27.528
 21
9.063108999999998
 31
0.0
  0
LINE
  5
170
330
1E
100
AcDbEntity
  8
0
100
AcDbLine
 10
18.64799999999999
 20
4.063108999999999
 30
0.0
 11
27.528
 21
4.063108999999999
 31
0.0
  0
LINE
  5
171
330
1E
100
AcDbEntity
  8
0
100
AcDbLine
 10
37.0
 20
10.06310899999999
 30
0.0
 11
46.21599999999999
 21
10.06310899999999
 31
0.0
  0
LINE
  5
172
330
1E
100
AcDbEntity
  8
0
100
AcDbLine
 10
37.0
 20
9.063108999999998
 30
0.0
 11
46.472
 21
9.063108999999998
 31
0.0
  0
LINE
  5
173
330
1E
100
AcDbEntity
  8
0
100
AcDbLine
 10
37.0
 20
14.063109
 30
0.0
 11
46.472
 21
14.063109
 31
0.0
  0
LINE
  5
174
330
1E
100
AcDbEntity
  8
0
100
AcDbLine
 10
37.0
 20
11.06310899999999
 30
0.0
 11
46.472
 21
11.06310899999999
 31
0.0
  0
LINE
  5
175
330
1E
100
AcDbEntity
  8
0
100
AcDbLine
 10
27.784
 20
10.06310899999999
 30
0.0
 11
37.0
 21
10.06310899999999
 31
0.0
  0
LINE
  5
176
330
1E
100
AcDbEntity
  8
0
100
AcDbLine
 10
27.528
 20
9.063108999999998
 30
0.0
 11
37.0
 21
9.063108999999998
 31
0.0
  0
LINE
  5
177
330
1E
100
AcDbEntity
  8
0
100
AcDbLine
 10
27.528
 20
4.063108999999999
 30
0.0
 11
37.0
 21
4.063108999999999
 31
0.0
  0
LINE
  5
178
330
1E
100
AcDbEntity
  8
0
100
AcDbLine
 10
37.0
 20
4.063108999999999
 30
0.0
 11
46.472
 21
4.063108999999999
 31
0.0
  0
LINE
  5
179
330
1E
100
AcDbEntity
  8
0
100
AcDbLine
 10
9.080468128988428
 20
2.119046582801539
 30
0.0
 11
14.6629016276749
 21
1.37472211631001
 31
0.0
  0
LINE
  5
17A
330
1E
100
AcDbEntity
  8
0
100
AcDbLine
 10
16.4973123465829
 20
1.13013402045561
 30
0.0
 11
17.0
 21
1.063109
 31
0.0
  0
LINE
  5
17B
330
1E
100
AcDbEntity
  8
0
100
AcDbLine
 10
39.474
 20
-0.0631090000000042
 30
0.0
 11
39.77389999999999
 21
-0.0594680000000042
 31
0.0
  0
LINE
  5
17C
330
1E
100
AcDbEntity
  8
0
100
AcDbLine
 10
38.0
 20
-0.0509730000000041
 30
0.0
 11
38.0
 21
0.173168963500301
 31
0.0
  0
LINE
  5
17D
330
1E
100
AcDbEntity
  8
0
100
AcDbLine
 10
37.7
 20
-0.0594680000000041
 30
0.0
 11
38.0
 21
-0.0509730000000041
 31
0.0
  0
LINE
  5
17E
330
1E
100
AcDbEntity
  8
0
100
AcDbLine
 10
39.77389999999999
 20
-0.0594680000000042
 30
0.0
 11
40.4739
 21
-0.0509730000000043
 31
0.0
  0
LINE
  5
17F
330
1E
100
AcDbEntity
  8
0
100
AcDbLine
 10
40.4739
 20
-0.0509730000000043
 30
0.0
 11
41.17379999999999
 21
-0.0424780000000043
 31
0.0
  0
LINE
  5
180
330
1E
100
AcDbEntity
  8
0
100
AcDbLine
 10
38.0
 20
0.113108999999996
 30
0.0
 11
39.4709651245107
 21
0.186657256225531
 31
0.0
  0
LINE
  5
181
330
1E
100
AcDbEntity
  8
0
100
AcDbLine
 10
38.0
 20
0.113108999999996
 30
0.0
 11
39.4709651245107
 21
0.186657256225531
 31
0.0
  0
LINE
  5
182
330
1E
100
AcDbEntity
  8
0
100
AcDbLine
 10
38.0
 20
0.173168963500301
 30
0.0
 11
38.0
 21
-0.050973000000004
 31
0.0
  0
LINE
  5
184
330
1E
100
AcDbEntity
  8
0
100
AcDbLine
 10
37.7
 20
-0.0424780000000041
 30
0.0
 11
38.0
 21
-0.0509730000000041
 31
0.0
  0
LINE
  5
186
330
1E
100
AcDbEntity
  8
0
100
AcDbLine
 10
38.0829
 20
0.172707999999996
 30
0.0
 11
38.8161
 21
0.176348999999996
 31
0.0
  0
LINE
  5
187
330
1E
100
AcDbEntity
  8
0
100
AcDbLine
 10
41.17379999999999
 20
-0.0424780000000043
 30
0.0
 11
41.4738
 21
-0.0388370000000043
 31
0.0
  0
LINE
  5
188
330
1E
100
AcDbEntity
  8
0
100
AcDbLine
 10
44.6651
 20
0.172707999999996
 30
0.0
 11
45.2102
 21
0.176348999999996
 31
0.0
  0
LINE
  5
189
330
1E
100
AcDbEntity
  8
0
100
AcDbLine
 10
44.67439999999999
 20
0.176348999999996
 30
0.0
 11
45.20629999999999
 21
0.184843999999996
 31
0.0
  0
LINE
  5
18A
330
1E
100
AcDbEntity
  8
0
100
AcDbLine
 10
45.2102
 20
0.176348999999996
 30
0.0
 11
45.9716
 21
0.184843999999995
 31
0.0
  0
LINE
  5
18B
330
1E
100
AcDbEntity
  8
0
100
AcDbLine
 10
43.5822
 20
0.172707999999996
 30
0.0
 11
44.24629999999999
 21
0.176348999999996
 31
0.0
  0
LINE
  5
18C
330
1E
100
AcDbEntity
  8
0
100
AcDbLine
 10
38.8161
 20
0.176348999999996
 30
0.0
 11
39.2049
 21
0.184843999999996
 31
0.0
  0
LINE
  5
18D
330
1E
100
AcDbEntity
  8
0
100
AcDbLine
 10
37.4281
 20
0.176348999999996
 30
0.0
 11
38.0829
 21
0.172707999999996
 31
0.0
  0
LINE
  5
18E
330
1E
100
AcDbEntity
  8
0
100
AcDbLine
 10
37.222
 20
0.184843999999996
 30
0.0
 11
37.61079999999999
 21
0.193338999999996
 31
0.0
  0
LINE
  5
18F
330
1E
100
AcDbEntity
  8
0
100
AcDbLine
 10
37.222
 20
0.184843999999996
 30
0.0
 11
37.4281
 21
0.176348999999996
 31
0.0
  0
LINE
  5
190
330
1E
100
AcDbEntity
  8
0
100
AcDbLine
 10
37.61079999999999
 20
0.193338999999996
 30
0.0
 11
38.344
 21
0.196979999999996
 31
0.0
  0
LINE
  5
191
330
1E
100
AcDbEntity
  8
0
100
AcDbLine
 10
38.344
 20
0.196979999999996
 30
0.0
 11
38.9988
 21
0.193338999999996
 31
0.0
  0
LINE
  5
192
330
1E
100
AcDbEntity
  8
0
100
AcDbLine
 10
38.9988
 20
0.193338999999996
 30
0.0
 11
39.2049
 21
0.184843999999996
 31
0.0
  0
LINE
  5
193
330
1E
100
AcDbEntity
  8
0
100
AcDbLine
 10
39.4709090977413
 20
0.19126818556749
 30
0.0
 11
39.474
 21
-0.0631090000000042
 31
0.0
  0
LINE
  5
195
330
1E
100
AcDbEntity
  8
0
100
AcDbLine
 10
39.4709090977413
 20
0.19126818556749
 30
0.0
 11
39.474
 21
-0.0631090000000042
 31
0.0
  0
LINE
  5
19C
330
1E
100
AcDbEntity
  8
0
100
AcDbLine
 10
41.46974429058629
 20
0.294942210092646
 30
0.0
 11
41.4738
 21
-0.0388370000000043
 31
0.0
  0
LINE
  5
19E
330
1E
100
AcDbEntity
  8
0
100
AcDbLine
 10
41.4698456401597
 20
0.28660128200798
 30
0.0
 11
44.66203654010979
 21
0.4462108270054851
 31
0.0
  0
LINE
  5
19F
330
1E
100
AcDbEntity
  8
0
100
AcDbLine
 10
41.46974429058629
 20
0.294942210092646
 30
0.0
 11
41.4738
 21
-0.0388370000000044
 31
0.0
  0
LINE
  5
1A0
330
1E
100
AcDbEntity
  8
0
100
AcDbLine
 10
41.68239999999999
 20
0.4066529999999961
 30
0.0
 11
42.1533
 21
0.4151479999999961
 31
0.0
  0
LINE
  5
1A1
330
1E
100
AcDbEntity
  8
0
100
AcDbLine
 10
40.9286
 20
0.4030119999999961
 30
0.0
 11
41.68239999999999
 21
0.4066529999999961
 31
0.0
  0
LINE
  5
1A2
330
1E
100
AcDbEntity
  8
0
100
AcDbLine
 10
40.33009999999999
 20
0.4066529999999961
 30
0.0
 11
40.9286
 21
0.4030119999999961
 31
0.0
  0
LINE
  5
1A3
330
1E
100
AcDbEntity
  8
0
100
AcDbLine
 10
40.22149999999999
 20
0.4151479999999961
 30
0.0
 11
40.69239999999999
 21
0.4236429999999961
 31
0.0
  0
LINE
  5
1A4
330
1E
100
AcDbEntity
  8
0
100
AcDbLine
 10
40.22149999999999
 20
0.4151479999999961
 30
0.0
 11
40.33009999999999
 21
0.4066529999999961
 31
0.0
  0
LINE
  5
1AA
330
1E
100
AcDbEntity
  8
0
100
AcDbLine
 10
37.7
 20
1.926388999999999
 30
0.0
 11
38.0
 21
1.995158999999999
 31
0.0
  0
LINE
  5
1AB
330
1E
100
AcDbEntity
  8
0
100
AcDbLine
 10
37.7
 20
2.063918999999999
 30
0.0
 11
38.0
 21
1.995158999999999
 31
0.0
  0
LINE
  5
1B1
330
1E
100
AcDbEntity
  8
0
100
AcDbLine
 10
40.69239999999999
 20
0.4236429999999961
 30
0.0
 11
41.44619999999999
 21
0.4272839999999961
 31
0.0
  0
LINE
  5
1B6
330
1E
100
AcDbEntity
  8
0
100
AcDbLine
 10
41.44619999999999
 20
0.4272839999999961
 30
0.0
 11
42.04469999999999
 21
0.4236429999999961
 31
0.0
  0
LINE
  5
1B7
330
1E
100
AcDbEntity
  8
0
100
AcDbLine
 10
42.04469999999999
 20
0.4236429999999961
 30
0.0
 11
42.1533
 21
0.4151479999999961
 31
0.0
  0
LINE
  5
1B8
330
1E
100
AcDbEntity
  8
0
100
AcDbLine
 10
43.3921084243171
 20
0.38271442121585
 30
0.0
 11
43.39409999999999
 21
0.176348999999996
 31
0.0
  0
LINE
  5
1B9
330
1E
100
AcDbEntity
  8
0
100
AcDbLine
 10
43.3921084243171
 20
0.38271442121585
 30
0.0
 11
43.39409999999999
 21
0.176348999999995
 31
0.0
  0
LINE
  5
1BA
330
1E
100
AcDbEntity
  8
0
100
AcDbLine
 10
45.9716
 20
0.184843999999995
 30
0.0
 11
46.5035
 21
0.193338999999995
 31
0.0
  0
LINE
  5
1BB
330
1E
100
AcDbEntity
  8
0
100
AcDbLine
 10
45.9677
 20
0.193338999999995
 30
0.0
 11
46.51279999999999
 21
0.196979999999995
 31
0.0
  0
LINE
  5
1BC
330
1E
100
AcDbEntity
  8
0
100
AcDbLine
 10
45.20629999999999
 20
0.184843999999996
 30
0.0
 11
45.9677
 21
0.193338999999995
 31
0.0
  0
LINE
  5
1BD
330
1E
100
AcDbEntity
  8
0
100
AcDbLine
 10
47.7332
 20
0.403011999999995
 30
0.0
 11
48.4403
 21
0.406652999999995
 31
0.0
  0
LINE
  5
1BE
330
1E
100
AcDbEntity
  8
0
100
AcDbLine
 10
51.6618
 20
0.403011999999995
 30
0.0
 11
52.1327
 21
0.406652999999995
 31
0.0
  0
LINE
  5
1BF
330
1E
100
AcDbEntity
  8
0
100
AcDbLine
 10
51.6618
 20
0.403011999999995
 30
0.0
 11
51.7704
 21
0.406652999999995
 31
0.0
  0
LINE
  5
1C0
330
1E
100
AcDbEntity
  8
0
100
AcDbLine
 10
48.4403
 20
0.406652999999995
 30
0.0
 11
49.1473
 21
0.4151479999999951
 31
0.0
  0
LINE
  5
1C1
330
1E
100
AcDbEntity
  8
0
100
AcDbLine
 10
51.7704
 20
0.406652999999995
 30
0.0
 11
52.3688
 21
0.4151479999999951
 31
0.0
  0
LINE
  5
1C2
330
1E
100
AcDbEntity
  8
0
100
AcDbLine
 10
52.1327
 20
0.406652999999995
 30
0.0
 11
52.8865
 21
0.4151479999999951
 31
0.0
  0
LINE
  5
1C3
330
1E
100
AcDbEntity
  8
0
100
AcDbLine
 10
52.8865
 20
0.4151479999999951
 30
0.0
 11
53.4849
 21
0.423642999999995
 31
0.0
  0
LINE
  5
1C4
330
1E
100
AcDbEntity
  8
0
100
AcDbLine
 10
49.1473
 20
0.4151479999999951
 30
0.0
 11
49.4302
 21
0.423642999999995
 31
0.0
  0
LINE
  5
1C5
330
1E
100
AcDbEntity
  8
0
100
AcDbLine
 10
47.7331
 20
0.4151479999999951
 30
0.0
 11
48.4402
 21
0.423642999999995
 31
0.0
  0
LINE
  5
1C6
330
1E
100
AcDbEntity
  8
0
100
AcDbLine
 10
48.4402
 20
0.423642999999995
 30
0.0
 11
49.1473
 21
0.427283999999995
 31
0.0
  0
LINE
  5
1C7
330
1E
100
AcDbEntity
  8
0
100
AcDbLine
 10
53.4849
 20
0.423642999999995
 30
0.0
 11
53.5935
 21
0.427283999999995
 31
0.0
  0
LINE
  5
1C8
330
1E
100
AcDbEntity
  8
0
100
AcDbLine
 10
53.1226
 20
0.423642999999995
 30
0.0
 11
53.5935
 21
0.427283999999995
 31
0.0
  0
LINE
  5
1C9
330
1E
100
AcDbEntity
  8
0
100
AcDbLine
 10
52.3688
 20
0.4151479999999951
 30
0.0
 11
53.1226
 21
0.423642999999995
 31
0.0
  0
LINE
  5
1CA
330
1E
100
AcDbEntity
  8
0
100
AcDbLine
 10
47.45029999999999
 20
0.406652999999995
 30
0.0
 11
47.7332
 21
0.403011999999995
 31
0.0
  0
LINE
  5
1CB
330
1E
100
AcDbEntity
  8
0
100
AcDbLine
 10
47.45029999999999
 20
0.406652999999995
 30
0.0
 11
47.7331
 21
0.4151479999999951
 31
0.0
  0
LINE
  5
1CE
330
1E
100
AcDbEntity
  8
0
100
AcDbLine
 10
44.6613844033407
 20
0.50443298636755
 30
0.0
 11
44.6651
 21
0.172707999999996
 31
0.0
  0
LINE
  5
1D2
330
1E
100
AcDbEntity
  8
0
100
AcDbLine
 10
44.6613844033407
 20
0.50443298636755
 30
0.0
 11
44.6651
 21
0.172707999999996
 31
0.0
  0
LINE
  5
1D3
330
1E
100
AcDbEntity
  8
0
100
AcDbLine
 10
46.50895697030549
 20
0.538556848515268
 30
0.0
 11
47.4487703417435
 21
0.585547517087171
 31
0.0
  0
LINE
  5
1D4
330
1E
100
AcDbEntity
  8
0
100
AcDbLine
 10
46.50895697030549
 20
0.538556848515269
 30
0.0
 11
47.4487703417435
 21
0.585547517087171
 31
0.0
  0
LINE
  5
1D8
330
1E
100
AcDbEntity
  8
0
100
AcDbLine
 10
43.88779999999999
 20
1.926388999999999
 30
0.0
 11
44.48669999999999
 21
1.896929
 31
0.0
  0
LINE
  5
1D9
330
1E
100
AcDbEntity
  8
0
100
AcDbLine
 10
43.7783
 20
1.995158999999999
 30
0.0
 11
44.24839999999999
 21
2.063918999999999
 31
0.0
  0
LINE
  5
1DA
330
1E
100
AcDbEntity
  8
0
100
AcDbLine
 10
43.7783
 20
1.995158999999999
 30
0.0
 11
43.88779999999999
 21
1.926388999999999
 31
0.0
  0
LINE
  5
1DB
330
1E
100
AcDbEntity
  8
0
100
AcDbLine
 10
45.4957
 20
1.044463999999999
 30
0.0
 11
46.2567
 21
1.073929
 31
0.0
  0
LINE
  5
1DC
330
1E
100
AcDbEntity
  8
0
100
AcDbLine
 10
44.96329999999999
 20
1.073929
 30
0.0
 11
45.4957
 21
1.044463999999999
 31
0.0
  0
LINE
  5
1E0
330
1E
100
AcDbEntity
  8
0
100
AcDbLine
 10
44.9527
 20
1.142688999999999
 30
0.0
 11
45.4964
 21
1.211448999999999
 31
0.0
  0
LINE
  5
1E1
330
1E
100
AcDbEntity
  8
0
100
AcDbLine
 10
44.9527
 20
1.142688999999999
 30
0.0
 11
44.96329999999999
 21
1.073929
 31
0.0
  0
LINE
  5
1E2
330
1E
100
AcDbEntity
  8
0
100
AcDbLine
 10
45.4964
 20
1.211448999999999
 30
0.0
 11
46.25739999999999
 21
1.240919
 31
0.0
  0
LINE
  5
1E3
330
1E
100
AcDbEntity
  8
0
100
AcDbLine
 10
45.24009999999999
 20
1.926388999999999
 30
0.0
 11
45.71019999999999
 21
1.995158999999999
 31
0.0
  0
LINE
  5
1E4
330
1E
100
AcDbEntity
  8
0
100
AcDbLine
 10
44.48669999999999
 20
1.896929
 30
0.0
 11
45.24009999999999
 21
1.926388999999999
 31
0.0
  0
LINE
  5
1E5
330
1E
100
AcDbEntity
  8
0
100
AcDbLine
 10
44.24839999999999
 20
2.063918999999999
 30
0.0
 11
45.0018
 21
2.093388999999999
 31
0.0
  0
LINE
  5
1ED
330
1E
100
AcDbEntity
  8
0
100
AcDbLine
 10
45.0018
 20
2.093388999999999
 30
0.0
 11
45.6007
 21
2.063918999999999
 31
0.0
  0
LINE
  5
1EE
330
1E
100
AcDbEntity
  8
0
100
AcDbLine
 10
46.5081440255484
 20
0.6108131489371141
 30
0.0
 11
46.51279999999999
 21
0.196979999999995
 31
0.0
  0
LINE
  5
1EF
330
1E
100
AcDbEntity
  8
0
100
AcDbLine
 10
46.5081440255484
 20
0.6108131489371141
 30
0.0
 11
46.51279999999999
 21
0.196979999999995
 31
0.0
  0
LINE
  5
1F2
330
1E
100
AcDbEntity
  8
0
100
AcDbLine
 10
46.2567
 20
1.073929
 30
0.0
 11
46.8004
 21
1.142688999999999
 31
0.0
  0
LINE
  5
1F4
330
1E
100
AcDbEntity
  8
0
100
AcDbLine
 10
46.21599999999999
 20
10.06310899999999
 30
0.0
 11
54.856
 21
10.06310899999999
 31
0.0
  0
LINE
  5
1F7
330
1E
100
AcDbEntity
  8
0
100
AcDbLine
 10
46.472
 20
14.063109
 30
0.0
 11
55.35199999999999
 21
14.063109
 31
0.0
  0
LINE
  5
1F8
330
1E
100
AcDbEntity
  8
0
100
AcDbLine
 10
46.472
 20
11.06310899999999
 30
0.0
 11
55.35199999999999
 21
11.06310899999999
 31
0.0
  0
LINE
  5
1F9
330
1E
100
AcDbEntity
  8
0
100
AcDbLine
 10
46.472
 20
9.063108999999998
 30
0.0
 11
55.35199999999999
 21
9.063108999999998
 31
0.0
  0
LINE
  5
1FA
330
1E
100
AcDbEntity
  8
0
100
AcDbLine
 10
46.472
 20
4.063108999999999
 30
0.0
 11
55.35199999999999
 21
4.063108999999999
 31
0.0
  0
LINE
  5
1FD
330
1E
100
AcDbEntity
  8
0
100
AcDbLine
 10
46.25739999999999
 20
1.240919
 30
0.0
 11
46.7899
 21
1.211448999999999
 31
0.0
  0
LINE
  5
1FE
330
1E
100
AcDbEntity
  8
0
100
AcDbLine
 10
46.7899
 20
1.211448999999999
 30
0.0
 11
46.8004
 21
1.142688999999999
 31
0.0
  0
LINE
  5
1FF
330
1E
100
AcDbEntity
  8
0
100
AcDbLine
 10
45.6007
 20
2.063918999999999
 30
0.0
 11
45.71019999999999
 21
1.995158999999999
 31
0.0
  0
LINE
  5
200
330
1E
100
AcDbEntity
  8
0
100
AcDbLine
 10
47.4487703417435
 20
0.585547517087171
 30
0.0
 11
47.45029999999999
 21
0.406652999999995
 31
0.0
  0
LINE
  5
201
330
1E
100
AcDbEntity
  8
0
100
AcDbLine
 10
49.4279564096054
 20
0.684506820480263
 30
0.0
 11
51.6572020731355
 21
0.7959691036567679
 31
0.0
  0
LINE
  5
202
330
1E
100
AcDbEntity
  8
0
100
AcDbLine
 10
49.4279564096054
 20
0.684506820480263
 30
0.0
 11
51.6572020731355
 21
0.7959691036567679
 31
0.0
  0
LINE
  5
203
330
1E
100
AcDbEntity
  8
0
100
AcDbLine
 10
49.1473
 20
0.427283999999995
 30
0.0
 11
49.4302
 21
0.423642999999995
 31
0.0
  0
LINE
  5
204
330
1E
100
AcDbEntity
  8
0
100
AcDbLine
 10
51.6572020731355
 20
0.7959691036567679
 30
0.0
 11
51.6618
 21
0.403011999999995
 31
0.0
  0
LINE
  5
20D
330
1E
100
AcDbEntity
  8
0
100
AcDbLine
 10
51.6568820362963
 20
0.823320723874283
 30
0.0
 11
51.6618
 21
0.403011999999995
 31
0.0
  0
LINE
  5
20E
330
1E
100
AcDbEntity
  8
0
100
AcDbLine
 10
51.4632
 20
1.896929
 30
0.0
 11
52.2187
 21
1.926388999999999
 31
0.0
  0
LINE
  5
20F
330
1E
100
AcDbEntity
  8
0
100
AcDbLine
 10
51.0062
 20
1.926388999999999
 30
0.0
 11
51.0947
 21
1.995158999999999
 31
0.0
  0
LINE
  5
210
330
1E
100
AcDbEntity
  8
0
100
AcDbLine
 10
51.0062
 20
1.926388999999999
 30
0.0
 11
51.4632
 21
1.896929
 31
0.0
  0
LINE
  5
211
330
1E
100
AcDbEntity
  8
0
100
AcDbLine
 10
51.0947
 20
1.995158999999999
 30
0.0
 11
51.7028
 21
2.063918999999999
 31
0.0
  0
LINE
  5
216
330
1E
100
AcDbEntity
  8
0
100
AcDbLine
 10
52.2187
 20
1.926388999999999
 30
0.0
 11
52.8268
 21
1.995158999999999
 31
0.0
  0
LINE
  5
217
330
1E
100
AcDbEntity
  8
0
100
AcDbLine
 10
51.7028
 20
2.063918999999999
 30
0.0
 11
52.4583
 21
2.093388999999999
 31
0.0
  0
LINE
  5
220
330
1E
100
AcDbEntity
  8
0
100
AcDbLine
 10
52.4583
 20
2.093388999999999
 30
0.0
 11
52.9153
 21
2.063918999999999
 31
0.0
  0
LINE
  5
222
330
1E
100
AcDbEntity
  8
0
100
AcDbLine
 10
53.5880564398246
 20
0.8925118219912249
 30
0.0
 11
57.0
 21
1.06310899999999
 31
0.0
  0
LINE
  5
223
330
1E
100
AcDbEntity
  8
0
100
AcDbLine
 10
53.5880564398246
 20
0.8925118219912249
 30
0.0
 11
57.0
 21
1.06310899999999
 31
0.0
  0
LINE
  5
227
330
1E
100
AcDbEntity
  8
0
100
AcDbLine
 10
54.4235
 20
1.073928999999989
 30
0.0
 11
54.6128
 21
1.044463999999999
 31
0.0
  0
LINE
  5
228
330
1E
100
AcDbEntity
  8
0
100
AcDbLine
 10
54.4235
 20
1.073928999999989
 30
0.0
 11
54.7935
 21
1.142688999999999
 31
0.0
  0
LINE
  5
229
330
1E
100
AcDbEntity
  8
0
100
AcDbLine
 10
54.6128
 20
1.044463999999999
 30
0.0
 11
55.2758
 21
1.073928999999989
 31
0.0
  0
LINE
  5
22A
330
1E
100
AcDbEntity
  8
0
100
AcDbLine
 10
54.7935
 20
1.142688999999999
 30
0.0
 11
55.5288
 21
1.21144899999999
 31
0.0
  0
LINE
  5
22B
330
1E
100
AcDbEntity
  8
0
100
AcDbLine
 10
53.5876942428357
 20
0.923466585209314
 30
0.0
 11
53.5935
 21
0.427283999999995
 31
0.0
  0
LINE
  5
22C
330
1E
100
AcDbEntity
  8
0
100
AcDbLine
 10
53.5876942428357
 20
0.923466585209314
 30
0.0
 11
53.5935
 21
0.427283999999995
 31
0.0
  0
LINE
  5
22E
330
1E
100
AcDbEntity
  8
0
100
AcDbLine
 10
54.856
 20
10.06310899999999
 30
0.0
 11
62.488
 21
10.06310899999999
 31
0.0
  0
LINE
  5
230
330
1E
100
AcDbEntity
  8
0
100
AcDbLine
 10
52.8268
 20
1.995158999999999
 30
0.0
 11
52.9153
 21
2.063918999999999
 31
0.0
  0
LINE
  5
231
330
1E
100
AcDbEntity
  8
0
100
AcDbLine
 10
51.6572020731355
 20
0.7959691036567679
 30
0.0
 11
51.6618
 21
0.403011999999995
 31
0.0
  0
LINE
  5
232
330
1E
100
AcDbEntity
  8
0
100
AcDbLine
 10
47.4487703417435
 20
0.585547517087171
 30
0.0
 11
47.45029999999999
 21
0.406652999999995
 31
0.0
  0
LINE
  5
234
330
1E
100
AcDbEntity
  8
0
100
AcDbLine
 10
43.39409999999999
 20
0.176348999999996
 30
0.0
 11
43.5822
 21
0.172707999999996
 31
0.0
  0
LINE
  5
235
330
1E
100
AcDbEntity
  8
0
100
AcDbLine
 10
44.24629999999999
 20
0.176348999999996
 30
0.0
 11
44.6650052336711
 21
0.181168648997335
 31
0.0
  0
LINE
  5
236
330
1E
100
AcDbEntity
  8
0
100
AcDbLine
 10
57.0
 20
1.06310899999999
 30
0.0
 11
58.9828000154574
 21
1.32748233539431
 31
0.0
  0
LINE
  5
237
330
1E
100
AcDbEntity
  8
0
100
AcDbLine
 10
57.0
 20
1.06310899999999
 30
0.0
 11
58.9828000154574
 21
1.32748233539431
 31
0.0
  0
LINE
  5
238
330
1E
100
AcDbEntity
  8
0
100
AcDbLine
 10
55.2758
 20
1.073928999999989
 30
0.0
 11
56.0111
 21
1.142688999999999
 31
0.0
  0
LINE
  5
239
330
1E
100
AcDbEntity
  8
0
100
AcDbLine
 10
57.5026876534171
 20
1.1301340204556
 30
0.0
 11
57.5105
 21
1.04446399999999
 31
0.0
  0
LINE
  5
23A
330
1E
100
AcDbEntity
  8
0
100
AcDbLine
 10
57.5026876534171
 20
1.1301340204556
 30
0.0
 11
57.5105
 21
1.04446399999999
 31
0.0
  0
LINE
  5
23B
330
1E
100
AcDbEntity
  8
0
100
AcDbLine
 10
57.5105
 20
1.04446399999999
 30
0.0
 11
58.0542
 21
1.073928999999989
 31
0.0
  0
LINE
  5
23C
330
1E
100
AcDbEntity
  8
0
100
AcDbLine
 10
59.2151
 20
1.073928999999989
 30
0.0
 11
59.8666
 21
1.14268899999999
 31
0.0
  0
LINE
  5
23D
330
1E
100
AcDbEntity
  8
0
100
AcDbLine
 10
59.0105
 20
1.04446399999999
 30
0.0
 11
59.3979
 21
1.073928999999989
 31
0.0
  0
LINE
  5
23E
330
1E
100
AcDbEntity
  8
0
100
AcDbLine
 10
59.0105
 20
1.04446399999999
 30
0.0
 11
59.2151
 21
1.073928999999989
 31
0.0
  0
LINE
  5
23F
330
1E
100
AcDbEntity
  8
0
100
AcDbLine
 10
59.3979
 20
1.073928999999989
 30
0.0
 11
60.12769999999999
 21
1.14268899999999
 31
0.0
  0
LINE
  5
240
330
1E
100
AcDbEntity
  8
0
100
AcDbLine
 10
60.12769999999999
 20
1.14268899999999
 30
0.0
 11
60.7792
 21
1.21144899999999
 31
0.0
  0
LINE
  5
241
330
1E
100
AcDbEntity
  8
0
100
AcDbLine
 10
59.8666
 20
1.14268899999999
 30
0.0
 11
60.5964
 21
1.21144899999999
 31
0.0
  0
LINE
  5
242
330
1E
100
AcDbEntity
  8
0
100
AcDbLine
 10
58.0542
 20
1.073928999999989
 30
0.0
 11
58.81260000000001
 21
1.14268899999999
 31
0.0
  0
LINE
  5
243
330
1E
100
AcDbEntity
  8
0
100
AcDbLine
 10
56.0111
 20
1.142688999999999
 30
0.0
 11
56.38110000000001
 21
1.21144899999999
 31
0.0
  0
LINE
  5
249
330
1E
100
AcDbEntity
  8
0
100
AcDbLine
 10
56.1918
 20
1.240919
 30
0.0
 11
56.38110000000001
 21
1.21144899999999
 31
0.0
  0
LINE
  5
24A
330
1E
100
AcDbEntity
  8
0
100
AcDbLine
 10
55.5288
 20
1.21144899999999
 30
0.0
 11
56.1918
 21
1.240919
 31
0.0
  0
LINE
  5
24B
330
1E
100
AcDbEntity
  8
0
100
AcDbLine
 10
57.454
 20
1.896928999999989
 30
0.0
 11
58.1601
 21
1.926388999999999
 31
0.0
  0
LINE
  5
24F
330
1E
100
AcDbEntity
  8
0
100
AcDbLine
 10
58.9751153186123
 20
1.405998989645329
 30
0.0
 11
59.0105
 21
1.04446399999999
 31
0.0
  0
LINE
  5
250
330
1E
100
AcDbEntity
  8
0
100
AcDbLine
 10
58.9751153186123
 20
1.405998989645329
 30
0.0
 11
59.0105
 21
1.04446399999999
 31
0.0
  0
LINE
  5
254
330
1E
100
AcDbEntity
  8
0
100
AcDbLine
 10
60.9496607034986
 20
1.589730427133149
 30
0.0
 11
64.91951869063059
 21
2.119044825417399
 31
0.0
  0
LINE
  5
255
330
1E
100
AcDbEntity
  8
0
100
AcDbLine
 10
60.9496607034986
 20
1.589730427133149
 30
0.0
 11
64.91951869063059
 21
2.119044825417399
 31
0.0
  0
LINE
  5
256
330
1E
100
AcDbEntity
  8
0
100
AcDbLine
 10
64.9407
 20
1.896928999999989
 30
0.0
 11
65.41030000000001
 21
1.926388999999989
 31
0.0
  0
LINE
  5
257
330
1E
100
AcDbEntity
  8
0
100
AcDbLine
 10
64.9407
 20
1.896928999999989
 30
0.0
 11
65.04789999999999
 21
1.926388999999989
 31
0.0
  0
LINE
  5
258
330
1E
100
AcDbEntity
  8
0
100
AcDbLine
 10
60.94313715796459
 20
1.65638344757819
 30
0.0
 11
60.9838
 21
1.24091899999999
 31
0.0
  0
LINE
  5
259
330
1E
100
AcDbEntity
  8
0
100
AcDbLine
 10
60.7792
 20
1.21144899999999
 30
0.0
 11
60.9838
 21
1.24091899999999
 31
0.0
  0
LINE
  5
25A
330
1E
100
AcDbEntity
  8
0
100
AcDbLine
 10
60.5964
 20
1.21144899999999
 30
0.0
 11
60.9838
 21
1.24091899999999
 31
0.0
  0
LINE
  5
25B
330
1E
100
AcDbEntity
  8
0
100
AcDbLine
 10
65.04789999999999
 20
1.926388999999989
 30
0.0
 11
65.6431
 21
1.99515899999999
 31
0.0
  0
LINE
  5
25C
330
1E
100
AcDbEntity
  8
0
100
AcDbLine
 10
65.41030000000001
 20
1.926388999999989
 30
0.0
 11
66.1608
 21
1.99515899999999
 31
0.0
  0
LINE
  5
25D
330
1E
100
AcDbEntity
  8
0
100
AcDbLine
 10
62.051
 20
1.896928999999989
 30
0.0
 11
62.6595
 21
1.926388999999989
 31
0.0
  0
LINE
  5
260
330
1E
100
AcDbEntity
  8
0
100
AcDbLine
 10
58.81260000000001
 20
1.14268899999999
 30
0.0
 11
58.99852026273789
 21
1.166864259579909
 31
0.0
  0
LINE
  5
261
330
1E
100
AcDbEntity
  8
0
100
AcDbLine
 10
65.9264
 20
1.896928999999989
 30
0.0
 11
66.2249
 21
1.926388999999989
 31
0.0
  0
LINE
  5
262
330
1E
100
AcDbEntity
  8
0
100
AcDbLine
 10
57.1702
 20
1.926388999999999
 30
0.0
 11
57.454
 21
1.896928999999989
 31
0.0
  0
LINE
  5
263
330
1E
100
AcDbEntity
  8
0
100
AcDbLine
 10
57.1702
 20
1.926388999999999
 30
0.0
 11
57.4506
 21
1.995158999999999
 31
0.0
  0
LINE
  5
264
330
1E
100
AcDbEntity
  8
0
100
AcDbLine
 10
61.95949999999999
 20
1.926388999999989
 30
0.0
 11
62.051
 21
1.896928999999989
 31
0.0
  0
LINE
  5
265
330
1E
100
AcDbEntity
  8
0
100
AcDbLine
 10
61.95949999999999
 20
1.926388999999989
 30
0.0
 11
62.41279999999999
 21
1.99515899999999
 31
0.0
  0
LINE
  5
266
330
1E
100
AcDbEntity
  8
0
100
AcDbLine
 10
62.6595
 20
1.926388999999989
 30
0.0
 11
63.4128
 21
1.99515899999999
 31
0.0
  0
LINE
  5
267
330
1E
100
AcDbEntity
  8
0
100
AcDbLine
 10
58.1601
 20
1.926388999999999
 30
0.0
 11
58.8648
 21
1.995158999999999
 31
0.0
  0
LINE
  5
268
330
1E
100
AcDbEntity
  8
0
100
AcDbLine
 10
66.1608
 20
1.99515899999999
 30
0.0
 11
66.756
 21
2.06391899999999
 31
0.0
  0
LINE
  5
269
330
1E
100
AcDbEntity
  8
0
100
AcDbLine
 10
65.6431
 20
1.99515899999999
 30
0.0
 11
66.39369999999999
 21
2.06391899999999
 31
0.0
  0
LINE
  5
26A
330
1E
100
AcDbEntity
  8
0
100
AcDbLine
 10
63.4128
 20
1.99515899999999
 30
0.0
 11
63.86610000000001
 21
2.06391899999999
 31
0.0
  0
LINE
  5
26B
330
1E
100
AcDbEntity
  8
0
100
AcDbLine
 10
62.41279999999999
 20
1.99515899999999
 30
0.0
 11
63.1661
 21
2.06391899999999
 31
0.0
  0
LINE
  5
26C
330
1E
100
AcDbEntity
  8
0
100
AcDbLine
 10
58.8648
 20
1.995158999999999
 30
0.0
 11
59.1453
 21
2.063918999999999
 31
0.0
  0
LINE
  5
26D
330
1E
100
AcDbEntity
  8
0
100
AcDbLine
 10
57.4506
 20
1.995158999999999
 30
0.0
 11
58.15529999999999
 21
2.063918999999999
 31
0.0
  0
LINE
  5
26F
330
1E
100
AcDbEntity
  8
0
100
AcDbLine
 10
65.91889043610371
 20
1.97299228353211
 30
0.0
 11
65.9264
 21
1.896928999999989
 31
0.0
  0
LINE
  5
270
330
1E
100
AcDbEntity
  8
0
100
AcDbLine
 10
66.756
 20
2.06391899999999
 30
0.0
 11
66.86320000000001
 21
2.093388999999989
 31
0.0
  0
LINE
  5
271
330
1E
100
AcDbEntity
  8
0
100
AcDbLine
 10
66.39369999999999
 20
2.06391899999999
 30
0.0
 11
66.86320000000001
 21
2.093388999999989
 31
0.0
  0
LINE
  5
273
330
1E
100
AcDbEntity
  8
0
100
AcDbLine
 10
66.2249
 20
1.926388999999989
 30
0.0
 11
66.92149999999999
 21
1.99515899999999
 31
0.0
  0
LINE
  5
274
330
1E
100
AcDbEntity
  8
0
100
AcDbLine
 10
66.92149999999999
 20
1.99515899999999
 30
0.0
 11
67.6181
 21
2.06391899999999
 31
0.0
  0
LINE
  5
275
330
1E
100
AcDbEntity
  8
0
100
AcDbLine
 10
63.7746
 20
2.093388999999989
 30
0.0
 11
63.86610000000001
 21
2.06391899999999
 31
0.0
  0
LINE
  5
276
330
1E
100
AcDbEntity
  8
0
100
AcDbLine
 10
63.1661
 20
2.06391899999999
 30
0.0
 11
63.7746
 21
2.093388999999989
 31
0.0
  0
LINE
  5
277
330
1E
100
AcDbEntity
  8
0
100
AcDbLine
 10
58.86140000000001
 20
2.093388999999989
 30
0.0
 11
59.1453
 21
2.063918999999999
 31
0.0
  0
LINE
  5
278
330
1E
100
AcDbEntity
  8
0
100
AcDbLine
 10
58.15529999999999
 20
2.063918999999999
 30
0.0
 11
58.86140000000001
 21
2.093388999999989
 31
0.0
  0
LINE
  5
27E
330
1E
100
AcDbEntity
  8
0
100
AcDbLine
 10
64.91951869063059
 20
2.119044825417399
 30
0.0
 11
64.9407
 21
1.896928999999989
 31
0.0
  0
LINE
  5
281
330
1E
100
AcDbEntity
  8
0
100
AcDbLine
 10
64.91951869063059
 20
2.119044825417399
 30
0.0
 11
64.9407
 21
1.896928999999989
 31
0.0
  0
LINE
  5
288
330
1E
100
AcDbEntity
  8
0
100
AcDbLine
 10
55.35199999999999
 20
4.063108999999999
 30
0.0
 11
63.19600000000001
 21
4.06310899999999
 31
0.0
  0
LINE
  5
292
330
1E
100
AcDbEntity
  8
0
100
AcDbLine
 10
63.19600000000001
 20
4.06310899999999
 30
0.0
 11
69.11599999999999
 21
4.06310899999999
 31
0.0
  0
LINE
  5
297
330
1E
100
AcDbEntity
  8
0
100
AcDbLine
 10
55.35199999999999
 20
14.063109
 30
0.0
 11
63.19600000000001
 21
14.063109
 31
0.0
  0
LINE
  5
298
330
1E
100
AcDbEntity
  8
0
100
AcDbLine
 10
55.35199999999999
 20
11.06310899999999
 30
0.0
 11
63.19600000000001
 21
11.06310899999999
 31
0.0
  0
LINE
  5
299
330
1E
100
AcDbEntity
  8
0
100
AcDbLine
 10
62.488
 20
10.06310899999999
 30
0.0
 11
68.248
 21
10.06310899999999
 31
0.0
  0
LINE
  5
29A
330
1E
100
AcDbEntity
  8
0
100
AcDbLine
 10
63.19600000000001
 20
14.063109
 30
0.0
 11
69.11599999999999
 21
14.063109
 31
0.0
  0
LINE
  5
29B
330
1E
100
AcDbEntity
  8
0
100
AcDbLine
 10
63.19600000000001
 20
11.06310899999999
 30
0.0
 11
69.11599999999999
 21
11.06310899999999
 31
0.0
  0
LINE
  5
29C
330
1E
100
AcDbEntity
  8
0
100
AcDbLine
 10
63.19600000000001
 20
9.063108999999998
 30
0.0
 11
69.11599999999999
 21
9.063108999999998
 31
0.0
  0
LINE
  5
29D
330
1E
100
AcDbEntity
  8
0
100
AcDbLine
 10
55.35199999999999
 20
9.063108999999998
 30
0.0
 11
63.19600000000001
 21
9.063108999999998
 31
0.0
  0
LINE
  5
29E
330
1E
100
AcDbEntity
  8
0
100
AcDbLine
 10
67.87525854640671
 20
2.51314347285422
 30
0.0
 11
67.9167
 21
2.093388999999989
 31
0.0
  0
LINE
  5
29F
330
1E
100
AcDbEntity
  8
0
100
AcDbLine
 10
67.87525854640671
 20
2.51314347285422
 30
0.0
 11
72.0
 21
3.06310899999999
 31
0.0
  0
LINE
  5
2A1
330
1E
100
AcDbEntity
  8
0
100
AcDbLine
 10
68.248
 20
10.06310899999999
 30
0.0
 11
71.70399999999999
 21
10.06310899999999
 31
0.0
  0
LINE
  5
2A2
330
1E
100
AcDbEntity
  8
0
100
AcDbLine
 10
67.87525854640671
 20
2.51314347285422
 30
0.0
 11
67.9167
 21
2.093388999999989
 31
0.0
  0
LINE
  5
2A3
330
1E
100
AcDbEntity
  8
0
100
AcDbLine
 10
67.87525854640671
 20
2.51314347285422
 30
0.0
 11
72.0
 21
3.06310899999999
 31
0.0
  0
LINE
  5
2A4
330
1E
100
AcDbEntity
  8
0
100
AcDbLine
 10
67.6181
 20
2.06391899999999
 30
0.0
 11
67.9167
 21
2.093388999999989
 31
0.0
  0
LINE
  5
2A5
330
1E
100
AcDbEntity
  8
0
100
AcDbLine
 10
69.11599999999999
 20
14.063109
 30
0.0
 11
72.668
 21
14.063109
 31
0.0
  0
LINE
  5
2A6
330
1E
100
AcDbEntity
  8
0
100
AcDbLine
 10
69.11599999999999
 20
11.06310899999999
 30
0.0
 11
72.668
 21
11.06310899999999
 31
0.0
  0
LINE
  5
2A7
330
1E
100
AcDbEntity
  8
0
100
AcDbLine
 10
71.70399999999999
 20
10.06310899999999
 30
0.0
 11
73.0
 21
10.06310899999999
 31
0.0
  0
LINE
  5
2A8
330
1E
100
AcDbEntity
  8
0
100
AcDbLine
 10
69.11599999999999
 20
9.063108999999998
 30
0.0
 11
72.668
 21
9.06310899999999
 31
0.0
  0
LINE
  5
2A9
330
1E
100
AcDbEntity
  8
0
100
AcDbLine
 10
69.11599999999999
 20
4.06310899999999
 30
0.0
 11
72.668
 21
4.06310899999999
 31
0.0
  0
LINE
  5
2AA
330
1E
100
AcDbEntity
  8
0
100
AcDbLine
 10
72.668
 20
4.06310899999999
 30
0.0
 11
74.0
 21
4.06310899999999
 31
0.0
  0
LINE
  5
2AB
330
1E
100
AcDbEntity
  8
0
100
AcDbLine
 10
72.668
 20
9.06310899999999
 30
0.0
 11
74.0
 21
9.06310899999999
 31
0.0
  0
LINE
  5
2AC
330
1E
100
AcDbEntity
  8
0
100
AcDbLine
 10
74.0
 20
4.06310899999999
 30
0.0
 11
74.0
 21
9.06310899999999
 31
0.0
  0
LINE
  5
2AD
330
1E
100
AcDbEntity
  8
0
100
AcDbLine
 10
72.0
 20
3.06310899999999
 30
0.0
 11
74.0
 21
4.06310899999999
 31
0.0
  0
LINE
  5
2AE
330
1E
100
AcDbEntity
  8
0
100
AcDbLine
 10
72.668
 20
14.063109
 30
0.0
 11
74.0
 21
14.063109
 31
0.0
  0
LINE
  5
2AF
330
1E
100
AcDbEntity
  8
0
100
AcDbLine
 10
72.668
 20
11.06310899999999
 30
0.0
 11
74.0
 21
11.06310899999999
 31
0.0
  0
LINE
  5
2B0
330
1E
100
AcDbEntity
  8
0
100
AcDbLine
 10
74.0
 20
11.06310899999999
 30
0.0
 11
74.0
 21
14.063109
 31
0.0
  0
LINE
  5
2B1
330
1E
100
AcDbEntity
  8
0
100
AcDbLine
 10
73.0
 20
10.06310899999999
 30
0.0
 11
74.0
 21
9.06310899999999
 31
0.0
  0
LINE
  5
2B2
330
1E
100
AcDbEntity
  8
0
100
AcDbLine
 10
73.0
 20
10.06310899999999
 30
0.0
 11
74.0
 21
11.06310899999999
 31
0.0
  0
LINE
  5
2B3
330
1E
100
AcDbEntity
  8
0
100
AcDbLine
 10
74.0
 20
14.063109
 30
0.0
 11
74.0
 21
11.06310899999999
 31
0.0
  0
LINE
  5
2B4
330
1E
100
AcDbEntity
  8
0
100
AcDbLine
 10
74.0
 20
9.06310899999999
 30
0.0
 11
74.0
 21
4.06310899999999
 31
0.0
  0
LINE
  5
2B5
330
1E
100
AcDbEntity
  8
0
100
AcDbLine
 10
71.70399999999999
 20
15.06310899999999
 30
0.0
 11
73.0
 21
15.06310899999999
 31
0.0
  0
LINE
  5
2B6
330
1E
100
AcDbEntity
  8
0
100
AcDbLine
 10
73.0
 20
15.06310899999999
 30
0.0
 11
73.0
 21
20.063109
 31
0.0
  0
LINE
  5
2B7
330
1E
100
AcDbEntity
  8
0
100
AcDbLine
 10
73.0
 20
15.06310899999999
 30
0.0
 11
74.0
 21
14.063109
 31
0.0
  0
LINE
  5
2B8
330
1E
100
AcDbEntity
  8
0
100
AcDbLine
 10
68.248
 20
15.06310899999999
 30
0.0
 11
71.70399999999999
 21
15.06310899999999
 31
0.0
  0
LINE
  5
2B9
330
1E
100
AcDbEntity
  8
0
100
AcDbLine
 10
62.488
 20
15.06310899999999
 30
0.0
 11
68.248
 21
15.06310899999999
 31
0.0
  0
LINE
  5
2BA
330
1E
100
AcDbEntity
  8
0
100
AcDbLine
 10
54.856
 20
15.06310899999999
 30
0.0
 11
62.488
 21
15.06310899999999
 31
0.0
  0
LINE
  5
2BB
330
1E
100
AcDbEntity
  8
0
100
AcDbLine
 10
46.21599999999999
 20
15.06310899999999
 30
0.0
 11
54.856
 21
15.06310899999999
 31
0.0
  0
LINE
  5
2BC
330
1E
100
AcDbEntity
  8
0
100
AcDbLine
 10
37.0
 20
15.06310899999999
 30
0.0
 11
46.21599999999999
 21
15.06310899999999
 31
0.0
  0
LINE
  5
2BD
330
1E
100
AcDbEntity
  8
0
100
AcDbLine
 10
11.512
 20
15.06310899999999
 30
0.0
 11
19.144
 21
15.06310899999999
 31
0.0
  0
LINE
  5
2BE
330
1E
100
AcDbEntity
  8
0
100
AcDbLine
 10
72.0
 20
32.063109
 30
0.0
 11
73.0
 21
20.063109
 31
0.0
  0
LINE
  5
2BF
330
1E
100
AcDbEntity
  8
0
100
AcDbLine
 10
73.0
 20
20.063109
 30
0.0
 11
73.0
 21
15.06310899999999
 31
0.0
  0
LINE
  5
2C0
330
1E
100
AcDbEntity
  8
0
100
AcDbLine
 10
71.0
 20
38.063109
 30
0.0
 11
72.0
 21
32.063109
 31
0.0
  0
LINE
  5
2C1
330
1E
100
AcDbEntity
  8
0
100
AcDbLine
 10
69.0
 20
43.063109
 30
0.0
 11
71.0
 21
38.063109
 31
0.0
  0
LINE
  5
2C2
330
1E
100
AcDbEntity
  8
0
100
AcDbLine
 10
64.0
 20
49.06310900000001
 30
0.0
 11
67.0
 21
46.063109
 31
0.0
  0
LINE
  5
2C3
330
1E
100
AcDbEntity
  8
0
100
AcDbLine
 10
67.0
 20
46.063109
 30
0.0
 11
69.0
 21
43.063109
 31
0.0
  0
LINE
  5
2C4
330
1E
100
AcDbEntity
  8
0
100
AcDbLine
 10
19.144
 20
15.06310899999999
 30
0.0
 11
27.784
 21
15.06310899999999
 31
0.0
  0
LINE
  5
2C5
330
1E
100
AcDbEntity
  8
0
100
AcDbLine
 10
27.784
 20
15.06310899999999
 30
0.0
 11
37.0
 21
15.06310899999999
 31
0.0
  0
LINE
  5
2C6
330
1E
100
AcDbEntity
  8
0
100
AcDbLine
 10
7.0
 20
46.063109
 30
0.0
 11
10.0
 21
49.06310900000001
 31
0.0
  0
LINE
  5
2C7
330
1E
100
AcDbEntity
  8
0
100
AcDbLine
 10
13.0
 20
51.063109
 30
0.0
 11
13.73099999999999
 21
51.063109
 31
0.0
  0
LINE
  5
2C8
330
1E
100
AcDbEntity
  8
0
100
AcDbLine
 10
13.0
 20
51.063109
 30
0.0
 11
15.4366
 21
54.063109
 31
0.0
  0
LINE
  5
2C9
330
1E
100
AcDbEntity
  8
0
100
AcDbLine
 10
13.73099999999999
 20
51.063109
 30
0.0
 11
16.1675
 21
51.063109
 31
0.0
  0
LINE
  5
2CA
330
1E
100
AcDbEntity
  8
0
100
AcDbLine
 10
16.1675
 20
51.063109
 30
0.0
 11
19.94419999999999
 21
51.063109
 31
0.0
  0
LINE
  5
2CB
330
1E
100
AcDbEntity
  8
0
100
AcDbLine
 10
19.94419999999999
 20
51.063109
 30
0.0
 11
24.9391
 21
51.063109
 31
0.0
  0
LINE
  5
2CC
330
1E
100
AcDbEntity
  8
0
100
AcDbLine
 10
15.4366
 20
54.063109
 30
0.0
 11
18.1168
 21
56.163109
 31
0.0
  0
LINE
  5
2CD
330
1E
100
AcDbEntity
  8
0
100
AcDbLine
 10
20.5469
 20
57.40920899999999
 30
0.0
 11
21.1797
 21
57.40920899999999
 31
0.0
  0
LINE
  5
2CE
330
1E
100
AcDbEntity
  8
0
100
AcDbLine
 10
21.1797
 20
57.40920899999999
 30
0.0
 11
22.8672
 21
57.40920899999999
 31
0.0
  0
LINE
  5
2CF
330
1E
100
AcDbEntity
  8
0
100
AcDbLine
 10
20.1953
 20
58.755409
 30
0.0
 11
21.9531
 21
58.755409
 31
0.0
  0
LINE
  5
2D0
330
1E
100
AcDbEntity
  8
0
100
AcDbLine
 10
28.7734
 20
57.40920899999999
 30
0.0
 11
32.7109
 21
57.40920899999999
 31
0.0
  0
LINE
  5
2D1
330
1E
100
AcDbEntity
  8
0
100
AcDbLine
 10
25.39839999999999
 20
57.40920899999999
 30
0.0
 11
28.7734
 21
57.40920899999999
 31
0.0
  0
LINE
  5
2D2
330
1E
100
AcDbEntity
  8
0
100
AcDbLine
 10
28.2813
 20
58.755409
 30
0.0
 11
32.42969999999999
 21
58.755409
 31
0.0
  0
LINE
  5
2D3
330
1E
100
AcDbEntity
  8
0
100
AcDbLine
 10
24.6953
 20
58.755409
 30
0.0
 11
28.2813
 21
58.755409
 31
0.0
  0
LINE
  5
2D4
330
1E
100
AcDbEntity
  8
0
100
AcDbLine
 10
22.8672
 20
57.40920899999999
 30
0.0
 11
25.39839999999999
 21
57.40920899999999
 31
0.0
  0
LINE
  5
2D5
330
1E
100
AcDbEntity
  8
0
100
AcDbLine
 10
21.9531
 20
58.755409
 30
0.0
 11
24.6953
 21
58.755409
 31
0.0
  0
LINE
  5
2D6
330
1E
100
AcDbEntity
  8
0
100
AcDbLine
 10
20.6875
 20
62.793909
 30
0.0
 11
22.375
 21
62.793909
 31
0.0
  0
LINE
  5
2D7
330
1E
100
AcDbEntity
  8
0
100
AcDbLine
 10
21.1094
 20
61.447709
 30
0.0
 11
21.6016
 21
61.447709
 31
0.0
  0
LINE
  5
2D8
330
1E
100
AcDbEntity
  8
0
100
AcDbLine
 10
21.6016
 20
61.447709
 30
0.0
 11
23.2891
 21
61.447709
 31
0.0
  0
LINE
  5
2D9
330
1E
100
AcDbEntity
  8
0
100
AcDbLine
 10
20.1953
 20
60.10160899999999
 30
0.0
 11
21.9531
 21
60.10160899999999
 31
0.0
  0
LINE
  5
2DA
330
1E
100
AcDbEntity
  8
0
100
AcDbLine
 10
29.0547
 20
61.447709
 30
0.0
 11
32.85159999999999
 21
61.447709
 31
0.0
  0
LINE
  5
2DB
330
1E
100
AcDbEntity
  8
0
100
AcDbLine
 10
25.75
 20
61.447709
 30
0.0
 11
29.0547
 21
61.447709
 31
0.0
  0
LINE
  5
2DC
330
1E
100
AcDbEntity
  8
0
100
AcDbLine
 10
28.2813
 20
60.10160899999999
 30
0.0
 11
32.42969999999999
 21
60.10160899999999
 31
0.0
  0
LINE
  5
2DD
330
1E
100
AcDbEntity
  8
0
100
AcDbLine
 10
24.6953
 20
60.10160899999999
 30
0.0
 11
28.2813
 21
60.10160899999999
 31
0.0
  0
LINE
  5
2DE
330
1E
100
AcDbEntity
  8
0
100
AcDbLine
 10
28.5625
 20
62.793909
 30
0.0
 11
32.6406
 21
62.793909
 31
0.0
  0
LINE
  5
2DF
330
1E
100
AcDbEntity
  8
0
100
AcDbLine
 10
25.0469
 20
62.793909
 30
0.0
 11
28.5625
 21
62.793909
 31
0.0
  0
LINE
  5
2E0
330
1E
100
AcDbEntity
  8
0
100
AcDbLine
 10
22.375
 20
62.793909
 30
0.0
 11
25.0469
 21
62.793909
 31
0.0
  0
LINE
  5
2E1
330
1E
100
AcDbEntity
  8
0
100
AcDbLine
 10
23.2891
 20
61.447709
 30
0.0
 11
25.75
 21
61.447709
 31
0.0
  0
LINE
  5
2E2
330
1E
100
AcDbEntity
  8
0
100
AcDbLine
 10
21.9531
 20
60.10160899999999
 30
0.0
 11
24.6953
 21
60.10160899999999
 31
0.0
  0
LINE
  5
2E3
330
1E
100
AcDbEntity
  8
0
100
AcDbLine
 10
21.1797
 20
66.83230899999999
 30
0.0
 11
22.8672
 21
66.83230899999999
 31
0.0
  0
LINE
  5
2E4
330
1E
100
AcDbEntity
  8
0
100
AcDbLine
 10
21.6719
 20
65.486209
 30
0.0
 11
22.1641
 21
65.486209
 31
0.0
  0
LINE
  5
2E5
330
1E
100
AcDbEntity
  8
0
100
AcDbLine
 10
22.1641
 20
65.486209
 30
0.0
 11
23.7109
 21
65.486209
 31
0.0
  0
LINE
  5
2E6
330
1E
100
AcDbEntity
  8
0
100
AcDbLine
 10
20.6875
 20
64.14000899999999
 30
0.0
 11
22.375
 21
64.14000899999999
 31
0.0
  0
LINE
  5
2E7
330
1E
100
AcDbEntity
  8
0
100
AcDbLine
 10
29.3359
 20
65.486209
 30
0.0
 11
32.9922
 21
65.486209
 31
0.0
  0
LINE
  5
2E8
330
1E
100
AcDbEntity
  8
0
100
AcDbLine
 10
26.1016
 20
65.486209
 30
0.0
 11
29.3359
 21
65.486209
 31
0.0
  0
LINE
  5
2E9
330
1E
100
AcDbEntity
  8
0
100
AcDbLine
 10
28.5625
 20
64.14000899999999
 30
0.0
 11
32.6406
 21
64.14000899999999
 31
0.0
  0
LINE
  5
2EA
330
1E
100
AcDbEntity
  8
0
100
AcDbLine
 10
25.0469
 20
64.14000899999999
 30
0.0
 11
28.5625
 21
64.14000899999999
 31
0.0
  0
LINE
  5
2EB
330
1E
100
AcDbEntity
  8
0
100
AcDbLine
 10
28.7734
 20
66.83230899999999
 30
0.0
 11
32.7109
 21
66.83230899999999
 31
0.0
  0
LINE
  5
2EC
330
1E
100
AcDbEntity
  8
0
100
AcDbLine
 10
25.39839999999999
 20
66.83230899999999
 30
0.0
 11
28.7734
 21
66.83230899999999
 31
0.0
  0
LINE
  5
2ED
330
1E
100
AcDbEntity
  8
0
100
AcDbLine
 10
22.8672
 20
66.83230899999999
 30
0.0
 11
25.39839999999999
 21
66.83230899999999
 31
0.0
  0
LINE
  5
2EE
330
1E
100
AcDbEntity
  8
0
100
AcDbLine
 10
23.7109
 20
65.486209
 30
0.0
 11
26.1016
 21
65.486209
 31
0.0
  0
LINE
  5
2EF
330
1E
100
AcDbEntity
  8
0
100
AcDbLine
 10
22.375
 20
64.14000899999999
 30
0.0
 11
25.0469
 21
64.14000899999999
 31
0.0
  0
LINE
  5
2F0
330
1E
100
AcDbEntity
  8
0
100
AcDbLine
 10
21.6016
 20
70.870809
 30
0.0
 11
23.2891
 21
70.870809
 31
0.0
  0
LINE
  5
2F1
330
1E
100
AcDbEntity
  8
0
100
AcDbLine
 10
22.0938
 20
69.524609
 30
0.0
 11
22.58589999999999
 21
69.524609
 31
0.0
  0
LINE
  5
2F2
330
1E
100
AcDbEntity
  8
0
100
AcDbLine
 10
22.58589999999999
 20
69.524609
 30
0.0
 11
24.0625
 21
69.524609
 31
0.0
  0
LINE
  5
2F3
330
1E
100
AcDbEntity
  8
0
100
AcDbLine
 10
21.1797
 20
68.17850899999999
 30
0.0
 11
22.8672
 21
68.17850899999999
 31
0.0
  0
LINE
  5
2F4
330
1E
100
AcDbEntity
  8
0
100
AcDbLine
 10
29.5469
 20
69.524609
 30
0.0
 11
33.1328
 21
69.524609
 31
0.0
  0
LINE
  5
2F5
330
1E
100
AcDbEntity
  8
0
100
AcDbLine
 10
26.4531
 20
69.524609
 30
0.0
 11
29.5469
 21
69.524609
 31
0.0
  0
LINE
  5
2F6
330
1E
100
AcDbEntity
  8
0
100
AcDbLine
 10
28.7734
 20
68.17850899999999
 30
0.0
 11
32.7109
 21
68.17850899999999
 31
0.0
  0
LINE
  5
2F7
330
1E
100
AcDbEntity
  8
0
100
AcDbLine
 10
25.39839999999999
 20
68.17850899999999
 30
0.0
 11
28.7734
 21
68.17850899999999
 31
0.0
  0
LINE
  5
2F8
330
1E
100
AcDbEntity
  8
0
100
AcDbLine
 10
29.0547
 20
70.870809
 30
0.0
 11
32.85159999999999
 21
70.870809
 31
0.0
  0
LINE
  5
2F9
330
1E
100
AcDbEntity
  8
0
100
AcDbLine
 10
25.75
 20
70.870809
 30
0.0
 11
29.0547
 21
70.870809
 31
0.0
  0
LINE
  5
2FA
330
1E
100
AcDbEntity
  8
0
100
AcDbLine
 10
23.2891
 20
70.870809
 30
0.0
 11
25.75
 21
70.870809
 31
0.0
  0
LINE
  5
2FB
330
1E
100
AcDbEntity
  8
0
100
AcDbLine
 10
24.0625
 20
69.524609
 30
0.0
 11
26.4531
 21
69.524609
 31
0.0
  0
LINE
  5
2FC
330
1E
100
AcDbEntity
  8
0
100
AcDbLine
 10
22.8672
 20
68.17850899999999
 30
0.0
 11
25.39839999999999
 21
68.17850899999999
 31
0.0
  0
LINE
  5
2FD
330
1E
100
AcDbEntity
  8
0
100
AcDbLine
 10
22.1641
 20
74.90930899999999
 30
0.0
 11
23.7109
 21
74.90930899999999
 31
0.0
  0
LINE
  5
2FE
330
1E
100
AcDbEntity
  8
0
100
AcDbLine
 10
22.6563
 20
73.563109
 30
0.0
 11
23.07809999999999
 21
73.563109
 31
0.0
  0
LINE
  5
2FF
330
1E
100
AcDbEntity
  8
0
100
AcDbLine
 10
23.07809999999999
 20
73.563109
 30
0.0
 11
24.5547
 21
73.563109
 31
0.0
  0
LINE
  5
300
330
1E
100
AcDbEntity
  8
0
100
AcDbLine
 10
21.6016
 20
72.216909
 30
0.0
 11
23.2891
 21
72.216909
 31
0.0
  0
LINE
  5
301
330
1E
100
AcDbEntity
  8
0
100
AcDbLine
 10
29.7578
 20
73.563109
 30
0.0
 11
33.2031
 21
73.563109
 31
0.0
  0
LINE
  5
302
330
1E
100
AcDbEntity
  8
0
100
AcDbLine
 10
26.8047
 20
73.563109
 30
0.0
 11
29.7578
 21
73.563109
 31
0.0
  0
LINE
  5
303
330
1E
100
AcDbEntity
  8
0
100
AcDbLine
 10
29.0547
 20
72.216909
 30
0.0
 11
32.85159999999999
 21
72.216909
 31
0.0
  0
LINE
  5
304
330
1E
100
AcDbEntity
  8
0
100
AcDbLine
 10
25.75
 20
72.216909
 30
0.0
 11
29.0547
 21
72.216909
 31
0.0
  0
LINE
  5
305
330
1E
100
AcDbEntity
  8
0
100
AcDbLine
 10
29.3359
 20
74.90930899999999
 30
0.0
 11
32.9922
 21
74.90930899999999
 31
0.0
  0
LINE
  5
306
330
1E
100
AcDbEntity
  8
0
100
AcDbLine
 10
26.1016
 20
74.90930899999999
 30
0.0
 11
29.3359
 21
74.90930899999999
 31
0.0
  0
LINE
  5
307
330
1E
100
AcDbEntity
  8
0
100
AcDbLine
 10
23.7109
 20
74.90930899999999
 30
0.0
 11
26.1016
 21
74.90930899999999
 31
0.0
  0
LINE
  5
308
330
1E
100
AcDbEntity
  8
0
100
AcDbLine
 10
24.5547
 20
73.563109
 30
0.0
 11
26.8047
 21
73.563109
 31
0.0
  0
LINE
  5
309
330
1E
100
AcDbEntity
  8
0
100
AcDbLine
 10
23.2891
 20
72.216909
 30
0.0
 11
25.75
 21
72.216909
 31
0.0
  0
LINE
  5
30A
330
1E
100
AcDbEntity
  8
0
100
AcDbLine
 10
22.58589999999999
 20
78.94770900000001
 30
0.0
 11
24.0625
 21
78.94770900000001
 31
0.0
  0
LINE
  5
30B
330
1E
100
AcDbEntity
  8
0
100
AcDbLine
 10
23.07809999999999
 20
77.60160899999999
 30
0.0
 11
23.57029999999999
 21
77.60160899999999
 31
0.0
  0
LINE
  5
30C
330
1E
100
AcDbEntity
  8
0
100
AcDbLine
 10
23.57029999999999
 20
77.60160899999999
 30
0.0
 11
24.9766
 21
77.60160899999999
 31
0.0
  0
LINE
  5
30D
330
1E
100
AcDbEntity
  8
0
100
AcDbLine
 10
22.1641
 20
76.255409
 30
0.0
 11
23.7109
 21
76.255409
 31
0.0
  0
LINE
  5
30E
330
1E
100
AcDbEntity
  8
0
100
AcDbLine
 10
30.0391
 20
77.60160899999999
 30
0.0
 11
33.41409999999999
 21
77.60160899999999
 31
0.0
  0
LINE
  5
30F
330
1E
100
AcDbEntity
  8
0
100
AcDbLine
 10
27.1563
 20
77.60160899999999
 30
0.0
 11
30.0391
 21
77.60160899999999
 31
0.0
  0
LINE
  5
310
330
1E
100
AcDbEntity
  8
0
100
AcDbLine
 10
29.3359
 20
76.255409
 30
0.0
 11
32.9922
 21
76.255409
 31
0.0
  0
LINE
  5
311
330
1E
100
AcDbEntity
  8
0
100
AcDbLine
 10
26.1016
 20
76.255409
 30
0.0
 11
29.3359
 21
76.255409
 31
0.0
  0
LINE
  5
312
330
1E
100
AcDbEntity
  8
0
100
AcDbLine
 10
29.5469
 20
78.94770900000001
 30
0.0
 11
33.1328
 21
78.94770900000001
 31
0.0
  0
LINE
  5
313
330
1E
100
AcDbEntity
  8
0
100
AcDbLine
 10
26.4531
 20
78.94770900000001
 30
0.0
 11
29.5469
 21
78.94770900000001
 31
0.0
  0
LINE
  5
314
330
1E
100
AcDbEntity
  8
0
100
AcDbLine
 10
24.0625
 20
78.94770900000001
 30
0.0
 11
26.4531
 21
78.94770900000001
 31
0.0
  0
LINE
  5
315
330
1E
100
AcDbEntity
  8
0
100
AcDbLine
 10
24.9766
 20
77.60160899999999
 30
0.0
 11
27.1563
 21
77.60160899999999
 31
0.0
  0
LINE
  5
316
330
1E
100
AcDbEntity
  8
0
100
AcDbLine
 10
23.7109
 20
76.255409
 30
0.0
 11
26.1016
 21
76.255409
 31
0.0
  0
LINE
  5
317
330
1E
100
AcDbEntity
  8
0
100
AcDbLine
 10
24.0625
 20
91.063109
 30
0.0
 11
24.4844
 21
91.063109
 31
0.0
  0
LINE
  5
318
330
1E
100
AcDbEntity
  8
0
100
AcDbLine
 10
30.5313
 20
91.063109
 30
0.0
 11
33.625
 21
91.063109
 31
0.0
  0
LINE
  5
319
330
1E
100
AcDbEntity
  8
0
100
AcDbLine
 10
27.8594
 20
91.063109
 30
0.0
 11
30.5313
 21
91.063109
 31
0.0
  0
LINE
  5
31A
330
1E
100
AcDbEntity
  8
0
100
AcDbLine
 10
24.4844
 20
91.063109
 30
0.0
 11
25.89059999999999
 21
91.063109
 31
0.0
  0
LINE
  5
31B
330
1E
100
AcDbEntity
  8
0
100
AcDbLine
 10
25.89059999999999
 20
91.063109
 30
0.0
 11
27.8594
 21
91.063109
 31
0.0
  0
LINE
  5
31C
330
1E
100
AcDbEntity
  8
0
100
AcDbLine
 10
22.0938
 20
80.293909
 30
0.0
 11
24.0625
 21
91.063109
 31
0.0
  0
LINE
  5
31D
330
1E
100
AcDbEntity
  8
0
100
AcDbLine
 10
22.0938
 20
80.293909
 30
0.0
 11
22.0938
 21
78.94770900000001
 31
0.0
  0
LINE
  5
31E
330
1E
100
AcDbEntity
  8
0
100
AcDbLine
 10
22.0938
 20
78.94770900000001
 30
0.0
 11
23.07809999999999
 21
77.60160899999999
 31
0.0
  0
LINE
  5
31F
330
1E
100
AcDbEntity
  8
0
100
AcDbLine
 10
22.0938
 20
78.94770900000001
 30
0.0
 11
22.0938
 21
80.293909
 31
0.0
  0
LINE
  5
320
330
1E
100
AcDbEntity
  8
0
100
AcDbLine
 10
22.0938
 20
78.94770900000001
 30
0.0
 11
22.58589999999999
 21
78.94770900000001
 31
0.0
  0
LINE
  5
321
330
1E
100
AcDbEntity
  8
0
100
AcDbLine
 10
21.6719
 20
76.255409
 30
0.0
 11
23.07809999999999
 21
77.60160899999999
 31
0.0
  0
LINE
  5
322
330
1E
100
AcDbEntity
  8
0
100
AcDbLine
 10
21.6719
 20
76.255409
 30
0.0
 11
21.6719
 21
74.90930899999999
 31
0.0
  0
LINE
  5
323
330
1E
100
AcDbEntity
  8
0
100
AcDbLine
 10
21.6719
 20
76.255409
 30
0.0
 11
22.1641
 21
76.255409
 31
0.0
  0
LINE
  5
324
330
1E
100
AcDbEntity
  8
0
100
AcDbLine
 10
21.6719
 20
74.90930899999999
 30
0.0
 11
22.6563
 21
73.563109
 31
0.0
  0
LINE
  5
325
330
1E
100
AcDbEntity
  8
0
100
AcDbLine
 10
21.6719
 20
74.90930899999999
 30
0.0
 11
21.6719
 21
76.255409
 31
0.0
  0
LINE
  5
326
330
1E
100
AcDbEntity
  8
0
100
AcDbLine
 10
21.6719
 20
74.90930899999999
 30
0.0
 11
22.1641
 21
74.90930899999999
 31
0.0
  0
LINE
  5
327
330
1E
100
AcDbEntity
  8
0
100
AcDbLine
 10
21.1094
 20
72.216909
 30
0.0
 11
22.6563
 21
73.563109
 31
0.0
  0
LINE
  5
328
330
1E
100
AcDbEntity
  8
0
100
AcDbLine
 10
21.1094
 20
72.216909
 30
0.0
 11
21.1094
 21
70.870809
 31
0.0
  0
LINE
  5
329
330
1E
100
AcDbEntity
  8
0
100
AcDbLine
 10
21.1094
 20
72.216909
 30
0.0
 11
21.6016
 21
72.216909
 31
0.0
  0
LINE
  5
32A
330
1E
100
AcDbEntity
  8
0
100
AcDbLine
 10
21.1094
 20
70.870809
 30
0.0
 11
22.0938
 21
69.524609
 31
0.0
  0
LINE
  5
32B
330
1E
100
AcDbEntity
  8
0
100
AcDbLine
 10
21.1094
 20
70.870809
 30
0.0
 11
21.1094
 21
72.216909
 31
0.0
  0
LINE
  5
32C
330
1E
100
AcDbEntity
  8
0
100
AcDbLine
 10
21.1094
 20
70.870809
 30
0.0
 11
21.6016
 21
70.870809
 31
0.0
  0
LINE
  5
32D
330
1E
100
AcDbEntity
  8
0
100
AcDbLine
 10
20.5469
 20
68.17850899999999
 30
0.0
 11
22.0938
 21
69.524609
 31
0.0
  0
LINE
  5
32E
330
1E
100
AcDbEntity
  8
0
100
AcDbLine
 10
20.5469
 20
68.17850899999999
 30
0.0
 11
20.5469
 21
66.83230899999999
 31
0.0
  0
LINE
  5
32F
330
1E
100
AcDbEntity
  8
0
100
AcDbLine
 10
20.5469
 20
68.17850899999999
 30
0.0
 11
21.1797
 21
68.17850899999999
 31
0.0
  0
LINE
  5
330
330
1E
100
AcDbEntity
  8
0
100
AcDbLine
 10
20.5469
 20
66.83230899999999
 30
0.0
 11
21.6719
 21
65.486209
 31
0.0
  0
LINE
  5
331
330
1E
100
AcDbEntity
  8
0
100
AcDbLine
 10
20.5469
 20
66.83230899999999
 30
0.0
 11
20.5469
 21
68.17850899999999
 31
0.0
  0
LINE
  5
332
330
1E
100
AcDbEntity
  8
0
100
AcDbLine
 10
20.5469
 20
66.83230899999999
 30
0.0
 11
21.1797
 21
66.83230899999999
 31
0.0
  0
LINE
  5
333
330
1E
100
AcDbEntity
  8
0
100
AcDbLine
 10
20.125
 20
64.14000899999999
 30
0.0
 11
21.6719
 21
65.486209
 31
0.0
  0
LINE
  5
334
330
1E
100
AcDbEntity
  8
0
100
AcDbLine
 10
20.125
 20
64.14000899999999
 30
0.0
 11
20.125
 21
62.793909
 31
0.0
  0
LINE
  5
335
330
1E
100
AcDbEntity
  8
0
100
AcDbLine
 10
20.125
 20
64.14000899999999
 30
0.0
 11
20.6875
 21
64.14000899999999
 31
0.0
  0
LINE
  5
336
330
1E
100
AcDbEntity
  8
0
100
AcDbLine
 10
20.125
 20
62.793909
 30
0.0
 11
21.1094
 21
61.447709
 31
0.0
  0
LINE
  5
337
330
1E
100
AcDbEntity
  8
0
100
AcDbLine
 10
20.125
 20
62.793909
 30
0.0
 11
20.125
 21
64.14000899999999
 31
0.0
  0
LINE
  5
338
330
1E
100
AcDbEntity
  8
0
100
AcDbLine
 10
20.125
 20
62.793909
 30
0.0
 11
20.6875
 21
62.793909
 31
0.0
  0
LINE
  5
339
330
1E
100
AcDbEntity
  8
0
100
AcDbLine
 10
19.5625
 20
60.10160899999999
 30
0.0
 11
21.1094
 21
61.447709
 31
0.0
  0
LINE
  5
33A
330
1E
100
AcDbEntity
  8
0
100
AcDbLine
 10
19.5625
 20
60.10160899999999
 30
0.0
 11
19.5625
 21
58.755409
 31
0.0
  0
LINE
  5
33B
330
1E
100
AcDbEntity
  8
0
100
AcDbLine
 10
19.5625
 20
60.10160899999999
 30
0.0
 11
20.1953
 21
60.10160899999999
 31
0.0
  0
LINE
  5
33C
330
1E
100
AcDbEntity
  8
0
100
AcDbLine
 10
19.5625
 20
58.755409
 30
0.0
 11
20.5469
 21
57.40920899999999
 31
0.0
  0
LINE
  5
33D
330
1E
100
AcDbEntity
  8
0
100
AcDbLine
 10
19.5625
 20
58.755409
 30
0.0
 11
19.5625
 21
60.10160899999999
 31
0.0
  0
LINE
  5
33E
330
1E
100
AcDbEntity
  8
0
100
AcDbLine
 10
19.5625
 20
58.755409
 30
0.0
 11
20.1953
 21
58.755409
 31
0.0
  0
LINE
  5
33F
330
1E
100
AcDbEntity
  8
0
100
AcDbLine
 10
18.1168
 20
56.163109
 30
0.0
 11
20.5469
 21
57.40920899999999
 31
0.0
  0
LINE
  5
340
330
1E
100
AcDbEntity
  8
0
100
AcDbLine
 10
24.9391
 20
51.063109
 30
0.0
 11
30.665
 21
51.063109
 31
0.0
  0
LINE
  5
341
330
1E
100
AcDbEntity
  8
0
100
AcDbLine
 10
60.269
 20
51.063109
 30
0.0
 11
61.0
 21
51.063109
 31
0.0
  0
LINE
  5
342
330
1E
100
AcDbEntity
  8
0
100
AcDbLine
 10
57.8325
 20
51.063109
 30
0.0
 11
60.269
 21
51.063109
 31
0.0
  0
LINE
  5
343
330
1E
100
AcDbEntity
  8
0
100
AcDbLine
 10
54.0558
 20
51.063109
 30
0.0
 11
57.8325
 21
51.063109
 31
0.0
  0
LINE
  5
344
330
1E
100
AcDbEntity
  8
0
100
AcDbLine
 10
49.06089999999999
 20
51.063109
 30
0.0
 11
54.0558
 21
51.063109
 31
0.0
  0
LINE
  5
345
330
1E
100
AcDbEntity
  8
0
100
AcDbLine
 10
43.33499999999999
 20
51.063109
 30
0.0
 11
49.06089999999999
 21
51.063109
 31
0.0
  0
LINE
  5
346
330
1E
100
AcDbEntity
  8
0
100
AcDbLine
 10
37.0
 20
51.063109
 30
0.0
 11
43.33499999999999
 21
51.063109
 31
0.0
  0
LINE
  5
347
330
1E
100
AcDbEntity
  8
0
100
AcDbLine
 10
32.42969999999999
 20
60.10160899999999
 30
0.0
 11
37.0
 21
60.10160899999999
 31
0.0
  0
LINE
  5
348
330
1E
100
AcDbEntity
  8
0
100
AcDbLine
 10
37.0
 20
57.40920899999999
 30
0.0
 11
41.2891
 21
57.40920899999999
 31
0.0
  0
LINE
  5
349
330
1E
100
AcDbEntity
  8
0
100
AcDbLine
 10
52.8203
 20
57.40920899999999
 30
0.0
 11
53.4531
 21
57.40920899999999
 31
0.0
  0
LINE
  5
34A
330
1E
100
AcDbEntity
  8
0
100
AcDbLine
 10
51.1328
 20
57.40920899999999
 30
0.0
 11
52.8203
 21
57.40920899999999
 31
0.0
  0
LINE
  5
34B
330
1E
100
AcDbEntity
  8
0
100
AcDbLine
 10
48.6016
 20
57.40920899999999
 30
0.0
 11
51.1328
 21
57.40920899999999
 31
0.0
  0
LINE
  5
34C
330
1E
100
AcDbEntity
  8
0
100
AcDbLine
 10
41.2891
 20
57.40920899999999
 30
0.0
 11
45.2266
 21
57.40920899999999
 31
0.0
  0
LINE
  5
34D
330
1E
100
AcDbEntity
  8
0
100
AcDbLine
 10
45.2266
 20
57.40920899999999
 30
0.0
 11
48.6016
 21
57.40920899999999
 31
0.0
  0
LINE
  5
34E
330
1E
100
AcDbEntity
  8
0
100
AcDbLine
 10
58.5634
 20
54.063109
 30
0.0
 11
61.0
 21
51.063109
 31
0.0
  0
LINE
  5
34F
330
1E
100
AcDbEntity
  8
0
100
AcDbLine
 10
55.8833
 20
56.163109
 30
0.0
 11
58.5634
 21
54.063109
 31
0.0
  0
LINE
  5
350
330
1E
100
AcDbEntity
  8
0
100
AcDbLine
 10
53.4531
 20
57.40920899999999
 30
0.0
 11
54.4375
 21
58.755409
 31
0.0
  0
LINE
  5
351
330
1E
100
AcDbEntity
  8
0
100
AcDbLine
 10
53.4531
 20
57.40920899999999
 30
0.0
 11
55.8833
 21
56.163109
 31
0.0
  0
LINE
  5
352
330
1E
100
AcDbEntity
  8
0
100
AcDbLine
 10
32.85159999999999
 20
72.216909
 30
0.0
 11
37.0
 21
72.216909
 31
0.0
  0
LINE
  5
353
330
1E
100
AcDbEntity
  8
0
100
AcDbLine
 10
32.85159999999999
 20
70.870809
 30
0.0
 11
37.0
 21
70.870809
 31
0.0
  0
LINE
  5
354
330
1E
100
AcDbEntity
  8
0
100
AcDbLine
 10
32.7109
 20
68.17850899999999
 30
0.0
 11
37.0
 21
68.17850899999999
 31
0.0
  0
LINE
  5
355
330
1E
100
AcDbEntity
  8
0
100
AcDbLine
 10
32.7109
 20
66.83230899999999
 30
0.0
 11
37.0
 21
66.83230899999999
 31
0.0
  0
LINE
  5
356
330
1E
100
AcDbEntity
  8
0
100
AcDbLine
 10
32.6406
 20
64.14000899999999
 30
0.0
 11
37.0
 21
64.14000899999999
 31
0.0
  0
LINE
  5
357
330
1E
100
AcDbEntity
  8
0
100
AcDbLine
 10
32.6406
 20
62.793909
 30
0.0
 11
37.0
 21
62.793909
 31
0.0
  0
LINE
  5
358
330
1E
100
AcDbEntity
  8
0
100
AcDbLine
 10
37.0
 20
58.755409
 30
0.0
 11
41.5703
 21
58.755409
 31
0.0
  0
LINE
  5
359
330
1E
100
AcDbEntity
  8
0
100
AcDbLine
 10
37.0
 20
60.10160899999999
 30
0.0
 11
41.5703
 21
60.10160899999999
 31
0.0
  0
LINE
  5
35A
330
1E
100
AcDbEntity
  8
0
100
AcDbLine
 10
41.5703
 20
60.10160899999999
 30
0.0
 11
45.71869999999999
 21
60.10160899999999
 31
0.0
  0
LINE
  5
35B
330
1E
100
AcDbEntity
  8
0
100
AcDbLine
 10
45.71869999999999
 20
60.10160899999999
 30
0.0
 11
49.30469999999999
 21
60.10160899999999
 31
0.0
  0
LINE
  5
35C
330
1E
100
AcDbEntity
  8
0
100
AcDbLine
 10
41.5703
 20
58.755409
 30
0.0
 11
45.71869999999999
 21
58.755409
 31
0.0
  0
LINE
  5
35D
330
1E
100
AcDbEntity
  8
0
100
AcDbLine
 10
45.71869999999999
 20
58.755409
 30
0.0
 11
49.30469999999999
 21
58.755409
 31
0.0
  0
LINE
  5
35E
330
1E
100
AcDbEntity
  8
0
100
AcDbLine
 10
37.0
 20
61.447709
 30
0.0
 11
41.1484
 21
61.447709
 31
0.0
  0
LINE
  5
35F
330
1E
100
AcDbEntity
  8
0
100
AcDbLine
 10
41.1484
 20
61.447709
 30
0.0
 11
44.9453
 21
61.447709
 31
0.0
  0
LINE
  5
360
330
1E
100
AcDbEntity
  8
0
100
AcDbLine
 10
44.9453
 20
61.447709
 30
0.0
 11
48.25
 21
61.447709
 31
0.0
  0
LINE
  5
361
330
1E
100
AcDbEntity
  8
0
100
AcDbLine
 10
48.25
 20
61.447709
 30
0.0
 11
50.7109
 21
61.447709
 31
0.0
  0
LINE
  5
362
330
1E
100
AcDbEntity
  8
0
100
AcDbLine
 10
49.30469999999999
 20
60.10160899999999
 30
0.0
 11
52.0469
 21
60.10160899999999
 31
0.0
  0
LINE
  5
363
330
1E
100
AcDbEntity
  8
0
100
AcDbLine
 10
54.4375
 20
58.755409
 30
0.0
 11
54.4375
 21
60.10160899999999
 31
0.0
  0
LINE
  5
364
330
1E
100
AcDbEntity
  8
0
100
AcDbLine
 10
53.80469999999999
 20
58.755409
 30
0.0
 11
54.4375
 21
58.755409
 31
0.0
  0
LINE
  5
365
330
1E
100
AcDbEntity
  8
0
100
AcDbLine
 10
50.7109
 20
61.447709
 30
0.0
 11
52.3984
 21
61.447709
 31
0.0
  0
LINE
  5
366
330
1E
100
AcDbEntity
  8
0
100
AcDbLine
 10
52.3984
 20
61.447709
 30
0.0
 11
52.8906
 21
61.447709
 31
0.0
  0
LINE
  5
367
330
1E
100
AcDbEntity
  8
0
100
AcDbLine
 10
53.80469999999999
 20
60.10160899999999
 30
0.0
 11
54.4375
 21
60.10160899999999
 31
0.0
  0
LINE
  5
368
330
1E
100
AcDbEntity
  8
0
100
AcDbLine
 10
52.0469
 20
60.10160899999999
 30
0.0
 11
53.80469999999999
 21
60.10160899999999
 31
0.0
  0
LINE
  5
369
330
1E
100
AcDbEntity
  8
0
100
AcDbLine
 10
52.0469
 20
58.755409
 30
0.0
 11
53.80469999999999
 21
58.755409
 31
0.0
  0
LINE
  5
36A
330
1E
100
AcDbEntity
  8
0
100
AcDbLine
 10
49.30469999999999
 20
58.755409
 30
0.0
 11
52.0469
 21
58.755409
 31
0.0
  0
LINE
  5
36B
330
1E
100
AcDbEntity
  8
0
100
AcDbLine
 10
37.0
 20
62.793909
 30
0.0
 11
41.3594
 21
62.793909
 31
0.0
  0
LINE
  5
36C
330
1E
100
AcDbEntity
  8
0
100
AcDbLine
 10
37.0
 20
64.14000899999999
 30
0.0
 11
41.3594
 21
64.14000899999999
 31
0.0
  0
LINE
  5
36D
330
1E
100
AcDbEntity
  8
0
100
AcDbLine
 10
41.3594
 20
64.14000899999999
 30
0.0
 11
45.4375
 21
64.14000899999999
 31
0.0
  0
LINE
  5
36E
330
1E
100
AcDbEntity
  8
0
100
AcDbLine
 10
45.4375
 20
64.14000899999999
 30
0.0
 11
48.9531
 21
64.14000899999999
 31
0.0
  0
LINE
  5
36F
330
1E
100
AcDbEntity
  8
0
100
AcDbLine
 10
41.3594
 20
62.793909
 30
0.0
 11
45.4375
 21
62.793909
 31
0.0
  0
LINE
  5
370
330
1E
100
AcDbEntity
  8
0
100
AcDbLine
 10
45.4375
 20
62.793909
 30
0.0
 11
48.9531
 21
62.793909
 31
0.0
  0
LINE
  5
371
330
1E
100
AcDbEntity
  8
0
100
AcDbLine
 10
37.0
 20
65.486209
 30
0.0
 11
41.0078
 21
65.486209
 31
0.0
  0
LINE
  5
372
330
1E
100
AcDbEntity
  8
0
100
AcDbLine
 10
41.0078
 20
65.486209
 30
0.0
 11
44.66409999999999
 21
65.486209
 31
0.0
  0
LINE
  5
373
330
1E
100
AcDbEntity
  8
0
100
AcDbLine
 10
44.66409999999999
 20
65.486209
 30
0.0
 11
47.8984
 21
65.486209
 31
0.0
  0
LINE
  5
374
330
1E
100
AcDbEntity
  8
0
100
AcDbLine
 10
47.8984
 20
65.486209
 30
0.0
 11
50.28909999999999
 21
65.486209
 31
0.0
  0
LINE
  5
375
330
1E
100
AcDbEntity
  8
0
100
AcDbLine
 10
48.9531
 20
64.14000899999999
 30
0.0
 11
51.625
 21
64.14000899999999
 31
0.0
  0
LINE
  5
376
330
1E
100
AcDbEntity
  8
0
100
AcDbLine
 10
53.875
 20
62.793909
 30
0.0
 11
53.875
 21
64.14000899999999
 31
0.0
  0
LINE
  5
377
330
1E
100
AcDbEntity
  8
0
100
AcDbLine
 10
53.3125
 20
62.793909
 30
0.0
 11
53.875
 21
62.793909
 31
0.0
  0
LINE
  5
378
330
1E
100
AcDbEntity
  8
0
100
AcDbLine
 10
50.28909999999999
 20
65.486209
 30
0.0
 11
51.8359
 21
65.486209
 31
0.0
  0
LINE
  5
379
330
1E
100
AcDbEntity
  8
0
100
AcDbLine
 10
51.8359
 20
65.486209
 30
0.0
 11
52.3281
 21
65.486209
 31
0.0
  0
LINE
  5
37A
330
1E
100
AcDbEntity
  8
0
100
AcDbLine
 10
53.3125
 20
64.14000899999999
 30
0.0
 11
53.875
 21
64.14000899999999
 31
0.0
  0
LINE
  5
37B
330
1E
100
AcDbEntity
  8
0
100
AcDbLine
 10
51.625
 20
64.14000899999999
 30
0.0
 11
53.3125
 21
64.14000899999999
 31
0.0
  0
LINE
  5
37C
330
1E
100
AcDbEntity
  8
0
100
AcDbLine
 10
51.625
 20
62.793909
 30
0.0
 11
53.3125
 21
62.793909
 31
0.0
  0
LINE
  5
37D
330
1E
100
AcDbEntity
  8
0
100
AcDbLine
 10
48.9531
 20
62.793909
 30
0.0
 11
51.625
 21
62.793909
 31
0.0
  0
LINE
  5
37E
330
1E
100
AcDbEntity
  8
0
100
AcDbLine
 10
52.3281
 20
65.486209
 30
0.0
 11
53.875
 21
64.14000899999999
 31
0.0
  0
LINE
  5
37F
330
1E
100
AcDbEntity
  8
0
100
AcDbLine
 10
52.3281
 20
65.486209
 30
0.0
 11
53.4531
 21
66.83230899999999
 31
0.0
  0
LINE
  5
380
330
1E
100
AcDbEntity
  8
0
100
AcDbLine
 10
53.875
 20
64.14000899999999
 30
0.0
 11
53.875
 21
62.793909
 31
0.0
  0
LINE
  5
381
330
1E
100
AcDbEntity
  8
0
100
AcDbLine
 10
52.8906
 20
61.447709
 30
0.0
 11
54.4375
 21
60.10160899999999
 31
0.0
  0
LINE
  5
382
330
1E
100
AcDbEntity
  8
0
100
AcDbLine
 10
52.8906
 20
61.447709
 30
0.0
 11
53.875
 21
62.793909
 31
0.0
  0
LINE
  5
383
330
1E
100
AcDbEntity
  8
0
100
AcDbLine
 10
54.4375
 20
60.10160899999999
 30
0.0
 11
54.4375
 21
58.755409
 31
0.0
  0
LINE
  5
384
330
1E
100
AcDbEntity
  8
0
100
AcDbLine
 10
33.1328
 20
78.94770900000001
 30
0.0
 11
37.0
 21
78.94770900000001
 31
0.0
  0
LINE
  5
385
330
1E
100
AcDbEntity
  8
0
100
AcDbLine
 10
32.9922
 20
76.255409
 30
0.0
 11
37.0
 21
76.255409
 31
0.0
  0
LINE
  5
386
330
1E
100
AcDbEntity
  8
0
100
AcDbLine
 10
32.9922
 20
74.90930899999999
 30
0.0
 11
37.0
 21
74.90930899999999
 31
0.0
  0
LINE
  5
387
330
1E
100
AcDbEntity
  8
0
100
AcDbLine
 10
37.0
 20
66.83230899999999
 30
0.0
 11
41.2891
 21
66.83230899999999
 31
0.0
  0
LINE
  5
388
330
1E
100
AcDbEntity
  8
0
100
AcDbLine
 10
37.0
 20
69.524609
 30
0.0
 11
40.86719999999999
 21
69.524609
 31
0.0
  0
LINE
  5
389
330
1E
100
AcDbEntity
  8
0
100
AcDbLine
 10
40.86719999999999
 20
69.524609
 30
0.0
 11
44.4531
 21
69.524609
 31
0.0
  0
LINE
  5
38A
330
1E
100
AcDbEntity
  8
0
100
AcDbLine
 10
37.0
 20
68.17850899999999
 30
0.0
 11
41.2891
 21
68.17850899999999
 31
0.0
  0
LINE
  5
38B
330
1E
100
AcDbEntity
  8
0
100
AcDbLine
 10
44.4531
 20
69.524609
 30
0.0
 11
47.5469
 21
69.524609
 31
0.0
  0
LINE
  5
38C
330
1E
100
AcDbEntity
  8
0
100
AcDbLine
 10
41.2891
 20
68.17850899999999
 30
0.0
 11
45.2266
 21
68.17850899999999
 31
0.0
  0
LINE
  5
38D
330
1E
100
AcDbEntity
  8
0
100
AcDbLine
 10
41.2891
 20
66.83230899999999
 30
0.0
 11
45.2266
 21
66.83230899999999
 31
0.0
  0
LINE
  5
38E
330
1E
100
AcDbEntity
  8
0
100
AcDbLine
 10
45.2266
 20
68.17850899999999
 30
0.0
 11
48.6016
 21
68.17850899999999
 31
0.0
  0
LINE
  5
38F
330
1E
100
AcDbEntity
  8
0
100
AcDbLine
 10
45.2266
 20
66.83230899999999
 30
0.0
 11
48.6016
 21
66.83230899999999
 31
0.0
  0
LINE
  5
390
330
1E
100
AcDbEntity
  8
0
100
AcDbLine
 10
47.5469
 20
69.524609
 30
0.0
 11
49.9375
 21
69.524609
 31
0.0
  0
LINE
  5
391
330
1E
100
AcDbEntity
  8
0
100
AcDbLine
 10
52.8203
 20
66.83230899999999
 30
0.0
 11
53.4531
 21
66.83230899999999
 31
0.0
  0
LINE
  5
392
330
1E
100
AcDbEntity
  8
0
100
AcDbLine
 10
52.8203
 20
68.17850899999999
 30
0.0
 11
53.4531
 21
68.17850899999999
 31
0.0
  0
LINE
  5
393
330
1E
100
AcDbEntity
  8
0
100
AcDbLine
 10
51.4141
 20
69.524609
 30
0.0
 11
51.9063
 21
69.524609
 31
0.0
  0
LINE
  5
394
330
1E
100
AcDbEntity
  8
0
100
AcDbLine
 10
49.9375
 20
69.524609
 30
0.0
 11
51.4141
 21
69.524609
 31
0.0
  0
LINE
  5
395
330
1E
100
AcDbEntity
  8
0
100
AcDbLine
 10
51.1328
 20
68.17850899999999
 30
0.0
 11
52.8203
 21
68.17850899999999
 31
0.0
  0
LINE
  5
396
330
1E
100
AcDbEntity
  8
0
100
AcDbLine
 10
48.6016
 20
68.17850899999999
 30
0.0
 11
51.1328
 21
68.17850899999999
 31
0.0
  0
LINE
  5
397
330
1E
100
AcDbEntity
  8
0
100
AcDbLine
 10
51.1328
 20
66.83230899999999
 30
0.0
 11
52.8203
 21
66.83230899999999
 31
0.0
  0
LINE
  5
398
330
1E
100
AcDbEntity
  8
0
100
AcDbLine
 10
48.6016
 20
66.83230899999999
 30
0.0
 11
51.1328
 21
66.83230899999999
 31
0.0
  0
LINE
  5
399
330
1E
100
AcDbEntity
  8
0
100
AcDbLine
 10
37.0
 20
70.870809
 30
0.0
 11
41.1484
 21
70.870809
 31
0.0
  0
LINE
  5
39A
330
1E
100
AcDbEntity
  8
0
100
AcDbLine
 10
37.0
 20
72.216909
 30
0.0
 11
41.1484
 21
72.216909
 31
0.0
  0
LINE
  5
39B
330
1E
100
AcDbEntity
  8
0
100
AcDbLine
 10
41.1484
 20
72.216909
 30
0.0
 11
44.9453
 21
72.216909
 31
0.0
  0
LINE
  5
39C
330
1E
100
AcDbEntity
  8
0
100
AcDbLine
 10
44.9453
 20
72.216909
 30
0.0
 11
48.25
 21
72.216909
 31
0.0
  0
LINE
  5
39D
330
1E
100
AcDbEntity
  8
0
100
AcDbLine
 10
41.1484
 20
70.870809
 30
0.0
 11
44.9453
 21
70.870809
 31
0.0
  0
LINE
  5
39E
330
1E
100
AcDbEntity
  8
0
100
AcDbLine
 10
44.9453
 20
70.870809
 30
0.0
 11
48.25
 21
70.870809
 31
0.0
  0
LINE
  5
39F
330
1E
100
AcDbEntity
  8
0
100
AcDbLine
 10
37.0
 20
73.563109
 30
0.0
 11
40.7969
 21
73.563109
 31
0.0
  0
LINE
  5
3A0
330
1E
100
AcDbEntity
  8
0
100
AcDbLine
 10
40.7969
 20
73.563109
 30
0.0
 11
44.2422
 21
73.563109
 31
0.0
  0
LINE
  5
3A1
330
1E
100
AcDbEntity
  8
0
100
AcDbLine
 10
44.2422
 20
73.563109
 30
0.0
 11
47.1953
 21
73.563109
 31
0.0
  0
LINE
  5
3A2
330
1E
100
AcDbEntity
  8
0
100
AcDbLine
 10
47.1953
 20
73.563109
 30
0.0
 11
49.4453
 21
73.563109
 31
0.0
  0
LINE
  5
3A3
330
1E
100
AcDbEntity
  8
0
100
AcDbLine
 10
48.25
 20
72.216909
 30
0.0
 11
50.7109
 21
72.216909
 31
0.0
  0
LINE
  5
3A4
330
1E
100
AcDbEntity
  8
0
100
AcDbLine
 10
52.8906
 20
70.870809
 30
0.0
 11
52.8906
 21
72.216909
 31
0.0
  0
LINE
  5
3A5
330
1E
100
AcDbEntity
  8
0
100
AcDbLine
 10
52.3984
 20
70.870809
 30
0.0
 11
52.8906
 21
70.870809
 31
0.0
  0
LINE
  5
3A6
330
1E
100
AcDbEntity
  8
0
100
AcDbLine
 10
49.4453
 20
73.563109
 30
0.0
 11
50.9219
 21
73.563109
 31
0.0
  0
LINE
  5
3A7
330
1E
100
AcDbEntity
  8
0
100
AcDbLine
 10
50.9219
 20
73.563109
 30
0.0
 11
51.3438
 21
73.563109
 31
0.0
  0
LINE
  5
3A8
330
1E
100
AcDbEntity
  8
0
100
AcDbLine
 10
52.3984
 20
72.216909
 30
0.0
 11
52.8906
 21
72.216909
 31
0.0
  0
LINE
  5
3A9
330
1E
100
AcDbEntity
  8
0
100
AcDbLine
 10
50.7109
 20
72.216909
 30
0.0
 11
52.3984
 21
72.216909
 31
0.0
  0
LINE
  5
3AA
330
1E
100
AcDbEntity
  8
0
100
AcDbLine
 10
50.7109
 20
70.870809
 30
0.0
 11
52.3984
 21
70.870809
 31
0.0
  0
LINE
  5
3AB
330
1E
100
AcDbEntity
  8
0
100
AcDbLine
 10
48.25
 20
70.870809
 30
0.0
 11
50.7109
 21
70.870809
 31
0.0
  0
LINE
  5
3AC
330
1E
100
AcDbEntity
  8
0
100
AcDbLine
 10
51.3438
 20
73.563109
 30
0.0
 11
52.8906
 21
72.216909
 31
0.0
  0
LINE
  5
3AD
330
1E
100
AcDbEntity
  8
0
100
AcDbLine
 10
51.3438
 20
73.563109
 30
0.0
 11
52.3281
 21
74.90930899999999
 31
0.0
  0
LINE
  5
3AE
330
1E
100
AcDbEntity
  8
0
100
AcDbLine
 10
52.8906
 20
72.216909
 30
0.0
 11
52.8906
 21
70.870809
 31
0.0
  0
LINE
  5
3AF
330
1E
100
AcDbEntity
  8
0
100
AcDbLine
 10
51.9063
 20
69.524609
 30
0.0
 11
53.4531
 21
68.17850899999999
 31
0.0
  0
LINE
  5
3B0
330
1E
100
AcDbEntity
  8
0
100
AcDbLine
 10
51.9063
 20
69.524609
 30
0.0
 11
52.8906
 21
70.870809
 31
0.0
  0
LINE
  5
3B1
330
1E
100
AcDbEntity
  8
0
100
AcDbLine
 10
53.4531
 20
66.83230899999999
 30
0.0
 11
53.4531
 21
68.17850899999999
 31
0.0
  0
LINE
  5
3B2
330
1E
100
AcDbEntity
  8
0
100
AcDbLine
 10
37.0
 20
74.90930899999999
 30
0.0
 11
41.0078
 21
74.90930899999999
 31
0.0
  0
LINE
  5
3B3
330
1E
100
AcDbEntity
  8
0
100
AcDbLine
 10
37.0
 20
76.255409
 30
0.0
 11
41.0078
 21
76.255409
 31
0.0
  0
LINE
  5
3B4
330
1E
100
AcDbEntity
  8
0
100
AcDbLine
 10
41.0078
 20
76.255409
 30
0.0
 11
44.66409999999999
 21
76.255409
 31
0.0
  0
LINE
  5
3B5
330
1E
100
AcDbEntity
  8
0
100
AcDbLine
 10
44.66409999999999
 20
76.255409
 30
0.0
 11
47.8984
 21
76.255409
 31
0.0
  0
LINE
  5
3B6
330
1E
100
AcDbEntity
  8
0
100
AcDbLine
 10
41.0078
 20
74.90930899999999
 30
0.0
 11
44.66409999999999
 21
74.90930899999999
 31
0.0
  0
LINE
  5
3B7
330
1E
100
AcDbEntity
  8
0
100
AcDbLine
 10
44.66409999999999
 20
74.90930899999999
 30
0.0
 11
47.8984
 21
74.90930899999999
 31
0.0
  0
LINE
  5
3B8
330
1E
100
AcDbEntity
  8
0
100
AcDbLine
 10
37.0
 20
77.60160899999999
 30
0.0
 11
40.5859
 21
77.60160899999999
 31
0.0
  0
LINE
  5
3B9
330
1E
100
AcDbEntity
  8
0
100
AcDbLine
 10
40.5859
 20
77.60160899999999
 30
0.0
 11
43.9609
 21
77.60160899999999
 31
0.0
  0
LINE
  5
3BA
330
1E
100
AcDbEntity
  8
0
100
AcDbLine
 10
43.9609
 20
77.60160899999999
 30
0.0
 11
46.8437
 21
77.60160899999999
 31
0.0
  0
LINE
  5
3BB
330
1E
100
AcDbEntity
  8
0
100
AcDbLine
 10
46.8437
 20
77.60160899999999
 30
0.0
 11
49.0234
 21
77.60160899999999
 31
0.0
  0
LINE
  5
3BC
330
1E
100
AcDbEntity
  8
0
100
AcDbLine
 10
47.8984
 20
76.255409
 30
0.0
 11
50.28909999999999
 21
76.255409
 31
0.0
  0
LINE
  5
3BD
330
1E
100
AcDbEntity
  8
0
100
AcDbLine
 10
52.3281
 20
74.90930899999999
 30
0.0
 11
52.3281
 21
76.255409
 31
0.0
  0
LINE
  5
3BE
330
1E
100
AcDbEntity
  8
0
100
AcDbLine
 10
51.8359
 20
74.90930899999999
 30
0.0
 11
52.3281
 21
74.90930899999999
 31
0.0
  0
LINE
  5
3BF
330
1E
100
AcDbEntity
  8
0
100
AcDbLine
 10
49.0234
 20
77.60160899999999
 30
0.0
 11
50.4297
 21
77.60160899999999
 31
0.0
  0
LINE
  5
3C0
330
1E
100
AcDbEntity
  8
0
100
AcDbLine
 10
50.4297
 20
77.60160899999999
 30
0.0
 11
50.9219
 21
77.60160899999999
 31
0.0
  0
LINE
  5
3C1
330
1E
100
AcDbEntity
  8
0
100
AcDbLine
 10
51.8359
 20
76.255409
 30
0.0
 11
52.3281
 21
76.255409
 31
0.0
  0
LINE
  5
3C2
330
1E
100
AcDbEntity
  8
0
100
AcDbLine
 10
50.28909999999999
 20
76.255409
 30
0.0
 11
51.8359
 21
76.255409
 31
0.0
  0
LINE
  5
3C3
330
1E
100
AcDbEntity
  8
0
100
AcDbLine
 10
50.28909999999999
 20
74.90930899999999
 30
0.0
 11
51.8359
 21
74.90930899999999
 31
0.0
  0
LINE
  5
3C4
330
1E
100
AcDbEntity
  8
0
100
AcDbLine
 10
47.8984
 20
74.90930899999999
 30
0.0
 11
50.28909999999999
 21
74.90930899999999
 31
0.0
  0
LINE
  5
3C5
330
1E
100
AcDbEntity
  8
0
100
AcDbLine
 10
37.0
 20
78.94770900000001
 30
0.0
 11
40.86719999999999
 21
78.94770900000001
 31
0.0
  0
LINE
  5
3C6
330
1E
100
AcDbEntity
  8
0
100
AcDbLine
 10
37.0
 20
91.063109
 30
0.0
 11
40.375
 21
91.063109
 31
0.0
  0
LINE
  5
3C7
330
1E
100
AcDbEntity
  8
0
100
AcDbLine
 10
40.375
 20
91.063109
 30
0.0
 11
43.4687
 21
91.063109
 31
0.0
  0
LINE
  5
3C8
330
1E
100
AcDbEntity
  8
0
100
AcDbLine
 10
43.4687
 20
91.063109
 30
0.0
 11
46.1406
 21
91.063109
 31
0.0
  0
LINE
  5
3C9
330
1E
100
AcDbEntity
  8
0
100
AcDbLine
 10
40.86719999999999
 20
78.94770900000001
 30
0.0
 11
44.4531
 21
78.94770900000001
 31
0.0
  0
LINE
  5
3CA
330
1E
100
AcDbEntity
  8
0
100
AcDbLine
 10
44.4531
 20
78.94770900000001
 30
0.0
 11
47.5469
 21
78.94770900000001
 31
0.0
  0
LINE
  5
3CB
330
1E
100
AcDbEntity
  8
0
100
AcDbLine
 10
46.1406
 20
91.063109
 30
0.0
 11
48.1094
 21
91.063109
 31
0.0
  0
LINE
  5
3CC
330
1E
100
AcDbEntity
  8
0
100
AcDbLine
 10
51.9063
 20
78.94770900000001
 30
0.0
 11
51.9063
 21
80.293909
 31
0.0
  0
LINE
  5
3CD
330
1E
100
AcDbEntity
  8
0
100
AcDbLine
 10
51.4141
 20
78.94770900000001
 30
0.0
 11
51.9063
 21
78.94770900000001
 31
0.0
  0
LINE
  5
3CE
330
1E
100
AcDbEntity
  8
0
100
AcDbLine
 10
49.5156
 20
91.063109
 30
0.0
 11
49.9375
 21
91.063109
 31
0.0
  0
LINE
  5
3CF
330
1E
100
AcDbEntity
  8
0
100
AcDbLine
 10
48.1094
 20
91.063109
 30
0.0
 11
49.5156
 21
91.063109
 31
0.0
  0
LINE
  5
3D0
330
1E
100
AcDbEntity
  8
0
100
AcDbLine
 10
49.9375
 20
78.94770900000001
 30
0.0
 11
51.4141
 21
78.94770900000001
 31
0.0
  0
LINE
  5
3D1
330
1E
100
AcDbEntity
  8
0
100
AcDbLine
 10
47.5469
 20
78.94770900000001
 30
0.0
 11
49.9375
 21
78.94770900000001
 31
0.0
  0
LINE
  5
3D2
330
1E
100
AcDbEntity
  8
0
100
AcDbLine
 10
49.9375
 20
91.063109
 30
0.0
 11
51.9063
 21
80.293909
 31
0.0
  0
LINE
  5
3D3
330
1E
100
AcDbEntity
  8
0
100
AcDbLine
 10
51.9063
 20
80.293909
 30
0.0
 11
51.9063
 21
78.94770900000001
 31
0.0
  0
LINE
  5
3D4
330
1E
100
AcDbEntity
  8
0
100
AcDbLine
 10
50.9219
 20
77.60160899999999
 30
0.0
 11
52.3281
 21
76.255409
 31
0.0
  0
LINE
  5
3D5
330
1E
100
AcDbEntity
  8
0
100
AcDbLine
 10
50.9219
 20
77.60160899999999
 30
0.0
 11
51.9063
 21
78.94770900000001
 31
0.0
  0
LINE
  5
3D6
330
1E
100
AcDbEntity
  8
0
100
AcDbLine
 10
52.3281
 20
76.255409
 30
0.0
 11
52.3281
 21
74.90930899999999
 31
0.0
  0
LINE
  5
3D7
330
1E
100
AcDbEntity
  8
0
100
AcDbLine
 10
33.625
 20
91.063109
 30
0.0
 11
37.0
 21
91.063109
 31
0.0
  0
LINE
  5
3D8
330
1E
100
AcDbEntity
  8
0
100
AcDbLine
 10
33.41409999999999
 20
77.60160899999999
 30
0.0
 11
37.0
 21
77.60160899999999
 31
0.0
  0
LINE
  5
3D9
330
1E
100
AcDbEntity
  8
0
100
AcDbLine
 10
33.2031
 20
73.563109
 30
0.0
 11
37.0
 21
73.563109
 31
0.0
  0
LINE
  5
3DA
330
1E
100
AcDbEntity
  8
0
100
AcDbLine
 10
33.1328
 20
69.524609
 30
0.0
 11
37.0
 21
69.524609
 31
0.0
  0
LINE
  5
3DB
330
1E
100
AcDbEntity
  8
0
100
AcDbLine
 10
32.9922
 20
65.486209
 30
0.0
 11
37.0
 21
65.486209
 31
0.0
  0
LINE
  5
3DC
330
1E
100
AcDbEntity
  8
0
100
AcDbLine
 10
32.85159999999999
 20
61.447709
 30
0.0
 11
37.0
 21
61.447709
 31
0.0
  0
LINE
  5
3DD
330
1E
100
AcDbEntity
  8
0
100
AcDbLine
 10
32.7109
 20
57.40920899999999
 30
0.0
 11
37.0
 21
57.40920899999999
 31
0.0
  0
LINE
  5
3DE
330
1E
100
AcDbEntity
  8
0
100
AcDbLine
 10
32.42969999999999
 20
58.755409
 30
0.0
 11
37.0
 21
58.755409
 31
0.0
  0
LINE
  5
3DF
330
1E
100
AcDbEntity
  8
0
100
AcDbLine
 10
61.0
 20
51.063109
 30
0.0
 11
64.0
 21
49.06310900000001
 31
0.0
  0
LINE
  5
3E0
330
1E
100
AcDbEntity
  8
0
100
AcDbLine
 10
30.665
 20
51.063109
 30
0.0
 11
37.0
 21
51.063109
 31
0.0
  0
LINE
  5
3E1
330
1E
100
AcDbEntity
  8
0
100
AcDbLine
 10
10.0
 20
49.06310900000001
 30
0.0
 11
13.0
 21
51.063109
 31
0.0
  0
LINE
  5
3E2
330
1E
100
AcDbEntity
  8
0
100
AcDbLine
 10
5.0
 20
43.063109
 30
0.0
 11
7.0
 21
46.063109
 31
0.0
  0
ENDSEC
  0
SECTION
  2
OBJECTS
  0
DICTIONARY
  5
C
330
0
100
AcDbDictionary
  3
ACAD_GROUP
350
D
  3
ACAD_LAYOUT
350
19
  3
ACAD_MLINESTYLE
350
16
  3
ACAD_PLOTSETTINGS
350
18
  3
ACAD_PLOTSTYLENAME
350
E
  3
ACDBHEADERROUNDTRIPXREC
350
410
  3
ACDBVARIABLEDICTIONARY
350
3E8
  0
DICTIONARY
  5
432
330
1E
100
AcDbDictionary
280
     1
  3
ACAD_LAYOUTSELFREF
360
433
  0
DICTIONARY
  5
430
330
1A
100
AcDbDictionary
280
     1
  3
ACAD_LAYOUTSELFREF
360
431
  0
DICTIONARY
  5
D
102
{ACAD_REACTORS
330
C
102
}
330
C
100
AcDbDictionary
  0
DICTIONARY
  5
19
102
{ACAD_REACTORS
330
C
102
}
330
C
100
AcDbDictionary
  0
DICTIONARY
  5
16
102
{ACAD_REACTORS
330
C
102
}
330
C
100
AcDbDictionary
  3
STANDARD
350
17
  0
DICTIONARY
  5
18
102
{ACAD_REACTORS
330
C
102
}
330
C
100
AcDbDictionary
  0
ACDBDICTIONARYWDFLT
  5
E
102
{ACAD_REACTORS
330
C
102
}
330
C
100
AcDbDictionary
281
     1
  3
Normal
350
F
100
AcDbDictionaryWithDefault
340
F
  0
DICTIONARY
  5
410
102
{ACAD_REACTORS
330
C
102
}
330
C
100
AcDbDictionary
  3
CEPSNTYPE
350
41A
  3
FINGERPRINTGUID
350
41B
  3
HYPERLINKBASE
350
413
  3
INSUNITS
350
419
  3
LAYOUTDICT
350
415
  3
LWETCUNION
350
418
  3
PLOTSETDICT
350
416
  3
PLOTSTYLNAMDICT
350
417
  3
PSVPSCALE
350
41D
  3
PUCSBASE
350
420
  3
PUCSORGBACK
350
426
  3
PUCSORGBOTTOM
350
422
  3
PUCSORGFRONT
350
425
  3
PUCSORGLEFT
350
423
  3
PUCSORGRIGHT
350
424
  3
PUCSORGTOP
350
421
  3
PUCSORTHOREF
350
41E
  3
PUCSORTHOVIEW
350
41F
  3
STYLESHEET
350
414
  3
TSTACKALIGN
350
411
  3
TSTACKSIZE
350
412
  3
UCSBASE
350
429
  3
UCSORGBACK
350
42F
  3
UCSORGBOTTOM
350
42B
  3
UCSORGFRONT
350
42E
  3
UCSORGLEFT
350
42C
  3
UCSORGRIGHT
350
42D
  3
UCSORGTOP
350
42A
  3
UCSORTHOREF
350
427
  3
UCSORTHOVIEW
350
428
  3
VERSIONGUID
350
41C
  0
DICTIONARY
  5
3E8
102
{ACAD_REACTORS
330
C
102
}
330
C
100
AcDbDictionary
  3
DIMASSOC
350
3E9
  0
XRECORD
  5
433
102
{ACAD_REACTORS
330
432
102
}
330
432
100
AcDbXrecord
340
1E
  0
XRECORD
  5
431
102
{ACAD_REACTORS
330
430
102
}
330
430
100
AcDbXrecord
340
1A
  0
MLINESTYLE
  5
17
102
{ACAD_REACTORS
330
16
102
}
330
16
100
AcDbMlineStyle
  2
STANDARD
 70
     0
  3

 62
   256
 51
90.0
 52
90.0
 71
     2
 49
0.5
 62
   256
  6
BYLAYER
 49
-0.5
 62
   256
  6
BYLAYER
  0
ACDBPLACEHOLDER
  5
F
102
{ACAD_REACTORS
330
E
102
}
330
E
100
AcDbPlaceHolder
280
     0
  0
XRECORD
  5
41A
102
{ACAD_REACTORS
330
410
102
}
330
410
100
AcDbXrecord
 90
        0
  0
XRECORD
  5
41B
102
{ACAD_REACTORS
330
410
102
}
330
410
100
AcDbXrecord
  1
{CFB89D2C-8A7B-4D1D-9F00-89118DAF30CF}
  0
XRECORD
  5
413
102
{ACAD_REACTORS
330
410
102
}
330
410
100
AcDbXrecord
  1

  0
XRECORD
  5
419
102
{ACAD_REACTORS
330
410
102
}
330
410
100
AcDbXrecord
 90
        0
  0
XRECORD
  5
415
102
{ACAD_REACTORS
330
410
102
}
330
410
100
AcDbXrecord
340
19
  0
XRECORD
  5
418
102
{ACAD_REACTORS
330
410
102
}
330
410
100
AcDbXrecord
 90
    10781
  0
XRECORD
  5
416
102
{ACAD_REACTORS
330
410
102
}
330
410
100
AcDbXrecord
340
18
  0
XRECORD
  5
417
102
{ACAD_REACTORS
330
410
102
}
330
410
100
AcDbXrecord
340
E
  0
XRECORD
  5
41D
102
{ACAD_REACTORS
330
410
102
}
330
410
100
AcDbXrecord
 40
0.0
  0
XRECORD
  5
420
102
{ACAD_REACTORS
330
410
102
}
330
410
100
AcDbXrecord
340
0
  0
XRECORD
  5
426
102
{ACAD_REACTORS
330
410
102
}
330
410
100
AcDbXrecord
 10
0.0
 20
0.0
 30
0.0
  0
XRECORD
  5
422
102
{ACAD_REACTORS
330
410
102
}
330
410
100
AcDbXrecord
 10
0.0
 20
0.0
 30
0.0
  0
XRECORD
  5
425
102
{ACAD_REACTORS
330
410
102
}
330
410
100
AcDbXrecord
 10
0.0
 20
0.0
 30
0.0
  0
XRECORD
  5
423
102
{ACAD_REACTORS
330
410
102
}
330
410
100
AcDbXrecord
 10
0.0
 20
0.0
 30
0.0
  0
XRECORD
  5
424
102
{ACAD_REACTORS
330
410
102
}
330
410
100
AcDbXrecord
 10
0.0
 20
0.0
 30
0.0
  0
XRECORD
  5
421
102
{ACAD_REACTORS
330
410
102
}
330
410
100
AcDbXrecord
 10
0.0
 20
0.0
 30
0.0
  0
XRECORD
  5
41E
102
{ACAD_REACTORS
330
410
102
}
330
410
100
AcDbXrecord
340
0
  0
XRECORD
  5
41F
102
{ACAD_REACTORS
330
410
102
}
330
410
100
AcDbXrecord
 70
     0
  0
XRECORD
  5
414
102
{ACAD_REACTORS
330
410
102
}
330
410
100
AcDbXrecord
  1

  0
XRECORD
  5
411
102
{ACAD_REACTORS
330
410
102
}
330
410
100
AcDbXrecord
 90
        1
  0
XRECORD
  5
412
102
{ACAD_REACTORS
330
410
102
}
330
410
100
AcDbXrecord
 90
       70
  0
XRECORD
  5
429
102
{ACAD_REACTORS
330
410
102
}
330
410
100
AcDbXrecord
340
0
  0
XRECORD
  5
42F
102
{ACAD_REACTORS
330
410
102
}
330
410
100
AcDbXrecord
 10
0.0
 20
0.0
 30
0.0
  0
XRECORD
  5
42B
102
{ACAD_REACTORS
330
410
102
}
330
410
100
AcDbXrecord
 10
0.0
 20
0.0
 30
0.0
  0
XRECORD
  5
42E
102
{ACAD_REACTORS
330
410
102
}
330
410
100
AcDbXrecord
 10
0.0
 20
0.0
 30
0.0
  0
XRECORD
  5
42C
102
{ACAD_REACTORS
330
410
102
}
330
410
100
AcDbXrecord
 10
0.0
 20
0.0
 30
0.0
  0
XRECORD
  5
42D
102
{ACAD_REACTORS
330
410
102
}
330
410
100
AcDbXrecord
 10
0.0
 20
0.0
 30
0.0
  0
XRECORD
  5
42A
102
{ACAD_REACTORS
330
410
102
}
330
410
100
AcDbXrecord
 10
0.0
 20
0.0
 30
0.0
  0
XRECORD
  5
427
102
{ACAD_REACTORS
330
410
102
}
330
410
100
AcDbXrecord
340
0
  0
XRECORD
  5
428
102
{ACAD_REACTORS
330
410
102
}
330
410
100
AcDbXrecord
 70
     1
  0
XRECORD
  5
41C
102
{ACAD_REACTORS
330
410
102
}
330
410
100
AcDbXrecord
  1
{C899DB39-D878-452F-B0F6-F0E8BF8F6EE8}
  0
DICTIONARYVAR
  5
3E9
102
{ACAD_REACTORS
330
3E8
102
}
330
3E8
100
DictionaryVariables
280
     0
  1
1
  0
ENDSEC
  0
EOF
