  0
SECTION
  2
HEADER
  9
$ACADVER
  1
AC1014
  9
$ACADMAINTVER
 70
     9
  9
$DWGCODEPAGE
  3
ANSI_1252
  9
$INSBASE
 10
0.0
 20
0.0
 30
0.0
  9
$EXTMIN
 10
0.0
 20
-0.0002020000000045
 30
0.0
  9
$EXTMAX
 10
91.0
 20
116.000202
 30
0.0
  9
$LIMMIN
 10
0.0
 20
0.0
  9
$LIMMAX
 10
12.0
 20
9.0
  9
$ORTHOMODE
 70
     0
  9
$REGENMODE
 70
     1
  9
$FILLMODE
 70
     1
  9
$QTEXTMODE
 70
     0
  9
$MIRRTEXT
 70
     1
  9
$DRAGMODE
 70
     2
  9
$LTSCALE
 40
1.0
  9
$OSMODE
 70
    37
  9
$ATTMODE
 70
     1
  9
$TEXTSIZE
 40
0.2
  9
$TRACEWID
 40
0.05
  9
$TEXTSTYLE
  7
STANDARD
  9
$CLAYER
  8
0
  9
$CELTYPE
  6
CONTINUOUS
  9
$CECOLOR
 62
   256
  9
$CELTSCALE
 40
1.0
  9
$DELOBJ
 70
     1
  9
$DISPSILH
 70
     0
  9
$DIMSCALE
 40
1.0
  9
$DIMASZ
 40
0.18
  9
$DIMEXO
 40
0.0625
  9
$DIMDLI
 40
0.38
  9
$DIMRND
 40
0.0
  9
$DIMDLE
 40
0.0
  9
$DIMEXE
 40
0.18
  9
$DIMTP
 40
0.0
  9
$DIMTM
 40
0.0
  9
$DIMTXT
 40
0.18
  9
$DIMCEN
 40
0.09
  9
$DIMTSZ
 40
0.0
  9
$DIMTOL
 70
     0
  9
$DIMLIM
 70
     0
  9
$DIMTIH
 70
     1
  9
$DIMTOH
 70
     1
  9
$DIMSE1
 70
     0
  9
$DIMSE2
 70
     0
  9
$DIMTAD
 70
     0
  9
$DIMZIN
 70
     0
  9
$DIMBLK
  1

  9
$DIMASO
 70
     1
  9
$DIMSHO
 70
     1
  9
$DIMPOST
  1

  9
$DIMAPOST
  1

  9
$DIMALT
 70
     0
  9
$DIMALTD
 70
     2
  9
$DIMALTF
 40
25.4
  9
$DIMLFAC
 40
1.0
  9
$DIMTOFL
 70
     0
  9
$DIMTVP
 40
0.0
  9
$DIMTIX
 70
     0
  9
$DIMSOXD
 70
     0
  9
$DIMSAH
 70
     0
  9
$DIMBLK1
  1

  9
$DIMBLK2
  1

  9
$DIMSTYLE
  2
STANDARD
  9
$DIMCLRD
 70
     0
  9
$DIMCLRE
 70
     0
  9
$DIMCLRT
 70
     0
  9
$DIMTFAC
 40
1.0
  9
$DIMGAP
 40
0.09
  9
$DIMJUST
 70
     0
  9
$DIMSD1
 70
     0
  9
$DIMSD2
 70
     0
  9
$DIMTOLJ
 70
     1
  9
$DIMTZIN
 70
     0
  9
$DIMALTZ
 70
     0
  9
$DIMALTTZ
 70
     0
  9
$DIMFIT
 70
     3
  9
$DIMUPT
 70
     0
  9
$DIMUNIT
 70
     2
  9
$DIMDEC
 70
     4
  9
$DIMTDEC
 70
     4
  9
$DIMALTU
 70
     2
  9
$DIMALTTD
 70
     2
  9
$DIMTXSTY
  7
STANDARD
  9
$DIMAUNIT
 70
     0
  9
$LUNITS
 70
     2
  9
$LUPREC
 70
     4
  9
$SKETCHINC
 40
0.1
  9
$FILLETRAD
 40
0.0
  9
$AUNITS
 70
     0
  9
$AUPREC
 70
     0
  9
$MENU
  1
.
  9
$ELEVATION
 40
0.0
  9
$PELEVATION
 40
0.0
  9
$THICKNESS
 40
0.0
  9
$LIMCHECK
 70
     0
  9
$BLIPMODE
 70
     0
  9
$CHAMFERA
 40
0.0
  9
$CHAMFERB
 40
0.0
  9
$CHAMFERC
 40
0.0
  9
$CHAMFERD
 40
0.0
  9
$SKPOLY
 70
     0
  9
$TDCREATE
 40
2455239.904488565
  9
$TDUPDATE
 40
2455239.905586296
  9
$TDINDWG
 40
0.0010979051
  9
$TDUSRTIMER
 40
0.0010979051
  9
$USRTIMER
 70
     1
  9
$ANGBASE
 50
0.0
  9
$ANGDIR
 70
     0
  9
$PDMODE
 70
     0
  9
$PDSIZE
 40
0.0
  9
$PLINEWID
 40
0.0
  9
$COORDS
 70
     1
  9
$SPLFRAME
 70
     0
  9
$SPLINETYPE
 70
     6
  9
$SPLINESEGS
 70
     8
  9
$ATTDIA
 70
     0
  9
$ATTREQ
 70
     1
  9
$HANDLING
 70
 22529
  9
$HANDSEED
  5
213
  9
$SURFTAB1
 70
     6
  9
$SURFTAB2
 70
     6
  9
$SURFTYPE
 70
     6
  9
$SURFU
 70
     6
  9
$SURFV
 70
     6
  9
$UCSNAME
  2

  9
$UCSORG
 10
0.0
 20
0.0
 30
0.0
  9
$UCSXDIR
 10
1.0
 20
0.0
 30
0.0
  9
$UCSYDIR
 10
0.0
 20
1.0
 30
0.0
  9
$PUCSNAME
  2

  9
$PUCSORG
 10
0.0
 20
0.0
 30
0.0
  9
$PUCSXDIR
 10
1.0
 20
0.0
 30
0.0
  9
$PUCSYDIR
 10
0.0
 20
1.0
 30
0.0
  9
$USERI1
 70
     0
  9
$USERI2
 70
     0
  9
$USERI3
 70
     0
  9
$USERI4
 70
     0
  9
$USERI5
 70
     0
  9
$USERR1
 40
0.0
  9
$USERR2
 40
0.0
  9
$USERR3
 40
0.0
  9
$USERR4
 40
0.0
  9
$USERR5
 40
0.0
  9
$WORLDVIEW
 70
     1
  9
$SHADEDGE
 70
     3
  9
$SHADEDIF
 70
    70
  9
$TILEMODE
 70
     1
  9
$MAXACTVP
 70
    64
  9
$PINSBASE
 10
0.0
 20
0.0
 30
0.0
  9
$PLIMCHECK
 70
     0
  9
$PEXTMIN
 10
1.000000000000000E+20
 20
1.000000000000000E+20
 30
1.000000000000000E+20
  9
$PEXTMAX
 10
-1.000000000000000E+20
 20
-1.000000000000000E+20
 30
-1.000000000000000E+20
  9
$PLIMMIN
 10
0.0
 20
0.0
  9
$PLIMMAX
 10
12.0
 20
9.0
  9
$UNITMODE
 70
     0
  9
$VISRETAIN
 70
     1
  9
$PLINEGEN
 70
     0
  9
$PSLTSCALE
 70
     1
  9
$TREEDEPTH
 70
  3020
  9
$PICKSTYLE
 70
     1
  9
$CMLSTYLE
  2
STANDARD
  9
$CMLJUST
 70
     0
  9
$CMLSCALE
 40
1.0
  9
$PROXYGRAPHICS
 70
     1
  9
$MEASUREMENT
 70
     0
  0
ENDSEC
  0
SECTION
  2
CLASSES
  0
CLASS
  1
ACDBDICTIONARYWDFLT
  2
AcDbDictionaryWithDefault
  3
AutoCAD 2000
 90
        0
280
     0
281
     0
  0
CLASS
  1
ACDBPLACEHOLDER
  2
AcDbPlaceHolder
  3
AutoCAD 2000
 90
        0
280
     0
281
     0
  0
CLASS
  1
LAYOUT
  2
AcDbLayout
  3
AutoCAD 2000
 90
        0
280
     0
281
     0
  0
CLASS
  1
DICTIONARYVAR
  2
AcDbDictionaryVar
  3
AutoCAD 2000
 90
        0
280
     0
281
     0
  0
CLASS
  1
LONG_TRANSACTION
  2
AcDbLongTransaction
  3
AutoCAD 2000
 90
        0
280
     0
281
     0
  0
CLASS
  1
LWPOLYLINE
  2
AcDbPolyline
  3
AutoCAD 2000
 90
        0
280
     0
281
     1
  0
CLASS
  1
HATCH
  2
AcDbHatch
  3
AutoCAD 2000
 90
        0
280
     0
281
     1
  0
CLASS
  1
XRECORD
  2
AcDbXrecord
  3
AutoCAD 2000
 90
        0
280
     0
281
     0
  0
ENDSEC
  0
SECTION
  2
TABLES
  0
TABLE
  2
VPORT
  5
8
330
0
100
AcDbSymbolTable
 70
     3
  0
VPORT
  5
1EE
330
8
100
AcDbSymbolTableRecord
100
AcDbViewportTableRecord
  2
*ACTIVE
 70
     0
 10
0.0
 20
0.0
 11
1.0
 21
1.0
 12
45.49999999999999
 22
58.0
 13
0.0
 23
0.0
 14
1.0
 24
1.0
 15
0.0
 25
0.0
 16
0.0
 26
0.0
 36
1.0
 17
0.0
 27
0.0
 37
0.0
 40
116.7618946170678
 41
2.041621029572836
 42
50.0
 43
0.0
 44
0.0
 50
0.0
 51
0.0
 71
     0
 72
   100
 73
     1
 74
     3
 75
     0
 76
     0
 77
     0
 78
     0
  0
ENDTAB
  0
TABLE
  2
LTYPE
  5
5
330
0
100
AcDbSymbolTable
 70
     1
  0
LTYPE
  5
13
330
5
100
AcDbSymbolTableRecord
100
AcDbLinetypeTableRecord
  2
BYBLOCK
 70
     0
  3

 72
    65
 73
     0
 40
0.0
  0
LTYPE
  5
14
330
5
100
AcDbSymbolTableRecord
100
AcDbLinetypeTableRecord
  2
BYLAYER
 70
     0
  3

 72
    65
 73
     0
 40
0.0
  0
LTYPE
  5
15
330
5
100
AcDbSymbolTableRecord
100
AcDbLinetypeTableRecord
  2
CONTINUOUS
 70
     0
  3
Solid line
 72
    65
 73
     0
 40
0.0
  0
ENDTAB
  0
TABLE
  2
LAYER
  5
2
330
0
100
AcDbSymbolTable
 70
     1
  0
LAYER
  5
10
330
2
100
AcDbSymbolTableRecord
100
AcDbLayerTableRecord
  2
0
 70
     0
 62
     7
  6
CONTINUOUS
  0
ENDTAB
  0
TABLE
  2
STYLE
  5
3
330
0
100
AcDbSymbolTable
 70
     1
  0
STYLE
  5
11
330
3
100
AcDbSymbolTableRecord
100
AcDbTextStyleTableRecord
  2
STANDARD
 70
     0
 40
0.0
 41
1.0
 50
0.0
 71
     0
 42
0.2
  3
txt
  4

  0
ENDTAB
  0
TABLE
  2
VIEW
  5
6
330
0
100
AcDbSymbolTable
 70
     0
  0
ENDTAB
  0
TABLE
  2
UCS
  5
7
330
0
100
AcDbSymbolTable
 70
     0
  0
ENDTAB
  0
TABLE
  2
APPID
  5
9
330
0
100
AcDbSymbolTable
 70
     1
  0
APPID
  5
12
330
9
100
AcDbSymbolTableRecord
100
AcDbRegAppTableRecord
  2
ACAD
 70
     0
  0
ENDTAB
  0
TABLE
  2
DIMSTYLE
  5
A
330
0
100
AcDbSymbolTable
 70
     1
  0
DIMSTYLE
105
1E7
330
A
100
AcDbSymbolTableRecord
100
AcDbDimStyleTableRecord
  2
STANDARD
 70
     0
  3

  4

  5

  6

  7

 40
1.0
 41
0.18
 42
0.0625
 43
0.38
 44
0.18
 45
0.0
 46
0.0
 47
0.0
 48
0.0
140
0.18
141
0.09
142
0.0
143
25.4
144
1.0
145
0.0
146
1.0
147
0.09
 71
     0
 72
     0
 73
     1
 74
     1
 75
     0
 76
     0
 77
     0
 78
     0
170
     0
171
     2
172
     0
173
     0
174
     0
175
     0
176
     0
177
     0
178
     0
270
     2
271
     4
272
     4
273
     2
274
     2
340
11
275
     0
280
     0
281
     0
282
     0
283
     1
284
     0
285
     0
286
     0
287
     3
288
     0
  0
ENDTAB
  0
TABLE
  2
BLOCK_RECORD
  5
1
330
0
100
AcDbSymbolTable
 70
     0
  0
BLOCK_RECORD
  5
1E
102
{ACAD_XDICTIONARY
360
211
102
}
330
1
100
AcDbSymbolTableRecord
100
AcDbBlockTableRecord
  2
*MODEL_SPACE
  0
BLOCK_RECORD
  5
1A
102
{ACAD_XDICTIONARY
360
20F
102
}
330
1
100
AcDbSymbolTableRecord
100
AcDbBlockTableRecord
  2
*PAPER_SPACE
  0
ENDTAB
  0
ENDSEC
  0
SECTION
  2
BLOCKS
  0
BLOCK
  5
1F
330
1E
100
AcDbEntity
  8
0
100
AcDbBlockBegin
  2
*MODEL_SPACE
 70
     0
 10
0.0
 20
0.0
 30
0.0
  3
*MODEL_SPACE
  1

  0
ENDBLK
  5
20
330
1E
100
AcDbEntity
  8
0
100
AcDbBlockEnd
  0
BLOCK
  5
1B
330
1A
100
AcDbEntity
 67
     1
  8
0
100
AcDbBlockBegin
  2
*PAPER_SPACE
 70
     0
 10
0.0
 20
0.0
 30
0.0
  3
*PAPER_SPACE
  1

  0
ENDBLK
  5
1C
330
1A
100
AcDbEntity
 67
     1
  8
0
100
AcDbBlockEnd
  0
ENDSEC
  0
SECTION
  2
ENTITIES
  0
LINE
  5
22
330
1E
100
AcDbEntity
  8
0
100
AcDbLine
 10
28.6097
 20
-0.0002010000000037
 30
0.0
 11
30.357
 21
-0.0002020000000039
 31
0.0
  0
LINE
  5
23
330
1E
100
AcDbEntity
  8
0
100
AcDbLine
 10
28.0273
 20
-0.0002010000000034
 30
0.0
 11
28.6097
 21
-0.0002010000000031
 31
0.0
  0
LINE
  5
24
330
1E
100
AcDbEntity
  8
0
100
AcDbLine
 10
28.0273
 20
-0.0002010000000034
 30
0.0
 11
28.6097
 21
-0.0002010000000037
 31
0.0
  0
LINE
  5
25
330
1E
100
AcDbEntity
  8
0
100
AcDbLine
 10
28.6097
 20
-0.0002010000000031
 30
0.0
 11
30.357
 21
-0.0002020000000029
 31
0.0
  0
LINE
  5
26
330
1E
100
AcDbEntity
  8
0
100
AcDbLine
 10
30.357
 20
-0.0002020000000029
 30
0.0
 11
33.1235
 21
-0.0002020000000026
 31
0.0
  0
LINE
  5
27
330
1E
100
AcDbEntity
  8
0
100
AcDbLine
 10
15.72359999999999
 20
2.089891999999999
 30
0.0
 11
18.8541
 21
2.089891999999999
 31
0.0
  0
LINE
  5
28
330
1E
100
AcDbEntity
  8
0
100
AcDbLine
 10
18.8541
 20
2.089891999999999
 30
0.0
 11
23.65909999999999
 21
2.089891999999999
 31
0.0
  0
LINE
  5
29
330
1E
100
AcDbEntity
  8
0
100
AcDbLine
 10
14.6315
 20
2.089891999999999
 30
0.0
 11
15.72359999999999
 21
2.089891999999999
 31
0.0
  0
LINE
  5
2A
330
1E
100
AcDbEntity
  8
0
100
AcDbLine
 10
14.6315
 20
2.089891999999999
 30
0.0
 11
15.72359999999999
 21
2.089891999999999
 31
0.0
  0
LINE
  5
2B
330
1E
100
AcDbEntity
  8
0
100
AcDbLine
 10
14.6315
 20
2.089891999999999
 30
0.0
 11
14.6315
 21
5.225022
 31
0.0
  0
LINE
  5
2C
330
1E
100
AcDbEntity
  8
0
100
AcDbLine
 10
15.72359999999999
 20
2.089891999999999
 30
0.0
 11
18.8541
 21
2.089891999999999
 31
0.0
  0
LINE
  5
2D
330
1E
100
AcDbEntity
  8
0
100
AcDbLine
 10
23.65909999999999
 20
2.089891999999999
 30
0.0
 11
30.0658
 21
2.089891999999999
 31
0.0
  0
LINE
  5
2E
330
1E
100
AcDbEntity
  8
0
100
AcDbLine
 10
18.8541
 20
2.089891999999999
 30
0.0
 11
23.65909999999999
 21
2.089891999999999
 31
0.0
  0
LINE
  5
2F
330
1E
100
AcDbEntity
  8
0
100
AcDbLine
 10
24.9695
 20
2.089891999999999
 30
0.0
 11
25.6976
 21
2.089891999999999
 31
0.0
  0
LINE
  5
30
330
1E
100
AcDbEntity
  8
0
100
AcDbLine
 10
24.9695
 20
2.089891999999999
 30
0.0
 11
28.0273
 21
-0.0002010000000034
 31
0.0
  0
LINE
  5
31
330
1E
100
AcDbEntity
  8
0
100
AcDbLine
 10
24.9695
 20
2.089891999999999
 30
0.0
 11
28.0273
 21
-0.0002010000000034
 31
0.0
  0
LINE
  5
32
330
1E
100
AcDbEntity
  8
0
100
AcDbLine
 10
30.0658
 20
2.089891999999999
 30
0.0
 11
37.4189
 21
2.089891999999999
 31
0.0
  0
LINE
  5
33
330
1E
100
AcDbEntity
  8
0
100
AcDbLine
 10
25.6976
 20
2.089891999999999
 30
0.0
 11
27.7361
 21
2.089891999999999
 31
0.0
  0
LINE
  5
34
330
1E
100
AcDbEntity
  8
0
100
AcDbLine
 10
23.65909999999999
 20
2.089891999999999
 30
0.0
 11
24.9695
 21
2.089891999999999
 31
0.0
  0
LINE
  5
35
330
1E
100
AcDbEntity
  8
0
100
AcDbLine
 10
40.98619999999999
 20
-0.0002020000000024
 30
0.0
 11
45.49999999999999
 21
-0.0002010000000023
 31
0.0
  0
LINE
  5
36
330
1E
100
AcDbEntity
  8
0
100
AcDbLine
 10
35.16199999999999
 20
2.089891999999999
 30
0.0
 11
40.1126
 21
2.089891999999999
 31
0.0
  0
LINE
  5
37
330
1E
100
AcDbEntity
  8
0
100
AcDbLine
 10
37.4189
 20
2.089891999999999
 30
0.0
 11
45.49999999999999
 21
2.089891999999999
 31
0.0
  0
LINE
  5
38
330
1E
100
AcDbEntity
  8
0
100
AcDbLine
 10
40.1126
 20
2.089891999999999
 30
0.0
 11
45.49999999999999
 21
2.089891999999999
 31
0.0
  0
LINE
  5
39
330
1E
100
AcDbEntity
  8
0
100
AcDbLine
 10
36.76359999999999
 20
-0.0002010000000025
 30
0.0
 11
40.98619999999999
 21
-0.0002020000000024
 31
0.0
  0
LINE
  5
3A
330
1E
100
AcDbEntity
  8
0
100
AcDbLine
 10
45.49999999999999
 20
2.089891999999999
 30
0.0
 11
53.58109999999999
 21
2.089891999999999
 31
0.0
  0
LINE
  5
3B
330
1E
100
AcDbEntity
  8
0
100
AcDbLine
 10
45.49999999999999
 20
2.089891999999999
 30
0.0
 11
50.8874
 21
2.089891999999999
 31
0.0
  0
LINE
  5
3C
330
1E
100
AcDbEntity
  8
0
100
AcDbLine
 10
45.49999999999999
 20
-0.0002010000000023
 30
0.0
 11
50.01380000000001
 21
-0.0002020000000024
 31
0.0
  0
LINE
  5
3D
330
1E
100
AcDbEntity
  8
0
100
AcDbLine
 10
43.2430999952172
 20
-0.0002015000000034
 30
0.0
 11
45.49999999999999
 21
-0.0002020000000045
 31
0.0
  0
LINE
  5
3E
330
1E
100
AcDbEntity
  8
0
100
AcDbLine
 10
36.76359999999999
 20
-0.0002020000000043
 30
0.0
 11
38.8749000041689
 21
-0.0002015000000034
 31
0.0
  0
LINE
  5
3F
330
1E
100
AcDbEntity
  8
0
100
AcDbLine
 10
30.357
 20
-0.0002020000000029
 30
0.0
 11
36.76359999999999
 21
-0.0002020000000043
 31
0.0
  0
LINE
  5
40
330
1E
100
AcDbEntity
  8
0
100
AcDbLine
 10
8.807269999999999
 20
5.225022
 30
0.0
 11
12.593
 21
5.225022
 31
0.0
  0
LINE
  5
41
330
1E
100
AcDbEntity
  8
0
100
AcDbLine
 10
12.593
 20
5.225022
 30
0.0
 11
14.6315
 21
5.225022
 31
0.0
  0
LINE
  5
42
330
1E
100
AcDbEntity
  8
0
100
AcDbLine
 10
7.496819999999999
 20
5.225022
 30
0.0
 11
8.807269999999999
 21
5.225022
 31
0.0
  0
LINE
  5
43
330
1E
100
AcDbEntity
  8
0
100
AcDbLine
 10
7.496819999999999
 20
5.225022
 30
0.0
 11
8.807269999999999
 21
5.225022
 31
0.0
  0
LINE
  5
44
330
1E
100
AcDbEntity
  8
0
100
AcDbLine
 10
7.496819999999999
 20
5.225022
 30
0.0
 11
7.496819999999999
 21
6.270071999999999
 31
0.0
  0
LINE
  5
45
330
1E
100
AcDbEntity
  8
0
100
AcDbLine
 10
8.807269999999999
 20
5.225022
 30
0.0
 11
12.593
 21
5.225022
 31
0.0
  0
LINE
  5
46
330
1E
100
AcDbEntity
  8
0
100
AcDbLine
 10
14.6315
 20
5.225022
 30
0.0
 11
14.6315
 21
2.089891999999999
 31
0.0
  0
LINE
  5
47
330
1E
100
AcDbEntity
  8
0
100
AcDbLine
 10
14.6315
 20
5.225022
 30
0.0
 11
15.72359999999999
 21
5.225022
 31
0.0
  0
LINE
  5
48
330
1E
100
AcDbEntity
  8
0
100
AcDbLine
 10
5.82235
 20
6.270071999999999
 30
0.0
 11
7.496819999999999
 21
6.270071999999999
 31
0.0
  0
LINE
  5
49
330
1E
100
AcDbEntity
  8
0
100
AcDbLine
 10
4.43909
 20
6.270071999999999
 30
0.0
 11
5.82235
 21
6.270071999999999
 31
0.0
  0
LINE
  5
4A
330
1E
100
AcDbEntity
  8
0
100
AcDbLine
 10
4.43909
 20
6.270071999999999
 30
0.0
 11
5.82235
 21
6.270071999999999
 31
0.0
  0
LINE
  5
4B
330
1E
100
AcDbEntity
  8
0
100
AcDbLine
 10
5.82235
 20
6.270071999999999
 30
0.0
 11
9.899319999999999
 21
6.270071999999999
 31
0.0
  0
LINE
  5
4C
330
1E
100
AcDbEntity
  8
0
100
AcDbLine
 10
7.496819999999999
 20
6.270071999999999
 30
0.0
 11
7.496819999999999
 21
5.225022
 31
0.0
  0
LINE
  5
4D
330
1E
100
AcDbEntity
  8
0
100
AcDbLine
 10
7.496819999999999
 20
6.270071999999999
 30
0.0
 11
8.807269999999999
 21
6.270071999999999
 31
0.0
  0
LINE
  5
4E
330
1E
100
AcDbEntity
  8
0
100
AcDbLine
 10
9.899319999999999
 20
6.270071999999999
 30
0.0
 11
16.3788
 21
6.270071999999999
 31
0.0
  0
LINE
  5
4F
330
1E
100
AcDbEntity
  8
0
100
AcDbLine
 10
8.807269999999999
 20
6.270071999999999
 30
0.0
 11
12.593
 21
6.270071999999999
 31
0.0
  0
LINE
  5
50
330
1E
100
AcDbEntity
  8
0
100
AcDbLine
 10
12.593
 20
6.270071999999999
 30
0.0
 11
18.56289999999999
 21
6.270071999999999
 31
0.0
  0
LINE
  5
51
330
1E
100
AcDbEntity
  8
0
100
AcDbLine
 10
16.3788
 20
6.270071999999999
 30
0.0
 11
24.8967
 21
6.270071999999999
 31
0.0
  0
LINE
  5
52
330
1E
100
AcDbEntity
  8
0
100
AcDbLine
 10
18.56289999999999
 20
6.270071999999999
 30
0.0
 11
26.4256
 21
6.270071999999999
 31
0.0
  0
LINE
  5
53
330
1E
100
AcDbEntity
  8
0
100
AcDbLine
 10
18.56289999999999
 20
5.225022
 30
0.0
 11
26.4256
 21
5.225022
 31
0.0
  0
LINE
  5
54
330
1E
100
AcDbEntity
  8
0
100
AcDbLine
 10
12.593
 20
5.225022
 30
0.0
 11
18.56289999999999
 21
5.225022
 31
0.0
  0
LINE
  5
55
330
1E
100
AcDbEntity
  8
0
100
AcDbLine
 10
15.72359999999999
 20
5.225022
 30
0.0
 11
18.8541
 21
5.225022
 31
0.0
  0
LINE
  5
56
330
1E
100
AcDbEntity
  8
0
100
AcDbLine
 10
23.65909999999999
 20
5.225022
 30
0.0
 11
30.0658
 21
5.225022
 31
0.0
  0
LINE
  5
57
330
1E
100
AcDbEntity
  8
0
100
AcDbLine
 10
18.8541
 20
5.225022
 30
0.0
 11
23.65909999999999
 21
5.225022
 31
0.0
  0
LINE
  5
60
330
1E
100
AcDbEntity
  8
0
100
AcDbLine
 10
3.055829999999999
 20
10.241202
 30
0.0
 11
4.43909
 21
6.270071999999999
 31
0.0
  0
LINE
  5
61
330
1E
100
AcDbEntity
  8
0
100
AcDbLine
 10
26.4256
 20
5.225022
 30
0.0
 11
35.59879999999999
 21
5.225022
 31
0.0
  0
LINE
  5
62
330
1E
100
AcDbEntity
  8
0
100
AcDbLine
 10
35.59879999999999
 20
5.225022
 30
0.0
 11
45.49999999999999
 21
5.225022
 31
0.0
  0
LINE
  5
63
330
1E
100
AcDbEntity
  8
0
100
AcDbLine
 10
37.4189
 20
5.225022
 30
0.0
 11
45.49999999999999
 21
5.225022
 31
0.0
  0
LINE
  5
64
330
1E
100
AcDbEntity
  8
0
100
AcDbLine
 10
30.0658
 20
5.225022
 30
0.0
 11
37.4189
 21
5.225022
 31
0.0
  0
LINE
  5
65
330
1E
100
AcDbEntity
  8
0
100
AcDbLine
 10
24.8967
 20
6.270071999999999
 30
0.0
 11
34.798
 21
6.270071999999999
 31
0.0
  0
LINE
  5
66
330
1E
100
AcDbEntity
  8
0
100
AcDbLine
 10
34.798
 20
6.270071999999999
 30
0.0
 11
45.49999999999999
 21
6.270071999999999
 31
0.0
  0
LINE
  5
67
330
1E
100
AcDbEntity
  8
0
100
AcDbLine
 10
35.59879999999999
 20
6.270071999999999
 30
0.0
 11
45.49999999999999
 21
6.270071999999999
 31
0.0
  0
LINE
  5
68
330
1E
100
AcDbEntity
  8
0
100
AcDbLine
 10
26.4256
 20
6.270071999999999
 30
0.0
 11
35.59879999999999
 21
6.270071999999999
 31
0.0
  0
LINE
  5
69
330
1E
100
AcDbEntity
  8
0
100
AcDbLine
 10
45.49999999999999
 20
5.225022
 30
0.0
 11
53.58109999999999
 21
5.225022
 31
0.0
  0
LINE
  5
6A
330
1E
100
AcDbEntity
  8
0
100
AcDbLine
 10
45.49999999999999
 20
5.225022
 30
0.0
 11
55.4012
 21
5.225022
 31
0.0
  0
LINE
  5
6B
330
1E
100
AcDbEntity
  8
0
100
AcDbLine
 10
45.49999999999999
 20
6.270071999999999
 30
0.0
 11
55.4012
 21
6.270071999999999
 31
0.0
  0
LINE
  5
6C
330
1E
100
AcDbEntity
  8
0
100
AcDbLine
 10
45.49999999999999
 20
6.270071999999999
 30
0.0
 11
56.202
 21
6.270071999999999
 31
0.0
  0
LINE
  5
6D
330
1E
100
AcDbEntity
  8
0
100
AcDbLine
 10
45.49999999999999
 20
-0.0002020000000045
 30
0.0
 11
47.7569000047828
 21
-0.0002015000000034
 31
0.0
  0
LINE
  5
70
330
1E
100
AcDbEntity
  8
0
100
AcDbLine
 10
0.0
 20
16.720502
 30
0.0
 11
3.02671
 21
23.670102
 31
0.0
  0
LINE
  5
74
330
1E
100
AcDbEntity
  8
0
100
AcDbLine
 10
0.0
 20
16.720502
 30
0.0
 11
3.055829999999999
 21
10.241202
 31
0.0
  0
LINE
  5
79
330
1E
100
AcDbEntity
  8
0
100
AcDbLine
 10
33.4147
 20
16.720502
 30
0.0
 11
45.49999999999999
 21
16.720502
 31
0.0
  0
LINE
  5
7A
330
1E
100
AcDbEntity
  8
0
100
AcDbLine
 10
22.3486
 20
16.720502
 30
0.0
 11
33.4147
 21
16.720502
 31
0.0
  0
LINE
  5
82
330
1E
100
AcDbEntity
  8
0
100
AcDbLine
 10
3.02671
 20
23.670102
 30
0.0
 11
4.43909
 21
27.171002
 31
0.0
  0
LINE
  5
85
330
1E
100
AcDbEntity
  8
0
100
AcDbLine
 10
0.0
 20
16.720502
 30
0.0
 11
22.3486
 21
16.720502
 31
0.0
  0
LINE
  5
88
330
1E
100
AcDbEntity
  8
0
100
AcDbLine
 10
45.49999999999999
 20
16.720502
 30
0.0
 11
57.5853
 21
16.720502
 31
0.0
  0
LINE
  5
89
330
1E
100
AcDbEntity
  8
0
100
AcDbLine
 10
54.2364
 20
-0.0002020000000043
 30
0.0
 11
60.643
 21
-0.0002020000000039
 31
0.0
  0
LINE
  5
8A
330
1E
100
AcDbEntity
  8
0
100
AcDbLine
 10
60.643
 20
-0.0002020000000039
 30
0.0
 11
62.3903
 21
-0.0002010000000037
 31
0.0
  0
LINE
  5
8B
330
1E
100
AcDbEntity
  8
0
100
AcDbLine
 10
60.643
 20
-0.0002020000000029
 30
0.0
 11
62.3903
 21
-0.0002010000000031
 31
0.0
  0
LINE
  5
8C
330
1E
100
AcDbEntity
  8
0
100
AcDbLine
 10
50.01380000000001
 20
-0.0002020000000024
 30
0.0
 11
54.2364
 21
-0.0002010000000025
 31
0.0
  0
LINE
  5
8D
330
1E
100
AcDbEntity
  8
0
100
AcDbLine
 10
52.1250999958311
 20
-0.0002015000000034
 30
0.0
 11
54.2364
 21
-0.0002020000000043
 31
0.0
  0
LINE
  5
8E
330
1E
100
AcDbEntity
  8
0
100
AcDbLine
 10
53.58109999999999
 20
2.089891999999999
 30
0.0
 11
60.9342
 21
2.089891999999999
 31
0.0
  0
LINE
  5
8F
330
1E
100
AcDbEntity
  8
0
100
AcDbLine
 10
50.8874
 20
2.089891999999999
 30
0.0
 11
55.838
 21
2.089891999999999
 31
0.0
  0
LINE
  5
90
330
1E
100
AcDbEntity
  8
0
100
AcDbLine
 10
55.4012
 20
5.225022
 30
0.0
 11
64.5744
 21
5.225022
 31
0.0
  0
LINE
  5
91
330
1E
100
AcDbEntity
  8
0
100
AcDbLine
 10
53.58109999999999
 20
5.225022
 30
0.0
 11
60.9342
 21
5.225022
 31
0.0
  0
LINE
  5
92
330
1E
100
AcDbEntity
  8
0
100
AcDbLine
 10
55.4012
 20
6.270071999999999
 30
0.0
 11
64.5744
 21
6.270071999999999
 31
0.0
  0
LINE
  5
93
330
1E
100
AcDbEntity
  8
0
100
AcDbLine
 10
57.5853
 20
16.720502
 30
0.0
 11
68.6514
 21
16.720502
 31
0.0
  0
LINE
  5
94
330
1E
100
AcDbEntity
  8
0
100
AcDbLine
 10
56.202
 20
6.270071999999999
 30
0.0
 11
66.10330000000001
 21
6.270071999999999
 31
0.0
  0
LINE
  5
95
330
1E
100
AcDbEntity
  8
0
100
AcDbLine
 10
60.9342
 20
2.089891999999999
 30
0.0
 11
67.34090000000001
 21
2.089891999999999
 31
0.0
  0
LINE
  5
96
330
1E
100
AcDbEntity
  8
0
100
AcDbLine
 10
60.9342
 20
5.225022
 30
0.0
 11
67.34090000000001
 21
5.225022
 31
0.0
  0
LINE
  5
97
330
1E
100
AcDbEntity
  8
0
100
AcDbLine
 10
62.3903
 20
-0.0002010000000037
 30
0.0
 11
62.97270000000001
 21
-0.0002010000000034
 31
0.0
  0
LINE
  5
98
330
1E
100
AcDbEntity
  8
0
100
AcDbLine
 10
62.97270000000001
 20
-0.0002010000000034
 30
0.0
 11
66.0305
 21
2.089891999999999
 31
0.0
  0
LINE
  5
99
330
1E
100
AcDbEntity
  8
0
100
AcDbLine
 10
62.97270000000001
 20
-0.0002010000000034
 30
0.0
 11
66.0305
 21
2.089891999999999
 31
0.0
  0
LINE
  5
9A
330
1E
100
AcDbEntity
  8
0
100
AcDbLine
 10
64.5744
 20
5.225022
 30
0.0
 11
72.4371
 21
5.225022
 31
0.0
  0
LINE
  5
9B
330
1E
100
AcDbEntity
  8
0
100
AcDbLine
 10
64.5744
 20
6.270071999999999
 30
0.0
 11
72.4371
 21
6.270071999999999
 31
0.0
  0
LINE
  5
9C
330
1E
100
AcDbEntity
  8
0
100
AcDbLine
 10
63.26389999999999
 20
2.089891999999999
 30
0.0
 11
65.3024
 21
2.089891999999999
 31
0.0
  0
LINE
  5
9D
330
1E
100
AcDbEntity
  8
0
100
AcDbLine
 10
62.3903
 20
-0.0002010000000031
 30
0.0
 11
62.97270000000001
 21
-0.0002010000000034
 31
0.0
  0
LINE
  5
9E
330
1E
100
AcDbEntity
  8
0
100
AcDbLine
 10
57.8765
 20
-0.0002020000000026
 30
0.0
 11
60.643
 21
-0.0002020000000029
 31
0.0
  0
LINE
  5
9F
330
1E
100
AcDbEntity
  8
0
100
AcDbLine
 10
5.82235
 20
27.171002
 30
0.0
 11
9.899319999999999
 21
27.171002
 31
0.0
  0
LINE
  5
A0
330
1E
100
AcDbEntity
  8
0
100
AcDbLine
 10
9.899319999999999
 20
27.171002
 30
0.0
 11
16.3788
 21
27.171002
 31
0.0
  0
LINE
  5
A1
330
1E
100
AcDbEntity
  8
0
100
AcDbLine
 10
6.47758
 20
77.85570200000001
 30
0.0
 11
22.93109999999999
 21
82.55840199999999
 31
0.0
  0
LINE
  5
A2
330
1E
100
AcDbEntity
  8
0
100
AcDbLine
 10
4.87591
 20
76.288102
 30
0.0
 11
6.47758
 21
77.85570200000001
 31
0.0
  0
LINE
  5
A3
330
1E
100
AcDbEntity
  8
0
100
AcDbLine
 10
4.43909
 20
74.198002
 30
0.0
 11
4.87591
 21
76.288102
 31
0.0
  0
LINE
  5
A4
330
1E
100
AcDbEntity
  8
0
100
AcDbLine
 10
4.43909
 20
74.198002
 30
0.0
 11
4.43909
 21
27.171002
 31
0.0
  0
LINE
  5
A5
330
1E
100
AcDbEntity
  8
0
100
AcDbLine
 10
4.43909
 20
27.171002
 30
0.0
 11
4.43909
 21
74.198002
 31
0.0
  0
LINE
  5
A6
330
1E
100
AcDbEntity
  8
0
100
AcDbLine
 10
4.43909
 20
27.171002
 30
0.0
 11
5.82235
 21
27.171002
 31
0.0
  0
LINE
  5
A7
330
1E
100
AcDbEntity
  8
0
100
AcDbLine
 10
45.49999999999999
 20
27.171002
 30
0.0
 11
56.202
 21
27.171002
 31
0.0
  0
LINE
  5
A8
330
1E
100
AcDbEntity
  8
0
100
AcDbLine
 10
56.202
 20
27.171002
 30
0.0
 11
66.10330000000001
 21
27.171002
 31
0.0
  0
LINE
  5
A9
330
1E
100
AcDbEntity
  8
0
100
AcDbLine
 10
34.798
 20
27.171002
 30
0.0
 11
45.49999999999999
 21
27.171002
 31
0.0
  0
LINE
  5
AA
330
1E
100
AcDbEntity
  8
0
100
AcDbLine
 10
23.65909999999999
 20
82.55840199999999
 30
0.0
 11
25.916
 21
82.55840199999999
 31
0.0
  0
LINE
  5
AB
330
1E
100
AcDbEntity
  8
0
100
AcDbLine
 10
25.916
 20
82.55840199999999
 30
0.0
 11
29.4833
 21
82.55840199999999
 31
0.0
  0
LINE
  5
AC
330
1E
100
AcDbEntity
  8
0
100
AcDbLine
 10
22.93109999999999
 20
82.55840199999999
 30
0.0
 11
24.9695
 21
86.738502
 31
0.0
  0
LINE
  5
AD
330
1E
100
AcDbEntity
  8
0
100
AcDbLine
 10
22.93109999999999
 20
82.55840199999999
 30
0.0
 11
23.65909999999999
 21
82.55840199999999
 31
0.0
  0
LINE
  5
AE
330
1E
100
AcDbEntity
  8
0
100
AcDbLine
 10
45.49999999999999
 20
82.55840199999999
 30
0.0
 11
51.4698
 21
82.55840199999999
 31
0.0
  0
LINE
  5
AF
330
1E
100
AcDbEntity
  8
0
100
AcDbLine
 10
51.4698
 20
82.55840199999999
 30
0.0
 11
56.7845
 21
82.55840199999999
 31
0.0
  0
LINE
  5
B0
330
1E
100
AcDbEntity
  8
0
100
AcDbLine
 10
56.7845
 20
82.55840199999999
 30
0.0
 11
61.5167
 21
82.55840199999999
 31
0.0
  0
LINE
  5
B1
330
1E
100
AcDbEntity
  8
0
100
AcDbLine
 10
39.5302
 20
82.55840199999999
 30
0.0
 11
45.49999999999999
 21
82.55840199999999
 31
0.0
  0
LINE
  5
B2
330
1E
100
AcDbEntity
  8
0
100
AcDbLine
 10
34.21549999999999
 20
82.55840199999999
 30
0.0
 11
39.5302
 21
82.55840199999999
 31
0.0
  0
LINE
  5
B3
330
1E
100
AcDbEntity
  8
0
100
AcDbLine
 10
29.4833
 20
82.55840199999999
 30
0.0
 11
34.21549999999999
 21
82.55840199999999
 31
0.0
  0
LINE
  5
B4
330
1E
100
AcDbEntity
  8
0
100
AcDbLine
 10
24.8967
 20
27.171002
 30
0.0
 11
34.798
 21
27.171002
 31
0.0
  0
LINE
  5
B5
330
1E
100
AcDbEntity
  8
0
100
AcDbLine
 10
16.3788
 20
27.171002
 30
0.0
 11
24.8967
 21
27.171002
 31
0.0
  0
LINE
  5
B6
330
1E
100
AcDbEntity
  8
0
100
AcDbLine
 10
66.0305
 20
2.089891999999999
 30
0.0
 11
67.34090000000001
 21
2.089891999999999
 31
0.0
  0
LINE
  5
B7
330
1E
100
AcDbEntity
  8
0
100
AcDbLine
 10
67.34090000000001
 20
2.089891999999999
 30
0.0
 11
72.1459
 21
2.089891999999999
 31
0.0
  0
LINE
  5
B8
330
1E
100
AcDbEntity
  8
0
100
AcDbLine
 10
66.10330000000001
 20
6.270071999999999
 30
0.0
 11
74.6212
 21
6.270071999999999
 31
0.0
  0
LINE
  5
B9
330
1E
100
AcDbEntity
  8
0
100
AcDbLine
 10
67.34090000000001
 20
5.225022
 30
0.0
 11
72.1459
 21
5.225022
 31
0.0
  0
LINE
  5
BA
330
1E
100
AcDbEntity
  8
0
100
AcDbLine
 10
67.34090000000001
 20
2.089891999999999
 30
0.0
 11
72.1459
 21
2.089891999999999
 31
0.0
  0
LINE
  5
BB
330
1E
100
AcDbEntity
  8
0
100
AcDbLine
 10
65.3024
 20
2.089891999999999
 30
0.0
 11
66.0305
 21
2.089891999999999
 31
0.0
  0
LINE
  5
BC
330
1E
100
AcDbEntity
  8
0
100
AcDbLine
 10
66.10330000000001
 20
27.171002
 30
0.0
 11
74.6212
 21
27.171002
 31
0.0
  0
LINE
  5
BD
330
1E
100
AcDbEntity
  8
0
100
AcDbLine
 10
72.1459
 20
2.089891999999999
 30
0.0
 11
75.27639999999999
 21
2.089891999999999
 31
0.0
  0
LINE
  5
BE
330
1E
100
AcDbEntity
  8
0
100
AcDbLine
 10
68.6514
 20
16.720502
 30
0.0
 11
91.0
 21
16.720502
 31
0.0
  0
LINE
  5
BF
330
1E
100
AcDbEntity
  8
0
100
AcDbLine
 10
72.1459
 20
5.225022
 30
0.0
 11
75.27639999999999
 21
5.225022
 31
0.0
  0
LINE
  5
C2
330
1E
100
AcDbEntity
  8
0
100
AcDbLine
 10
74.6212
 20
6.270071999999999
 30
0.0
 11
81.1007
 21
6.270071999999999
 31
0.0
  0
LINE
  5
C5
330
1E
100
AcDbEntity
  8
0
100
AcDbLine
 10
72.4371
 20
6.270071999999999
 30
0.0
 11
78.407
 21
6.270071999999999
 31
0.0
  0
LINE
  5
C6
330
1E
100
AcDbEntity
  8
0
100
AcDbLine
 10
72.4371
 20
5.225022
 30
0.0
 11
78.407
 21
5.225022
 31
0.0
  0
LINE
  5
C7
330
1E
100
AcDbEntity
  8
0
100
AcDbLine
 10
72.1459
 20
2.089891999999999
 30
0.0
 11
75.27639999999999
 21
2.089891999999999
 31
0.0
  0
LINE
  5
C8
330
1E
100
AcDbEntity
  8
0
100
AcDbLine
 10
68.0689
 20
82.55840199999999
 30
0.0
 11
84.52240000000001
 21
77.85570200000001
 31
0.0
  0
LINE
  5
C9
330
1E
100
AcDbEntity
  8
0
100
AcDbLine
 10
67.34090000000001
 20
82.55840199999999
 30
0.0
 11
68.0689
 21
82.55840199999999
 31
0.0
  0
LINE
  5
CA
330
1E
100
AcDbEntity
  8
0
100
AcDbLine
 10
65.084
 20
82.55840199999999
 30
0.0
 11
67.34090000000001
 21
82.55840199999999
 31
0.0
  0
LINE
  5
CB
330
1E
100
AcDbEntity
  8
0
100
AcDbLine
 10
24.9695
 20
86.738502
 30
0.0
 11
25.6976
 21
86.738502
 31
0.0
  0
LINE
  5
CC
330
1E
100
AcDbEntity
  8
0
100
AcDbLine
 10
24.9695
 20
86.738502
 30
0.0
 11
28.0273
 21
87.78360199999999
 31
0.0
  0
LINE
  5
CD
330
1E
100
AcDbEntity
  8
0
100
AcDbLine
 10
25.6976
 20
86.738502
 30
0.0
 11
27.7361
 21
86.738502
 31
0.0
  0
LINE
  5
CE
330
1E
100
AcDbEntity
  8
0
100
AcDbLine
 10
27.7361
 20
86.738502
 30
0.0
 11
30.93939999999999
 21
86.738502
 31
0.0
  0
LINE
  5
CF
330
1E
100
AcDbEntity
  8
0
100
AcDbLine
 10
45.49999999999999
 20
86.738502
 30
0.0
 11
50.8874
 21
86.738502
 31
0.0
  0
LINE
  5
D0
330
1E
100
AcDbEntity
  8
0
100
AcDbLine
 10
50.8874
 20
86.738502
 30
0.0
 11
55.838
 21
86.738502
 31
0.0
  0
LINE
  5
D1
330
1E
100
AcDbEntity
  8
0
100
AcDbLine
 10
55.838
 20
86.738502
 30
0.0
 11
60.0606
 21
86.738502
 31
0.0
  0
LINE
  5
D2
330
1E
100
AcDbEntity
  8
0
100
AcDbLine
 10
40.1126
 20
86.738502
 30
0.0
 11
45.49999999999999
 21
86.738502
 31
0.0
  0
LINE
  5
D3
330
1E
100
AcDbEntity
  8
0
100
AcDbLine
 10
35.16199999999999
 20
86.738502
 30
0.0
 11
40.1126
 21
86.738502
 31
0.0
  0
LINE
  5
D4
330
1E
100
AcDbEntity
  8
0
100
AcDbLine
 10
24.9695
 20
90.918702
 30
0.0
 11
28.0273
 21
91.963802
 31
0.0
  0
LINE
  5
D5
330
1E
100
AcDbEntity
  8
0
100
AcDbLine
 10
24.9695
 20
90.918702
 30
0.0
 11
24.9695
 21
88.82860200000001
 31
0.0
  0
LINE
  5
D6
330
1E
100
AcDbEntity
  8
0
100
AcDbLine
 10
24.9695
 20
90.918702
 30
0.0
 11
25.6976
 21
90.918702
 31
0.0
  0
LINE
  5
D7
330
1E
100
AcDbEntity
  8
0
100
AcDbLine
 10
28.0273
 20
87.78360199999999
 30
0.0
 11
28.6097
 21
87.78360199999999
 31
0.0
  0
LINE
  5
D8
330
1E
100
AcDbEntity
  8
0
100
AcDbLine
 10
28.6097
 20
87.78360199999999
 30
0.0
 11
30.357
 21
87.78360199999999
 31
0.0
  0
LINE
  5
D9
330
1E
100
AcDbEntity
  8
0
100
AcDbLine
 10
30.357
 20
87.78360199999999
 30
0.0
 11
33.1235
 21
87.78360199999999
 31
0.0
  0
LINE
  5
DA
330
1E
100
AcDbEntity
  8
0
100
AcDbLine
 10
40.98619999999999
 20
87.78360199999999
 30
0.0
 11
45.49999999999999
 21
87.78360199999999
 31
0.0
  0
LINE
  5
DB
330
1E
100
AcDbEntity
  8
0
100
AcDbLine
 10
36.76359999999999
 20
87.78360199999999
 30
0.0
 11
40.98619999999999
 21
87.78360199999999
 31
0.0
  0
LINE
  5
DC
330
1E
100
AcDbEntity
  8
0
100
AcDbLine
 10
33.1235
 20
87.78360199999999
 30
0.0
 11
36.76359999999999
 21
87.78360199999999
 31
0.0
  0
LINE
  5
DD
330
1E
100
AcDbEntity
  8
0
100
AcDbLine
 10
45.49999999999999
 20
87.78360199999999
 30
0.0
 11
50.01380000000001
 21
87.78360199999999
 31
0.0
  0
LINE
  5
DE
330
1E
100
AcDbEntity
  8
0
100
AcDbLine
 10
50.01380000000001
 20
87.78360199999999
 30
0.0
 11
54.2364
 21
87.78360199999999
 31
0.0
  0
LINE
  5
DF
330
1E
100
AcDbEntity
  8
0
100
AcDbLine
 10
25.6976
 20
88.82860200000001
 30
0.0
 11
27.7361
 21
88.82860200000001
 31
0.0
  0
LINE
  5
E0
330
1E
100
AcDbEntity
  8
0
100
AcDbLine
 10
27.7361
 20
88.82860200000001
 30
0.0
 11
30.93939999999999
 21
88.82860200000001
 31
0.0
  0
LINE
  5
E1
330
1E
100
AcDbEntity
  8
0
100
AcDbLine
 10
40.1126
 20
88.82860200000001
 30
0.0
 11
45.49999999999999
 21
88.82860200000001
 31
0.0
  0
LINE
  5
E2
330
1E
100
AcDbEntity
  8
0
100
AcDbLine
 10
35.16199999999999
 20
88.82860200000001
 30
0.0
 11
40.1126
 21
88.82860200000001
 31
0.0
  0
LINE
  5
E3
330
1E
100
AcDbEntity
  8
0
100
AcDbLine
 10
30.93939999999999
 20
88.82860200000001
 30
0.0
 11
35.16199999999999
 21
88.82860200000001
 31
0.0
  0
LINE
  5
E4
330
1E
100
AcDbEntity
  8
0
100
AcDbLine
 10
45.49999999999999
 20
88.82860200000001
 30
0.0
 11
50.8874
 21
88.82860200000001
 31
0.0
  0
LINE
  5
E5
330
1E
100
AcDbEntity
  8
0
100
AcDbLine
 10
25.6976
 20
90.918702
 30
0.0
 11
27.7361
 21
90.918702
 31
0.0
  0
LINE
  5
E6
330
1E
100
AcDbEntity
  8
0
100
AcDbLine
 10
27.7361
 20
90.918702
 30
0.0
 11
30.93939999999999
 21
90.918702
 31
0.0
  0
LINE
  5
E7
330
1E
100
AcDbEntity
  8
0
100
AcDbLine
 10
40.1126
 20
90.918702
 30
0.0
 11
45.49999999999999
 21
90.918702
 31
0.0
  0
LINE
  5
E8
330
1E
100
AcDbEntity
  8
0
100
AcDbLine
 10
35.16199999999999
 20
90.918702
 30
0.0
 11
40.1126
 21
90.918702
 31
0.0
  0
LINE
  5
E9
330
1E
100
AcDbEntity
  8
0
100
AcDbLine
 10
30.93939999999999
 20
90.918702
 30
0.0
 11
35.16199999999999
 21
90.918702
 31
0.0
  0
LINE
  5
EA
330
1E
100
AcDbEntity
  8
0
100
AcDbLine
 10
45.49999999999999
 20
90.918702
 30
0.0
 11
50.8874
 21
90.918702
 31
0.0
  0
LINE
  5
EB
330
1E
100
AcDbEntity
  8
0
100
AcDbLine
 10
28.0273
 20
91.963802
 30
0.0
 11
28.6097
 21
91.963802
 31
0.0
  0
LINE
  5
EC
330
1E
100
AcDbEntity
  8
0
100
AcDbLine
 10
28.6097
 20
91.963802
 30
0.0
 11
30.357
 21
91.963802
 31
0.0
  0
LINE
  5
ED
330
1E
100
AcDbEntity
  8
0
100
AcDbLine
 10
30.357
 20
91.963802
 30
0.0
 11
33.1235
 21
91.963802
 31
0.0
  0
LINE
  5
EE
330
1E
100
AcDbEntity
  8
0
100
AcDbLine
 10
40.98619999999999
 20
91.963802
 30
0.0
 11
45.49999999999999
 21
91.963802
 31
0.0
  0
LINE
  5
EF
330
1E
100
AcDbEntity
  8
0
100
AcDbLine
 10
36.76359999999999
 20
91.963802
 30
0.0
 11
40.98619999999999
 21
91.963802
 31
0.0
  0
LINE
  5
F0
330
1E
100
AcDbEntity
  8
0
100
AcDbLine
 10
33.1235
 20
91.963802
 30
0.0
 11
36.76359999999999
 21
91.963802
 31
0.0
  0
LINE
  5
F1
330
1E
100
AcDbEntity
  8
0
100
AcDbLine
 10
45.49999999999999
 20
91.963802
 30
0.0
 11
50.01380000000001
 21
91.963802
 31
0.0
  0
LINE
  5
F2
330
1E
100
AcDbEntity
  8
0
100
AcDbLine
 10
50.01380000000001
 20
91.963802
 30
0.0
 11
54.2364
 21
91.963802
 31
0.0
  0
LINE
  5
F3
330
1E
100
AcDbEntity
  8
0
100
AcDbLine
 10
54.2364
 20
91.963802
 30
0.0
 11
57.8765
 21
91.963802
 31
0.0
  0
LINE
  5
F4
330
1E
100
AcDbEntity
  8
0
100
AcDbLine
 10
50.8874
 20
90.918702
 30
0.0
 11
55.838
 21
90.918702
 31
0.0
  0
LINE
  5
F5
330
1E
100
AcDbEntity
  8
0
100
AcDbLine
 10
55.838
 20
90.918702
 30
0.0
 11
60.0606
 21
90.918702
 31
0.0
  0
LINE
  5
F6
330
1E
100
AcDbEntity
  8
0
100
AcDbLine
 10
50.8874
 20
88.82860200000001
 30
0.0
 11
55.838
 21
88.82860200000001
 31
0.0
  0
LINE
  5
F7
330
1E
100
AcDbEntity
  8
0
100
AcDbLine
 10
55.838
 20
88.82860200000001
 30
0.0
 11
60.0606
 21
88.82860200000001
 31
0.0
  0
LINE
  5
F8
330
1E
100
AcDbEntity
  8
0
100
AcDbLine
 10
54.2364
 20
87.78360199999999
 30
0.0
 11
57.8765
 21
87.78360199999999
 31
0.0
  0
LINE
  5
F9
330
1E
100
AcDbEntity
  8
0
100
AcDbLine
 10
24.9695
 20
88.82860200000001
 30
0.0
 11
28.0273
 21
87.78360199999999
 31
0.0
  0
LINE
  5
FA
330
1E
100
AcDbEntity
  8
0
100
AcDbLine
 10
24.9695
 20
88.82860200000001
 30
0.0
 11
24.9695
 21
90.918702
 31
0.0
  0
LINE
  5
FB
330
1E
100
AcDbEntity
  8
0
100
AcDbLine
 10
24.9695
 20
88.82860200000001
 30
0.0
 11
25.6976
 21
88.82860200000001
 31
0.0
  0
LINE
  5
FC
330
1E
100
AcDbEntity
  8
0
100
AcDbLine
 10
24.9695
 20
99.27910200000001
 30
0.0
 11
28.0273
 21
100.324202
 31
0.0
  0
LINE
  5
FD
330
1E
100
AcDbEntity
  8
0
100
AcDbLine
 10
24.9695
 20
99.27910200000001
 30
0.0
 11
24.9695
 21
97.189002
 31
0.0
  0
LINE
  5
FE
330
1E
100
AcDbEntity
  8
0
100
AcDbLine
 10
24.9695
 20
99.27910200000001
 30
0.0
 11
25.6976
 21
99.27910200000001
 31
0.0
  0
LINE
  5
FF
330
1E
100
AcDbEntity
  8
0
100
AcDbLine
 10
24.9695
 20
97.189002
 30
0.0
 11
28.0273
 21
96.143902
 31
0.0
  0
LINE
  5
100
330
1E
100
AcDbEntity
  8
0
100
AcDbLine
 10
24.9695
 20
97.189002
 30
0.0
 11
24.9695
 21
99.27910200000001
 31
0.0
  0
LINE
  5
101
330
1E
100
AcDbEntity
  8
0
100
AcDbLine
 10
24.9695
 20
97.189002
 30
0.0
 11
25.6976
 21
97.189002
 31
0.0
  0
LINE
  5
102
330
1E
100
AcDbEntity
  8
0
100
AcDbLine
 10
24.9695
 20
95.09890199999999
 30
0.0
 11
28.0273
 21
96.143902
 31
0.0
  0
LINE
  5
103
330
1E
100
AcDbEntity
  8
0
100
AcDbLine
 10
24.9695
 20
95.09890199999999
 30
0.0
 11
24.9695
 21
93.00880199999999
 31
0.0
  0
LINE
  5
104
330
1E
100
AcDbEntity
  8
0
100
AcDbLine
 10
24.9695
 20
95.09890199999999
 30
0.0
 11
25.6976
 21
95.09890199999999
 31
0.0
  0
LINE
  5
105
330
1E
100
AcDbEntity
  8
0
100
AcDbLine
 10
25.6976
 20
93.00880199999999
 30
0.0
 11
27.7361
 21
93.00880199999999
 31
0.0
  0
LINE
  5
106
330
1E
100
AcDbEntity
  8
0
100
AcDbLine
 10
27.7361
 20
93.00880199999999
 30
0.0
 11
30.93939999999999
 21
93.00880199999999
 31
0.0
  0
LINE
  5
107
330
1E
100
AcDbEntity
  8
0
100
AcDbLine
 10
40.1126
 20
93.00880199999999
 30
0.0
 11
45.49999999999999
 21
93.00880199999999
 31
0.0
  0
LINE
  5
108
330
1E
100
AcDbEntity
  8
0
100
AcDbLine
 10
35.16199999999999
 20
93.00880199999999
 30
0.0
 11
40.1126
 21
93.00880199999999
 31
0.0
  0
LINE
  5
109
330
1E
100
AcDbEntity
  8
0
100
AcDbLine
 10
30.93939999999999
 20
93.00880199999999
 30
0.0
 11
35.16199999999999
 21
93.00880199999999
 31
0.0
  0
LINE
  5
10A
330
1E
100
AcDbEntity
  8
0
100
AcDbLine
 10
45.49999999999999
 20
93.00880199999999
 30
0.0
 11
50.8874
 21
93.00880199999999
 31
0.0
  0
LINE
  5
10B
330
1E
100
AcDbEntity
  8
0
100
AcDbLine
 10
50.8874
 20
93.00880199999999
 30
0.0
 11
55.838
 21
93.00880199999999
 31
0.0
  0
LINE
  5
10C
330
1E
100
AcDbEntity
  8
0
100
AcDbLine
 10
25.6976
 20
95.09890199999999
 30
0.0
 11
27.7361
 21
95.09890199999999
 31
0.0
  0
LINE
  5
10D
330
1E
100
AcDbEntity
  8
0
100
AcDbLine
 10
27.7361
 20
95.09890199999999
 30
0.0
 11
30.93939999999999
 21
95.09890199999999
 31
0.0
  0
LINE
  5
10E
330
1E
100
AcDbEntity
  8
0
100
AcDbLine
 10
40.1126
 20
95.09890199999999
 30
0.0
 11
45.49999999999999
 21
95.09890199999999
 31
0.0
  0
LINE
  5
10F
330
1E
100
AcDbEntity
  8
0
100
AcDbLine
 10
35.16199999999999
 20
95.09890199999999
 30
0.0
 11
40.1126
 21
95.09890199999999
 31
0.0
  0
LINE
  5
110
330
1E
100
AcDbEntity
  8
0
100
AcDbLine
 10
30.93939999999999
 20
95.09890199999999
 30
0.0
 11
35.16199999999999
 21
95.09890199999999
 31
0.0
  0
LINE
  5
111
330
1E
100
AcDbEntity
  8
0
100
AcDbLine
 10
45.49999999999999
 20
95.09890199999999
 30
0.0
 11
50.8874
 21
95.09890199999999
 31
0.0
  0
LINE
  5
112
330
1E
100
AcDbEntity
  8
0
100
AcDbLine
 10
28.0273
 20
96.143902
 30
0.0
 11
28.6097
 21
96.143902
 31
0.0
  0
LINE
  5
113
330
1E
100
AcDbEntity
  8
0
100
AcDbLine
 10
28.6097
 20
96.143902
 30
0.0
 11
30.357
 21
96.143902
 31
0.0
  0
LINE
  5
114
330
1E
100
AcDbEntity
  8
0
100
AcDbLine
 10
30.357
 20
96.143902
 30
0.0
 11
33.1235
 21
96.143902
 31
0.0
  0
LINE
  5
115
330
1E
100
AcDbEntity
  8
0
100
AcDbLine
 10
40.98619999999999
 20
96.143902
 30
0.0
 11
45.49999999999999
 21
96.143902
 31
0.0
  0
LINE
  5
116
330
1E
100
AcDbEntity
  8
0
100
AcDbLine
 10
36.76359999999999
 20
96.143902
 30
0.0
 11
40.98619999999999
 21
96.143902
 31
0.0
  0
LINE
  5
117
330
1E
100
AcDbEntity
  8
0
100
AcDbLine
 10
33.1235
 20
96.143902
 30
0.0
 11
36.76359999999999
 21
96.143902
 31
0.0
  0
LINE
  5
118
330
1E
100
AcDbEntity
  8
0
100
AcDbLine
 10
45.49999999999999
 20
96.143902
 30
0.0
 11
50.01380000000001
 21
96.143902
 31
0.0
  0
LINE
  5
119
330
1E
100
AcDbEntity
  8
0
100
AcDbLine
 10
25.6976
 20
97.189002
 30
0.0
 11
27.7361
 21
97.189002
 31
0.0
  0
LINE
  5
11A
330
1E
100
AcDbEntity
  8
0
100
AcDbLine
 10
27.7361
 20
97.189002
 30
0.0
 11
30.93939999999999
 21
97.189002
 31
0.0
  0
LINE
  5
11B
330
1E
100
AcDbEntity
  8
0
100
AcDbLine
 10
40.1126
 20
97.189002
 30
0.0
 11
45.49999999999999
 21
97.189002
 31
0.0
  0
LINE
  5
11C
330
1E
100
AcDbEntity
  8
0
100
AcDbLine
 10
35.16199999999999
 20
97.189002
 30
0.0
 11
40.1126
 21
97.189002
 31
0.0
  0
LINE
  5
11D
330
1E
100
AcDbEntity
  8
0
100
AcDbLine
 10
30.93939999999999
 20
97.189002
 30
0.0
 11
35.16199999999999
 21
97.189002
 31
0.0
  0
LINE
  5
11E
330
1E
100
AcDbEntity
  8
0
100
AcDbLine
 10
25.6976
 20
99.27910200000001
 30
0.0
 11
27.7361
 21
99.27910200000001
 31
0.0
  0
LINE
  5
11F
330
1E
100
AcDbEntity
  8
0
100
AcDbLine
 10
27.7361
 20
99.27910200000001
 30
0.0
 11
30.93939999999999
 21
99.27910200000001
 31
0.0
  0
LINE
  5
120
330
1E
100
AcDbEntity
  8
0
100
AcDbLine
 10
40.1126
 20
99.27910200000001
 30
0.0
 11
45.49999999999999
 21
99.27910200000001
 31
0.0
  0
LINE
  5
121
330
1E
100
AcDbEntity
  8
0
100
AcDbLine
 10
35.16199999999999
 20
99.27910200000001
 30
0.0
 11
40.1126
 21
99.27910200000001
 31
0.0
  0
LINE
  5
122
330
1E
100
AcDbEntity
  8
0
100
AcDbLine
 10
30.93939999999999
 20
99.27910200000001
 30
0.0
 11
35.16199999999999
 21
99.27910200000001
 31
0.0
  0
LINE
  5
123
330
1E
100
AcDbEntity
  8
0
100
AcDbLine
 10
28.0273
 20
100.324202
 30
0.0
 11
28.6097
 21
100.324202
 31
0.0
  0
LINE
  5
124
330
1E
100
AcDbEntity
  8
0
100
AcDbLine
 10
28.6097
 20
100.324202
 30
0.0
 11
30.357
 21
100.324202
 31
0.0
  0
LINE
  5
125
330
1E
100
AcDbEntity
  8
0
100
AcDbLine
 10
30.357
 20
100.324202
 30
0.0
 11
33.1235
 21
100.324202
 31
0.0
  0
LINE
  5
126
330
1E
100
AcDbEntity
  8
0
100
AcDbLine
 10
40.98619999999999
 20
100.324202
 30
0.0
 11
45.49999999999999
 21
100.324202
 31
0.0
  0
LINE
  5
127
330
1E
100
AcDbEntity
  8
0
100
AcDbLine
 10
36.76359999999999
 20
100.324202
 30
0.0
 11
40.98619999999999
 21
100.324202
 31
0.0
  0
LINE
  5
128
330
1E
100
AcDbEntity
  8
0
100
AcDbLine
 10
33.1235
 20
100.324202
 30
0.0
 11
36.76359999999999
 21
100.324202
 31
0.0
  0
LINE
  5
129
330
1E
100
AcDbEntity
  8
0
100
AcDbLine
 10
45.49999999999999
 20
100.324202
 30
0.0
 11
50.01380000000001
 21
100.324202
 31
0.0
  0
LINE
  5
12A
330
1E
100
AcDbEntity
  8
0
100
AcDbLine
 10
50.01380000000001
 20
100.324202
 30
0.0
 11
54.2364
 21
100.324202
 31
0.0
  0
LINE
  5
12B
330
1E
100
AcDbEntity
  8
0
100
AcDbLine
 10
45.49999999999999
 20
99.27910200000001
 30
0.0
 11
50.8874
 21
99.27910200000001
 31
0.0
  0
LINE
  5
12C
330
1E
100
AcDbEntity
  8
0
100
AcDbLine
 10
50.8874
 20
99.27910200000001
 30
0.0
 11
55.838
 21
99.27910200000001
 31
0.0
  0
LINE
  5
12D
330
1E
100
AcDbEntity
  8
0
100
AcDbLine
 10
45.49999999999999
 20
97.189002
 30
0.0
 11
50.8874
 21
97.189002
 31
0.0
  0
LINE
  5
12E
330
1E
100
AcDbEntity
  8
0
100
AcDbLine
 10
54.2364
 20
100.324202
 30
0.0
 11
57.8765
 21
100.324202
 31
0.0
  0
LINE
  5
12F
330
1E
100
AcDbEntity
  8
0
100
AcDbLine
 10
50.8874
 20
97.189002
 30
0.0
 11
55.838
 21
97.189002
 31
0.0
  0
LINE
  5
130
330
1E
100
AcDbEntity
  8
0
100
AcDbLine
 10
50.01380000000001
 20
96.143902
 30
0.0
 11
54.2364
 21
96.143902
 31
0.0
  0
LINE
  5
131
330
1E
100
AcDbEntity
  8
0
100
AcDbLine
 10
55.838
 20
99.27910200000001
 30
0.0
 11
60.0606
 21
99.27910200000001
 31
0.0
  0
LINE
  5
132
330
1E
100
AcDbEntity
  8
0
100
AcDbLine
 10
55.838
 20
97.189002
 30
0.0
 11
60.0606
 21
97.189002
 31
0.0
  0
LINE
  5
133
330
1E
100
AcDbEntity
  8
0
100
AcDbLine
 10
54.2364
 20
96.143902
 30
0.0
 11
57.8765
 21
96.143902
 31
0.0
  0
LINE
  5
134
330
1E
100
AcDbEntity
  8
0
100
AcDbLine
 10
50.8874
 20
95.09890199999999
 30
0.0
 11
55.838
 21
95.09890199999999
 31
0.0
  0
LINE
  5
135
330
1E
100
AcDbEntity
  8
0
100
AcDbLine
 10
55.838
 20
95.09890199999999
 30
0.0
 11
60.0606
 21
95.09890199999999
 31
0.0
  0
LINE
  5
136
330
1E
100
AcDbEntity
  8
0
100
AcDbLine
 10
55.838
 20
93.00880199999999
 30
0.0
 11
60.0606
 21
93.00880199999999
 31
0.0
  0
LINE
  5
137
330
1E
100
AcDbEntity
  8
0
100
AcDbLine
 10
24.9695
 20
93.00880199999999
 30
0.0
 11
28.0273
 21
91.963802
 31
0.0
  0
LINE
  5
138
330
1E
100
AcDbEntity
  8
0
100
AcDbLine
 10
24.9695
 20
93.00880199999999
 30
0.0
 11
24.9695
 21
95.09890199999999
 31
0.0
  0
LINE
  5
139
330
1E
100
AcDbEntity
  8
0
100
AcDbLine
 10
24.9695
 20
93.00880199999999
 30
0.0
 11
25.6976
 21
93.00880199999999
 31
0.0
  0
LINE
  5
13A
330
1E
100
AcDbEntity
  8
0
100
AcDbLine
 10
25.6976
 20
101.369202
 30
0.0
 11
27.7361
 21
101.369202
 31
0.0
  0
LINE
  5
13B
330
1E
100
AcDbEntity
  8
0
100
AcDbLine
 10
27.7361
 20
101.369202
 30
0.0
 11
30.93939999999999
 21
101.369202
 31
0.0
  0
LINE
  5
13C
330
1E
100
AcDbEntity
  8
0
100
AcDbLine
 10
40.1126
 20
101.369202
 30
0.0
 11
45.49999999999999
 21
101.369202
 31
0.0
  0
LINE
  5
13D
330
1E
100
AcDbEntity
  8
0
100
AcDbLine
 10
35.16199999999999
 20
101.369202
 30
0.0
 11
40.1126
 21
101.369202
 31
0.0
  0
LINE
  5
13E
330
1E
100
AcDbEntity
  8
0
100
AcDbLine
 10
30.93939999999999
 20
101.369202
 30
0.0
 11
35.16199999999999
 21
101.369202
 31
0.0
  0
LINE
  5
13F
330
1E
100
AcDbEntity
  8
0
100
AcDbLine
 10
45.49999999999999
 20
101.369202
 30
0.0
 11
50.8874
 21
101.369202
 31
0.0
  0
LINE
  5
140
330
1E
100
AcDbEntity
  8
0
100
AcDbLine
 10
50.8874
 20
101.369202
 30
0.0
 11
55.838
 21
101.369202
 31
0.0
  0
LINE
  5
141
330
1E
100
AcDbEntity
  8
0
100
AcDbLine
 10
55.838
 20
101.369202
 30
0.0
 11
60.0606
 21
101.369202
 31
0.0
  0
LINE
  5
142
330
1E
100
AcDbEntity
  8
0
100
AcDbLine
 10
24.9695
 20
116.000202
 30
0.0
 11
24.9695
 21
105.549202
 31
0.0
  0
LINE
  5
143
330
1E
100
AcDbEntity
  8
0
100
AcDbLine
 10
24.9695
 20
116.000202
 30
0.0
 11
25.6976
 21
116.000202
 31
0.0
  0
LINE
  5
144
330
1E
100
AcDbEntity
  8
0
100
AcDbLine
 10
24.9695
 20
105.549202
 30
0.0
 11
28.0273
 21
104.504202
 31
0.0
  0
LINE
  5
145
330
1E
100
AcDbEntity
  8
0
100
AcDbLine
 10
24.9695
 20
105.549202
 30
0.0
 11
24.9695
 21
116.000202
 31
0.0
  0
LINE
  5
146
330
1E
100
AcDbEntity
  8
0
100
AcDbLine
 10
24.9695
 20
105.549202
 30
0.0
 11
25.6976
 21
105.549202
 31
0.0
  0
LINE
  5
147
330
1E
100
AcDbEntity
  8
0
100
AcDbLine
 10
25.6976
 20
103.459202
 30
0.0
 11
27.7361
 21
103.459202
 31
0.0
  0
LINE
  5
148
330
1E
100
AcDbEntity
  8
0
100
AcDbLine
 10
27.7361
 20
103.459202
 30
0.0
 11
30.93939999999999
 21
103.459202
 31
0.0
  0
LINE
  5
149
330
1E
100
AcDbEntity
  8
0
100
AcDbLine
 10
40.1126
 20
103.459202
 30
0.0
 11
45.49999999999999
 21
103.459202
 31
0.0
  0
LINE
  5
14A
330
1E
100
AcDbEntity
  8
0
100
AcDbLine
 10
35.16199999999999
 20
103.459202
 30
0.0
 11
40.1126
 21
103.459202
 31
0.0
  0
LINE
  5
14B
330
1E
100
AcDbEntity
  8
0
100
AcDbLine
 10
30.93939999999999
 20
103.459202
 30
0.0
 11
35.16199999999999
 21
103.459202
 31
0.0
  0
LINE
  5
14C
330
1E
100
AcDbEntity
  8
0
100
AcDbLine
 10
45.49999999999999
 20
103.459202
 30
0.0
 11
50.8874
 21
103.459202
 31
0.0
  0
LINE
  5
14D
330
1E
100
AcDbEntity
  8
0
100
AcDbLine
 10
50.8874
 20
103.459202
 30
0.0
 11
55.838
 21
103.459202
 31
0.0
  0
LINE
  5
14E
330
1E
100
AcDbEntity
  8
0
100
AcDbLine
 10
28.0273
 20
104.504202
 30
0.0
 11
28.6097
 21
104.504202
 31
0.0
  0
LINE
  5
14F
330
1E
100
AcDbEntity
  8
0
100
AcDbLine
 10
28.6097
 20
104.504202
 30
0.0
 11
30.357
 21
104.504202
 31
0.0
  0
LINE
  5
150
330
1E
100
AcDbEntity
  8
0
100
AcDbLine
 10
30.357
 20
104.504202
 30
0.0
 11
33.1235
 21
104.504202
 31
0.0
  0
LINE
  5
151
330
1E
100
AcDbEntity
  8
0
100
AcDbLine
 10
40.98619999999999
 20
104.504202
 30
0.0
 11
45.49999999999999
 21
104.504202
 31
0.0
  0
LINE
  5
152
330
1E
100
AcDbEntity
  8
0
100
AcDbLine
 10
36.76359999999999
 20
104.504202
 30
0.0
 11
40.98619999999999
 21
104.504202
 31
0.0
  0
LINE
  5
153
330
1E
100
AcDbEntity
  8
0
100
AcDbLine
 10
33.1235
 20
104.504202
 30
0.0
 11
36.76359999999999
 21
104.504202
 31
0.0
  0
LINE
  5
154
330
1E
100
AcDbEntity
  8
0
100
AcDbLine
 10
45.49999999999999
 20
104.504202
 30
0.0
 11
50.01380000000001
 21
104.504202
 31
0.0
  0
LINE
  5
155
330
1E
100
AcDbEntity
  8
0
100
AcDbLine
 10
25.6976
 20
105.549202
 30
0.0
 11
27.7361
 21
105.549202
 31
0.0
  0
LINE
  5
156
330
1E
100
AcDbEntity
  8
0
100
AcDbLine
 10
27.7361
 20
105.549202
 30
0.0
 11
30.93939999999999
 21
105.549202
 31
0.0
  0
LINE
  5
157
330
1E
100
AcDbEntity
  8
0
100
AcDbLine
 10
40.1126
 20
105.549202
 30
0.0
 11
45.49999999999999
 21
105.549202
 31
0.0
  0
LINE
  5
158
330
1E
100
AcDbEntity
  8
0
100
AcDbLine
 10
35.16199999999999
 20
105.549202
 30
0.0
 11
40.1126
 21
105.549202
 31
0.0
  0
LINE
  5
159
330
1E
100
AcDbEntity
  8
0
100
AcDbLine
 10
30.93939999999999
 20
105.549202
 30
0.0
 11
35.16199999999999
 21
105.549202
 31
0.0
  0
LINE
  5
15A
330
1E
100
AcDbEntity
  8
0
100
AcDbLine
 10
25.6976
 20
116.000202
 30
0.0
 11
27.7361
 21
116.000202
 31
0.0
  0
LINE
  5
15B
330
1E
100
AcDbEntity
  8
0
100
AcDbLine
 10
27.7361
 20
116.000202
 30
0.0
 11
30.93939999999999
 21
116.000202
 31
0.0
  0
LINE
  5
15C
330
1E
100
AcDbEntity
  8
0
100
AcDbLine
 10
40.1126
 20
116.000202
 30
0.0
 11
45.49999999999999
 21
116.000202
 31
0.0
  0
LINE
  5
15D
330
1E
100
AcDbEntity
  8
0
100
AcDbLine
 10
35.16199999999999
 20
116.000202
 30
0.0
 11
40.1126
 21
116.000202
 31
0.0
  0
LINE
  5
15E
330
1E
100
AcDbEntity
  8
0
100
AcDbLine
 10
30.93939999999999
 20
116.000202
 30
0.0
 11
35.16199999999999
 21
116.000202
 31
0.0
  0
LINE
  5
15F
330
1E
100
AcDbEntity
  8
0
100
AcDbLine
 10
45.49999999999999
 20
116.000202
 30
0.0
 11
50.8874
 21
116.000202
 31
0.0
  0
LINE
  5
160
330
1E
100
AcDbEntity
  8
0
100
AcDbLine
 10
50.8874
 20
116.000202
 30
0.0
 11
55.838
 21
116.000202
 31
0.0
  0
LINE
  5
161
330
1E
100
AcDbEntity
  8
0
100
AcDbLine
 10
45.49999999999999
 20
105.549202
 30
0.0
 11
50.8874
 21
105.549202
 31
0.0
  0
LINE
  5
162
330
1E
100
AcDbEntity
  8
0
100
AcDbLine
 10
50.8874
 20
105.549202
 30
0.0
 11
55.838
 21
105.549202
 31
0.0
  0
LINE
  5
163
330
1E
100
AcDbEntity
  8
0
100
AcDbLine
 10
50.01380000000001
 20
104.504202
 30
0.0
 11
54.2364
 21
104.504202
 31
0.0
  0
LINE
  5
164
330
1E
100
AcDbEntity
  8
0
100
AcDbLine
 10
55.838
 20
116.000202
 30
0.0
 11
60.0606
 21
116.000202
 31
0.0
  0
LINE
  5
165
330
1E
100
AcDbEntity
  8
0
100
AcDbLine
 10
55.838
 20
105.549202
 30
0.0
 11
60.0606
 21
105.549202
 31
0.0
  0
LINE
  5
166
330
1E
100
AcDbEntity
  8
0
100
AcDbLine
 10
54.2364
 20
104.504202
 30
0.0
 11
57.8765
 21
104.504202
 31
0.0
  0
LINE
  5
167
330
1E
100
AcDbEntity
  8
0
100
AcDbLine
 10
55.838
 20
103.459202
 30
0.0
 11
60.0606
 21
103.459202
 31
0.0
  0
LINE
  5
168
330
1E
100
AcDbEntity
  8
0
100
AcDbLine
 10
24.9695
 20
103.459202
 30
0.0
 11
28.0273
 21
104.504202
 31
0.0
  0
LINE
  5
169
330
1E
100
AcDbEntity
  8
0
100
AcDbLine
 10
24.9695
 20
103.459202
 30
0.0
 11
24.9695
 21
101.369202
 31
0.0
  0
LINE
  5
16A
330
1E
100
AcDbEntity
  8
0
100
AcDbLine
 10
24.9695
 20
103.459202
 30
0.0
 11
25.6976
 21
103.459202
 31
0.0
  0
LINE
  5
16B
330
1E
100
AcDbEntity
  8
0
100
AcDbLine
 10
24.9695
 20
101.369202
 30
0.0
 11
28.0273
 21
100.324202
 31
0.0
  0
LINE
  5
16C
330
1E
100
AcDbEntity
  8
0
100
AcDbLine
 10
24.9695
 20
101.369202
 30
0.0
 11
24.9695
 21
103.459202
 31
0.0
  0
LINE
  5
16D
330
1E
100
AcDbEntity
  8
0
100
AcDbLine
 10
24.9695
 20
101.369202
 30
0.0
 11
25.6976
 21
101.369202
 31
0.0
  0
LINE
  5
16E
330
1E
100
AcDbEntity
  8
0
100
AcDbLine
 10
57.8765
 20
104.504202
 30
0.0
 11
60.643
 21
104.504202
 31
0.0
  0
LINE
  5
16F
330
1E
100
AcDbEntity
  8
0
100
AcDbLine
 10
57.8765
 20
100.324202
 30
0.0
 11
60.643
 21
100.324202
 31
0.0
  0
LINE
  5
170
330
1E
100
AcDbEntity
  8
0
100
AcDbLine
 10
57.8765
 20
96.143902
 30
0.0
 11
60.643
 21
96.143902
 31
0.0
  0
LINE
  5
171
330
1E
100
AcDbEntity
  8
0
100
AcDbLine
 10
57.8765
 20
91.963802
 30
0.0
 11
60.643
 21
91.963802
 31
0.0
  0
LINE
  5
172
330
1E
100
AcDbEntity
  8
0
100
AcDbLine
 10
60.0606
 20
116.000202
 30
0.0
 11
63.26389999999999
 21
116.000202
 31
0.0
  0
LINE
  5
173
330
1E
100
AcDbEntity
  8
0
100
AcDbLine
 10
60.0606
 20
105.549202
 30
0.0
 11
63.26389999999999
 21
105.549202
 31
0.0
  0
LINE
  5
174
330
1E
100
AcDbEntity
  8
0
100
AcDbLine
 10
60.0606
 20
103.459202
 30
0.0
 11
63.26389999999999
 21
103.459202
 31
0.0
  0
LINE
  5
175
330
1E
100
AcDbEntity
  8
0
100
AcDbLine
 10
60.0606
 20
101.369202
 30
0.0
 11
63.26389999999999
 21
101.369202
 31
0.0
  0
LINE
  5
176
330
1E
100
AcDbEntity
  8
0
100
AcDbLine
 10
60.0606
 20
99.27910200000001
 30
0.0
 11
63.26389999999999
 21
99.27910200000001
 31
0.0
  0
LINE
  5
177
330
1E
100
AcDbEntity
  8
0
100
AcDbLine
 10
60.0606
 20
97.189002
 30
0.0
 11
63.26389999999999
 21
97.189002
 31
0.0
  0
LINE
  5
178
330
1E
100
AcDbEntity
  8
0
100
AcDbLine
 10
60.0606
 20
95.09890199999999
 30
0.0
 11
63.26389999999999
 21
95.09890199999999
 31
0.0
  0
LINE
  5
179
330
1E
100
AcDbEntity
  8
0
100
AcDbLine
 10
60.0606
 20
93.00880199999999
 30
0.0
 11
63.26389999999999
 21
93.00880199999999
 31
0.0
  0
LINE
  5
17A
330
1E
100
AcDbEntity
  8
0
100
AcDbLine
 10
60.0606
 20
90.918702
 30
0.0
 11
63.26389999999999
 21
90.918702
 31
0.0
  0
LINE
  5
17B
330
1E
100
AcDbEntity
  8
0
100
AcDbLine
 10
60.0606
 20
88.82860200000001
 30
0.0
 11
63.26389999999999
 21
88.82860200000001
 31
0.0
  0
LINE
  5
17C
330
1E
100
AcDbEntity
  8
0
100
AcDbLine
 10
57.8765
 20
87.78360199999999
 30
0.0
 11
60.643
 21
87.78360199999999
 31
0.0
  0
LINE
  5
17D
330
1E
100
AcDbEntity
  8
0
100
AcDbLine
 10
30.93939999999999
 20
86.738502
 30
0.0
 11
35.16199999999999
 21
86.738502
 31
0.0
  0
LINE
  5
17E
330
1E
100
AcDbEntity
  8
0
100
AcDbLine
 10
65.3024
 20
86.738502
 30
0.0
 11
66.0305
 21
86.738502
 31
0.0
  0
LINE
  5
17F
330
1E
100
AcDbEntity
  8
0
100
AcDbLine
 10
66.0305
 20
86.738502
 30
0.0
 11
68.0689
 21
82.55840199999999
 31
0.0
  0
LINE
  5
180
330
1E
100
AcDbEntity
  8
0
100
AcDbLine
 10
60.643
 20
104.504202
 30
0.0
 11
62.3903
 21
104.504202
 31
0.0
  0
LINE
  5
181
330
1E
100
AcDbEntity
  8
0
100
AcDbLine
 10
60.643
 20
100.324202
 30
0.0
 11
62.3903
 21
100.324202
 31
0.0
  0
LINE
  5
182
330
1E
100
AcDbEntity
  8
0
100
AcDbLine
 10
60.643
 20
96.143902
 30
0.0
 11
62.3903
 21
96.143902
 31
0.0
  0
LINE
  5
183
330
1E
100
AcDbEntity
  8
0
100
AcDbLine
 10
60.643
 20
91.963802
 30
0.0
 11
62.3903
 21
91.963802
 31
0.0
  0
LINE
  5
184
330
1E
100
AcDbEntity
  8
0
100
AcDbLine
 10
62.97270000000001
 20
87.78360199999999
 30
0.0
 11
66.0305
 21
86.738502
 31
0.0
  0
LINE
  5
185
330
1E
100
AcDbEntity
  8
0
100
AcDbLine
 10
62.97270000000001
 20
87.78360199999999
 30
0.0
 11
66.0305
 21
88.82860200000001
 31
0.0
  0
LINE
  5
186
330
1E
100
AcDbEntity
  8
0
100
AcDbLine
 10
62.3903
 20
104.504202
 30
0.0
 11
62.97270000000001
 21
104.504202
 31
0.0
  0
LINE
  5
187
330
1E
100
AcDbEntity
  8
0
100
AcDbLine
 10
62.3903
 20
100.324202
 30
0.0
 11
62.97270000000001
 21
100.324202
 31
0.0
  0
LINE
  5
188
330
1E
100
AcDbEntity
  8
0
100
AcDbLine
 10
62.3903
 20
96.143902
 30
0.0
 11
62.97270000000001
 21
96.143902
 31
0.0
  0
LINE
  5
189
330
1E
100
AcDbEntity
  8
0
100
AcDbLine
 10
62.97270000000001
 20
104.504202
 30
0.0
 11
66.0305
 21
103.459202
 31
0.0
  0
LINE
  5
18A
330
1E
100
AcDbEntity
  8
0
100
AcDbLine
 10
62.97270000000001
 20
104.504202
 30
0.0
 11
66.0305
 21
105.549202
 31
0.0
  0
LINE
  5
18B
330
1E
100
AcDbEntity
  8
0
100
AcDbLine
 10
62.97270000000001
 20
100.324202
 30
0.0
 11
66.0305
 21
99.27910200000001
 31
0.0
  0
LINE
  5
18C
330
1E
100
AcDbEntity
  8
0
100
AcDbLine
 10
62.97270000000001
 20
100.324202
 30
0.0
 11
66.0305
 21
101.369202
 31
0.0
  0
LINE
  5
18D
330
1E
100
AcDbEntity
  8
0
100
AcDbLine
 10
63.26389999999999
 20
116.000202
 30
0.0
 11
65.3024
 21
116.000202
 31
0.0
  0
LINE
  5
18E
330
1E
100
AcDbEntity
  8
0
100
AcDbLine
 10
63.26389999999999
 20
105.549202
 30
0.0
 11
65.3024
 21
105.549202
 31
0.0
  0
LINE
  5
18F
330
1E
100
AcDbEntity
  8
0
100
AcDbLine
 10
63.26389999999999
 20
103.459202
 30
0.0
 11
65.3024
 21
103.459202
 31
0.0
  0
LINE
  5
190
330
1E
100
AcDbEntity
  8
0
100
AcDbLine
 10
63.26389999999999
 20
101.369202
 30
0.0
 11
65.3024
 21
101.369202
 31
0.0
  0
LINE
  5
191
330
1E
100
AcDbEntity
  8
0
100
AcDbLine
 10
63.26389999999999
 20
99.27910200000001
 30
0.0
 11
65.3024
 21
99.27910200000001
 31
0.0
  0
LINE
  5
192
330
1E
100
AcDbEntity
  8
0
100
AcDbLine
 10
63.26389999999999
 20
97.189002
 30
0.0
 11
65.3024
 21
97.189002
 31
0.0
  0
LINE
  5
193
330
1E
100
AcDbEntity
  8
0
100
AcDbLine
 10
62.97270000000001
 20
96.143902
 30
0.0
 11
66.0305
 21
95.09890199999999
 31
0.0
  0
LINE
  5
194
330
1E
100
AcDbEntity
  8
0
100
AcDbLine
 10
62.97270000000001
 20
96.143902
 30
0.0
 11
66.0305
 21
97.189002
 31
0.0
  0
LINE
  5
195
330
1E
100
AcDbEntity
  8
0
100
AcDbLine
 10
63.26389999999999
 20
95.09890199999999
 30
0.0
 11
65.3024
 21
95.09890199999999
 31
0.0
  0
LINE
  5
196
330
1E
100
AcDbEntity
  8
0
100
AcDbLine
 10
63.26389999999999
 20
93.00880199999999
 30
0.0
 11
65.3024
 21
93.00880199999999
 31
0.0
  0
LINE
  5
197
330
1E
100
AcDbEntity
  8
0
100
AcDbLine
 10
62.97270000000001
 20
91.963802
 30
0.0
 11
66.0305
 21
90.918702
 31
0.0
  0
LINE
  5
198
330
1E
100
AcDbEntity
  8
0
100
AcDbLine
 10
62.97270000000001
 20
91.963802
 30
0.0
 11
66.0305
 21
93.00880199999999
 31
0.0
  0
LINE
  5
199
330
1E
100
AcDbEntity
  8
0
100
AcDbLine
 10
62.3903
 20
91.963802
 30
0.0
 11
62.97270000000001
 21
91.963802
 31
0.0
  0
LINE
  5
19A
330
1E
100
AcDbEntity
  8
0
100
AcDbLine
 10
63.26389999999999
 20
90.918702
 30
0.0
 11
65.3024
 21
90.918702
 31
0.0
  0
LINE
  5
19B
330
1E
100
AcDbEntity
  8
0
100
AcDbLine
 10
66.0305
 20
88.82860200000001
 30
0.0
 11
66.0305
 21
90.918702
 31
0.0
  0
LINE
  5
19C
330
1E
100
AcDbEntity
  8
0
100
AcDbLine
 10
65.3024
 20
116.000202
 30
0.0
 11
66.0305
 21
116.000202
 31
0.0
  0
LINE
  5
19D
330
1E
100
AcDbEntity
  8
0
100
AcDbLine
 10
65.3024
 20
105.549202
 30
0.0
 11
66.0305
 21
105.549202
 31
0.0
  0
LINE
  5
19E
330
1E
100
AcDbEntity
  8
0
100
AcDbLine
 10
65.3024
 20
103.459202
 30
0.0
 11
66.0305
 21
103.459202
 31
0.0
  0
LINE
  5
19F
330
1E
100
AcDbEntity
  8
0
100
AcDbLine
 10
65.3024
 20
101.369202
 30
0.0
 11
66.0305
 21
101.369202
 31
0.0
  0
LINE
  5
1A0
330
1E
100
AcDbEntity
  8
0
100
AcDbLine
 10
65.3024
 20
99.27910200000001
 30
0.0
 11
66.0305
 21
99.27910200000001
 31
0.0
  0
LINE
  5
1A1
330
1E
100
AcDbEntity
  8
0
100
AcDbLine
 10
65.3024
 20
97.189002
 30
0.0
 11
66.0305
 21
97.189002
 31
0.0
  0
LINE
  5
1A2
330
1E
100
AcDbEntity
  8
0
100
AcDbLine
 10
65.3024
 20
95.09890199999999
 30
0.0
 11
66.0305
 21
95.09890199999999
 31
0.0
  0
LINE
  5
1A3
330
1E
100
AcDbEntity
  8
0
100
AcDbLine
 10
65.3024
 20
93.00880199999999
 30
0.0
 11
66.0305
 21
93.00880199999999
 31
0.0
  0
LINE
  5
1A4
330
1E
100
AcDbEntity
  8
0
100
AcDbLine
 10
66.0305
 20
90.918702
 30
0.0
 11
66.0305
 21
88.82860200000001
 31
0.0
  0
LINE
  5
1A5
330
1E
100
AcDbEntity
  8
0
100
AcDbLine
 10
66.0305
 20
99.27910200000001
 30
0.0
 11
66.0305
 21
97.189002
 31
0.0
  0
LINE
  5
1A6
330
1E
100
AcDbEntity
  8
0
100
AcDbLine
 10
66.0305
 20
95.09890199999999
 30
0.0
 11
66.0305
 21
93.00880199999999
 31
0.0
  0
LINE
  5
1A7
330
1E
100
AcDbEntity
  8
0
100
AcDbLine
 10
66.0305
 20
116.000202
 30
0.0
 11
66.0305
 21
105.549202
 31
0.0
  0
LINE
  5
1A8
330
1E
100
AcDbEntity
  8
0
100
AcDbLine
 10
66.0305
 20
103.459202
 30
0.0
 11
66.0305
 21
101.369202
 31
0.0
  0
LINE
  5
1A9
330
1E
100
AcDbEntity
  8
0
100
AcDbLine
 10
66.0305
 20
105.549202
 30
0.0
 11
66.0305
 21
116.000202
 31
0.0
  0
LINE
  5
1AA
330
1E
100
AcDbEntity
  8
0
100
AcDbLine
 10
66.0305
 20
101.369202
 30
0.0
 11
66.0305
 21
103.459202
 31
0.0
  0
LINE
  5
1AB
330
1E
100
AcDbEntity
  8
0
100
AcDbLine
 10
66.0305
 20
97.189002
 30
0.0
 11
66.0305
 21
99.27910200000001
 31
0.0
  0
LINE
  5
1AC
330
1E
100
AcDbEntity
  8
0
100
AcDbLine
 10
66.0305
 20
93.00880199999999
 30
0.0
 11
66.0305
 21
95.09890199999999
 31
0.0
  0
LINE
  5
1AD
330
1E
100
AcDbEntity
  8
0
100
AcDbLine
 10
65.3024
 20
90.918702
 30
0.0
 11
66.0305
 21
90.918702
 31
0.0
  0
LINE
  5
1AE
330
1E
100
AcDbEntity
  8
0
100
AcDbLine
 10
65.3024
 20
88.82860200000001
 30
0.0
 11
66.0305
 21
88.82860200000001
 31
0.0
  0
LINE
  5
1AF
330
1E
100
AcDbEntity
  8
0
100
AcDbLine
 10
63.26389999999999
 20
88.82860200000001
 30
0.0
 11
65.3024
 21
88.82860200000001
 31
0.0
  0
LINE
  5
1B0
330
1E
100
AcDbEntity
  8
0
100
AcDbLine
 10
62.3903
 20
87.78360199999999
 30
0.0
 11
62.97270000000001
 21
87.78360199999999
 31
0.0
  0
LINE
  5
1B1
330
1E
100
AcDbEntity
  8
0
100
AcDbLine
 10
60.643
 20
87.78360199999999
 30
0.0
 11
62.3903
 21
87.78360199999999
 31
0.0
  0
LINE
  5
1B2
330
1E
100
AcDbEntity
  8
0
100
AcDbLine
 10
63.26389999999999
 20
86.738502
 30
0.0
 11
65.3024
 21
86.738502
 31
0.0
  0
LINE
  5
1B3
330
1E
100
AcDbEntity
  8
0
100
AcDbLine
 10
60.0606
 20
86.738502
 30
0.0
 11
63.26389999999999
 21
86.738502
 31
0.0
  0
LINE
  5
1B4
330
1E
100
AcDbEntity
  8
0
100
AcDbLine
 10
61.5167
 20
82.55840199999999
 30
0.0
 11
65.084
 21
82.55840199999999
 31
0.0
  0
LINE
  5
1B5
330
1E
100
AcDbEntity
  8
0
100
AcDbLine
 10
75.27639999999999
 20
2.089891999999999
 30
0.0
 11
76.36849999999999
 21
2.089891999999999
 31
0.0
  0
LINE
  5
1B6
330
1E
100
AcDbEntity
  8
0
100
AcDbLine
 10
75.27639999999999
 20
5.225022
 30
0.0
 11
76.36849999999999
 21
5.225022
 31
0.0
  0
LINE
  5
1B7
330
1E
100
AcDbEntity
  8
0
100
AcDbLine
 10
76.36849999999999
 20
5.225022
 30
0.0
 11
78.407
 21
5.225022
 31
0.0
  0
LINE
  5
1B8
330
1E
100
AcDbEntity
  8
0
100
AcDbLine
 10
78.407
 20
5.225022
 30
0.0
 11
82.19269999999999
 21
5.225022
 31
0.0
  0
LINE
  5
1B9
330
1E
100
AcDbEntity
  8
0
100
AcDbLine
 10
76.36849999999999
 20
5.225022
 30
0.0
 11
76.36849999999999
 21
2.089891999999999
 31
0.0
  0
LINE
  5
1BB
330
1E
100
AcDbEntity
  8
0
100
AcDbLine
 10
78.407
 20
6.270071999999999
 30
0.0
 11
82.19269999999999
 21
6.270071999999999
 31
0.0
  0
LINE
  5
1BC
330
1E
100
AcDbEntity
  8
0
100
AcDbLine
 10
82.19269999999999
 20
5.225022
 30
0.0
 11
83.50320000000001
 21
5.225022
 31
0.0
  0
LINE
  5
1BD
330
1E
100
AcDbEntity
  8
0
100
AcDbLine
 10
83.50320000000001
 20
5.225022
 30
0.0
 11
83.50320000000001
 21
6.270071999999999
 31
0.0
  0
LINE
  5
1BE
330
1E
100
AcDbEntity
  8
0
100
AcDbLine
 10
81.1007
 20
6.270071999999999
 30
0.0
 11
85.1777
 21
6.270071999999999
 31
0.0
  0
LINE
  5
1BF
330
1E
100
AcDbEntity
  8
0
100
AcDbLine
 10
86.5609
 20
6.270071999999999
 30
0.0
 11
87.9442
 21
10.241202
 31
0.0
  0
LINE
  5
1C1
330
1E
100
AcDbEntity
  8
0
100
AcDbLine
 10
85.1777
 20
6.270071999999999
 30
0.0
 11
86.5609
 21
6.270071999999999
 31
0.0
  0
LINE
  5
1C3
330
1E
100
AcDbEntity
  8
0
100
AcDbLine
 10
83.50320000000001
 20
6.270071999999999
 30
0.0
 11
85.1777
 21
6.270071999999999
 31
0.0
  0
LINE
  5
1C4
330
1E
100
AcDbEntity
  8
0
100
AcDbLine
 10
83.50320000000001
 20
6.270071999999999
 30
0.0
 11
83.50320000000001
 21
5.225022
 31
0.0
  0
LINE
  5
1C9
330
1E
100
AcDbEntity
  8
0
100
AcDbLine
 10
85.1777
 20
6.270071999999999
 30
0.0
 11
86.5609
 21
6.270071999999999
 31
0.0
  0
LINE
  5
1CB
330
1E
100
AcDbEntity
  8
0
100
AcDbLine
 10
82.19269999999999
 20
6.270071999999999
 30
0.0
 11
83.50320000000001
 21
6.270071999999999
 31
0.0
  0
LINE
  5
1CC
330
1E
100
AcDbEntity
  8
0
100
AcDbLine
 10
82.19269999999999
 20
5.225022
 30
0.0
 11
83.50320000000001
 21
5.225022
 31
0.0
  0
LINE
  5
1CD
330
1E
100
AcDbEntity
  8
0
100
AcDbLine
 10
78.407
 20
5.225022
 30
0.0
 11
82.19269999999999
 21
5.225022
 31
0.0
  0
LINE
  5
1CE
330
1E
100
AcDbEntity
  8
0
100
AcDbLine
 10
76.36849999999999
 20
2.089891999999999
 30
0.0
 11
76.36849999999999
 21
5.225022
 31
0.0
  0
LINE
  5
1CF
330
1E
100
AcDbEntity
  8
0
100
AcDbLine
 10
75.27639999999999
 20
2.089891999999999
 30
0.0
 11
76.36849999999999
 21
2.089891999999999
 31
0.0
  0
LINE
  5
1D0
330
1E
100
AcDbEntity
  8
0
100
AcDbLine
 10
85.1777
 20
27.171002
 30
0.0
 11
86.5609
 21
27.171002
 31
0.0
  0
LINE
  5
1D6
330
1E
100
AcDbEntity
  8
0
100
AcDbLine
 10
87.9733
 20
23.670102
 30
0.0
 11
91.0
 21
16.720502
 31
0.0
  0
LINE
  5
1DC
330
1E
100
AcDbEntity
  8
0
100
AcDbLine
 10
87.9442
 20
10.241202
 30
0.0
 11
91.0
 21
16.720502
 31
0.0
  0
LINE
  5
1DD
330
1E
100
AcDbEntity
  8
0
100
AcDbLine
 10
86.5609
 20
27.171002
 30
0.0
 11
86.5609
 21
74.198002
 31
0.0
  0
LINE
  5
1DE
330
1E
100
AcDbEntity
  8
0
100
AcDbLine
 10
86.5609
 20
27.171002
 30
0.0
 11
87.9733
 21
23.670102
 31
0.0
  0
LINE
  5
1E0
330
1E
100
AcDbEntity
  8
0
100
AcDbLine
 10
84.52240000000001
 20
77.85570200000001
 30
0.0
 11
86.1241
 21
76.288102
 31
0.0
  0
LINE
  5
1E1
330
1E
100
AcDbEntity
  8
0
100
AcDbLine
 10
86.5609
 20
74.198002
 30
0.0
 11
86.5609
 21
27.171002
 31
0.0
  0
LINE
  5
1E2
330
1E
100
AcDbEntity
  8
0
100
AcDbLine
 10
86.1241
 20
76.288102
 30
0.0
 11
86.5609
 21
74.198002
 31
0.0
  0
LINE
  5
1E3
330
1E
100
AcDbEntity
  8
0
100
AcDbLine
 10
81.1007
 20
27.171002
 30
0.0
 11
85.1777
 21
27.171002
 31
0.0
  0
LINE
  5
1E4
330
1E
100
AcDbEntity
  8
0
100
AcDbLine
 10
74.6212
 20
27.171002
 30
0.0
 11
81.1007
 21
27.171002
 31
0.0
  0
ENDSEC
  0
SECTION
  2
OBJECTS
  0
DICTIONARY
  5
C
330
0
100
AcDbDictionary
  3
ACAD_GROUP
350
D
  3
ACAD_LAYOUT
350
19
  3
ACAD_MLINESTYLE
350
16
  3
ACAD_PLOTSETTINGS
350
18
  3
ACAD_PLOTSTYLENAME
350
E
  3
ACDBHEADERROUNDTRIPXREC
350
1EF
  3
ACDBVARIABLEDICTIONARY
350
1EC
  0
DICTIONARY
  5
211
330
1E
100
AcDbDictionary
280
     1
  3
ACAD_LAYOUTSELFREF
360
212
  0
DICTIONARY
  5
20F
330
1A
100
AcDbDictionary
280
     1
  3
ACAD_LAYOUTSELFREF
360
210
  0
DICTIONARY
  5
D
102
{ACAD_REACTORS
330
C
102
}
330
C
100
AcDbDictionary
  0
DICTIONARY
  5
19
102
{ACAD_REACTORS
330
C
102
}
330
C
100
AcDbDictionary
  0
DICTIONARY
  5
16
102
{ACAD_REACTORS
330
C
102
}
330
C
100
AcDbDictionary
  3
STANDARD
350
17
  0
DICTIONARY
  5
18
102
{ACAD_REACTORS
330
C
102
}
330
C
100
AcDbDictionary
  0
ACDBDICTIONARYWDFLT
  5
E
102
{ACAD_REACTORS
330
C
102
}
330
C
100
AcDbDictionary
281
     1
  3
Normal
350
F
100
AcDbDictionaryWithDefault
340
F
  0
DICTIONARY
  5
1EF
102
{ACAD_REACTORS
330
C
102
}
330
C
100
AcDbDictionary
  3
CEPSNTYPE
350
1F9
  3
FINGERPRINTGUID
350
1FA
  3
HYPERLINKBASE
350
1F2
  3
INSUNITS
350
1F8
  3
LAYOUTDICT
350
1F4
  3
LWETCUNION
350
1F7
  3
PLOTSETDICT
350
1F5
  3
PLOTSTYLNAMDICT
350
1F6
  3
PSVPSCALE
350
1FC
  3
PUCSBASE
350
1FF
  3
PUCSORGBACK
350
205
  3
PUCSORGBOTTOM
350
201
  3
PUCSORGFRONT
350
204
  3
PUCSORGLEFT
350
202
  3
PUCSORGRIGHT
350
203
  3
PUCSORGTOP
350
200
  3
PUCSORTHOREF
350
1FD
  3
PUCSORTHOVIEW
350
1FE
  3
STYLESHEET
350
1F3
  3
TSTACKALIGN
350
1F0
  3
TSTACKSIZE
350
1F1
  3
UCSBASE
350
208
  3
UCSORGBACK
350
20E
  3
UCSORGBOTTOM
350
20A
  3
UCSORGFRONT
350
20D
  3
UCSORGLEFT
350
20B
  3
UCSORGRIGHT
350
20C
  3
UCSORGTOP
350
209
  3
UCSORTHOREF
350
206
  3
UCSORTHOVIEW
350
207
  3
VERSIONGUID
350
1FB
  0
DICTIONARY
  5
1EC
102
{ACAD_REACTORS
330
C
102
}
330
C
100
AcDbDictionary
  3
DIMASSOC
350
1ED
  0
XRECORD
  5
212
102
{ACAD_REACTORS
330
211
102
}
330
211
100
AcDbXrecord
340
1E
  0
XRECORD
  5
210
102
{ACAD_REACTORS
330
20F
102
}
330
20F
100
AcDbXrecord
340
1A
  0
MLINESTYLE
  5
17
102
{ACAD_REACTORS
330
16
102
}
330
16
100
AcDbMlineStyle
  2
STANDARD
 70
     0
  3

 62
   256
 51
90.0
 52
90.0
 71
     2
 49
0.5
 62
   256
  6
BYLAYER
 49
-0.5
 62
   256
  6
BYLAYER
  0
ACDBPLACEHOLDER
  5
F
102
{ACAD_REACTORS
330
E
102
}
330
E
100
AcDbPlaceHolder
280
     0
  0
XRECORD
  5
1F9
102
{ACAD_REACTORS
330
1EF
102
}
330
1EF
100
AcDbXrecord
 90
        0
  0
XRECORD
  5
1FA
102
{ACAD_REACTORS
330
1EF
102
}
330
1EF
100
AcDbXrecord
  1
{821394D5-797F-4385-9BD6-FDE076950BAC}
  0
XRECORD
  5
1F2
102
{ACAD_REACTORS
330
1EF
102
}
330
1EF
100
AcDbXrecord
  1

  0
XRECORD
  5
1F8
102
{ACAD_REACTORS
330
1EF
102
}
330
1EF
100
AcDbXrecord
 90
        0
  0
XRECORD
  5
1F4
102
{ACAD_REACTORS
330
1EF
102
}
330
1EF
100
AcDbXrecord
340
19
  0
XRECORD
  5
1F7
102
{ACAD_REACTORS
330
1EF
102
}
330
1EF
100
AcDbXrecord
 90
    10781
  0
XRECORD
  5
1F5
102
{ACAD_REACTORS
330
1EF
102
}
330
1EF
100
AcDbXrecord
340
18
  0
XRECORD
  5
1F6
102
{ACAD_REACTORS
330
1EF
102
}
330
1EF
100
AcDbXrecord
340
E
  0
XRECORD
  5
1FC
102
{ACAD_REACTORS
330
1EF
102
}
330
1EF
100
AcDbXrecord
 40
0.0
  0
XRECORD
  5
1FF
102
{ACAD_REACTORS
330
1EF
102
}
330
1EF
100
AcDbXrecord
340
0
  0
XRECORD
  5
205
102
{ACAD_REACTORS
330
1EF
102
}
330
1EF
100
AcDbXrecord
 10
0.0
 20
0.0
 30
0.0
  0
XRECORD
  5
201
102
{ACAD_REACTORS
330
1EF
102
}
330
1EF
100
AcDbXrecord
 10
0.0
 20
0.0
 30
0.0
  0
XRECORD
  5
204
102
{ACAD_REACTORS
330
1EF
102
}
330
1EF
100
AcDbXrecord
 10
0.0
 20
0.0
 30
0.0
  0
XRECORD
  5
202
102
{ACAD_REACTORS
330
1EF
102
}
330
1EF
100
AcDbXrecord
 10
0.0
 20
0.0
 30
0.0
  0
XRECORD
  5
203
102
{ACAD_REACTORS
330
1EF
102
}
330
1EF
100
AcDbXrecord
 10
0.0
 20
0.0
 30
0.0
  0
XRECORD
  5
200
102
{ACAD_REACTORS
330
1EF
102
}
330
1EF
100
AcDbXrecord
 10
0.0
 20
0.0
 30
0.0
  0
XRECORD
  5
1FD
102
{ACAD_REACTORS
330
1EF
102
}
330
1EF
100
AcDbXrecord
340
0
  0
XRECORD
  5
1FE
102
{ACAD_REACTORS
330
1EF
102
}
330
1EF
100
AcDbXrecord
 70
     0
  0
XRECORD
  5
1F3
102
{ACAD_REACTORS
330
1EF
102
}
330
1EF
100
AcDbXrecord
  1

  0
XRECORD
  5
1F0
102
{ACAD_REACTORS
330
1EF
102
}
330
1EF
100
AcDbXrecord
 90
        1
  0
XRECORD
  5
1F1
102
{ACAD_REACTORS
330
1EF
102
}
330
1EF
100
AcDbXrecord
 90
       70
  0
XRECORD
  5
208
102
{ACAD_REACTORS
330
1EF
102
}
330
1EF
100
AcDbXrecord
340
0
  0
XRECORD
  5
20E
102
{ACAD_REACTORS
330
1EF
102
}
330
1EF
100
AcDbXrecord
 10
0.0
 20
0.0
 30
0.0
  0
XRECORD
  5
20A
102
{ACAD_REACTORS
330
1EF
102
}
330
1EF
100
AcDbXrecord
 10
0.0
 20
0.0
 30
0.0
  0
XRECORD
  5
20D
102
{ACAD_REACTORS
330
1EF
102
}
330
1EF
100
AcDbXrecord
 10
0.0
 20
0.0
 30
0.0
  0
XRECORD
  5
20B
102
{ACAD_REACTORS
330
1EF
102
}
330
1EF
100
AcDbXrecord
 10
0.0
 20
0.0
 30
0.0
  0
XRECORD
  5
20C
102
{ACAD_REACTORS
330
1EF
102
}
330
1EF
100
AcDbXrecord
 10
0.0
 20
0.0
 30
0.0
  0
XRECORD
  5
209
102
{ACAD_REACTORS
330
1EF
102
}
330
1EF
100
AcDbXrecord
 10
0.0
 20
0.0
 30
0.0
  0
XRECORD
  5
206
102
{ACAD_REACTORS
330
1EF
102
}
330
1EF
100
AcDbXrecord
340
0
  0
XRECORD
  5
207
102
{ACAD_REACTORS
330
1EF
102
}
330
1EF
100
AcDbXrecord
 70
     1
  0
XRECORD
  5
1FB
102
{ACAD_REACTORS
330
1EF
102
}
330
1EF
100
AcDbXrecord
  1
{79BC03C8-802E-4458-8B76-EAFFF6CA450A}
  0
DICTIONARYVAR
  5
1ED
102
{ACAD_REACTORS
330
1EC
102
}
330
1EC
100
DictionaryVariables
280
     0
  1
1
  0
ENDSEC
  0
EOF
