  0
SECTION
  2
HEADER
  9
$ACADVER
  1
AC1014
  9
$ACADMAINTVER
 70
     9
  9
$DWGCODEPAGE
  3
ANSI_1252
  9
$INSBASE
 10
0.0
 20
0.0
 30
0.0
  9
$EXTMIN
 10
-0.0000000000000061
 20
-0.0000000000000007
 30
0.0
  9
$EXTMAX
 10
218.0
 20
189.0
 30
0.0
  9
$LIMMIN
 10
0.0
 20
0.0
  9
$LIMMAX
 10
12.0
 20
9.0
  9
$ORTHOMODE
 70
     0
  9
$REGENMODE
 70
     1
  9
$FILLMODE
 70
     1
  9
$QTEXTMODE
 70
     0
  9
$MIRRTEXT
 70
     1
  9
$DRAGMODE
 70
     2
  9
$LTSCALE
 40
1.0
  9
$OSMODE
 70
    37
  9
$ATTMODE
 70
     1
  9
$TEXTSIZE
 40
0.2
  9
$TRACEWID
 40
0.05
  9
$TEXTSTYLE
  7
STANDARD
  9
$CLAYER
  8
0
  9
$CELTYPE
  6
CONTINUOUS
  9
$CECOLOR
 62
   256
  9
$CELTSCALE
 40
1.0
  9
$DELOBJ
 70
     1
  9
$DISPSILH
 70
     0
  9
$DIMSCALE
 40
1.0
  9
$DIMASZ
 40
0.18
  9
$DIMEXO
 40
0.0625
  9
$DIMDLI
 40
0.38
  9
$DIMRND
 40
0.0
  9
$DIMDLE
 40
0.0
  9
$DIMEXE
 40
0.18
  9
$DIMTP
 40
0.0
  9
$DIMTM
 40
0.0
  9
$DIMTXT
 40
0.18
  9
$DIMCEN
 40
0.09
  9
$DIMTSZ
 40
0.0
  9
$DIMTOL
 70
     0
  9
$DIMLIM
 70
     0
  9
$DIMTIH
 70
     1
  9
$DIMTOH
 70
     1
  9
$DIMSE1
 70
     0
  9
$DIMSE2
 70
     0
  9
$DIMTAD
 70
     0
  9
$DIMZIN
 70
     0
  9
$DIMBLK
  1

  9
$DIMASO
 70
     1
  9
$DIMSHO
 70
     1
  9
$DIMPOST
  1

  9
$DIMAPOST
  1

  9
$DIMALT
 70
     0
  9
$DIMALTD
 70
     2
  9
$DIMALTF
 40
25.4
  9
$DIMLFAC
 40
1.0
  9
$DIMTOFL
 70
     0
  9
$DIMTVP
 40
0.0
  9
$DIMTIX
 70
     0
  9
$DIMSOXD
 70
     0
  9
$DIMSAH
 70
     0
  9
$DIMBLK1
  1

  9
$DIMBLK2
  1

  9
$DIMSTYLE
  2
STANDARD
  9
$DIMCLRD
 70
     0
  9
$DIMCLRE
 70
     0
  9
$DIMCLRT
 70
     0
  9
$DIMTFAC
 40
1.0
  9
$DIMGAP
 40
0.09
  9
$DIMJUST
 70
     0
  9
$DIMSD1
 70
     0
  9
$DIMSD2
 70
     0
  9
$DIMTOLJ
 70
     1
  9
$DIMTZIN
 70
     0
  9
$DIMALTZ
 70
     0
  9
$DIMALTTZ
 70
     0
  9
$DIMFIT
 70
     3
  9
$DIMUPT
 70
     0
  9
$DIMUNIT
 70
     2
  9
$DIMDEC
 70
     4
  9
$DIMTDEC
 70
     4
  9
$DIMALTU
 70
     2
  9
$DIMALTTD
 70
     2
  9
$DIMTXSTY
  7
STANDARD
  9
$DIMAUNIT
 70
     0
  9
$LUNITS
 70
     2
  9
$LUPREC
 70
     4
  9
$SKETCHINC
 40
0.1
  9
$FILLETRAD
 40
0.0
  9
$AUNITS
 70
     0
  9
$AUPREC
 70
     0
  9
$MENU
  1
.
  9
$ELEVATION
 40
0.0
  9
$PELEVATION
 40
0.0
  9
$THICKNESS
 40
0.0
  9
$LIMCHECK
 70
     0
  9
$BLIPMODE
 70
     0
  9
$CHAMFERA
 40
0.0
  9
$CHAMFERB
 40
0.0
  9
$CHAMFERC
 40
0.0
  9
$CHAMFERD
 40
0.0
  9
$SKPOLY
 70
     0
  9
$TDCREATE
 40
2454699.493529548
  9
$TDUPDATE
 40
2454699.497340312
  9
$TDINDWG
 40
0.0022683333
  9
$TDUSRTIMER
 40
0.0022683333
  9
$USRTIMER
 70
     1
  9
$ANGBASE
 50
0.0
  9
$ANGDIR
 70
     0
  9
$PDMODE
 70
     0
  9
$PDSIZE
 40
0.0
  9
$PLINEWID
 40
0.0
  9
$COORDS
 70
     1
  9
$SPLFRAME
 70
     0
  9
$SPLINETYPE
 70
     6
  9
$SPLINESEGS
 70
     8
  9
$ATTDIA
 70
     0
  9
$ATTREQ
 70
     1
  9
$HANDLING
 70
 22529
  9
$HANDSEED
  5
233
  9
$SURFTAB1
 70
     6
  9
$SURFTAB2
 70
     6
  9
$SURFTYPE
 70
     6
  9
$SURFU
 70
     6
  9
$SURFV
 70
     6
  9
$UCSNAME
  2

  9
$UCSORG
 10
0.0
 20
0.0
 30
0.0
  9
$UCSXDIR
 10
1.0
 20
0.0
 30
0.0
  9
$UCSYDIR
 10
0.0
 20
1.0
 30
0.0
  9
$PUCSNAME
  2

  9
$PUCSORG
 10
0.0
 20
0.0
 30
0.0
  9
$PUCSXDIR
 10
1.0
 20
0.0
 30
0.0
  9
$PUCSYDIR
 10
0.0
 20
1.0
 30
0.0
  9
$USERI1
 70
     0
  9
$USERI2
 70
     0
  9
$USERI3
 70
     0
  9
$USERI4
 70
     0
  9
$USERI5
 70
     0
  9
$USERR1
 40
0.0
  9
$USERR2
 40
0.0
  9
$USERR3
 40
0.0
  9
$USERR4
 40
0.0
  9
$USERR5
 40
0.0
  9
$WORLDVIEW
 70
     1
  9
$SHADEDGE
 70
     3
  9
$SHADEDIF
 70
    70
  9
$TILEMODE
 70
     1
  9
$MAXACTVP
 70
    64
  9
$PINSBASE
 10
0.0
 20
0.0
 30
0.0
  9
$PLIMCHECK
 70
     0
  9
$PEXTMIN
 10
1.000000000000000E+20
 20
1.000000000000000E+20
 30
1.000000000000000E+20
  9
$PEXTMAX
 10
-1.000000000000000E+20
 20
-1.000000000000000E+20
 30
-1.000000000000000E+20
  9
$PLIMMIN
 10
0.0
 20
0.0
  9
$PLIMMAX
 10
12.0
 20
9.0
  9
$UNITMODE
 70
     0
  9
$VISRETAIN
 70
     1
  9
$PLINEGEN
 70
     0
  9
$PSLTSCALE
 70
     1
  9
$TREEDEPTH
 70
  3020
  9
$PICKSTYLE
 70
     1
  9
$CMLSTYLE
  2
STANDARD
  9
$CMLJUST
 70
     0
  9
$CMLSCALE
 40
1.0
  9
$PROXYGRAPHICS
 70
     1
  9
$MEASUREMENT
 70
     0
  0
ENDSEC
  0
SECTION
  2
CLASSES
  0
CLASS
  1
ACDBDICTIONARYWDFLT
  2
AcDbDictionaryWithDefault
  3
AutoCAD 2000
 90
        0
280
     0
281
     0
  0
CLASS
  1
ACDBPLACEHOLDER
  2
AcDbPlaceHolder
  3
AutoCAD 2000
 90
        0
280
     0
281
     0
  0
CLASS
  1
LAYOUT
  2
AcDbLayout
  3
AutoCAD 2000
 90
        0
280
     0
281
     0
  0
CLASS
  1
DICTIONARYVAR
  2
AcDbDictionaryVar
  3
AutoCAD 2000
 90
        0
280
     0
281
     0
  0
CLASS
  1
LONG_TRANSACTION
  2
AcDbLongTransaction
  3
AutoCAD 2000
 90
        0
280
     0
281
     0
  0
CLASS
  1
LWPOLYLINE
  2
AcDbPolyline
  3
AutoCAD 2000
 90
        0
280
     0
281
     1
  0
CLASS
  1
HATCH
  2
AcDbHatch
  3
AutoCAD 2000
 90
        0
280
     0
281
     1
  0
CLASS
  1
XRECORD
  2
AcDbXrecord
  3
AutoCAD 2000
 90
        0
280
     0
281
     0
  0
ENDSEC
  0
SECTION
  2
TABLES
  0
TABLE
  2
VPORT
  5
8
330
0
100
AcDbSymbolTable
 70
     2
  0
VPORT
  5
20E
330
8
100
AcDbSymbolTableRecord
100
AcDbViewportTableRecord
  2
*ACTIVE
 70
     0
 10
0.0
 20
0.0
 11
1.0
 21
1.0
 12
109.0
 22
94.50000000000001
 13
0.0
 23
0.0
 14
1.0
 24
1.0
 15
0.0
 25
0.0
 16
0.0
 26
0.0
 36
1.0
 17
0.0
 27
0.0
 37
0.0
 40
190.4501278772378
 41
2.078104993597951
 42
50.0
 43
0.0
 44
0.0
 50
0.0
 51
0.0
 71
     0
 72
   100
 73
     1
 74
     3
 75
     0
 76
     0
 77
     0
 78
     0
  0
ENDTAB
  0
TABLE
  2
LTYPE
  5
5
330
0
100
AcDbSymbolTable
 70
     1
  0
LTYPE
  5
13
330
5
100
AcDbSymbolTableRecord
100
AcDbLinetypeTableRecord
  2
BYBLOCK
 70
     0
  3

 72
    65
 73
     0
 40
0.0
  0
LTYPE
  5
14
330
5
100
AcDbSymbolTableRecord
100
AcDbLinetypeTableRecord
  2
BYLAYER
 70
     0
  3

 72
    65
 73
     0
 40
0.0
  0
LTYPE
  5
15
330
5
100
AcDbSymbolTableRecord
100
AcDbLinetypeTableRecord
  2
CONTINUOUS
 70
     0
  3
Solid line
 72
    65
 73
     0
 40
0.0
  0
ENDTAB
  0
TABLE
  2
LAYER
  5
2
330
0
100
AcDbSymbolTable
 70
     1
  0
LAYER
  5
10
330
2
100
AcDbSymbolTableRecord
100
AcDbLayerTableRecord
  2
0
 70
     0
 62
     7
  6
CONTINUOUS
  0
ENDTAB
  0
TABLE
  2
STYLE
  5
3
330
0
100
AcDbSymbolTable
 70
     1
  0
STYLE
  5
11
330
3
100
AcDbSymbolTableRecord
100
AcDbTextStyleTableRecord
  2
STANDARD
 70
     0
 40
0.0
 41
1.0
 50
0.0
 71
     0
 42
0.2
  3
txt
  4

  0
ENDTAB
  0
TABLE
  2
VIEW
  5
6
330
0
100
AcDbSymbolTable
 70
     0
  0
ENDTAB
  0
TABLE
  2
UCS
  5
7
330
0
100
AcDbSymbolTable
 70
     0
  0
ENDTAB
  0
TABLE
  2
APPID
  5
9
330
0
100
AcDbSymbolTable
 70
     1
  0
APPID
  5
12
330
9
100
AcDbSymbolTableRecord
100
AcDbRegAppTableRecord
  2
ACAD
 70
     0
  0
ENDTAB
  0
TABLE
  2
DIMSTYLE
  5
A
330
0
100
AcDbSymbolTable
 70
     1
  0
DIMSTYLE
105
1FC
330
A
100
AcDbSymbolTableRecord
100
AcDbDimStyleTableRecord
  2
STANDARD
 70
     0
  3

  4

  5

  6

  7

 40
1.0
 41
0.18
 42
0.0625
 43
0.38
 44
0.18
 45
0.0
 46
0.0
 47
0.0
 48
0.0
140
0.18
141
0.09
142
0.0
143
25.4
144
1.0
145
0.0
146
1.0
147
0.09
 71
     0
 72
     0
 73
     1
 74
     1
 75
     0
 76
     0
 77
     0
 78
     0
170
     0
171
     2
172
     0
173
     0
174
     0
175
     0
176
     0
177
     0
178
     0
270
     2
271
     4
272
     4
273
     2
274
     2
340
11
275
     0
280
     0
281
     0
282
     0
283
     1
284
     0
285
     0
286
     0
287
     3
288
     0
  0
ENDTAB
  0
TABLE
  2
BLOCK_RECORD
  5
1
330
0
100
AcDbSymbolTable
 70
     0
  0
BLOCK_RECORD
  5
1E
102
{ACAD_XDICTIONARY
360
231
102
}
330
1
100
AcDbSymbolTableRecord
100
AcDbBlockTableRecord
  2
*MODEL_SPACE
  0
BLOCK_RECORD
  5
1A
102
{ACAD_XDICTIONARY
360
22F
102
}
330
1
100
AcDbSymbolTableRecord
100
AcDbBlockTableRecord
  2
*PAPER_SPACE
  0
ENDTAB
  0
ENDSEC
  0
SECTION
  2
BLOCKS
  0
BLOCK
  5
1F
330
1E
100
AcDbEntity
  8
0
100
AcDbBlockBegin
  2
*MODEL_SPACE
 70
     0
 10
0.0
 20
0.0
 30
0.0
  3
*MODEL_SPACE
  1

  0
ENDBLK
  5
20
330
1E
100
AcDbEntity
  8
0
100
AcDbBlockEnd
  0
BLOCK
  5
1B
330
1A
100
AcDbEntity
 67
     1
  8
0
100
AcDbBlockBegin
  2
*PAPER_SPACE
 70
     0
 10
0.0
 20
0.0
 30
0.0
  3
*PAPER_SPACE
  1

  0
ENDBLK
  5
1C
330
1A
100
AcDbEntity
 67
     1
  8
0
100
AcDbBlockEnd
  0
ENDSEC
  0
SECTION
  2
ENTITIES
  0
LINE
  5
22
330
1E
100
AcDbEntity
  8
0
100
AcDbLine
 10
34.0
 20
78.666668
 30
0.0
 11
42.5333
 21
79.86667
 31
0.0
  0
LINE
  5
23
330
1E
100
AcDbEntity
  8
0
100
AcDbLine
 10
42.5333
 20
79.86667
 30
0.0
 11
50.53329999999999
 21
83.20000999999999
 31
0.0
  0
LINE
  5
24
330
1E
100
AcDbEntity
  8
0
100
AcDbLine
 10
17.46669999999999
 20
83.20000999999999
 30
0.0
 11
25.4667
 21
79.86667
 31
0.0
  0
LINE
  5
25
330
1E
100
AcDbEntity
  8
0
100
AcDbLine
 10
25.4667
 20
79.86667
 30
0.0
 11
34.0
 21
78.666668
 31
0.0
  0
LINE
  5
26
330
1E
100
AcDbEntity
  8
0
100
AcDbLine
 10
17.0667
 20
82.5333
 30
0.0
 11
25.2
 21
79.2
 31
0.0
  0
LINE
  5
27
330
1E
100
AcDbEntity
  8
0
100
AcDbLine
 10
25.2
 20
79.2
 30
0.0
 11
34.0
 21
78.0
 31
0.0
  0
LINE
  5
28
330
1E
100
AcDbEntity
  8
0
100
AcDbLine
 10
50.9333
 20
82.53334
 30
0.0
 11
58.0
 21
88.0
 31
0.0
  0
LINE
  5
29
330
1E
100
AcDbEntity
  8
0
100
AcDbLine
 10
50.53329999999999
 20
83.20000999999999
 30
0.0
 11
57.6
 21
88.40000000000001
 31
0.0
  0
LINE
  5
2A
330
1E
100
AcDbEntity
  8
0
100
AcDbLine
 10
50.9333
 20
82.5333
 30
0.0
 11
58.0
 21
88.0
 31
0.0
  0
LINE
  5
2B
330
1E
100
AcDbEntity
  8
0
100
AcDbLine
 10
42.8
 20
79.2
 30
0.0
 11
50.9333
 21
82.5333
 31
0.0
  0
LINE
  5
2C
330
1E
100
AcDbEntity
  8
0
100
AcDbLine
 10
95.8177
 20
85.29633000000002
 30
0.0
 11
97.6719439671034
 21
84.84168098689879
 31
0.0
  0
LINE
  5
2D
330
1E
100
AcDbEntity
  8
0
100
AcDbLine
 10
97.76430000000001
 20
85.72715999999999
 30
0.0
 11
99.80710000000001
 21
85.03019
 31
0.0
  0
LINE
  5
2E
330
1E
100
AcDbEntity
  8
0
100
AcDbLine
 10
0.499999999999994
 20
90.0
 30
0.0
 11
0.499999999999994
 21
90.8
 31
0.0
  0
LINE
  5
2F
330
1E
100
AcDbEntity
  8
0
100
AcDbLine
 10
0.499999999999994
 20
90.0
 30
0.0
 11
1.999999999999989
 21
89.50000000000001
 31
0.0
  0
LINE
  5
30
330
1E
100
AcDbEntity
  8
0
100
AcDbLine
 10
9.999999999999991
 20
88.0
 30
0.0
 11
17.0667
 21
82.5333
 31
0.0
  0
LINE
  5
31
330
1E
100
AcDbEntity
  8
0
100
AcDbLine
 10
9.999999999999991
 20
88.0
 30
0.0
 11
17.0667
 21
82.53334
 31
0.0
  0
LINE
  5
32
330
1E
100
AcDbEntity
  8
0
100
AcDbLine
 10
57.6
 20
88.40000000000001
 30
0.0
 11
58.40943014419739
 21
89.50000000000001
 31
0.0
  0
LINE
  5
33
330
1E
100
AcDbEntity
  8
0
100
AcDbLine
 10
9.590569855802561
 20
89.50000000000001
 30
0.0
 11
10.4
 21
88.40000000000001
 31
0.0
  0
LINE
  5
34
330
1E
100
AcDbEntity
  8
0
100
AcDbLine
 10
10.4
 20
88.40000000000001
 30
0.0
 11
17.46669999999999
 21
83.20000999999999
 31
0.0
  0
LINE
  5
35
330
1E
100
AcDbEntity
  8
0
100
AcDbLine
 10
8.83962103952339
 20
89.50000000000001
 30
0.0
 11
9.999999999999991
 21
88.0
 31
0.0
  0
LINE
  5
36
330
1E
100
AcDbEntity
  8
0
100
AcDbLine
 10
58.0
 20
88.0
 30
0.0
 11
59.1603789604766
 21
89.50000000000001
 31
0.0
  0
LINE
  5
37
330
1E
100
AcDbEntity
  8
0
100
AcDbLine
 10
1.999999999999989
 20
89.50000000000001
 30
0.0
 11
85.83530974071891
 21
89.50000000000001
 31
0.0
  0
LINE
  5
38
330
1E
100
AcDbEntity
  8
0
100
AcDbLine
 10
1.999999999999989
 20
89.50000000000001
 30
0.0
 11
85.83530974071891
 21
89.50000000000001
 31
0.0
  0
LINE
  5
39
330
1E
100
AcDbEntity
  8
0
100
AcDbLine
 10
0.499999999999994
 20
90.8
 30
0.0
 11
0.499999999999994
 21
92.9
 31
0.0
  0
LINE
  5
3A
330
1E
100
AcDbEntity
  8
0
100
AcDbLine
 10
0.499999999999994
 20
90.8
 30
0.0
 11
0.499999999999994
 21
90.0
 31
0.0
  0
LINE
  5
3B
330
1E
100
AcDbEntity
  8
0
100
AcDbLine
 10
-0.0000000000000061
 20
91.5
 30
0.0
 11
-0.0000000000000061
 21
92.2
 31
0.0
  0
LINE
  5
3C
330
1E
100
AcDbEntity
  8
0
100
AcDbLine
 10
-0.0000000000000061
 20
91.5
 30
0.0
 11
0.499999999999994
 21
90.0
 31
0.0
  0
LINE
  5
3D
330
1E
100
AcDbEntity
  8
0
100
AcDbLine
 10
95.90000000000001
 20
91.2
 30
0.0
 11
96.0
 21
91.13571428571431
 31
0.0
  0
LINE
  5
3E
330
1E
100
AcDbEntity
  8
0
100
AcDbLine
 10
95.5
 20
92.09999999999999
 30
0.0
 11
95.90000000000001
 21
93.0
 31
0.0
  0
LINE
  5
3F
330
1E
100
AcDbEntity
  8
0
100
AcDbLine
 10
95.5
 20
92.09999999999999
 30
0.0
 11
95.90000000000001
 21
91.2
 31
0.0
  0
LINE
  5
40
330
1E
100
AcDbEntity
  8
0
100
AcDbLine
 10
89.7554
 20
87.08020000000001
 30
0.0
 11
95.8177
 21
85.29633000000002
 31
0.0
  0
LINE
  5
41
330
1E
100
AcDbEntity
  8
0
100
AcDbLine
 10
85.83530974071882
 20
89.50000000000001
 30
0.0
 11
89.7554
 21
87.08020000000001
 31
0.0
  0
LINE
  5
42
330
1E
100
AcDbEntity
  8
0
100
AcDbLine
 10
-0.0000000000000061
 20
92.2
 30
0.0
 11
-0.0000000000000061
 21
94.19999999999999
 31
0.0
  0
LINE
  5
43
330
1E
100
AcDbEntity
  8
0
100
AcDbLine
 10
-0.0000000000000061
 20
92.2
 30
0.0
 11
-0.0000000000000061
 21
91.5
 31
0.0
  0
LINE
  5
44
330
1E
100
AcDbEntity
  8
0
100
AcDbLine
 10
-0.0000000000000061
 20
94.19999999999999
 30
0.0
 11
-0.0000000000000061
 21
97.5
 31
0.0
  0
LINE
  5
45
330
1E
100
AcDbEntity
  8
0
100
AcDbLine
 10
-0.0000000000000061
 20
94.19999999999999
 30
0.0
 11
-0.0000000000000061
 21
92.2
 31
0.0
  0
LINE
  5
46
330
1E
100
AcDbEntity
  8
0
100
AcDbLine
 10
-0.0000000000000061
 20
97.5
 30
0.0
 11
-0.0000000000000061
 21
101.8
 31
0.0
  0
LINE
  5
47
330
1E
100
AcDbEntity
  8
0
100
AcDbLine
 10
-0.0000000000000061
 20
97.5
 30
0.0
 11
-0.0000000000000061
 21
94.19999999999999
 31
0.0
  0
LINE
  5
48
330
1E
100
AcDbEntity
  8
0
100
AcDbLine
 10
-0.0000000000000061
 20
101.8
 30
0.0
 11
-0.0000000000000061
 21
106.6999999999999
 31
0.0
  0
LINE
  5
49
330
1E
100
AcDbEntity
  8
0
100
AcDbLine
 10
-0.0000000000000061
 20
101.8
 30
0.0
 11
-0.0000000000000061
 21
97.5
 31
0.0
  0
LINE
  5
4A
330
1E
100
AcDbEntity
  8
0
100
AcDbLine
 10
0.499999999999994
 20
92.9
 30
0.0
 11
0.499999999999994
 21
96.5
 31
0.0
  0
LINE
  5
4B
330
1E
100
AcDbEntity
  8
0
100
AcDbLine
 10
0.499999999999994
 20
92.9
 30
0.0
 11
0.499999999999994
 21
90.8
 31
0.0
  0
LINE
  5
4C
330
1E
100
AcDbEntity
  8
0
100
AcDbLine
 10
0.499999999999994
 20
96.5
 30
0.0
 11
0.499999999999994
 21
101.0
 31
0.0
  0
LINE
  5
4D
330
1E
100
AcDbEntity
  8
0
100
AcDbLine
 10
0.499999999999994
 20
96.5
 30
0.0
 11
0.499999999999994
 21
92.9
 31
0.0
  0
LINE
  5
4E
330
1E
100
AcDbEntity
  8
0
100
AcDbLine
 10
0.499999999999994
 20
101.0
 30
0.0
 11
0.499999999999994
 21
106.2999999999999
 31
0.0
  0
LINE
  5
4F
330
1E
100
AcDbEntity
  8
0
100
AcDbLine
 10
0.499999999999994
 20
101.0
 30
0.0
 11
0.499999999999994
 21
96.5
 31
0.0
  0
LINE
  5
50
330
1E
100
AcDbEntity
  8
0
100
AcDbLine
 10
0.499999999999994
 20
106.2999999999999
 30
0.0
 11
0.499999999999994
 21
112.0
 31
0.0
  0
LINE
  5
51
330
1E
100
AcDbEntity
  8
0
100
AcDbLine
 10
0.499999999999994
 20
106.2999999999999
 30
0.0
 11
0.499999999999994
 21
101.0
 31
0.0
  0
LINE
  5
52
330
1E
100
AcDbEntity
  8
0
100
AcDbLine
 10
-0.0000000000000061
 20
106.6999999999999
 30
0.0
 11
-0.0000000000000061
 21
112.0
 31
0.0
  0
LINE
  5
53
330
1E
100
AcDbEntity
  8
0
100
AcDbLine
 10
-0.0000000000000061
 20
106.6999999999999
 30
0.0
 11
-0.0000000000000061
 21
101.8
 31
0.0
  0
LINE
  5
54
330
1E
100
AcDbEntity
  8
0
100
AcDbLine
 10
0.499999999999994
 20
112.0
 30
0.0
 11
0.499999999999994
 21
106.2999999999999
 31
0.0
  0
LINE
  5
55
330
1E
100
AcDbEntity
  8
0
100
AcDbLine
 10
0.499999999999994
 20
112.0
 30
0.0
 11
0.499999999999994
 21
117.7
 31
0.0
  0
LINE
  5
56
330
1E
100
AcDbEntity
  8
0
100
AcDbLine
 10
-0.0000000000000061
 20
132.4999999999999
 30
0.0
 11
-0.0000000000000061
 21
131.8
 31
0.0
  0
LINE
  5
57
330
1E
100
AcDbEntity
  8
0
100
AcDbLine
 10
-0.0000000000000061
 20
132.4999999999999
 30
0.0
 11
0.499999999999994
 21
134.0
 31
0.0
  0
LINE
  5
58
330
1E
100
AcDbEntity
  8
0
100
AcDbLine
 10
-0.0000000000000061
 20
131.8
 30
0.0
 11
-0.0000000000000061
 21
132.4999999999999
 31
0.0
  0
LINE
  5
59
330
1E
100
AcDbEntity
  8
0
100
AcDbLine
 10
-0.0000000000000061
 20
131.8
 30
0.0
 11
-0.0000000000000061
 21
129.8
 31
0.0
  0
LINE
  5
5A
330
1E
100
AcDbEntity
  8
0
100
AcDbLine
 10
-0.0000000000000061
 20
129.8
 30
0.0
 11
-0.0000000000000061
 21
131.8
 31
0.0
  0
LINE
  5
5B
330
1E
100
AcDbEntity
  8
0
100
AcDbLine
 10
-0.0000000000000061
 20
129.8
 30
0.0
 11
-0.0000000000000061
 21
126.5
 31
0.0
  0
LINE
  5
5C
330
1E
100
AcDbEntity
  8
0
100
AcDbLine
 10
-0.0000000000000061
 20
126.5
 30
0.0
 11
-0.0000000000000061
 21
129.8
 31
0.0
  0
LINE
  5
5D
330
1E
100
AcDbEntity
  8
0
100
AcDbLine
 10
-0.0000000000000061
 20
126.5
 30
0.0
 11
-0.0000000000000061
 21
122.1999999999999
 31
0.0
  0
LINE
  5
5E
330
1E
100
AcDbEntity
  8
0
100
AcDbLine
 10
-0.0000000000000061
 20
122.1999999999999
 30
0.0
 11
-0.0000000000000061
 21
126.5
 31
0.0
  0
LINE
  5
5F
330
1E
100
AcDbEntity
  8
0
100
AcDbLine
 10
-0.0000000000000061
 20
122.1999999999999
 30
0.0
 11
-0.0000000000000061
 21
117.3
 31
0.0
  0
LINE
  5
60
330
1E
100
AcDbEntity
  8
0
100
AcDbLine
 10
0.499999999999994
 20
134.0
 30
0.0
 11
0.499999999999994
 21
133.1999999999999
 31
0.0
  0
LINE
  5
61
330
1E
100
AcDbEntity
  8
0
100
AcDbLine
 10
0.499999999999994
 20
134.0
 30
0.0
 11
1.999999999999989
 21
134.4999999999999
 31
0.0
  0
LINE
  5
62
330
1E
100
AcDbEntity
  8
0
100
AcDbLine
 10
0.499999999999994
 20
133.1999999999999
 30
0.0
 11
0.499999999999994
 21
134.0
 31
0.0
  0
LINE
  5
63
330
1E
100
AcDbEntity
  8
0
100
AcDbLine
 10
0.499999999999994
 20
133.1999999999999
 30
0.0
 11
0.499999999999994
 21
131.0999999999999
 31
0.0
  0
LINE
  5
64
330
1E
100
AcDbEntity
  8
0
100
AcDbLine
 10
0.499999999999994
 20
131.0999999999999
 30
0.0
 11
0.499999999999994
 21
133.1999999999999
 31
0.0
  0
LINE
  5
65
330
1E
100
AcDbEntity
  8
0
100
AcDbLine
 10
0.499999999999994
 20
131.0999999999999
 30
0.0
 11
0.499999999999994
 21
127.5
 31
0.0
  0
LINE
  5
66
330
1E
100
AcDbEntity
  8
0
100
AcDbLine
 10
0.499999999999994
 20
127.5
 30
0.0
 11
0.499999999999994
 21
131.0999999999999
 31
0.0
  0
LINE
  5
67
330
1E
100
AcDbEntity
  8
0
100
AcDbLine
 10
0.499999999999994
 20
127.5
 30
0.0
 11
0.499999999999994
 21
123.0
 31
0.0
  0
LINE
  5
68
330
1E
100
AcDbEntity
  8
0
100
AcDbLine
 10
0.499999999999994
 20
123.0
 30
0.0
 11
0.499999999999994
 21
127.5
 31
0.0
  0
LINE
  5
69
330
1E
100
AcDbEntity
  8
0
100
AcDbLine
 10
0.499999999999994
 20
123.0
 30
0.0
 11
0.499999999999994
 21
117.7
 31
0.0
  0
LINE
  5
6A
330
1E
100
AcDbEntity
  8
0
100
AcDbLine
 10
0.499999999999994
 20
117.7
 30
0.0
 11
0.499999999999994
 21
123.0
 31
0.0
  0
LINE
  5
6B
330
1E
100
AcDbEntity
  8
0
100
AcDbLine
 10
0.499999999999994
 20
117.7
 30
0.0
 11
0.499999999999994
 21
112.0
 31
0.0
  0
LINE
  5
6C
330
1E
100
AcDbEntity
  8
0
100
AcDbLine
 10
-0.0000000000000061
 20
117.3
 30
0.0
 11
-0.0000000000000061
 21
122.1999999999999
 31
0.0
  0
LINE
  5
6D
330
1E
100
AcDbEntity
  8
0
100
AcDbLine
 10
-0.0000000000000061
 20
117.3
 30
0.0
 11
-0.0000000000000061
 21
112.0
 31
0.0
  0
LINE
  5
6E
330
1E
100
AcDbEntity
  8
0
100
AcDbLine
 10
-0.0000000000000061
 20
112.0
 30
0.0
 11
-0.0000000000000061
 21
106.6999999999999
 31
0.0
  0
LINE
  5
6F
330
1E
100
AcDbEntity
  8
0
100
AcDbLine
 10
-0.0000000000000061
 20
112.0
 30
0.0
 11
-0.0000000000000061
 21
117.3
 31
0.0
  0
LINE
  5
71
330
1E
100
AcDbEntity
  8
0
100
AcDbLine
 10
9.590569855802561
 20
134.4999999999999
 30
0.0
 11
10.4
 21
135.5999999999999
 31
0.0
  0
LINE
  5
72
330
1E
100
AcDbEntity
  8
0
100
AcDbLine
 10
8.8396210395234
 20
134.4999999999999
 30
0.0
 11
9.999999999999991
 21
136.0
 31
0.0
  0
LINE
  5
73
330
1E
100
AcDbEntity
  8
0
100
AcDbLine
 10
10.4
 20
135.5999999999999
 30
0.0
 11
17.46669999999999
 21
140.8
 31
0.0
  0
LINE
  5
74
330
1E
100
AcDbEntity
  8
0
100
AcDbLine
 10
17.46669999999999
 20
140.8
 30
0.0
 11
25.4667
 21
144.1333
 31
0.0
  0
LINE
  5
75
330
1E
100
AcDbEntity
  8
0
100
AcDbLine
 10
9.999999999999991
 20
136.0
 30
0.0
 11
17.0667
 21
141.4667
 31
0.0
  0
LINE
  5
76
330
1E
100
AcDbEntity
  8
0
100
AcDbLine
 10
17.0667
 20
141.4667
 30
0.0
 11
25.2
 21
144.8
 31
0.0
  0
LINE
  5
77
330
1E
100
AcDbEntity
  8
0
100
AcDbLine
 10
84.50000000000001
 20
140.507
 30
0.0
 11
85.4
 21
140.507
 31
0.0
  0
LINE
  5
78
330
1E
100
AcDbEntity
  8
0
100
AcDbLine
 10
58.0
 20
136.0
 30
0.0
 11
59.1603789604766
 21
134.4999999999999
 31
0.0
  0
LINE
  5
79
330
1E
100
AcDbEntity
  8
0
100
AcDbLine
 10
57.6
 20
135.5999999999999
 30
0.0
 11
58.40943014419739
 21
134.4999999999999
 31
0.0
  0
LINE
  5
7A
330
1E
100
AcDbEntity
  8
0
100
AcDbLine
 10
50.53329999999999
 20
140.8
 30
0.0
 11
57.6
 21
135.5999999999999
 31
0.0
  0
LINE
  5
7B
330
1E
100
AcDbEntity
  8
0
100
AcDbLine
 10
25.4667
 20
144.1333
 30
0.0
 11
34.0
 21
145.3333
 31
0.0
  0
LINE
  5
7C
330
1E
100
AcDbEntity
  8
0
100
AcDbLine
 10
34.0
 20
146.0
 30
0.0
 11
42.8
 21
144.8
 31
0.0
  0
LINE
  5
7D
330
1E
100
AcDbEntity
  8
0
100
AcDbLine
 10
83.49999999999999
 20
141.507
 30
0.0
 11
83.49999999999999
 21
174.507
 31
0.0
  0
LINE
  5
7E
330
1E
100
AcDbEntity
  8
0
100
AcDbLine
 10
83.49999999999999
 20
141.507
 30
0.0
 11
84.40000000000001
 21
141.507
 31
0.0
  0
LINE
  5
7F
330
1E
100
AcDbEntity
  8
0
100
AcDbLine
 10
83.49999999999999
 20
141.507
 30
0.0
 11
84.50000000000001
 21
140.507
 31
0.0
  0
LINE
  5
80
330
1E
100
AcDbEntity
  8
0
100
AcDbLine
 10
84.40000000000001
 20
141.507
 30
0.0
 11
86.90000000000001
 21
141.507
 31
0.0
  0
LINE
  5
81
330
1E
100
AcDbEntity
  8
0
100
AcDbLine
 10
83.49999999999999
 20
174.507
 30
0.0
 11
84.0
 21
176.0069999999999
 31
0.0
  0
LINE
  5
82
330
1E
100
AcDbEntity
  8
0
100
AcDbLine
 10
83.49999999999999
 20
174.507
 30
0.0
 11
83.49999999999999
 21
141.507
 31
0.0
  0
LINE
  5
83
330
1E
100
AcDbEntity
  8
0
100
AcDbLine
 10
84.0
 20
176.0069999999999
 30
0.0
 11
84.9
 21
176.0069999999999
 31
0.0
  0
LINE
  5
84
330
1E
100
AcDbEntity
  8
0
100
AcDbLine
 10
84.0
 20
176.0069999999999
 30
0.0
 11
85.5
 21
176.507
 31
0.0
  0
LINE
  5
85
330
1E
100
AcDbEntity
  8
0
100
AcDbLine
 10
42.8
 20
144.8
 30
0.0
 11
50.9333
 21
141.4667
 31
0.0
  0
LINE
  5
86
330
1E
100
AcDbEntity
  8
0
100
AcDbLine
 10
42.5333
 20
144.1333
 30
0.0
 11
50.53329999999999
 21
140.8
 31
0.0
  0
LINE
  5
87
330
1E
100
AcDbEntity
  8
0
100
AcDbLine
 10
34.0
 20
145.3333
 30
0.0
 11
42.5333
 21
144.1333
 31
0.0
  0
LINE
  5
88
330
1E
100
AcDbEntity
  8
0
100
AcDbLine
 10
50.9333
 20
141.4667
 30
0.0
 11
58.0
 21
136.0
 31
0.0
  0
LINE
  5
89
330
1E
100
AcDbEntity
  8
0
100
AcDbLine
 10
25.2
 20
144.8
 30
0.0
 11
34.0
 21
146.0
 31
0.0
  0
LINE
  5
8A
330
1E
100
AcDbEntity
  8
0
100
AcDbLine
 10
1.999999999999989
 20
134.4999999999999
 30
0.0
 11
84.14468750000001
 21
134.4999999999999
 31
0.0
  0
LINE
  5
8B
330
1E
100
AcDbEntity
  8
0
100
AcDbLine
 10
1.999999999999989
 20
134.4999999999999
 30
0.0
 11
84.14468750000001
 21
134.4999999999999
 31
0.0
  0
LINE
  5
8C
330
1E
100
AcDbEntity
  8
0
100
AcDbLine
 10
84.1182477314679
 20
134.313968207338
 30
0.0
 11
84.50000000000001
 21
137.0
 31
0.0
  0
LINE
  5
8D
330
1E
100
AcDbEntity
  8
0
100
AcDbLine
 10
93.2
 20
111.2999999999999
 30
0.0
 11
93.49999999999999
 21
108.6
 31
0.0
  0
LINE
  5
8E
330
1E
100
AcDbEntity
  8
0
100
AcDbLine
 10
91.5886
 20
116.5999999999999
 30
0.0
 11
93.2559
 21
121.0
 31
0.0
  0
LINE
  5
8F
330
1E
100
AcDbEntity
  8
0
100
AcDbLine
 10
93.2559
 20
121.0
 30
0.0
 11
96.1982
 21
124.7
 31
0.0
  0
LINE
  5
92
330
1E
100
AcDbEntity
  8
0
100
AcDbLine
 10
85.4
 20
140.507
 30
0.0
 11
87.79999999999999
 21
140.507
 31
0.0
  0
LINE
  5
93
330
1E
100
AcDbEntity
  8
0
100
AcDbLine
 10
84.9
 20
176.0069999999999
 30
0.0
 11
87.4
 21
176.0069999999999
 31
0.0
  0
LINE
  5
94
330
1E
100
AcDbEntity
  8
0
100
AcDbLine
 10
92.3
 20
138.0
 30
0.0
 11
97.3
 21
138.0
 31
0.0
  0
LINE
  5
95
330
1E
100
AcDbEntity
  8
0
100
AcDbLine
 10
88.59999999999999
 20
138.0
 30
0.0
 11
92.3
 21
138.0
 31
0.0
  0
LINE
  5
96
330
1E
100
AcDbEntity
  8
0
100
AcDbLine
 10
87.79999999999999
 20
140.507
 30
0.0
 11
91.69999999999999
 21
140.507
 31
0.0
  0
LINE
  5
97
330
1E
100
AcDbEntity
  8
0
100
AcDbLine
 10
86.90000000000001
 20
141.507
 30
0.0
 11
91.0
 21
141.507
 31
0.0
  0
LINE
  5
98
330
1E
100
AcDbEntity
  8
0
100
AcDbLine
 10
87.4
 20
176.0069999999999
 30
0.0
 11
91.3
 21
176.0069999999999
 31
0.0
  0
LINE
  5
99
330
1E
100
AcDbEntity
  8
0
100
AcDbLine
 10
91.69999999999999
 20
140.507
 30
0.0
 11
96.79999999999999
 21
140.507
 31
0.0
  0
LINE
  5
9A
330
1E
100
AcDbEntity
  8
0
100
AcDbLine
 10
91.0
 20
141.507
 30
0.0
 11
96.3
 21
141.507
 31
0.0
  0
LINE
  5
9B
330
1E
100
AcDbEntity
  8
0
100
AcDbLine
 10
91.3
 20
176.0069999999999
 30
0.0
 11
96.6
 21
176.0069999999999
 31
0.0
  0
LINE
  5
9C
330
1E
100
AcDbEntity
  8
0
100
AcDbLine
 10
85.5
 20
176.507
 30
0.0
 11
103.0
 21
176.507
 31
0.0
  0
LINE
  5
9D
330
1E
100
AcDbEntity
  8
0
100
AcDbLine
 10
86.3
 20
138.0
 30
0.0
 11
88.59999999999999
 21
138.0
 31
0.0
  0
LINE
  5
9E
330
1E
100
AcDbEntity
  8
0
100
AcDbLine
 10
85.5
 20
138.0
 30
0.0
 11
86.3
 21
138.0
 31
0.0
  0
LINE
  5
9F
330
1E
100
AcDbEntity
  8
0
100
AcDbLine
 10
85.5
 20
138.0
 30
0.0
 11
85.5
 21
140.507
 31
0.0
  0
LINE
  5
A0
330
1E
100
AcDbEntity
  8
0
100
AcDbLine
 10
85.29999999999999
 20
137.0
 30
0.0
 11
99.0
 21
137.0
 31
0.0
  0
LINE
  5
A1
330
1E
100
AcDbEntity
  8
0
100
AcDbLine
 10
84.50000000000001
 20
137.0
 30
0.0
 11
85.5
 21
138.0
 31
0.0
  0
LINE
  5
A2
330
1E
100
AcDbEntity
  8
0
100
AcDbLine
 10
84.50000000000001
 20
137.0
 30
0.0
 11
85.29999999999999
 21
137.0
 31
0.0
  0
LINE
  5
A3
330
1E
100
AcDbEntity
  8
0
100
AcDbLine
 10
91.5886
 20
107.4
 30
0.0
 11
93.2559
 21
103.0
 31
0.0
  0
LINE
  5
A4
330
1E
100
AcDbEntity
  8
0
100
AcDbLine
 10
94.50000000000001
 20
92.4
 30
0.0
 11
95.90000000000001
 21
91.2
 31
0.0
  0
LINE
  5
A5
330
1E
100
AcDbEntity
  8
0
100
AcDbLine
 10
94.0
 20
93.40000000000001
 30
0.0
 11
94.50000000000001
 21
94.40000000000001
 31
0.0
  0
LINE
  5
A6
330
1E
100
AcDbEntity
  8
0
100
AcDbLine
 10
94.0
 20
93.40000000000001
 30
0.0
 11
94.50000000000001
 21
92.4
 31
0.0
  0
LINE
  5
A7
330
1E
100
AcDbEntity
  8
0
100
AcDbLine
 10
94.0
 20
93.40000000000001
 30
0.0
 11
94.0
 21
99.50000000000001
 31
0.0
  0
LINE
  5
A8
330
1E
100
AcDbEntity
  8
0
100
AcDbLine
 10
93.49999999999999
 20
108.0999999999999
 30
0.0
 11
93.52912621359221
 21
108.032038834951
 31
0.0
  0
LINE
  5
A9
330
1E
100
AcDbEntity
  8
0
100
AcDbLine
 10
93.49999999999999
 20
108.6
 30
0.0
 11
93.7
 21
104.7
 31
0.0
  0
LINE
  5
AA
330
1E
100
AcDbEntity
  8
0
100
AcDbLine
 10
93.7
 20
104.7
 30
0.0
 11
94.0
 21
99.50000000000001
 31
0.0
  0
LINE
  5
AB
330
1E
100
AcDbEntity
  8
0
100
AcDbLine
 10
94.0
 20
99.50000000000001
 30
0.0
 11
94.0
 21
93.40000000000001
 31
0.0
  0
LINE
  5
AC
330
1E
100
AcDbEntity
  8
0
100
AcDbLine
 10
94.50000000000001
 20
94.40000000000001
 30
0.0
 11
96.0
 21
95.4
 31
0.0
  0
LINE
  5
AD
330
1E
100
AcDbEntity
  8
0
100
AcDbLine
 10
96.0
 20
95.4
 30
0.0
 11
98.40000000000001
 21
96.2
 31
0.0
  0
LINE
  5
AE
330
1E
100
AcDbEntity
  8
0
100
AcDbLine
 10
95.90000000000001
 20
93.0
 30
0.0
 11
97.3
 21
93.8
 31
0.0
  0
LINE
  5
B0
330
1E
100
AcDbEntity
  8
0
100
AcDbLine
 10
93.2559
 20
103.0
 30
0.0
 11
93.84048834528071
 21
102.2648686818
 31
0.0
  0
LINE
  5
B1
330
1E
100
AcDbEntity
  8
0
100
AcDbLine
 10
96.0
 20
92.09999999999999
 30
0.0
 11
96.0
 21
87.40948000000001
 31
0.0
  0
LINE
  5
B2
330
1E
100
AcDbEntity
  8
0
100
AcDbLine
 10
96.4643
 20
86.54428000000001
 30
0.0
 11
97.76430000000001
 21
85.72715999999999
 31
0.0
  0
LINE
  5
B3
330
1E
100
AcDbEntity
  8
0
100
AcDbLine
 10
97.3
 20
93.8
 30
0.0
 11
99.40000000000001
 21
94.50000000000001
 31
0.0
  0
LINE
  5
B4
330
1E
100
AcDbEntity
  8
0
100
AcDbLine
 10
96.79999999999999
 20
140.507
 30
0.0
 11
99.0
 21
140.507
 31
0.0
  0
LINE
  5
B5
330
1E
100
AcDbEntity
  8
0
100
AcDbLine
 10
96.3
 20
141.507
 30
0.0
 11
99.0
 21
141.507
 31
0.0
  0
LINE
  5
B6
330
1E
100
AcDbEntity
  8
0
100
AcDbLine
 10
96.6
 20
176.0069999999999
 30
0.0
 11
102.6
 21
176.0069999999999
 31
0.0
  0
LINE
  5
B7
330
1E
100
AcDbEntity
  8
0
100
AcDbLine
 10
97.3
 20
138.0
 30
0.0
 11
99.0
 21
138.0
 31
0.0
  0
LINE
  5
B8
330
1E
100
AcDbEntity
  8
0
100
AcDbLine
 10
96.1982
 20
124.7
 30
0.0
 11
99.72889999999999
 21
127.6
 31
0.0
  0
LINE
  5
B9
330
1E
100
AcDbEntity
  8
0
100
AcDbLine
 10
98.40000000000001
 20
96.2
 30
0.0
 11
101.5
 21
96.79999999999999
 31
0.0
  0
LINE
  5
BA
330
1E
100
AcDbEntity
  8
0
100
AcDbLine
 10
97.76430000000001
 20
89.0918
 30
0.0
 11
99.80710000000001
 21
89.7888
 31
0.0
  0
LINE
  5
BB
330
1E
100
AcDbEntity
  8
0
100
AcDbLine
 10
96.4643
 20
88.27469999999999
 30
0.0
 11
97.76430000000001
 21
89.0918
 31
0.0
  0
LINE
  5
BC
330
1E
100
AcDbEntity
  8
0
100
AcDbLine
 10
96.0
 20
87.40948000000001
 30
0.0
 11
96.4643
 21
88.27469999999999
 31
0.0
  0
LINE
  5
BD
330
1E
100
AcDbEntity
  8
0
100
AcDbLine
 10
96.0
 20
87.40948000000001
 30
0.0
 11
96.0
 21
92.09999999999999
 31
0.0
  0
LINE
  5
BE
330
1E
100
AcDbEntity
  8
0
100
AcDbLine
 10
96.0
 20
87.40948000000001
 30
0.0
 11
96.4643
 21
86.54428000000001
 31
0.0
  0
LINE
  5
BF
330
1E
100
AcDbEntity
  8
0
100
AcDbLine
 10
97.6398199188746
 20
85.8054024337609
 30
0.0
 11
98.50000000000001
 21
60.0
 31
0.0
  0
LINE
  5
C0
330
1E
100
AcDbEntity
  8
0
100
AcDbLine
 10
101.5
 20
60.0
 30
0.0
 11
101.8
 21
60.0
 31
0.0
  0
LINE
  5
C1
330
1E
100
AcDbEntity
  8
0
100
AcDbLine
 10
101.5
 20
60.0
 30
0.0
 11
101.5
 21
0.0
 31
0.0
  0
LINE
  5
C2
330
1E
100
AcDbEntity
  8
0
100
AcDbLine
 10
101.8627399999999
 20
0.0262499999999992
 30
0.0
 11
102.53799
 21
0.101219999999999
 31
0.0
  0
LINE
  5
C3
330
1E
100
AcDbEntity
  8
0
100
AcDbLine
 10
102.53799
 20
0.101219999999999
 30
0.0
 11
103.7759499999999
 21
0.476039999999999
 31
0.0
  0
LINE
  5
C4
330
1E
100
AcDbEntity
  8
0
100
AcDbLine
 10
103.7759499999999
 20
0.476039999999999
 30
0.0
 11
105.2764999999999
 21
1.15073
 31
0.0
  0
LINE
  5
C5
330
1E
100
AcDbEntity
  8
0
100
AcDbLine
 10
103.7759499999999
 20
0.47604
 30
0.0
 11
105.2764999999999
 21
1.15073
 31
0.0
  0
LINE
  5
C6
330
1E
100
AcDbEntity
  8
0
100
AcDbLine
 10
103.7
 20
60.0
 30
0.0
 11
105.2999999999999
 21
60.0
 31
0.0
  0
LINE
  5
C7
330
1E
100
AcDbEntity
  8
0
100
AcDbLine
 10
102.4999999999999
 20
60.0
 30
0.0
 11
103.7
 21
60.0
 31
0.0
  0
LINE
  5
C8
330
1E
100
AcDbEntity
  8
0
100
AcDbLine
 10
102.53799
 20
0.10122
 30
0.0
 11
103.7759499999999
 21
0.47604
 31
0.0
  0
LINE
  5
C9
330
1E
100
AcDbEntity
  8
0
100
AcDbLine
 10
101.8
 20
60.0
 30
0.0
 11
102.4999999999999
 21
60.0
 31
0.0
  0
LINE
  5
CA
330
1E
100
AcDbEntity
  8
0
100
AcDbLine
 10
101.8627399999999
 20
0.0262499999999994
 30
0.0
 11
102.53799
 21
0.10122
 31
0.0
  0
LINE
  5
CB
330
1E
100
AcDbEntity
  8
0
100
AcDbLine
 10
101.5
 20
-0.0000000000000007
 30
0.0
 11
101.8627399999999
 21
0.0262499999999994
 31
0.0
  0
LINE
  5
CC
330
1E
100
AcDbEntity
  8
0
100
AcDbLine
 10
101.5
 20
-0.0000000000000007
 30
0.0
 11
101.5
 21
60.0
 31
0.0
  0
LINE
  5
CD
330
1E
100
AcDbEntity
  8
0
100
AcDbLine
 10
105.2764999999999
 20
1.15073
 30
0.0
 11
107.0771699999999
 21
2.275199999999999
 31
0.0
  0
LINE
  5
CE
330
1E
100
AcDbEntity
  8
0
100
AcDbLine
 10
107.0771699999999
 20
2.275199999999999
 30
0.0
 11
109.0278999999999
 21
4.261769999999999
 31
0.0
  0
LINE
  5
CF
330
1E
100
AcDbEntity
  8
0
100
AcDbLine
 10
109.0278999999999
 20
4.261769999999999
 30
0.0
 11
110.7909999999999
 21
5.611139999999999
 31
0.0
  0
LINE
  5
D0
330
1E
100
AcDbEntity
  8
0
100
AcDbLine
 10
110.7909999999999
 20
5.611139999999999
 30
0.0
 11
112.6292
 21
6.810579999999999
 31
0.0
  0
LINE
  5
D1
330
1E
100
AcDbEntity
  8
0
100
AcDbLine
 10
109.0278999999999
 20
4.261769999999999
 30
0.0
 11
110.7909999999999
 21
5.611139999999999
 31
0.0
  0
LINE
  5
D2
330
1E
100
AcDbEntity
  8
0
100
AcDbLine
 10
109.0
 20
60.0
 30
0.0
 11
110.8999999999999
 21
60.0
 31
0.0
  0
LINE
  5
D3
330
1E
100
AcDbEntity
  8
0
100
AcDbLine
 10
109.0
 20
60.0
 30
0.0
 11
111.6999999999999
 21
60.0
 31
0.0
  0
LINE
  5
D4
330
1E
100
AcDbEntity
  8
0
100
AcDbLine
 10
112.6292
 20
6.810579999999999
 30
0.0
 11
114.4298999999999
 21
8.010019999999999
 31
0.0
  0
LINE
  5
D5
330
1E
100
AcDbEntity
  8
0
100
AcDbLine
 10
111.6999999999999
 20
60.0
 30
0.0
 11
114.2
 21
60.0
 31
0.0
  0
LINE
  5
D6
330
1E
100
AcDbEntity
  8
0
100
AcDbLine
 10
110.8999999999999
 20
60.0
 30
0.0
 11
112.7
 21
60.0
 31
0.0
  0
LINE
  5
D7
330
1E
100
AcDbEntity
  8
0
100
AcDbLine
 10
110.7909999999999
 20
5.611139999999999
 30
0.0
 11
112.6292
 21
6.810579999999999
 31
0.0
  0
LINE
  5
D8
330
1E
100
AcDbEntity
  8
0
100
AcDbLine
 10
114.2
 20
60.0
 30
0.0
 11
116.4
 21
60.0
 31
0.0
  0
LINE
  5
D9
330
1E
100
AcDbEntity
  8
0
100
AcDbLine
 10
112.7
 20
60.0
 30
0.0
 11
114.3
 21
60.0
 31
0.0
  0
LINE
  5
DA
330
1E
100
AcDbEntity
  8
0
100
AcDbLine
 10
112.6292
 20
6.810579999999999
 30
0.0
 11
114.4298999999999
 21
8.010019999999999
 31
0.0
  0
LINE
  5
DB
330
1E
100
AcDbEntity
  8
0
100
AcDbLine
 10
114.3
 20
60.0
 30
0.0
 11
115.5
 21
60.0
 31
0.0
  0
LINE
  5
DC
330
1E
100
AcDbEntity
  8
0
100
AcDbLine
 10
114.4298999999999
 20
8.010019999999999
 30
0.0
 11
115.5178
 21
9.05953
 31
0.0
  0
LINE
  5
DD
330
1E
100
AcDbEntity
  8
0
100
AcDbLine
 10
115.5
 20
60.0
 30
0.0
 11
116.2
 21
60.0
 31
0.0
  0
LINE
  5
DE
330
1E
100
AcDbEntity
  8
0
100
AcDbLine
 10
115.5178
 20
9.05953
 30
0.0
 11
116.2306
 21
9.771699999999999
 31
0.0
  0
LINE
  5
DF
330
1E
100
AcDbEntity
  8
0
100
AcDbLine
 10
116.2
 20
60.0
 30
0.0
 11
116.5
 21
60.0
 31
0.0
  0
LINE
  5
E0
330
1E
100
AcDbEntity
  8
0
100
AcDbLine
 10
116.5
 20
10.0
 30
0.0
 11
116.5
 21
60.0
 31
0.0
  0
LINE
  5
E1
330
1E
100
AcDbEntity
  8
0
100
AcDbLine
 10
116.4
 20
60.0
 30
0.0
 11
118.1
 21
60.0
 31
0.0
  0
LINE
  5
E2
330
1E
100
AcDbEntity
  8
0
100
AcDbLine
 10
118.1
 20
60.0
 30
0.0
 11
119.1
 21
60.0
 31
0.0
  0
LINE
  5
E3
330
1E
100
AcDbEntity
  8
0
100
AcDbLine
 10
119.1
 20
60.0
 30
0.0
 11
119.5
 21
60.0
 31
0.0
  0
LINE
  5
E4
330
1E
100
AcDbEntity
  8
0
100
AcDbLine
 10
119.5
 20
60.0
 30
0.0
 11
120.3601736610749
 21
85.80520983225991
 31
0.0
  0
LINE
  5
E5
330
1E
100
AcDbEntity
  8
0
100
AcDbLine
 10
116.5
 20
60.0
 30
0.0
 11
116.5
 21
10.0
 31
0.0
  0
LINE
  5
E6
330
1E
100
AcDbEntity
  8
0
100
AcDbLine
 10
116.5
 20
60.0
 30
0.0
 11
118.1
 21
60.0
 31
0.0
  0
LINE
  5
E7
330
1E
100
AcDbEntity
  8
0
100
AcDbLine
 10
116.2306
 20
9.771699999999999
 30
0.0
 11
116.5
 21
10.0
 31
0.0
  0
LINE
  5
E8
330
1E
100
AcDbEntity
  8
0
100
AcDbLine
 10
107.0999999999999
 20
60.0
 30
0.0
 11
109.0
 21
60.0
 31
0.0
  0
LINE
  5
E9
330
1E
100
AcDbEntity
  8
0
100
AcDbLine
 10
107.0771699999999
 20
2.275199999999999
 30
0.0
 11
109.0278999999999
 21
4.261769999999999
 31
0.0
  0
LINE
  5
EA
330
1E
100
AcDbEntity
  8
0
100
AcDbLine
 10
105.2999999999999
 20
60.0
 30
0.0
 11
107.0999999999999
 21
60.0
 31
0.0
  0
LINE
  5
EB
330
1E
100
AcDbEntity
  8
0
100
AcDbLine
 10
105.2764999999999
 20
1.15073
 30
0.0
 11
107.0771699999999
 21
2.275199999999999
 31
0.0
  0
LINE
  5
EC
330
1E
100
AcDbEntity
  8
0
100
AcDbLine
 10
106.2999999999999
 20
60.0
 30
0.0
 11
109.0
 21
60.0
 31
0.0
  0
LINE
  5
ED
330
1E
100
AcDbEntity
  8
0
100
AcDbLine
 10
103.8
 20
60.0
 30
0.0
 11
106.2999999999999
 21
60.0
 31
0.0
  0
LINE
  5
EE
330
1E
100
AcDbEntity
  8
0
100
AcDbLine
 10
101.6
 20
60.0
 30
0.0
 11
103.8
 21
60.0
 31
0.0
  0
LINE
  5
EF
330
1E
100
AcDbEntity
  8
0
100
AcDbLine
 10
99.90000000000001
 20
60.0
 30
0.0
 11
101.6
 21
60.0
 31
0.0
  0
LINE
  5
F0
330
1E
100
AcDbEntity
  8
0
100
AcDbLine
 10
99.90000000000001
 20
60.0
 30
0.0
 11
101.5
 21
60.0
 31
0.0
  0
LINE
  5
F1
330
1E
100
AcDbEntity
  8
0
100
AcDbLine
 10
184.0
 20
78.666668
 30
0.0
 11
192.5329999999999
 21
79.86667
 31
0.0
  0
LINE
  5
F2
330
1E
100
AcDbEntity
  8
0
100
AcDbLine
 10
109.0
 20
84.04484000000001
 30
0.0
 11
112.3429999999999
 21
84.16501
 31
0.0
  0
LINE
  5
F3
330
1E
100
AcDbEntity
  8
0
100
AcDbLine
 10
112.3429999999999
 20
84.16501
 30
0.0
 11
115.5
 21
84.50146999999999
 31
0.0
  0
LINE
  5
F4
330
1E
100
AcDbEntity
  8
0
100
AcDbLine
 10
115.5
 20
84.50146999999999
 30
0.0
 11
118.1929999999999
 21
85.03019
 31
0.0
  0
LINE
  5
F5
330
1E
100
AcDbEntity
  8
0
100
AcDbLine
 10
118.1929999999999
 20
85.03019
 30
0.0
 11
120.236
 21
85.72715999999999
 31
0.0
  0
LINE
  5
F6
330
1E
100
AcDbEntity
  8
0
100
AcDbLine
 10
105.657
 20
84.16501
 30
0.0
 11
109.0
 21
84.04484000000001
 31
0.0
  0
LINE
  5
F7
330
1E
100
AcDbEntity
  8
0
100
AcDbLine
 10
102.4999999999999
 20
84.50146999999999
 30
0.0
 11
105.657
 21
84.16501
 31
0.0
  0
LINE
  5
F8
330
1E
100
AcDbEntity
  8
0
100
AcDbLine
 10
120.236
 20
85.72715999999999
 30
0.0
 11
121.5359999999999
 21
86.54428000000001
 31
0.0
  0
LINE
  5
F9
330
1E
100
AcDbEntity
  8
0
100
AcDbLine
 10
99.80710000000001
 20
85.03019
 30
0.0
 11
102.4999999999999
 21
84.50146999999999
 31
0.0
  0
LINE
  5
FA
330
1E
100
AcDbEntity
  8
0
100
AcDbLine
 10
122.0
 20
87.40948000000001
 30
0.0
 11
122.0
 21
92.09999999999999
 31
0.0
  0
LINE
  5
FB
330
1E
100
AcDbEntity
  8
0
100
AcDbLine
 10
121.5359999999999
 20
86.54428000000001
 30
0.0
 11
122.0
 21
87.40948000000001
 31
0.0
  0
LINE
  5
FC
330
1E
100
AcDbEntity
  8
0
100
AcDbLine
 10
128.245
 20
87.08020000000001
 30
0.0
 11
132.1648763700652
 21
89.50000000000001
 31
0.0
  0
LINE
  5
FD
330
1E
100
AcDbEntity
  8
0
100
AcDbLine
 10
122.182
 20
85.29633000000002
 30
0.0
 11
128.245
 21
87.08020000000001
 31
0.0
  0
LINE
  5
FE
330
1E
100
AcDbEntity
  8
0
100
AcDbLine
 10
120.328057618367
 20
84.8417285510016
 30
0.0
 11
122.182
 21
85.29633000000002
 31
0.0
  0
LINE
  5
FF
330
1E
100
AcDbEntity
  8
0
100
AcDbLine
 10
120.236
 20
89.0918
 30
0.0
 11
121.5359999999999
 21
88.27469999999999
 31
0.0
  0
LINE
  5
100
330
1E
100
AcDbEntity
  8
0
100
AcDbLine
 10
121.5359999999999
 20
88.27469999999999
 30
0.0
 11
122.0
 21
87.40948000000001
 31
0.0
  0
LINE
  5
101
330
1E
100
AcDbEntity
  8
0
100
AcDbLine
 10
132.1648763700649
 20
89.50000000000001
 30
0.0
 11
216.0
 21
89.50000000000001
 31
0.0
  0
LINE
  5
102
330
1E
100
AcDbEntity
  8
0
100
AcDbLine
 10
99.40000000000001
 20
94.50000000000001
 30
0.0
 11
102.2
 21
95.09999999999999
 31
0.0
  0
LINE
  5
103
330
1E
100
AcDbEntity
  8
0
100
AcDbLine
 10
102.2
 20
95.09999999999999
 30
0.0
 11
105.4999999999999
 21
95.4
 31
0.0
  0
LINE
  5
104
330
1E
100
AcDbEntity
  8
0
100
AcDbLine
 10
101.5
 20
96.79999999999999
 30
0.0
 11
105.0999999999999
 21
97.2
 31
0.0
  0
LINE
  5
105
330
1E
100
AcDbEntity
  8
0
100
AcDbLine
 10
105.0999999999999
 20
97.2
 30
0.0
 11
109.0
 21
97.3
 31
0.0
  0
LINE
  5
106
330
1E
100
AcDbEntity
  8
0
100
AcDbLine
 10
105.4999999999999
 20
95.4
 30
0.0
 11
109.0
 21
95.6
 31
0.0
  0
LINE
  5
107
330
1E
100
AcDbEntity
  8
0
100
AcDbLine
 10
109.0
 20
90.7741
 30
0.0
 11
112.3429999999999
 21
90.654
 31
0.0
  0
LINE
  5
108
330
1E
100
AcDbEntity
  8
0
100
AcDbLine
 10
105.657
 20
90.654
 30
0.0
 11
109.0
 21
90.7741
 31
0.0
  0
LINE
  5
109
330
1E
100
AcDbEntity
  8
0
100
AcDbLine
 10
102.4999999999999
 20
90.3175
 30
0.0
 11
105.657
 21
90.654
 31
0.0
  0
LINE
  5
10A
330
1E
100
AcDbEntity
  8
0
100
AcDbLine
 10
99.80710000000001
 20
89.7888
 30
0.0
 11
102.4999999999999
 21
90.3175
 31
0.0
  0
LINE
  5
10B
330
1E
100
AcDbEntity
  8
0
100
AcDbLine
 10
99.72889999999999
 20
127.6
 30
0.0
 11
102.636
 21
128.785737916657
 31
0.0
  0
LINE
  5
10C
330
1E
100
AcDbEntity
  8
0
100
AcDbLine
 10
102.636
 20
127.2910248249519
 30
0.0
 11
102.636
 21
132.2221999999999
 31
0.0
  0
LINE
  5
10D
330
1E
100
AcDbEntity
  8
0
100
AcDbLine
 10
109.0
 20
97.3
 30
0.0
 11
112.9
 21
97.2
 31
0.0
  0
LINE
  5
10E
330
1E
100
AcDbEntity
  8
0
100
AcDbLine
 10
112.3429999999999
 20
90.654
 30
0.0
 11
115.5
 21
90.3175
 31
0.0
  0
LINE
  5
10F
330
1E
100
AcDbEntity
  8
0
100
AcDbLine
 10
115.3639999999999
 20
126.9816089731189
 30
0.0
 11
115.3639999999999
 21
132.2221999999999
 31
0.0
  0
LINE
  5
110
330
1E
100
AcDbEntity
  8
0
100
AcDbLine
 10
112.9
 20
97.2
 30
0.0
 11
116.5
 21
96.79999999999999
 31
0.0
  0
LINE
  5
111
330
1E
100
AcDbEntity
  8
0
100
AcDbLine
 10
112.5
 20
95.4
 30
0.0
 11
115.7999999999999
 21
95.09999999999999
 31
0.0
  0
LINE
  5
112
330
1E
100
AcDbEntity
  8
0
100
AcDbLine
 10
109.0
 20
95.6
 30
0.0
 11
112.5
 21
95.4
 31
0.0
  0
LINE
  5
113
330
1E
100
AcDbEntity
  8
0
100
AcDbLine
 10
99.0
 20
132.2221999999999
 30
0.0
 11
99.0
 21
142.8443
 31
0.0
  0
LINE
  5
114
330
1E
100
AcDbEntity
  8
0
100
AcDbLine
 10
99.0
 20
132.2221999999999
 30
0.0
 11
99.33329999999999
 21
132.2221999999999
 31
0.0
  0
LINE
  5
115
330
1E
100
AcDbEntity
  8
0
100
AcDbLine
 10
99.33329999999999
 20
132.2221999999999
 30
0.0
 11
100.333
 21
132.2221999999999
 31
0.0
  0
LINE
  5
117
330
1E
100
AcDbEntity
  8
0
100
AcDbLine
 10
101.9329999999999
 20
132.2221999999999
 30
0.0
 11
102.636
 21
132.2221999999999
 31
0.0
  0
LINE
  5
118
330
1E
100
AcDbEntity
  8
0
100
AcDbLine
 10
100.333
 20
132.2221999999999
 30
0.0
 11
101.9329999999999
 21
132.2221999999999
 31
0.0
  0
LINE
  5
119
330
1E
100
AcDbEntity
  8
0
100
AcDbLine
 10
100.333
 20
132.2221999999999
 30
0.0
 11
101.9329999999999
 21
132.2221999999999
 31
0.0
  0
LINE
  5
11A
330
1E
100
AcDbEntity
  8
0
100
AcDbLine
 10
101.9329999999999
 20
132.2221999999999
 30
0.0
 11
104.0
 21
132.2221999999999
 31
0.0
  0
LINE
  5
11B
330
1E
100
AcDbEntity
  8
0
100
AcDbLine
 10
104.0
 20
132.2221999999999
 30
0.0
 11
106.4
 21
132.2221999999999
 31
0.0
  0
LINE
  5
11C
330
1E
100
AcDbEntity
  8
0
100
AcDbLine
 10
115.3639999999999
 20
132.2221999999999
 30
0.0
 11
116.067
 21
132.2221999999999
 31
0.0
  0
LINE
  5
11D
330
1E
100
AcDbEntity
  8
0
100
AcDbLine
 10
114.0
 20
132.2221999999999
 30
0.0
 11
116.067
 21
132.2221999999999
 31
0.0
  0
LINE
  5
11E
330
1E
100
AcDbEntity
  8
0
100
AcDbLine
 10
111.5999999999999
 20
132.2221999999999
 30
0.0
 11
114.0
 21
132.2221999999999
 31
0.0
  0
LINE
  5
11F
330
1E
100
AcDbEntity
  8
0
100
AcDbLine
 10
109.0
 20
132.2221999999999
 30
0.0
 11
111.5999999999999
 21
132.2221999999999
 31
0.0
  0
LINE
  5
120
330
1E
100
AcDbEntity
  8
0
100
AcDbLine
 10
106.4
 20
132.2221999999999
 30
0.0
 11
109.0
 21
132.2221999999999
 31
0.0
  0
LINE
  5
121
330
1E
100
AcDbEntity
  8
0
100
AcDbLine
 10
115.3639999999999
 20
132.2221999999999
 30
0.0
 11
115.3639999999999
 21
126.9816089731189
 31
0.0
  0
LINE
  5
122
330
1E
100
AcDbEntity
  8
0
100
AcDbLine
 10
102.636
 20
132.2221999999999
 30
0.0
 11
102.636
 21
127.2910248249519
 31
0.0
  0
LINE
  5
123
330
1E
100
AcDbEntity
  8
0
100
AcDbLine
 10
115.3639999999999
 20
128.785723997281
 30
0.0
 11
118.2709999999999
 21
127.6
 31
0.0
  0
LINE
  5
124
330
1E
100
AcDbEntity
  8
0
100
AcDbLine
 10
115.5
 20
90.3175
 30
0.0
 11
118.1929999999999
 21
89.7888
 31
0.0
  0
LINE
  5
125
330
1E
100
AcDbEntity
  8
0
100
AcDbLine
 10
118.1929999999999
 20
89.7888
 30
0.0
 11
120.236
 21
89.0918
 31
0.0
  0
LINE
  5
126
330
1E
100
AcDbEntity
  8
0
100
AcDbLine
 10
116.5
 20
96.79999999999999
 30
0.0
 11
119.5999999999999
 21
96.2
 31
0.0
  0
LINE
  5
127
330
1E
100
AcDbEntity
  8
0
100
AcDbLine
 10
115.7999999999999
 20
95.09999999999999
 30
0.0
 11
118.5999999999999
 21
94.50000000000001
 31
0.0
  0
LINE
  5
128
330
1E
100
AcDbEntity
  8
0
100
AcDbLine
 10
122.0
 20
91.13571428571431
 30
0.0
 11
122.0999999999999
 21
91.2
 31
0.0
  0
LINE
  5
129
330
1E
100
AcDbEntity
  8
0
100
AcDbLine
 10
122.0
 20
92.09999999999999
 30
0.0
 11
122.0
 21
87.40948000000001
 31
0.0
  0
LINE
  5
12A
330
1E
100
AcDbEntity
  8
0
100
AcDbLine
 10
122.0999999999999
 20
91.2
 30
0.0
 11
122.5
 21
92.09999999999999
 31
0.0
  0
LINE
  5
12B
330
1E
100
AcDbEntity
  8
0
100
AcDbLine
 10
122.0999999999999
 20
91.2
 30
0.0
 11
123.5
 21
92.4
 31
0.0
  0
LINE
  5
12C
330
1E
100
AcDbEntity
  8
0
100
AcDbLine
 10
124.0
 20
93.40000000000001
 30
0.0
 11
124.0
 21
99.50000000000001
 31
0.0
  0
LINE
  5
12D
330
1E
100
AcDbEntity
  8
0
100
AcDbLine
 10
123.5
 20
92.4
 30
0.0
 11
124.0
 21
93.40000000000001
 31
0.0
  0
LINE
  5
12E
330
1E
100
AcDbEntity
  8
0
100
AcDbLine
 10
122.0999999999999
 20
93.0
 30
0.0
 11
122.5
 21
92.09999999999999
 31
0.0
  0
LINE
  5
12F
330
1E
100
AcDbEntity
  8
0
100
AcDbLine
 10
123.5
 20
94.40000000000001
 30
0.0
 11
124.0
 21
93.40000000000001
 31
0.0
  0
LINE
  5
130
330
1E
100
AcDbEntity
  8
0
100
AcDbLine
 10
124.0
 20
99.50000000000001
 30
0.0
 11
124.0
 21
93.40000000000001
 31
0.0
  0
LINE
  5
131
330
1E
100
AcDbEntity
  8
0
100
AcDbLine
 10
124.0
 20
99.50000000000001
 30
0.0
 11
124.3
 21
104.7
 31
0.0
  0
LINE
  5
132
330
1E
100
AcDbEntity
  8
0
100
AcDbLine
 10
122.0
 20
95.4
 30
0.0
 11
123.5
 21
94.40000000000001
 31
0.0
  0
LINE
  5
133
330
1E
100
AcDbEntity
  8
0
100
AcDbLine
 10
119.5999999999999
 20
96.2
 30
0.0
 11
122.0
 21
95.4
 31
0.0
  0
LINE
  5
134
330
1E
100
AcDbEntity
  8
0
100
AcDbLine
 10
120.7
 20
93.8
 30
0.0
 11
122.0999999999999
 21
93.0
 31
0.0
  0
LINE
  5
135
330
1E
100
AcDbEntity
  8
0
100
AcDbLine
 10
118.5999999999999
 20
94.50000000000001
 30
0.0
 11
120.7
 21
93.8
 31
0.0
  0
LINE
  5
136
330
1E
100
AcDbEntity
  8
0
100
AcDbLine
 10
124.4708737864079
 20
108.032038834951
 30
0.0
 11
124.5
 21
108.0999999999999
 31
0.0
  0
LINE
  5
137
330
1E
100
AcDbEntity
  8
0
100
AcDbLine
 10
124.5
 20
108.6
 30
0.0
 11
124.7999999999999
 21
111.2999999999999
 31
0.0
  0
LINE
  5
138
330
1E
100
AcDbEntity
  8
0
100
AcDbLine
 10
124.3
 20
104.7
 30
0.0
 11
124.5
 21
108.6
 31
0.0
  0
LINE
  5
139
330
1E
100
AcDbEntity
  8
0
100
AcDbLine
 10
124.744
 20
103.0
 30
0.0
 11
126.411
 21
107.4
 31
0.0
  0
LINE
  5
13A
330
1E
100
AcDbEntity
  8
0
100
AcDbLine
 10
124.159514814919
 20
102.2649234586
 30
0.0
 11
124.744
 21
103.0
 31
0.0
  0
LINE
  5
13B
330
1E
100
AcDbEntity
  8
0
100
AcDbLine
 10
124.744
 20
121.0
 30
0.0
 11
126.411
 21
116.5999999999999
 31
0.0
  0
LINE
  5
13F
330
1E
100
AcDbEntity
  8
0
100
AcDbLine
 10
121.802
 20
124.7
 30
0.0
 11
124.744
 21
121.0
 31
0.0
  0
LINE
  5
140
330
1E
100
AcDbEntity
  8
0
100
AcDbLine
 10
118.2709999999999
 20
127.6
 30
0.0
 11
121.802
 21
124.7
 31
0.0
  0
LINE
  5
141
330
1E
100
AcDbEntity
  8
0
100
AcDbLine
 10
116.067
 20
132.2221999999999
 30
0.0
 11
117.667
 21
132.2221999999999
 31
0.0
  0
LINE
  5
142
330
1E
100
AcDbEntity
  8
0
100
AcDbLine
 10
119.0
 20
132.2221999999999
 30
0.0
 11
119.0
 21
142.8443
 31
0.0
  0
LINE
  5
143
330
1E
100
AcDbEntity
  8
0
100
AcDbLine
 10
118.667
 20
132.2221999999999
 30
0.0
 11
119.0
 21
132.2221999999999
 31
0.0
  0
LINE
  5
144
330
1E
100
AcDbEntity
  8
0
100
AcDbLine
 10
117.667
 20
132.2221999999999
 30
0.0
 11
118.667
 21
132.2221999999999
 31
0.0
  0
LINE
  5
145
330
1E
100
AcDbEntity
  8
0
100
AcDbLine
 10
116.067
 20
132.2221999999999
 30
0.0
 11
117.667
 21
132.2221999999999
 31
0.0
  0
LINE
  5
146
330
1E
100
AcDbEntity
  8
0
100
AcDbLine
 10
133.855625
 20
134.4999999999999
 30
0.0
 11
216.0
 21
134.4999999999999
 31
0.0
  0
LINE
  5
149
330
1E
100
AcDbEntity
  8
0
100
AcDbLine
 10
159.5905698558029
 20
134.4999999999999
 30
0.0
 11
160.4
 21
135.5999999999999
 31
0.0
  0
LINE
  5
14A
330
1E
100
AcDbEntity
  8
0
100
AcDbLine
 10
160.4
 20
135.5999999999999
 30
0.0
 11
167.467
 21
140.8
 31
0.0
  0
LINE
  5
14B
330
1E
100
AcDbEntity
  8
0
100
AcDbLine
 10
159.5905698558029
 20
89.50000000000001
 30
0.0
 11
160.4
 21
88.40000000000001
 31
0.0
  0
LINE
  5
14C
330
1E
100
AcDbEntity
  8
0
100
AcDbLine
 10
160.4
 20
88.40000000000001
 30
0.0
 11
167.467
 21
83.20000999999999
 31
0.0
  0
LINE
  5
14D
330
1E
100
AcDbEntity
  8
0
100
AcDbLine
 10
119.0
 20
138.0
 30
0.0
 11
120.7
 21
138.0
 31
0.0
  0
LINE
  5
14E
330
1E
100
AcDbEntity
  8
0
100
AcDbLine
 10
120.7
 20
138.0
 30
0.0
 11
125.7
 21
138.0
 31
0.0
  0
LINE
  5
14F
330
1E
100
AcDbEntity
  8
0
100
AcDbLine
 10
119.0
 20
137.0
 30
0.0
 11
132.6999999999999
 21
137.0
 31
0.0
  0
LINE
  5
150
330
1E
100
AcDbEntity
  8
0
100
AcDbLine
 10
125.7
 20
138.0
 30
0.0
 11
129.4
 21
138.0
 31
0.0
  0
LINE
  5
151
330
1E
100
AcDbEntity
  8
0
100
AcDbLine
 10
129.4
 20
138.0
 30
0.0
 11
131.6999999999999
 21
138.0
 31
0.0
  0
LINE
  5
152
330
1E
100
AcDbEntity
  8
0
100
AcDbLine
 10
131.6999999999999
 20
138.0
 30
0.0
 11
132.4999999999999
 21
138.0
 31
0.0
  0
LINE
  5
153
330
1E
100
AcDbEntity
  8
0
100
AcDbLine
 10
99.0
 20
142.8443
 30
0.0
 11
100.333
 21
144.4610999999999
 31
0.0
  0
LINE
  5
154
330
1E
100
AcDbEntity
  8
0
100
AcDbLine
 10
99.0
 20
142.8443
 30
0.0
 11
99.33329999999999
 21
142.8443
 31
0.0
  0
LINE
  5
155
330
1E
100
AcDbEntity
  8
0
100
AcDbLine
 10
99.0
 20
142.8443
 30
0.0
 11
99.0
 21
132.2221999999999
 31
0.0
  0
LINE
  5
156
330
1E
100
AcDbEntity
  8
0
100
AcDbLine
 10
99.33329999999999
 20
142.8443
 30
0.0
 11
100.333
 21
142.8443
 31
0.0
  0
LINE
  5
157
330
1E
100
AcDbEntity
  8
0
100
AcDbLine
 10
100.333
 20
142.8443
 30
0.0
 11
101.9329999999999
 21
142.8443
 31
0.0
  0
LINE
  5
158
330
1E
100
AcDbEntity
  8
0
100
AcDbLine
 10
100.333
 20
144.4610999999999
 30
0.0
 11
109.0
 21
145.0
 31
0.0
  0
LINE
  5
159
330
1E
100
AcDbEntity
  8
0
100
AcDbLine
 10
100.333
 20
144.4610999999999
 30
0.0
 11
100.6669999999999
 21
144.4610999999999
 31
0.0
  0
LINE
  5
15A
330
1E
100
AcDbEntity
  8
0
100
AcDbLine
 10
100.6669999999999
 20
144.4610999999999
 30
0.0
 11
101.467
 21
144.4610999999999
 31
0.0
  0
LINE
  5
15B
330
1E
100
AcDbEntity
  8
0
100
AcDbLine
 10
101.9329999999999
 20
142.8443
 30
0.0
 11
104.0
 21
142.8443
 31
0.0
  0
LINE
  5
15C
330
1E
100
AcDbEntity
  8
0
100
AcDbLine
 10
104.0
 20
142.8443
 30
0.0
 11
106.4
 21
142.8443
 31
0.0
  0
LINE
  5
15D
330
1E
100
AcDbEntity
  8
0
100
AcDbLine
 10
101.467
 20
144.4610999999999
 30
0.0
 11
102.8669999999999
 21
144.4610999999999
 31
0.0
  0
LINE
  5
15E
330
1E
100
AcDbEntity
  8
0
100
AcDbLine
 10
102.8669999999999
 20
144.4610999999999
 30
0.0
 11
104.6669999999999
 21
144.4610999999999
 31
0.0
  0
LINE
  5
15F
330
1E
100
AcDbEntity
  8
0
100
AcDbLine
 10
111.5999999999999
 20
142.8443
 30
0.0
 11
114.0
 21
142.8443
 31
0.0
  0
LINE
  5
160
330
1E
100
AcDbEntity
  8
0
100
AcDbLine
 10
109.0
 20
142.8443
 30
0.0
 11
111.5999999999999
 21
142.8443
 31
0.0
  0
LINE
  5
161
330
1E
100
AcDbEntity
  8
0
100
AcDbLine
 10
113.3329999999999
 20
144.4610999999999
 30
0.0
 11
115.1329999999999
 21
144.4610999999999
 31
0.0
  0
LINE
  5
162
330
1E
100
AcDbEntity
  8
0
100
AcDbLine
 10
111.267
 20
144.4610999999999
 30
0.0
 11
113.3329999999999
 21
144.4610999999999
 31
0.0
  0
LINE
  5
163
330
1E
100
AcDbEntity
  8
0
100
AcDbLine
 10
109.0
 20
144.4610999999999
 30
0.0
 11
111.267
 21
144.4610999999999
 31
0.0
  0
LINE
  5
164
330
1E
100
AcDbEntity
  8
0
100
AcDbLine
 10
106.4
 20
142.8443
 30
0.0
 11
109.0
 21
142.8443
 31
0.0
  0
LINE
  5
165
330
1E
100
AcDbEntity
  8
0
100
AcDbLine
 10
104.6669999999999
 20
144.4610999999999
 30
0.0
 11
106.7329999999999
 21
144.4610999999999
 31
0.0
  0
LINE
  5
166
330
1E
100
AcDbEntity
  8
0
100
AcDbLine
 10
102.6
 20
176.0069999999999
 30
0.0
 11
104.4999999999999
 21
176.0069999999999
 31
0.0
  0
LINE
  5
167
330
1E
100
AcDbEntity
  8
0
100
AcDbLine
 10
104.4999999999999
 20
171.5829
 30
0.0
 11
104.4999999999999
 21
184.6529999999999
 31
0.0
  0
LINE
  5
168
330
1E
100
AcDbEntity
  8
0
100
AcDbLine
 10
109.0
 20
145.0
 30
0.0
 11
117.667
 21
144.4610999999999
 31
0.0
  0
LINE
  5
169
330
1E
100
AcDbEntity
  8
0
100
AcDbLine
 10
106.7329999999999
 20
144.4610999999999
 30
0.0
 11
109.0
 21
144.4610999999999
 31
0.0
  0
LINE
  5
16A
330
1E
100
AcDbEntity
  8
0
100
AcDbLine
 10
114.0
 20
142.8443
 30
0.0
 11
116.067
 21
142.8443
 31
0.0
  0
LINE
  5
16B
330
1E
100
AcDbEntity
  8
0
100
AcDbLine
 10
113.5
 20
171.5829
 30
0.0
 11
113.5
 21
184.6529999999999
 31
0.0
  0
LINE
  5
16C
330
1E
100
AcDbEntity
  8
0
100
AcDbLine
 10
103.0
 20
176.507
 30
0.0
 11
104.4999999999999
 21
176.507
 31
0.0
  0
LINE
  5
16D
330
1E
100
AcDbEntity
  8
0
100
AcDbLine
 10
113.5
 20
176.0069999999999
 30
0.0
 11
115.4
 21
176.0069999999999
 31
0.0
  0
LINE
  5
16E
330
1E
100
AcDbEntity
  8
0
100
AcDbLine
 10
121.1999999999999
 20
140.507
 30
0.0
 11
126.2999999999999
 21
140.507
 31
0.0
  0
LINE
  5
16F
330
1E
100
AcDbEntity
  8
0
100
AcDbLine
 10
119.0
 20
140.507
 30
0.0
 11
121.1999999999999
 21
140.507
 31
0.0
  0
LINE
  5
170
330
1E
100
AcDbEntity
  8
0
100
AcDbLine
 10
116.067
 20
142.8443
 30
0.0
 11
117.667
 21
142.8443
 31
0.0
  0
LINE
  5
171
330
1E
100
AcDbEntity
  8
0
100
AcDbLine
 10
119.0
 20
142.8443
 30
0.0
 11
119.0
 21
132.2221999999999
 31
0.0
  0
LINE
  5
172
330
1E
100
AcDbEntity
  8
0
100
AcDbLine
 10
118.667
 20
142.8443
 30
0.0
 11
119.0
 21
142.8443
 31
0.0
  0
LINE
  5
173
330
1E
100
AcDbEntity
  8
0
100
AcDbLine
 10
117.667
 20
144.4610999999999
 30
0.0
 11
119.0
 21
142.8443
 31
0.0
  0
LINE
  5
174
330
1E
100
AcDbEntity
  8
0
100
AcDbLine
 10
117.667
 20
142.8443
 30
0.0
 11
118.667
 21
142.8443
 31
0.0
  0
LINE
  5
175
330
1E
100
AcDbEntity
  8
0
100
AcDbLine
 10
117.3329999999999
 20
144.4610999999999
 30
0.0
 11
117.667
 21
144.4610999999999
 31
0.0
  0
LINE
  5
176
330
1E
100
AcDbEntity
  8
0
100
AcDbLine
 10
116.5329999999999
 20
144.4610999999999
 30
0.0
 11
117.3329999999999
 21
144.4610999999999
 31
0.0
  0
LINE
  5
177
330
1E
100
AcDbEntity
  8
0
100
AcDbLine
 10
115.1329999999999
 20
144.4610999999999
 30
0.0
 11
116.5329999999999
 21
144.4610999999999
 31
0.0
  0
LINE
  5
178
330
1E
100
AcDbEntity
  8
0
100
AcDbLine
 10
119.0
 20
141.507
 30
0.0
 11
121.7
 21
141.507
 31
0.0
  0
LINE
  5
179
330
1E
100
AcDbEntity
  8
0
100
AcDbLine
 10
126.2999999999999
 20
140.507
 30
0.0
 11
130.1999999999999
 21
140.507
 31
0.0
  0
LINE
  5
17A
330
1E
100
AcDbEntity
  8
0
100
AcDbLine
 10
127.0
 20
141.507
 30
0.0
 11
131.0999999999999
 21
141.507
 31
0.0
  0
LINE
  5
17B
330
1E
100
AcDbEntity
  8
0
100
AcDbLine
 10
121.7
 20
141.507
 30
0.0
 11
127.0
 21
141.507
 31
0.0
  0
LINE
  5
17C
330
1E
100
AcDbEntity
  8
0
100
AcDbLine
 10
126.7
 20
176.0069999999999
 30
0.0
 11
130.6
 21
176.0069999999999
 31
0.0
  0
LINE
  5
17D
330
1E
100
AcDbEntity
  8
0
100
AcDbLine
 10
121.4
 20
176.0069999999999
 30
0.0
 11
126.7
 21
176.0069999999999
 31
0.0
  0
LINE
  5
17E
330
1E
100
AcDbEntity
  8
0
100
AcDbLine
 10
115.4
 20
176.0069999999999
 30
0.0
 11
121.4
 21
176.0069999999999
 31
0.0
  0
LINE
  5
17F
330
1E
100
AcDbEntity
  8
0
100
AcDbLine
 10
130.1999999999999
 20
140.507
 30
0.0
 11
132.6
 21
140.507
 31
0.0
  0
LINE
  5
180
330
1E
100
AcDbEntity
  8
0
100
AcDbLine
 10
131.0999999999999
 20
141.507
 30
0.0
 11
133.6
 21
141.507
 31
0.0
  0
LINE
  5
181
330
1E
100
AcDbEntity
  8
0
100
AcDbLine
 10
130.6
 20
176.0069999999999
 30
0.0
 11
133.0999999999999
 21
176.0069999999999
 31
0.0
  0
LINE
  5
182
330
1E
100
AcDbEntity
  8
0
100
AcDbLine
 10
131.6
 20
176.507
 30
0.0
 11
132.4999999999999
 21
176.507
 31
0.0
  0
LINE
  5
183
330
1E
100
AcDbEntity
  8
0
100
AcDbLine
 10
129.4
 20
176.507
 30
0.0
 11
131.6
 21
176.507
 31
0.0
  0
LINE
  5
184
330
1E
100
AcDbEntity
  8
0
100
AcDbLine
 10
120.7
 20
176.507
 30
0.0
 11
129.4
 21
176.507
 31
0.0
  0
LINE
  5
185
330
1E
100
AcDbEntity
  8
0
100
AcDbLine
 10
115.0
 20
176.507
 30
0.0
 11
120.7
 21
176.507
 31
0.0
  0
LINE
  5
186
330
1E
100
AcDbEntity
  8
0
100
AcDbLine
 10
104.7
 20
183.494
 30
0.0
 11
105.0999999999999
 21
182.528
 31
0.0
  0
LINE
  5
187
330
1E
100
AcDbEntity
  8
0
100
AcDbLine
 10
105.0999999999999
 20
182.528
 30
0.0
 11
105.8
 21
181.562
 31
0.0
  0
LINE
  5
188
330
1E
100
AcDbEntity
  8
0
100
AcDbLine
 10
105.0999999999999
 20
183.817
 30
0.0
 11
105.4999999999999
 21
182.8509999999999
 31
0.0
  0
LINE
  5
189
330
1E
100
AcDbEntity
  8
0
100
AcDbLine
 10
104.4999999999999
 20
184.6529999999999
 30
0.0
 11
104.7
 21
185.812
 31
0.0
  0
LINE
  5
18A
330
1E
100
AcDbEntity
  8
0
100
AcDbLine
 10
104.4999999999999
 20
184.6529999999999
 30
0.0
 11
104.7
 21
183.494
 31
0.0
  0
LINE
  5
18B
330
1E
100
AcDbEntity
  8
0
100
AcDbLine
 10
104.4999999999999
 20
184.6529999999999
 30
0.0
 11
104.4999999999999
 21
171.5829
 31
0.0
  0
LINE
  5
18C
330
1E
100
AcDbEntity
  8
0
100
AcDbLine
 10
104.7
 20
185.812
 30
0.0
 11
105.0999999999999
 21
186.7779999999999
 31
0.0
  0
LINE
  5
18D
330
1E
100
AcDbEntity
  8
0
100
AcDbLine
 10
105.0
 20
184.7829999999999
 30
0.0
 11
105.0999999999999
 21
185.749
 31
0.0
  0
LINE
  5
18E
330
1E
100
AcDbEntity
  8
0
100
AcDbLine
 10
105.0
 20
184.7829999999999
 30
0.0
 11
105.0999999999999
 21
183.817
 31
0.0
  0
LINE
  5
18F
330
1E
100
AcDbEntity
  8
0
100
AcDbLine
 10
105.8
 20
181.562
 30
0.0
 11
106.8
 21
180.8859999999999
 31
0.0
  0
LINE
  5
190
330
1E
100
AcDbEntity
  8
0
100
AcDbLine
 10
105.4999999999999
 20
182.8509999999999
 30
0.0
 11
106.0999999999999
 21
181.9819999999999
 31
0.0
  0
LINE
  5
191
330
1E
100
AcDbEntity
  8
0
100
AcDbLine
 10
106.0999999999999
 20
181.9819999999999
 30
0.0
 11
107.0
 21
181.402
 31
0.0
  0
LINE
  5
192
330
1E
100
AcDbEntity
  8
0
100
AcDbLine
 10
105.0999999999999
 20
185.749
 30
0.0
 11
105.4999999999999
 21
186.715
 31
0.0
  0
LINE
  5
193
330
1E
100
AcDbEntity
  8
0
100
AcDbLine
 10
105.0999999999999
 20
186.7779999999999
 30
0.0
 11
105.8
 21
187.744
 31
0.0
  0
LINE
  5
194
330
1E
100
AcDbEntity
  8
0
100
AcDbLine
 10
105.8
 20
187.744
 30
0.0
 11
106.8
 21
188.4199999999999
 31
0.0
  0
LINE
  5
195
330
1E
100
AcDbEntity
  8
0
100
AcDbLine
 10
105.4999999999999
 20
186.715
 30
0.0
 11
106.0999999999999
 21
187.584
 31
0.0
  0
LINE
  5
196
330
1E
100
AcDbEntity
  8
0
100
AcDbLine
 10
106.8
 20
180.8859999999999
 30
0.0
 11
107.8
 21
180.4999999999999
 31
0.0
  0
LINE
  5
197
330
1E
100
AcDbEntity
  8
0
100
AcDbLine
 10
107.8
 20
180.4999999999999
 30
0.0
 11
109.0
 21
180.307
 31
0.0
  0
LINE
  5
198
330
1E
100
AcDbEntity
  8
0
100
AcDbLine
 10
107.0
 20
181.402
 30
0.0
 11
108.0
 21
181.0159999999999
 31
0.0
  0
LINE
  5
199
330
1E
100
AcDbEntity
  8
0
100
AcDbLine
 10
108.0
 20
181.0159999999999
 30
0.0
 11
109.0
 21
180.919
 31
0.0
  0
LINE
  5
19A
330
1E
100
AcDbEntity
  8
0
100
AcDbLine
 10
106.0999999999999
 20
187.584
 30
0.0
 11
107.0
 21
188.1629999999999
 31
0.0
  0
LINE
  5
19B
330
1E
100
AcDbEntity
  8
0
100
AcDbLine
 10
106.8
 20
188.4199999999999
 30
0.0
 11
107.8
 21
188.807
 31
0.0
  0
LINE
  5
19C
330
1E
100
AcDbEntity
  8
0
100
AcDbLine
 10
107.8
 20
188.807
 30
0.0
 11
109.0
 21
189.0
 31
0.0
  0
LINE
  5
19D
330
1E
100
AcDbEntity
  8
0
100
AcDbLine
 10
107.0
 20
188.1629999999999
 30
0.0
 11
108.0
 21
188.55
 31
0.0
  0
LINE
  5
19E
330
1E
100
AcDbEntity
  8
0
100
AcDbLine
 10
108.0
 20
188.55
 30
0.0
 11
109.0
 21
188.6459999999999
 31
0.0
  0
LINE
  5
19F
330
1E
100
AcDbEntity
  8
0
100
AcDbLine
 10
109.0
 20
189.0
 30
0.0
 11
110.2
 21
188.807
 31
0.0
  0
LINE
  5
1A0
330
1E
100
AcDbEntity
  8
0
100
AcDbLine
 10
109.0
 20
188.6459999999999
 30
0.0
 11
110.0
 21
188.55
 31
0.0
  0
LINE
  5
1A1
330
1E
100
AcDbEntity
  8
0
100
AcDbLine
 10
109.0
 20
180.307
 30
0.0
 11
110.2
 21
180.4999999999999
 31
0.0
  0
LINE
  5
1A2
330
1E
100
AcDbEntity
  8
0
100
AcDbLine
 10
111.2
 20
180.8859999999999
 30
0.0
 11
112.2
 21
181.562
 31
0.0
  0
LINE
  5
1A3
330
1E
100
AcDbEntity
  8
0
100
AcDbLine
 10
110.2
 20
180.4999999999999
 30
0.0
 11
111.2
 21
180.8859999999999
 31
0.0
  0
LINE
  5
1A4
330
1E
100
AcDbEntity
  8
0
100
AcDbLine
 10
111.0
 20
188.1629999999999
 30
0.0
 11
111.8999999999999
 21
187.584
 31
0.0
  0
LINE
  5
1A5
330
1E
100
AcDbEntity
  8
0
100
AcDbLine
 10
110.2
 20
188.807
 30
0.0
 11
111.2
 21
188.4199999999999
 31
0.0
  0
LINE
  5
1A6
330
1E
100
AcDbEntity
  8
0
100
AcDbLine
 10
110.0
 20
188.55
 30
0.0
 11
111.0
 21
188.1629999999999
 31
0.0
  0
LINE
  5
1A7
330
1E
100
AcDbEntity
  8
0
100
AcDbLine
 10
112.2
 20
181.562
 30
0.0
 11
112.9
 21
182.528
 31
0.0
  0
LINE
  5
1A8
330
1E
100
AcDbEntity
  8
0
100
AcDbLine
 10
112.5
 20
186.715
 30
0.0
 11
112.9
 21
185.749
 31
0.0
  0
LINE
  5
1A9
330
1E
100
AcDbEntity
  8
0
100
AcDbLine
 10
112.2
 20
187.744
 30
0.0
 11
112.9
 21
186.7779999999999
 31
0.0
  0
LINE
  5
1AA
330
1E
100
AcDbEntity
  8
0
100
AcDbLine
 10
111.2
 20
188.4199999999999
 30
0.0
 11
112.2
 21
187.744
 31
0.0
  0
LINE
  5
1AB
330
1E
100
AcDbEntity
  8
0
100
AcDbLine
 10
111.8999999999999
 20
187.584
 30
0.0
 11
112.5
 21
186.715
 31
0.0
  0
LINE
  5
1AC
330
1E
100
AcDbEntity
  8
0
100
AcDbLine
 10
113.3
 20
183.494
 30
0.0
 11
113.5
 21
184.6529999999999
 31
0.0
  0
LINE
  5
1AD
330
1E
100
AcDbEntity
  8
0
100
AcDbLine
 10
112.9
 20
182.528
 30
0.0
 11
113.3
 21
183.494
 31
0.0
  0
LINE
  5
1AE
330
1E
100
AcDbEntity
  8
0
100
AcDbLine
 10
112.9
 20
186.7779999999999
 30
0.0
 11
113.3
 21
185.812
 31
0.0
  0
LINE
  5
1AF
330
1E
100
AcDbEntity
  8
0
100
AcDbLine
 10
113.5
 20
184.6529999999999
 30
0.0
 11
113.5
 21
171.5829
 31
0.0
  0
LINE
  5
1B0
330
1E
100
AcDbEntity
  8
0
100
AcDbLine
 10
113.3
 20
185.812
 30
0.0
 11
113.5
 21
184.6529999999999
 31
0.0
  0
LINE
  5
1B1
330
1E
100
AcDbEntity
  8
0
100
AcDbLine
 10
112.9
 20
185.749
 30
0.0
 11
113.0
 21
184.7829999999999
 31
0.0
  0
LINE
  5
1B2
330
1E
100
AcDbEntity
  8
0
100
AcDbLine
 10
112.9
 20
183.817
 30
0.0
 11
113.0
 21
184.7829999999999
 31
0.0
  0
LINE
  5
1B3
330
1E
100
AcDbEntity
  8
0
100
AcDbLine
 10
112.5
 20
182.8509999999999
 30
0.0
 11
112.9
 21
183.817
 31
0.0
  0
LINE
  5
1B4
330
1E
100
AcDbEntity
  8
0
100
AcDbLine
 10
111.8999999999999
 20
181.9819999999999
 30
0.0
 11
112.5
 21
182.8509999999999
 31
0.0
  0
LINE
  5
1B5
330
1E
100
AcDbEntity
  8
0
100
AcDbLine
 10
111.0
 20
181.402
 30
0.0
 11
111.8999999999999
 21
181.9819999999999
 31
0.0
  0
LINE
  5
1B6
330
1E
100
AcDbEntity
  8
0
100
AcDbLine
 10
110.0
 20
181.0159999999999
 30
0.0
 11
111.0
 21
181.402
 31
0.0
  0
LINE
  5
1B7
330
1E
100
AcDbEntity
  8
0
100
AcDbLine
 10
109.0
 20
180.919
 30
0.0
 11
110.0
 21
181.0159999999999
 31
0.0
  0
LINE
  5
1B8
330
1E
100
AcDbEntity
  8
0
100
AcDbLine
 10
113.5
 20
176.507
 30
0.0
 11
115.0
 21
176.507
 31
0.0
  0
LINE
  5
1B9
330
1E
100
AcDbEntity
  8
0
100
AcDbLine
 10
132.4999999999999
 20
176.507
 30
0.0
 11
134.0
 21
176.0069999999999
 31
0.0
  0
LINE
  5
1BA
330
1E
100
AcDbEntity
  8
0
100
AcDbLine
 10
132.4999999999999
 20
138.0
 30
0.0
 11
133.4999999999999
 21
137.0
 31
0.0
  0
LINE
  5
1BB
330
1E
100
AcDbEntity
  8
0
100
AcDbLine
 10
133.4999999999999
 20
137.0
 30
0.0
 11
133.8820883799779
 21
134.313965694355
 31
0.0
  0
LINE
  5
1BC
330
1E
100
AcDbEntity
  8
0
100
AcDbLine
 10
132.6
 20
140.507
 30
0.0
 11
133.4999999999999
 21
140.507
 31
0.0
  0
LINE
  5
1BD
330
1E
100
AcDbEntity
  8
0
100
AcDbLine
 10
133.6
 20
141.507
 30
0.0
 11
134.4999999999999
 21
141.507
 31
0.0
  0
LINE
  5
1BE
330
1E
100
AcDbEntity
  8
0
100
AcDbLine
 10
133.0999999999999
 20
176.0069999999999
 30
0.0
 11
134.0
 21
176.0069999999999
 31
0.0
  0
LINE
  5
1BF
330
1E
100
AcDbEntity
  8
0
100
AcDbLine
 10
133.4999999999999
 20
140.507
 30
0.0
 11
134.4999999999999
 21
141.507
 31
0.0
  0
LINE
  5
1C0
330
1E
100
AcDbEntity
  8
0
100
AcDbLine
 10
134.4999999999999
 20
174.507
 30
0.0
 11
134.4999999999999
 21
141.507
 31
0.0
  0
LINE
  5
1C1
330
1E
100
AcDbEntity
  8
0
100
AcDbLine
 10
134.4999999999999
 20
141.507
 30
0.0
 11
134.4999999999999
 21
174.507
 31
0.0
  0
LINE
  5
1C2
330
1E
100
AcDbEntity
  8
0
100
AcDbLine
 10
134.0
 20
176.0069999999999
 30
0.0
 11
134.4999999999999
 21
174.507
 31
0.0
  0
LINE
  5
1C3
330
1E
100
AcDbEntity
  8
0
100
AcDbLine
 10
132.6999999999999
 20
137.0
 30
0.0
 11
133.4999999999999
 21
137.0
 31
0.0
  0
LINE
  5
1C4
330
1E
100
AcDbEntity
  8
0
100
AcDbLine
 10
132.4999999999999
 20
140.507
 30
0.0
 11
132.4999999999999
 21
138.0
 31
0.0
  0
LINE
  5
1C5
330
1E
100
AcDbEntity
  8
0
100
AcDbLine
 10
160.0
 20
136.0
 30
0.0
 11
167.067
 21
141.4667
 31
0.0
  0
LINE
  5
1C6
330
1E
100
AcDbEntity
  8
0
100
AcDbLine
 10
167.067
 20
141.4667
 30
0.0
 11
175.1999999999999
 21
144.8
 31
0.0
  0
LINE
  5
1C7
330
1E
100
AcDbEntity
  8
0
100
AcDbLine
 10
160.0
 20
88.0
 30
0.0
 11
167.067
 21
82.5333
 31
0.0
  0
LINE
  5
1C8
330
1E
100
AcDbEntity
  8
0
100
AcDbLine
 10
160.0
 20
88.0
 30
0.0
 11
167.067
 21
82.53334
 31
0.0
  0
LINE
  5
1C9
330
1E
100
AcDbEntity
  8
0
100
AcDbLine
 10
167.467
 20
140.8
 30
0.0
 11
175.467
 21
144.1333
 31
0.0
  0
LINE
  5
1CA
330
1E
100
AcDbEntity
  8
0
100
AcDbLine
 10
175.467
 20
144.1333
 30
0.0
 11
184.0
 21
145.3333
 31
0.0
  0
LINE
  5
1CB
330
1E
100
AcDbEntity
  8
0
100
AcDbLine
 10
167.467
 20
83.20000999999999
 30
0.0
 11
175.467
 21
79.86667
 31
0.0
  0
LINE
  5
1CC
330
1E
100
AcDbEntity
  8
0
100
AcDbLine
 10
175.467
 20
79.86667
 30
0.0
 11
184.0
 21
78.666668
 31
0.0
  0
LINE
  5
1CD
330
1E
100
AcDbEntity
  8
0
100
AcDbLine
 10
184.0
 20
145.3333
 30
0.0
 11
192.5329999999999
 21
144.1333
 31
0.0
  0
LINE
  5
1CE
330
1E
100
AcDbEntity
  8
0
100
AcDbLine
 10
184.0
 20
146.0
 30
0.0
 11
192.8
 21
144.8
 31
0.0
  0
LINE
  5
1CF
330
1E
100
AcDbEntity
  8
0
100
AcDbLine
 10
175.1999999999999
 20
144.8
 30
0.0
 11
184.0
 21
146.0
 31
0.0
  0
LINE
  5
1D0
330
1E
100
AcDbEntity
  8
0
100
AcDbLine
 10
167.067
 20
82.5333
 30
0.0
 11
175.1999999999999
 21
79.2
 31
0.0
  0
LINE
  5
1D1
330
1E
100
AcDbEntity
  8
0
100
AcDbLine
 10
175.1999999999999
 20
79.2
 30
0.0
 11
184.0
 21
78.0
 31
0.0
  0
LINE
  5
1D2
330
1E
100
AcDbEntity
  8
0
100
AcDbLine
 10
200.5329999999999
 20
140.8
 30
0.0
 11
207.6
 21
135.5999999999999
 31
0.0
  0
LINE
  5
1D3
330
1E
100
AcDbEntity
  8
0
100
AcDbLine
 10
192.5329999999999
 20
144.1333
 30
0.0
 11
200.5329999999999
 21
140.8
 31
0.0
  0
LINE
  5
1D4
330
1E
100
AcDbEntity
  8
0
100
AcDbLine
 10
200.9329999999999
 20
82.53334
 30
0.0
 11
208.0
 21
88.0
 31
0.0
  0
LINE
  5
1D5
330
1E
100
AcDbEntity
  8
0
100
AcDbLine
 10
200.5329999999999
 20
83.20000999999999
 30
0.0
 11
207.6
 21
88.40000000000001
 31
0.0
  0
LINE
  5
1D6
330
1E
100
AcDbEntity
  8
0
100
AcDbLine
 10
192.5329999999999
 20
79.86667
 30
0.0
 11
200.5329999999999
 21
83.20000999999999
 31
0.0
  0
LINE
  5
1D7
330
1E
100
AcDbEntity
  8
0
100
AcDbLine
 10
200.9329999999999
 20
141.4667
 30
0.0
 11
208.0
 21
136.0
 31
0.0
  0
LINE
  5
1D8
330
1E
100
AcDbEntity
  8
0
100
AcDbLine
 10
192.8
 20
144.8
 30
0.0
 11
200.9329999999999
 21
141.4667
 31
0.0
  0
LINE
  5
1D9
330
1E
100
AcDbEntity
  8
0
100
AcDbLine
 10
216.0
 20
89.50000000000001
 30
0.0
 11
217.5
 21
90.0
 31
0.0
  0
LINE
  5
1DA
330
1E
100
AcDbEntity
  8
0
100
AcDbLine
 10
217.5
 20
90.0
 30
0.0
 11
217.5
 21
90.8
 31
0.0
  0
LINE
  5
1DB
330
1E
100
AcDbEntity
  8
0
100
AcDbLine
 10
217.5
 20
90.0
 30
0.0
 11
218.0
 21
91.5
 31
0.0
  0
LINE
  5
1DC
330
1E
100
AcDbEntity
  8
0
100
AcDbLine
 10
217.5
 20
90.8
 30
0.0
 11
217.5
 21
92.9
 31
0.0
  0
LINE
  5
1DD
330
1E
100
AcDbEntity
  8
0
100
AcDbLine
 10
217.5
 20
90.8
 30
0.0
 11
217.5
 21
90.0
 31
0.0
  0
LINE
  5
1DE
330
1E
100
AcDbEntity
  8
0
100
AcDbLine
 10
217.5
 20
92.9
 30
0.0
 11
217.5
 21
96.5
 31
0.0
  0
LINE
  5
1DF
330
1E
100
AcDbEntity
  8
0
100
AcDbLine
 10
217.5
 20
92.9
 30
0.0
 11
217.5
 21
90.8
 31
0.0
  0
LINE
  5
1E0
330
1E
100
AcDbEntity
  8
0
100
AcDbLine
 10
217.5
 20
96.5
 30
0.0
 11
217.5
 21
101.0
 31
0.0
  0
LINE
  5
1E1
330
1E
100
AcDbEntity
  8
0
100
AcDbLine
 10
217.5
 20
96.5
 30
0.0
 11
217.5
 21
92.9
 31
0.0
  0
LINE
  5
1E2
330
1E
100
AcDbEntity
  8
0
100
AcDbLine
 10
217.5
 20
101.0
 30
0.0
 11
217.5
 21
106.2999999999999
 31
0.0
  0
LINE
  5
1E3
330
1E
100
AcDbEntity
  8
0
100
AcDbLine
 10
217.5
 20
101.0
 30
0.0
 11
217.5
 21
96.5
 31
0.0
  0
LINE
  5
1E4
330
1E
100
AcDbEntity
  8
0
100
AcDbLine
 10
217.5
 20
133.1999999999999
 30
0.0
 11
217.5
 21
134.0
 31
0.0
  0
LINE
  5
1E5
330
1E
100
AcDbEntity
  8
0
100
AcDbLine
 10
217.5
 20
133.1999999999999
 30
0.0
 11
217.5
 21
131.0999999999999
 31
0.0
  0
LINE
  5
1E6
330
1E
100
AcDbEntity
  8
0
100
AcDbLine
 10
216.0
 20
134.4999999999999
 30
0.0
 11
217.5
 21
134.0
 31
0.0
  0
LINE
  5
1E7
330
1E
100
AcDbEntity
  8
0
100
AcDbLine
 10
217.5
 20
134.0
 30
0.0
 11
218.0
 21
132.4999999999999
 31
0.0
  0
LINE
  5
1E8
330
1E
100
AcDbEntity
  8
0
100
AcDbLine
 10
217.5
 20
134.0
 30
0.0
 11
217.5
 21
133.1999999999999
 31
0.0
  0
LINE
  5
1E9
330
1E
100
AcDbEntity
  8
0
100
AcDbLine
 10
217.5
 20
131.0999999999999
 30
0.0
 11
217.5
 21
133.1999999999999
 31
0.0
  0
LINE
  5
1EA
330
1E
100
AcDbEntity
  8
0
100
AcDbLine
 10
217.5
 20
131.0999999999999
 30
0.0
 11
217.5
 21
127.5
 31
0.0
  0
LINE
  5
1EB
330
1E
100
AcDbEntity
  8
0
100
AcDbLine
 10
217.5
 20
127.5
 30
0.0
 11
217.5
 21
131.0999999999999
 31
0.0
  0
LINE
  5
1EC
330
1E
100
AcDbEntity
  8
0
100
AcDbLine
 10
217.5
 20
127.5
 30
0.0
 11
217.5
 21
123.0
 31
0.0
  0
LINE
  5
1ED
330
1E
100
AcDbEntity
  8
0
100
AcDbLine
 10
217.5
 20
123.0
 30
0.0
 11
217.5
 21
127.5
 31
0.0
  0
LINE
  5
1EE
330
1E
100
AcDbEntity
  8
0
100
AcDbLine
 10
217.5
 20
123.0
 30
0.0
 11
217.5
 21
117.7
 31
0.0
  0
LINE
  5
1EF
330
1E
100
AcDbEntity
  8
0
100
AcDbLine
 10
217.5
 20
117.7
 30
0.0
 11
217.5
 21
123.0
 31
0.0
  0
LINE
  5
1F0
330
1E
100
AcDbEntity
  8
0
100
AcDbLine
 10
217.5
 20
117.7
 30
0.0
 11
217.5
 21
112.0
 31
0.0
  0
LINE
  5
1F1
330
1E
100
AcDbEntity
  8
0
100
AcDbLine
 10
217.5
 20
112.0
 30
0.0
 11
217.5
 21
106.2999999999999
 31
0.0
  0
LINE
  5
1F2
330
1E
100
AcDbEntity
  8
0
100
AcDbLine
 10
217.5
 20
112.0
 30
0.0
 11
217.5
 21
117.7
 31
0.0
  0
LINE
  5
1F3
330
1E
100
AcDbEntity
  8
0
100
AcDbLine
 10
217.5
 20
106.2999999999999
 30
0.0
 11
217.5
 21
112.0
 31
0.0
  0
LINE
  5
1F4
330
1E
100
AcDbEntity
  8
0
100
AcDbLine
 10
217.5
 20
106.2999999999999
 30
0.0
 11
217.5
 21
101.0
 31
0.0
  0
LINE
  5
1F5
330
1E
100
AcDbEntity
  8
0
100
AcDbLine
 10
207.6
 20
135.5999999999999
 30
0.0
 11
208.409430144197
 21
134.4999999999999
 31
0.0
  0
LINE
  5
1F6
330
1E
100
AcDbEntity
  8
0
100
AcDbLine
 10
207.6
 20
88.40000000000001
 30
0.0
 11
208.409430144197
 21
89.50000000000001
 31
0.0
  0
LINE
  5
1F7
330
1E
100
AcDbEntity
  8
0
100
AcDbLine
 10
200.9329999999999
 20
82.5333
 30
0.0
 11
208.0
 21
88.0
 31
0.0
  0
LINE
  5
1F8
330
1E
100
AcDbEntity
  8
0
100
AcDbLine
 10
192.8
 20
79.2
 30
0.0
 11
200.9329999999999
 21
82.5333
 31
0.0
  0
LINE
  5
1F9
330
1E
100
AcDbEntity
  8
0
100
AcDbLine
 10
184.0
 20
78.0
 30
0.0
 11
192.8
 21
79.2
 31
0.0
  0
LINE
  5
1FA
330
1E
100
AcDbEntity
  8
0
100
AcDbLine
 10
98.9
 20
60.0
 30
0.0
 11
99.90000000000001
 21
60.0
 31
0.0
  0
LINE
  5
1FB
330
1E
100
AcDbEntity
  8
0
100
AcDbLine
 10
98.50000000000001
 20
60.0
 30
0.0
 11
98.9
 21
60.0
 31
0.0
  0
LINE
  5
200
330
1E
100
AcDbEntity
  8
0
100
AcDbLine
 10
91.5886
 20
116.5999999999999
 30
0.0
 11
91.11733094124701
 21
112.378208679435
 31
0.0
  0
LINE
  5
201
330
1E
100
AcDbEntity
  8
0
100
AcDbLine
 10
91.11733094124701
 20
112.378208679435
 30
0.0
 11
91.5886
 21
107.4
 31
0.0
  0
LINE
  5
202
330
1E
100
AcDbEntity
  8
0
100
AcDbLine
 10
126.411
 20
116.5999999999999
 30
0.0
 11
127.0320115826781
 21
111.9073374389982
 31
0.0
  0
LINE
  5
203
330
1E
100
AcDbEntity
  8
0
100
AcDbLine
 10
127.0320115826781
 20
111.9073374389982
 30
0.0
 11
126.411
 21
107.4
 31
0.0
  0
LINE
  5
204
330
1E
100
AcDbEntity
  8
0
100
AcDbLine
 10
208.0
 20
88.0
 30
0.0
 11
209.1143613939355
 21
89.45942317085524
 31
0.0
  0
LINE
  5
205
330
1E
100
AcDbEntity
  8
0
100
AcDbLine
 10
158.813120206492
 20
89.44621660658373
 30
0.0
 11
160.0
 21
88.0
 31
0.0
  0
LINE
  5
206
330
1E
100
AcDbEntity
  8
0
100
AcDbLine
 10
218.0
 20
132.4999999999999
 30
0.0
 11
218.0
 21
91.5
 31
0.0
  0
LINE
  5
207
330
1E
100
AcDbEntity
  8
0
100
AcDbLine
 10
34.0
 20
78.0
 30
0.0
 11
42.8
 21
79.2
 31
0.0
  0
ENDSEC
  0
SECTION
  2
OBJECTS
  0
DICTIONARY
  5
C
330
0
100
AcDbDictionary
  3
ACAD_GROUP
350
D
  3
ACAD_LAYOUT
350
19
  3
ACAD_MLINESTYLE
350
16
  3
ACAD_PLOTSETTINGS
350
18
  3
ACAD_PLOTSTYLENAME
350
E
  3
ACDBHEADERROUNDTRIPXREC
350
20F
  3
ACDBVARIABLEDICTIONARY
350
209
  0
DICTIONARY
  5
231
330
1E
100
AcDbDictionary
280
     1
  3
ACAD_LAYOUTSELFREF
360
232
  0
DICTIONARY
  5
22F
330
1A
100
AcDbDictionary
280
     1
  3
ACAD_LAYOUTSELFREF
360
230
  0
DICTIONARY
  5
D
102
{ACAD_REACTORS
330
C
102
}
330
C
100
AcDbDictionary
  0
DICTIONARY
  5
19
102
{ACAD_REACTORS
330
C
102
}
330
C
100
AcDbDictionary
  0
DICTIONARY
  5
16
102
{ACAD_REACTORS
330
C
102
}
330
C
100
AcDbDictionary
  3
STANDARD
350
17
  0
DICTIONARY
  5
18
102
{ACAD_REACTORS
330
C
102
}
330
C
100
AcDbDictionary
  0
ACDBDICTIONARYWDFLT
  5
E
102
{ACAD_REACTORS
330
C
102
}
330
C
100
AcDbDictionary
281
     1
  3
Normal
350
F
100
AcDbDictionaryWithDefault
340
F
  0
DICTIONARY
  5
20F
102
{ACAD_REACTORS
330
C
102
}
330
C
100
AcDbDictionary
  3
CEPSNTYPE
350
219
  3
FINGERPRINTGUID
350
21A
  3
HYPERLINKBASE
350
212
  3
INSUNITS
350
218
  3
LAYOUTDICT
350
214
  3
LWETCUNION
350
217
  3
PLOTSETDICT
350
215
  3
PLOTSTYLNAMDICT
350
216
  3
PSVPSCALE
350
21C
  3
PUCSBASE
350
21F
  3
PUCSORGBACK
350
225
  3
PUCSORGBOTTOM
350
221
  3
PUCSORGFRONT
350
224
  3
PUCSORGLEFT
350
222
  3
PUCSORGRIGHT
350
223
  3
PUCSORGTOP
350
220
  3
PUCSORTHOREF
350
21D
  3
PUCSORTHOVIEW
350
21E
  3
STYLESHEET
350
213
  3
TSTACKALIGN
350
210
  3
TSTACKSIZE
350
211
  3
UCSBASE
350
228
  3
UCSORGBACK
350
22E
  3
UCSORGBOTTOM
350
22A
  3
UCSORGFRONT
350
22D
  3
UCSORGLEFT
350
22B
  3
UCSORGRIGHT
350
22C
  3
UCSORGTOP
350
229
  3
UCSORTHOREF
350
226
  3
UCSORTHOVIEW
350
227
  3
VERSIONGUID
350
21B
  0
DICTIONARY
  5
209
102
{ACAD_REACTORS
330
C
102
}
330
C
100
AcDbDictionary
  3
DIMASSOC
350
20A
  0
XRECORD
  5
232
102
{ACAD_REACTORS
330
231
102
}
330
231
100
AcDbXrecord
340
1E
  0
XRECORD
  5
230
102
{ACAD_REACTORS
330
22F
102
}
330
22F
100
AcDbXrecord
340
1A
  0
MLINESTYLE
  5
17
102
{ACAD_REACTORS
330
16
102
}
330
16
100
AcDbMlineStyle
  2
STANDARD
 70
     0
  3

 62
   256
 51
90.0
 52
90.0
 71
     2
 49
0.5
 62
   256
  6
BYLAYER
 49
-0.5
 62
   256
  6
BYLAYER
  0
ACDBPLACEHOLDER
  5
F
102
{ACAD_REACTORS
330
E
102
}
330
E
100
AcDbPlaceHolder
280
     0
  0
XRECORD
  5
219
102
{ACAD_REACTORS
330
20F
102
}
330
20F
100
AcDbXrecord
 90
        0
  0
XRECORD
  5
21A
102
{ACAD_REACTORS
330
20F
102
}
330
20F
100
AcDbXrecord
  1
{FCCAB58B-F19D-4F6C-9509-30A470B6C233}
  0
XRECORD
  5
212
102
{ACAD_REACTORS
330
20F
102
}
330
20F
100
AcDbXrecord
  1

  0
XRECORD
  5
218
102
{ACAD_REACTORS
330
20F
102
}
330
20F
100
AcDbXrecord
 90
        0
  0
XRECORD
  5
214
102
{ACAD_REACTORS
330
20F
102
}
330
20F
100
AcDbXrecord
340
19
  0
XRECORD
  5
217
102
{ACAD_REACTORS
330
20F
102
}
330
20F
100
AcDbXrecord
 90
    10781
  0
XRECORD
  5
215
102
{ACAD_REACTORS
330
20F
102
}
330
20F
100
AcDbXrecord
340
18
  0
XRECORD
  5
216
102
{ACAD_REACTORS
330
20F
102
}
330
20F
100
AcDbXrecord
340
E
  0
XRECORD
  5
21C
102
{ACAD_REACTORS
330
20F
102
}
330
20F
100
AcDbXrecord
 40
0.0
  0
XRECORD
  5
21F
102
{ACAD_REACTORS
330
20F
102
}
330
20F
100
AcDbXrecord
340
0
  0
XRECORD
  5
225
102
{ACAD_REACTORS
330
20F
102
}
330
20F
100
AcDbXrecord
 10
0.0
 20
0.0
 30
0.0
  0
XRECORD
  5
221
102
{ACAD_REACTORS
330
20F
102
}
330
20F
100
AcDbXrecord
 10
0.0
 20
0.0
 30
0.0
  0
XRECORD
  5
224
102
{ACAD_REACTORS
330
20F
102
}
330
20F
100
AcDbXrecord
 10
0.0
 20
0.0
 30
0.0
  0
XRECORD
  5
222
102
{ACAD_REACTORS
330
20F
102
}
330
20F
100
AcDbXrecord
 10
0.0
 20
0.0
 30
0.0
  0
XRECORD
  5
223
102
{ACAD_REACTORS
330
20F
102
}
330
20F
100
AcDbXrecord
 10
0.0
 20
0.0
 30
0.0
  0
XRECORD
  5
220
102
{ACAD_REACTORS
330
20F
102
}
330
20F
100
AcDbXrecord
 10
0.0
 20
0.0
 30
0.0
  0
XRECORD
  5
21D
102
{ACAD_REACTORS
330
20F
102
}
330
20F
100
AcDbXrecord
340
0
  0
XRECORD
  5
21E
102
{ACAD_REACTORS
330
20F
102
}
330
20F
100
AcDbXrecord
 70
     0
  0
XRECORD
  5
213
102
{ACAD_REACTORS
330
20F
102
}
330
20F
100
AcDbXrecord
  1

  0
XRECORD
  5
210
102
{ACAD_REACTORS
330
20F
102
}
330
20F
100
AcDbXrecord
 90
        1
  0
XRECORD
  5
211
102
{ACAD_REACTORS
330
20F
102
}
330
20F
100
AcDbXrecord
 90
       70
  0
XRECORD
  5
228
102
{ACAD_REACTORS
330
20F
102
}
330
20F
100
AcDbXrecord
340
0
  0
XRECORD
  5
22E
102
{ACAD_REACTORS
330
20F
102
}
330
20F
100
AcDbXrecord
 10
0.0
 20
0.0
 30
0.0
  0
XRECORD
  5
22A
102
{ACAD_REACTORS
330
20F
102
}
330
20F
100
AcDbXrecord
 10
0.0
 20
0.0
 30
0.0
  0
XRECORD
  5
22D
102
{ACAD_REACTORS
330
20F
102
}
330
20F
100
AcDbXrecord
 10
0.0
 20
0.0
 30
0.0
  0
XRECORD
  5
22B
102
{ACAD_REACTORS
330
20F
102
}
330
20F
100
AcDbXrecord
 10
0.0
 20
0.0
 30
0.0
  0
XRECORD
  5
22C
102
{ACAD_REACTORS
330
20F
102
}
330
20F
100
AcDbXrecord
 10
0.0
 20
0.0
 30
0.0
  0
XRECORD
  5
229
102
{ACAD_REACTORS
330
20F
102
}
330
20F
100
AcDbXrecord
 10
0.0
 20
0.0
 30
0.0
  0
XRECORD
  5
226
102
{ACAD_REACTORS
330
20F
102
}
330
20F
100
AcDbXrecord
340
0
  0
XRECORD
  5
227
102
{ACAD_REACTORS
330
20F
102
}
330
20F
100
AcDbXrecord
 70
     1
  0
XRECORD
  5
21B
102
{ACAD_REACTORS
330
20F
102
}
330
20F
100
AcDbXrecord
  1
{594F18D3-1DC0-4A79-A5E3-43690ECA4D33}
  0
DICTIONARYVAR
  5
20A
102
{ACAD_REACTORS
330
209
102
}
330
209
100
DictionaryVariables
280
     0
  1
1
  0
ENDSEC
  0
EOF
