  0
SECTION
  2
HEADER
  9
$ACADVER
  1
AC1014
  9
$ACADMAINTVER
 70
     9
  9
$DWGCODEPAGE
  3
ANSI_1252
  9
$INSBASE
 10
0.0
 20
0.0
 30
0.0
  9
$EXTMIN
 10
-0.0000000000000061
 20
0.0000000000000067
 30
0.0
  9
$EXTMAX
 10
218.0
 20
158.0
 30
0.0
  9
$LIMMIN
 10
0.0
 20
0.0
  9
$LIMMAX
 10
12.0
 20
9.0
  9
$ORTHOMODE
 70
     0
  9
$REGENMODE
 70
     1
  9
$FILLMODE
 70
     1
  9
$QTEXTMODE
 70
     0
  9
$MIRRTEXT
 70
     1
  9
$DRAGMODE
 70
     2
  9
$LTSCALE
 40
1.0
  9
$OSMODE
 70
    37
  9
$ATTMODE
 70
     1
  9
$TEXTSIZE
 40
0.2
  9
$TRACEWID
 40
0.05
  9
$TEXTSTYLE
  7
STANDARD
  9
$CLAYER
  8
0
  9
$CELTYPE
  6
CONTINUOUS
  9
$CECOLOR
 62
   256
  9
$CELTSCALE
 40
1.0
  9
$DELOBJ
 70
     1
  9
$DISPSILH
 70
     0
  9
$DIMSCALE
 40
1.0
  9
$DIMASZ
 40
0.18
  9
$DIMEXO
 40
0.0625
  9
$DIMDLI
 40
0.38
  9
$DIMRND
 40
0.0
  9
$DIMDLE
 40
0.0
  9
$DIMEXE
 40
0.18
  9
$DIMTP
 40
0.0
  9
$DIMTM
 40
0.0
  9
$DIMTXT
 40
0.18
  9
$DIMCEN
 40
0.09
  9
$DIMTSZ
 40
0.0
  9
$DIMTOL
 70
     0
  9
$DIMLIM
 70
     0
  9
$DIMTIH
 70
     1
  9
$DIMTOH
 70
     1
  9
$DIMSE1
 70
     0
  9
$DIMSE2
 70
     0
  9
$DIMTAD
 70
     0
  9
$DIMZIN
 70
     0
  9
$DIMBLK
  1

  9
$DIMASO
 70
     1
  9
$DIMSHO
 70
     1
  9
$DIMPOST
  1

  9
$DIMAPOST
  1

  9
$DIMALT
 70
     0
  9
$DIMALTD
 70
     2
  9
$DIMALTF
 40
25.4
  9
$DIMLFAC
 40
1.0
  9
$DIMTOFL
 70
     0
  9
$DIMTVP
 40
0.0
  9
$DIMTIX
 70
     0
  9
$DIMSOXD
 70
     0
  9
$DIMSAH
 70
     0
  9
$DIMBLK1
  1

  9
$DIMBLK2
  1

  9
$DIMSTYLE
  2
STANDARD
  9
$DIMCLRD
 70
     0
  9
$DIMCLRE
 70
     0
  9
$DIMCLRT
 70
     0
  9
$DIMTFAC
 40
1.0
  9
$DIMGAP
 40
0.09
  9
$DIMJUST
 70
     0
  9
$DIMSD1
 70
     0
  9
$DIMSD2
 70
     0
  9
$DIMTOLJ
 70
     1
  9
$DIMTZIN
 70
     0
  9
$DIMALTZ
 70
     0
  9
$DIMALTTZ
 70
     0
  9
$DIMFIT
 70
     3
  9
$DIMUPT
 70
     0
  9
$DIMUNIT
 70
     2
  9
$DIMDEC
 70
     4
  9
$DIMTDEC
 70
     4
  9
$DIMALTU
 70
     2
  9
$DIMALTTD
 70
     2
  9
$DIMTXSTY
  7
STANDARD
  9
$DIMAUNIT
 70
     0
  9
$LUNITS
 70
     2
  9
$LUPREC
 70
     4
  9
$SKETCHINC
 40
0.1
  9
$FILLETRAD
 40
0.0
  9
$AUNITS
 70
     0
  9
$AUPREC
 70
     0
  9
$MENU
  1
.
  9
$ELEVATION
 40
0.0
  9
$PELEVATION
 40
0.0
  9
$THICKNESS
 40
0.0
  9
$LIMCHECK
 70
     0
  9
$BLIPMODE
 70
     0
  9
$CHAMFERA
 40
0.0
  9
$CHAMFERB
 40
0.0
  9
$CHAMFERC
 40
0.0
  9
$CHAMFERD
 40
0.0
  9
$SKPOLY
 70
     0
  9
$TDCREATE
 40
2454699.500531493
  9
$TDUPDATE
 40
2454699.505889386
  9
$TDINDWG
 40
0.0053578935
  9
$TDUSRTIMER
 40
0.0053578935
  9
$USRTIMER
 70
     1
  9
$ANGBASE
 50
0.0
  9
$ANGDIR
 70
     0
  9
$PDMODE
 70
     0
  9
$PDSIZE
 40
0.0
  9
$PLINEWID
 40
0.0
  9
$COORDS
 70
     1
  9
$SPLFRAME
 70
     0
  9
$SPLINETYPE
 70
     6
  9
$SPLINESEGS
 70
     8
  9
$ATTDIA
 70
     0
  9
$ATTREQ
 70
     1
  9
$HANDLING
 70
 22529
  9
$HANDSEED
  5
1AA
  9
$SURFTAB1
 70
     6
  9
$SURFTAB2
 70
     6
  9
$SURFTYPE
 70
     6
  9
$SURFU
 70
     6
  9
$SURFV
 70
     6
  9
$UCSNAME
  2

  9
$UCSORG
 10
0.0
 20
0.0
 30
0.0
  9
$UCSXDIR
 10
1.0
 20
0.0
 30
0.0
  9
$UCSYDIR
 10
0.0
 20
1.0
 30
0.0
  9
$PUCSNAME
  2

  9
$PUCSORG
 10
0.0
 20
0.0
 30
0.0
  9
$PUCSXDIR
 10
1.0
 20
0.0
 30
0.0
  9
$PUCSYDIR
 10
0.0
 20
1.0
 30
0.0
  9
$USERI1
 70
     0
  9
$USERI2
 70
     0
  9
$USERI3
 70
     0
  9
$USERI4
 70
     0
  9
$USERI5
 70
     0
  9
$USERR1
 40
0.0
  9
$USERR2
 40
0.0
  9
$USERR3
 40
0.0
  9
$USERR4
 40
0.0
  9
$USERR5
 40
0.0
  9
$WORLDVIEW
 70
     1
  9
$SHADEDGE
 70
     3
  9
$SHADEDIF
 70
    70
  9
$TILEMODE
 70
     1
  9
$MAXACTVP
 70
    64
  9
$PINSBASE
 10
0.0
 20
0.0
 30
0.0
  9
$PLIMCHECK
 70
     0
  9
$PEXTMIN
 10
1.000000000000000E+20
 20
1.000000000000000E+20
 30
1.000000000000000E+20
  9
$PEXTMAX
 10
-1.000000000000000E+20
 20
-1.000000000000000E+20
 30
-1.000000000000000E+20
  9
$PLIMMIN
 10
0.0
 20
0.0
  9
$PLIMMAX
 10
12.0
 20
9.0
  9
$UNITMODE
 70
     0
  9
$VISRETAIN
 70
     1
  9
$PLINEGEN
 70
     0
  9
$PSLTSCALE
 70
     1
  9
$TREEDEPTH
 70
  3020
  9
$PICKSTYLE
 70
     1
  9
$CMLSTYLE
  2
STANDARD
  9
$CMLJUST
 70
     0
  9
$CMLSCALE
 40
1.0
  9
$PROXYGRAPHICS
 70
     1
  9
$MEASUREMENT
 70
     0
  0
ENDSEC
  0
SECTION
  2
CLASSES
  0
CLASS
  1
ACDBDICTIONARYWDFLT
  2
AcDbDictionaryWithDefault
  3
AutoCAD 2000
 90
        0
280
     0
281
     0
  0
CLASS
  1
ACDBPLACEHOLDER
  2
AcDbPlaceHolder
  3
AutoCAD 2000
 90
        0
280
     0
281
     0
  0
CLASS
  1
LAYOUT
  2
AcDbLayout
  3
AutoCAD 2000
 90
        0
280
     0
281
     0
  0
CLASS
  1
DICTIONARYVAR
  2
AcDbDictionaryVar
  3
AutoCAD 2000
 90
        0
280
     0
281
     0
  0
CLASS
  1
LONG_TRANSACTION
  2
AcDbLongTransaction
  3
AutoCAD 2000
 90
        0
280
     0
281
     0
  0
CLASS
  1
LWPOLYLINE
  2
AcDbPolyline
  3
AutoCAD 2000
 90
        0
280
     0
281
     1
  0
CLASS
  1
HATCH
  2
AcDbHatch
  3
AutoCAD 2000
 90
        0
280
     0
281
     1
  0
CLASS
  1
XRECORD
  2
AcDbXrecord
  3
AutoCAD 2000
 90
        0
280
     0
281
     0
  0
ENDSEC
  0
SECTION
  2
TABLES
  0
TABLE
  2
VPORT
  5
8
330
0
100
AcDbSymbolTable
 70
     2
  0
VPORT
  5
185
330
8
100
AcDbSymbolTableRecord
100
AcDbViewportTableRecord
  2
*ACTIVE
 70
     0
 10
0.0
 20
0.0
 11
1.0
 21
1.0
 12
109.0
 22
79.0
 13
0.0
 23
0.0
 14
1.0
 24
1.0
 15
0.0
 25
0.0
 16
0.0
 26
0.0
 36
1.0
 17
0.0
 27
0.0
 37
0.0
 40
159.2122762148337
 41
2.078104993597951
 42
50.0
 43
0.0
 44
0.0
 50
0.0
 51
0.0
 71
     0
 72
   100
 73
     1
 74
     3
 75
     0
 76
     0
 77
     0
 78
     0
  0
ENDTAB
  0
TABLE
  2
LTYPE
  5
5
330
0
100
AcDbSymbolTable
 70
     1
  0
LTYPE
  5
13
330
5
100
AcDbSymbolTableRecord
100
AcDbLinetypeTableRecord
  2
BYBLOCK
 70
     0
  3

 72
    65
 73
     0
 40
0.0
  0
LTYPE
  5
14
330
5
100
AcDbSymbolTableRecord
100
AcDbLinetypeTableRecord
  2
BYLAYER
 70
     0
  3

 72
    65
 73
     0
 40
0.0
  0
LTYPE
  5
15
330
5
100
AcDbSymbolTableRecord
100
AcDbLinetypeTableRecord
  2
CONTINUOUS
 70
     0
  3
Solid line
 72
    65
 73
     0
 40
0.0
  0
ENDTAB
  0
TABLE
  2
LAYER
  5
2
330
0
100
AcDbSymbolTable
 70
     1
  0
LAYER
  5
10
330
2
100
AcDbSymbolTableRecord
100
AcDbLayerTableRecord
  2
0
 70
     0
 62
     7
  6
CONTINUOUS
  0
ENDTAB
  0
TABLE
  2
STYLE
  5
3
330
0
100
AcDbSymbolTable
 70
     1
  0
STYLE
  5
11
330
3
100
AcDbSymbolTableRecord
100
AcDbTextStyleTableRecord
  2
STANDARD
 70
     0
 40
0.0
 41
1.0
 50
0.0
 71
     0
 42
0.2
  3
txt
  4

  0
ENDTAB
  0
TABLE
  2
VIEW
  5
6
330
0
100
AcDbSymbolTable
 70
     0
  0
ENDTAB
  0
TABLE
  2
UCS
  5
7
330
0
100
AcDbSymbolTable
 70
     0
  0
ENDTAB
  0
TABLE
  2
APPID
  5
9
330
0
100
AcDbSymbolTable
 70
     1
  0
APPID
  5
12
330
9
100
AcDbSymbolTableRecord
100
AcDbRegAppTableRecord
  2
ACAD
 70
     0
  0
ENDTAB
  0
TABLE
  2
DIMSTYLE
  5
A
330
0
100
AcDbSymbolTable
 70
     1
  0
DIMSTYLE
105
171
330
A
100
AcDbSymbolTableRecord
100
AcDbDimStyleTableRecord
  2
STANDARD
 70
     0
  3

  4

  5

  6

  7

 40
1.0
 41
0.18
 42
0.0625
 43
0.38
 44
0.18
 45
0.0
 46
0.0
 47
0.0
 48
0.0
140
0.18
141
0.09
142
0.0
143
25.4
144
1.0
145
0.0
146
1.0
147
0.09
 71
     0
 72
     0
 73
     1
 74
     1
 75
     0
 76
     0
 77
     0
 78
     0
170
     0
171
     2
172
     0
173
     0
174
     0
175
     0
176
     0
177
     0
178
     0
270
     2
271
     4
272
     4
273
     2
274
     2
340
11
275
     0
280
     0
281
     0
282
     0
283
     1
284
     0
285
     0
286
     0
287
     3
288
     0
  0
ENDTAB
  0
TABLE
  2
BLOCK_RECORD
  5
1
330
0
100
AcDbSymbolTable
 70
     0
  0
BLOCK_RECORD
  5
1E
102
{ACAD_XDICTIONARY
360
1A8
102
}
330
1
100
AcDbSymbolTableRecord
100
AcDbBlockTableRecord
  2
*MODEL_SPACE
  0
BLOCK_RECORD
  5
1A
102
{ACAD_XDICTIONARY
360
1A6
102
}
330
1
100
AcDbSymbolTableRecord
100
AcDbBlockTableRecord
  2
*PAPER_SPACE
  0
ENDTAB
  0
ENDSEC
  0
SECTION
  2
BLOCKS
  0
BLOCK
  5
1F
330
1E
100
AcDbEntity
  8
0
100
AcDbBlockBegin
  2
*MODEL_SPACE
 70
     0
 10
0.0
 20
0.0
 30
0.0
  3
*MODEL_SPACE
  1

  0
ENDBLK
  5
20
330
1E
100
AcDbEntity
  8
0
100
AcDbBlockEnd
  0
BLOCK
  5
1B
330
1A
100
AcDbEntity
 67
     1
  8
0
100
AcDbBlockBegin
  2
*PAPER_SPACE
 70
     0
 10
0.0
 20
0.0
 30
0.0
  3
*PAPER_SPACE
  1

  0
ENDBLK
  5
1C
330
1A
100
AcDbEntity
 67
     1
  8
0
100
AcDbBlockEnd
  0
ENDSEC
  0
SECTION
  2
ENTITIES
  0
LINE
  5
22
330
1E
100
AcDbEntity
  8
0
100
AcDbLine
 10
34.0
 20
90.0
 30
0.0
 11
42.8
 21
91.2
 31
0.0
  0
LINE
  5
23
330
1E
100
AcDbEntity
  8
0
100
AcDbLine
 10
97.9
 20
90.0
 30
0.0
 11
99.0
 21
90.0
 31
0.0
  0
LINE
  5
24
330
1E
100
AcDbEntity
  8
0
100
AcDbLine
 10
17.0667
 20
94.53329999999999
 30
0.0
 11
25.2
 21
91.2
 31
0.0
  0
LINE
  5
25
330
1E
100
AcDbEntity
  8
0
100
AcDbLine
 10
17.0667
 20
94.53333999999999
 30
0.0
 11
25.2
 21
91.2
 31
0.0
  0
LINE
  5
26
330
1E
100
AcDbEntity
  8
0
100
AcDbLine
 10
25.2
 20
91.2
 30
0.0
 11
34.0
 21
90.0
 31
0.0
  0
LINE
  5
27
330
1E
100
AcDbEntity
  8
0
100
AcDbLine
 10
1.999999999999989
 20
101.5
 30
0.0
 11
94.2317388462327
 21
101.5
 31
0.0
  0
LINE
  5
28
330
1E
100
AcDbEntity
  8
0
100
AcDbLine
 10
1.999999999999989
 20
101.5
 30
0.0
 11
94.2317388462327
 21
101.5
 31
0.0
  0
LINE
  5
29
330
1E
100
AcDbEntity
  8
0
100
AcDbLine
 10
8.83962103952339
 20
101.5
 30
0.0
 11
9.999999999999991
 21
100.0
 31
0.0
  0
LINE
  5
2A
330
1E
100
AcDbEntity
  8
0
100
AcDbLine
 10
8.83962740741788
 20
101.5
 30
0.0
 11
9.999999999999991
 21
100.0
 31
0.0
  0
LINE
  5
2B
330
1E
100
AcDbEntity
  8
0
100
AcDbLine
 10
9.999999999999991
 20
100.0
 30
0.0
 11
17.0667
 21
94.53333999999999
 31
0.0
  0
LINE
  5
2C
330
1E
100
AcDbEntity
  8
0
100
AcDbLine
 10
9.999999999999991
 20
100.0
 30
0.0
 11
17.0667
 21
94.53329999999999
 31
0.0
  0
LINE
  5
2D
330
1E
100
AcDbEntity
  8
0
100
AcDbLine
 10
9.590569855802561
 20
101.5
 30
0.0
 11
10.4
 21
100.4
 31
0.0
  0
LINE
  5
2E
330
1E
100
AcDbEntity
  8
0
100
AcDbLine
 10
-0.0000000000000061
 20
103.4999999999999
 30
0.0
 11
-0.0000000000000061
 21
104.2
 31
0.0
  0
LINE
  5
2F
330
1E
100
AcDbEntity
  8
0
100
AcDbLine
 10
-0.0000000000000061
 20
103.4999999999999
 30
0.0
 11
0.499999999999994
 21
102.0
 31
0.0
  0
LINE
  5
30
330
1E
100
AcDbEntity
  8
0
100
AcDbLine
 10
-0.0000000000000061
 20
104.2
 30
0.0
 11
-0.0000000000000061
 21
106.2
 31
0.0
  0
LINE
  5
31
330
1E
100
AcDbEntity
  8
0
100
AcDbLine
 10
-0.0000000000000061
 20
104.2
 30
0.0
 11
-0.0000000000000061
 21
103.4999999999999
 31
0.0
  0
LINE
  5
32
330
1E
100
AcDbEntity
  8
0
100
AcDbLine
 10
-0.0000000000000061
 20
106.2
 30
0.0
 11
-0.0000000000000061
 21
109.4999999999999
 31
0.0
  0
LINE
  5
33
330
1E
100
AcDbEntity
  8
0
100
AcDbLine
 10
-0.0000000000000061
 20
106.2
 30
0.0
 11
-0.0000000000000061
 21
104.2
 31
0.0
  0
LINE
  5
34
330
1E
100
AcDbEntity
  8
0
100
AcDbLine
 10
-0.0000000000000061
 20
109.4999999999999
 30
0.0
 11
-0.0000000000000061
 21
113.7999999999999
 31
0.0
  0
LINE
  5
35
330
1E
100
AcDbEntity
  8
0
100
AcDbLine
 10
-0.0000000000000061
 20
109.4999999999999
 30
0.0
 11
-0.0000000000000061
 21
106.2
 31
0.0
  0
LINE
  5
36
330
1E
100
AcDbEntity
  8
0
100
AcDbLine
 10
-0.0000000000000061
 20
113.7999999999999
 30
0.0
 11
-0.0000000000000061
 21
118.7
 31
0.0
  0
LINE
  5
37
330
1E
100
AcDbEntity
  8
0
100
AcDbLine
 10
-0.0000000000000061
 20
113.7999999999999
 30
0.0
 11
-0.0000000000000061
 21
109.4999999999999
 31
0.0
  0
LINE
  5
38
330
1E
100
AcDbEntity
  8
0
100
AcDbLine
 10
0.499999999999994
 20
102.0
 30
0.0
 11
0.499999999999994
 21
102.8
 31
0.0
  0
LINE
  5
39
330
1E
100
AcDbEntity
  8
0
100
AcDbLine
 10
0.499999999999994
 20
102.0
 30
0.0
 11
1.999999999999989
 21
101.5
 31
0.0
  0
LINE
  5
3A
330
1E
100
AcDbEntity
  8
0
100
AcDbLine
 10
0.499999999999994
 20
102.8
 30
0.0
 11
0.499999999999994
 21
104.9
 31
0.0
  0
LINE
  5
3B
330
1E
100
AcDbEntity
  8
0
100
AcDbLine
 10
0.499999999999994
 20
102.8
 30
0.0
 11
0.499999999999994
 21
102.0
 31
0.0
  0
LINE
  5
3C
330
1E
100
AcDbEntity
  8
0
100
AcDbLine
 10
0.499999999999994
 20
104.9
 30
0.0
 11
0.499999999999994
 21
108.4999999999999
 31
0.0
  0
LINE
  5
3D
330
1E
100
AcDbEntity
  8
0
100
AcDbLine
 10
0.499999999999994
 20
104.9
 30
0.0
 11
0.499999999999994
 21
102.8
 31
0.0
  0
LINE
  5
3E
330
1E
100
AcDbEntity
  8
0
100
AcDbLine
 10
0.499999999999994
 20
108.4999999999999
 30
0.0
 11
0.499999999999994
 21
113.0
 31
0.0
  0
LINE
  5
3F
330
1E
100
AcDbEntity
  8
0
100
AcDbLine
 10
0.499999999999994
 20
108.4999999999999
 30
0.0
 11
0.499999999999994
 21
104.9
 31
0.0
  0
LINE
  5
40
330
1E
100
AcDbEntity
  8
0
100
AcDbLine
 10
0.499999999999994
 20
113.0
 30
0.0
 11
0.499999999999994
 21
118.3
 31
0.0
  0
LINE
  5
41
330
1E
100
AcDbEntity
  8
0
100
AcDbLine
 10
0.499999999999994
 20
113.0
 30
0.0
 11
0.499999999999994
 21
108.4999999999999
 31
0.0
  0
LINE
  5
42
330
1E
100
AcDbEntity
  8
0
100
AcDbLine
 10
0.499999999999994
 20
118.3
 30
0.0
 11
0.499999999999994
 21
124.0
 31
0.0
  0
LINE
  5
43
330
1E
100
AcDbEntity
  8
0
100
AcDbLine
 10
0.499999999999994
 20
118.3
 30
0.0
 11
0.499999999999994
 21
113.0
 31
0.0
  0
LINE
  5
44
330
1E
100
AcDbEntity
  8
0
100
AcDbLine
 10
-0.0000000000000061
 20
118.7
 30
0.0
 11
-0.0000000000000061
 21
124.0
 31
0.0
  0
LINE
  5
45
330
1E
100
AcDbEntity
  8
0
100
AcDbLine
 10
-0.0000000000000061
 20
118.7
 30
0.0
 11
-0.0000000000000061
 21
113.7999999999999
 31
0.0
  0
LINE
  5
46
330
1E
100
AcDbEntity
  8
0
100
AcDbLine
 10
9.590569855802561
 20
101.5
 30
0.0
 11
10.4
 21
100.4
 31
0.0
  0
LINE
  5
47
330
1E
100
AcDbEntity
  8
0
100
AcDbLine
 10
10.4
 20
100.4
 30
0.0
 11
17.46669999999999
 21
95.20000999999998
 31
0.0
  0
LINE
  5
48
330
1E
100
AcDbEntity
  8
0
100
AcDbLine
 10
17.46669999999999
 20
95.20000999999998
 30
0.0
 11
25.4667
 21
91.86666999999999
 31
0.0
  0
LINE
  5
49
330
1E
100
AcDbEntity
  8
0
100
AcDbLine
 10
50.9333
 20
94.53329999999999
 30
0.0
 11
58.0
 21
100.0
 31
0.0
  0
LINE
  5
4A
330
1E
100
AcDbEntity
  8
0
100
AcDbLine
 10
42.8
 20
91.2
 30
0.0
 11
50.9333
 21
94.53329999999999
 31
0.0
  0
LINE
  5
4B
330
1E
100
AcDbEntity
  8
0
100
AcDbLine
 10
58.0
 20
100.0
 30
0.0
 11
59.1603789604766
 21
101.5
 31
0.0
  0
LINE
  5
4C
330
1E
100
AcDbEntity
  8
0
100
AcDbLine
 10
57.6
 20
100.4
 30
0.0
 11
58.40943014419739
 21
101.5
 31
0.0
  0
LINE
  5
4D
330
1E
100
AcDbEntity
  8
0
100
AcDbLine
 10
50.53329999999999
 20
95.20000999999998
 30
0.0
 11
57.6
 21
100.4
 31
0.0
  0
LINE
  5
4E
330
1E
100
AcDbEntity
  8
0
100
AcDbLine
 10
42.5333
 20
91.86666999999999
 30
0.0
 11
50.53329999999999
 21
95.20000999999998
 31
0.0
  0
LINE
  5
4F
330
1E
100
AcDbEntity
  8
0
100
AcDbLine
 10
34.0
 20
90.666668
 30
0.0
 11
42.5333
 21
91.86666999999999
 31
0.0
  0
LINE
  5
50
330
1E
100
AcDbEntity
  8
0
100
AcDbLine
 10
25.4667
 20
91.86666999999999
 30
0.0
 11
34.0
 21
90.666668
 31
0.0
  0
LINE
  5
51
330
1E
100
AcDbEntity
  8
0
100
AcDbLine
 10
-0.0000000000000061
 20
124.0
 30
0.0
 11
-0.0000000000000061
 21
129.3
 31
0.0
  0
LINE
  5
52
330
1E
100
AcDbEntity
  8
0
100
AcDbLine
 10
-0.0000000000000061
 20
124.0
 30
0.0
 11
-0.0000000000000061
 21
118.7
 31
0.0
  0
LINE
  5
53
330
1E
100
AcDbEntity
  8
0
100
AcDbLine
 10
0.499999999999994
 20
124.0
 30
0.0
 11
0.499999999999994
 21
129.6999999999999
 31
0.0
  0
LINE
  5
54
330
1E
100
AcDbEntity
  8
0
100
AcDbLine
 10
0.499999999999994
 20
124.0
 30
0.0
 11
0.499999999999994
 21
118.3
 31
0.0
  0
LINE
  5
55
330
1E
100
AcDbEntity
  8
0
100
AcDbLine
 10
83.49999999999999
 20
122.0
 30
0.0
 11
84.40000000000001
 21
128.6
 31
0.0
  0
LINE
  5
56
330
1E
100
AcDbEntity
  8
0
100
AcDbLine
 10
86.90000000000001
 20
109.2999999999999
 30
0.0
 11
91.0
 21
104.0
 31
0.0
  0
LINE
  5
57
330
1E
100
AcDbEntity
  8
0
100
AcDbLine
 10
84.40000000000001
 20
115.4
 30
0.0
 11
86.90000000000001
 21
109.2999999999999
 31
0.0
  0
LINE
  5
58
330
1E
100
AcDbEntity
  8
0
100
AcDbLine
 10
84.9
 20
115.5999999999999
 30
0.0
 11
87.4
 21
109.5999999999999
 31
0.0
  0
LINE
  5
59
330
1E
100
AcDbEntity
  8
0
100
AcDbLine
 10
87.4
 20
109.5999999999999
 30
0.0
 11
91.3
 21
104.2999999999999
 31
0.0
  0
LINE
  5
5A
330
1E
100
AcDbEntity
  8
0
100
AcDbLine
 10
84.0
 20
122.0
 30
0.0
 11
84.9
 21
128.4
 31
0.0
  0
LINE
  5
5B
330
1E
100
AcDbEntity
  8
0
100
AcDbLine
 10
84.0
 20
122.0
 30
0.0
 11
84.9
 21
115.5999999999999
 31
0.0
  0
LINE
  5
5C
330
1E
100
AcDbEntity
  8
0
100
AcDbLine
 10
-0.0000000000000061
 20
138.5
 30
0.0
 11
-0.0000000000000061
 21
141.8
 31
0.0
  0
LINE
  5
5D
330
1E
100
AcDbEntity
  8
0
100
AcDbLine
 10
-0.0000000000000061
 20
138.5
 30
0.0
 11
-0.0000000000000061
 21
134.1999999999999
 31
0.0
  0
LINE
  5
5E
330
1E
100
AcDbEntity
  8
0
100
AcDbLine
 10
-0.0000000000000061
 20
134.1999999999999
 30
0.0
 11
-0.0000000000000061
 21
138.5
 31
0.0
  0
LINE
  5
5F
330
1E
100
AcDbEntity
  8
0
100
AcDbLine
 10
-0.0000000000000061
 20
134.1999999999999
 30
0.0
 11
-0.0000000000000061
 21
129.3
 31
0.0
  0
LINE
  5
60
330
1E
100
AcDbEntity
  8
0
100
AcDbLine
 10
0.499999999999994
 20
139.5
 30
0.0
 11
0.499999999999994
 21
143.1
 31
0.0
  0
LINE
  5
61
330
1E
100
AcDbEntity
  8
0
100
AcDbLine
 10
0.499999999999994
 20
139.5
 30
0.0
 11
0.499999999999994
 21
135.0
 31
0.0
  0
LINE
  5
62
330
1E
100
AcDbEntity
  8
0
100
AcDbLine
 10
0.499999999999994
 20
135.0
 30
0.0
 11
0.499999999999994
 21
139.5
 31
0.0
  0
LINE
  5
63
330
1E
100
AcDbEntity
  8
0
100
AcDbLine
 10
0.499999999999994
 20
135.0
 30
0.0
 11
0.499999999999994
 21
129.6999999999999
 31
0.0
  0
LINE
  5
64
330
1E
100
AcDbEntity
  8
0
100
AcDbLine
 10
0.499999999999994
 20
129.6999999999999
 30
0.0
 11
0.499999999999994
 21
135.0
 31
0.0
  0
LINE
  5
65
330
1E
100
AcDbEntity
  8
0
100
AcDbLine
 10
0.499999999999994
 20
129.6999999999999
 30
0.0
 11
0.499999999999994
 21
124.0
 31
0.0
  0
LINE
  5
66
330
1E
100
AcDbEntity
  8
0
100
AcDbLine
 10
-0.0000000000000061
 20
129.3
 30
0.0
 11
-0.0000000000000061
 21
134.1999999999999
 31
0.0
  0
LINE
  5
67
330
1E
100
AcDbEntity
  8
0
100
AcDbLine
 10
-0.0000000000000061
 20
129.3
 30
0.0
 11
-0.0000000000000061
 21
124.0
 31
0.0
  0
LINE
  5
68
330
1E
100
AcDbEntity
  8
0
100
AcDbLine
 10
84.40000000000001
 20
128.6
 30
0.0
 11
86.90000000000001
 21
134.6999999999999
 31
0.0
  0
LINE
  5
69
330
1E
100
AcDbEntity
  8
0
100
AcDbLine
 10
86.90000000000001
 20
134.6999999999999
 30
0.0
 11
91.0
 21
140.0
 31
0.0
  0
LINE
  5
6A
330
1E
100
AcDbEntity
  8
0
100
AcDbLine
 10
84.9
 20
128.4
 30
0.0
 11
87.4
 21
134.4
 31
0.0
  0
LINE
  5
6B
330
1E
100
AcDbEntity
  8
0
100
AcDbLine
 10
96.3
 20
99.90004
 30
0.0
 11
102.4
 21
97.40004
 31
0.0
  0
LINE
  5
6C
330
1E
100
AcDbEntity
  8
0
100
AcDbLine
 10
91.3
 20
104.2999999999999
 30
0.0
 11
96.6
 21
100.4
 31
0.0
  0
LINE
  5
6D
330
1E
100
AcDbEntity
  8
0
100
AcDbLine
 10
96.6
 20
100.4
 30
0.0
 11
102.6
 21
97.90004000000001
 31
0.0
  0
LINE
  5
6E
330
1E
100
AcDbEntity
  8
0
100
AcDbLine
 10
87.4
 20
134.4
 30
0.0
 11
91.3
 21
139.7
 31
0.0
  0
LINE
  5
6F
330
1E
100
AcDbEntity
  8
0
100
AcDbLine
 10
-0.0000000000000061
 20
144.5
 30
0.0
 11
-0.0000000000000061
 21
143.8
 31
0.0
  0
LINE
  5
70
330
1E
100
AcDbEntity
  8
0
100
AcDbLine
 10
-0.0000000000000061
 20
144.5
 30
0.0
 11
0.499999999999994
 21
146.0
 31
0.0
  0
LINE
  5
71
330
1E
100
AcDbEntity
  8
0
100
AcDbLine
 10
-0.0000000000000061
 20
143.8
 30
0.0
 11
-0.0000000000000061
 21
144.5
 31
0.0
  0
LINE
  5
72
330
1E
100
AcDbEntity
  8
0
100
AcDbLine
 10
-0.0000000000000061
 20
143.8
 30
0.0
 11
-0.0000000000000061
 21
141.8
 31
0.0
  0
LINE
  5
73
330
1E
100
AcDbEntity
  8
0
100
AcDbLine
 10
0.499999999999994
 20
146.0
 30
0.0
 11
0.499999999999994
 21
145.1999999999999
 31
0.0
  0
LINE
  5
74
330
1E
100
AcDbEntity
  8
0
100
AcDbLine
 10
0.499999999999994
 20
146.0
 30
0.0
 11
1.999999999999989
 21
146.5
 31
0.0
  0
LINE
  5
75
330
1E
100
AcDbEntity
  8
0
100
AcDbLine
 10
1.999999999999989
 20
146.5
 30
0.0
 11
102.156
 21
146.5
 31
0.0
  0
LINE
  5
76
330
1E
100
AcDbEntity
  8
0
100
AcDbLine
 10
1.999999999999989
 20
146.5
 30
0.0
 11
102.156
 21
146.5
 31
0.0
  0
LINE
  5
77
330
1E
100
AcDbEntity
  8
0
100
AcDbLine
 10
0.499999999999994
 20
145.1999999999999
 30
0.0
 11
0.499999999999994
 21
146.0
 31
0.0
  0
LINE
  5
78
330
1E
100
AcDbEntity
  8
0
100
AcDbLine
 10
0.499999999999994
 20
145.1999999999999
 30
0.0
 11
0.499999999999994
 21
143.1
 31
0.0
  0
LINE
  5
79
330
1E
100
AcDbEntity
  8
0
100
AcDbLine
 10
0.499999999999994
 20
143.1
 30
0.0
 11
0.499999999999994
 21
145.1999999999999
 31
0.0
  0
LINE
  5
7A
330
1E
100
AcDbEntity
  8
0
100
AcDbLine
 10
0.499999999999994
 20
143.1
 30
0.0
 11
0.499999999999994
 21
139.5
 31
0.0
  0
LINE
  5
7B
330
1E
100
AcDbEntity
  8
0
100
AcDbLine
 10
-0.0000000000000061
 20
141.8
 30
0.0
 11
-0.0000000000000061
 21
143.8
 31
0.0
  0
LINE
  5
7C
330
1E
100
AcDbEntity
  8
0
100
AcDbLine
 10
-0.0000000000000061
 20
141.8
 30
0.0
 11
-0.0000000000000061
 21
138.5
 31
0.0
  0
LINE
  5
7D
330
1E
100
AcDbEntity
  8
0
100
AcDbLine
 10
8.83962103952339
 20
146.5
 30
0.0
 11
9.999999999999991
 21
148.0
 31
0.0
  0
LINE
  5
7E
330
1E
100
AcDbEntity
  8
0
100
AcDbLine
 10
9.590569855802561
 20
146.5
 30
0.0
 11
10.4
 21
147.5999999999999
 31
0.0
  0
LINE
  5
7F
330
1E
100
AcDbEntity
  8
0
100
AcDbLine
 10
9.999999999999991
 20
148.0
 30
0.0
 11
17.0667
 21
153.4666999999999
 31
0.0
  0
LINE
  5
80
330
1E
100
AcDbEntity
  8
0
100
AcDbLine
 10
9.590569855802561
 20
146.5
 30
0.0
 11
10.4
 21
147.5999999999999
 31
0.0
  0
LINE
  5
81
330
1E
100
AcDbEntity
  8
0
100
AcDbLine
 10
10.4
 20
147.5999999999999
 30
0.0
 11
17.46669999999999
 21
152.8
 31
0.0
  0
LINE
  5
82
330
1E
100
AcDbEntity
  8
0
100
AcDbLine
 10
17.0667
 20
153.4666999999999
 30
0.0
 11
25.2
 21
156.8
 31
0.0
  0
LINE
  5
83
330
1E
100
AcDbEntity
  8
0
100
AcDbLine
 10
25.2
 20
156.8
 30
0.0
 11
34.0
 21
158.0
 31
0.0
  0
LINE
  5
84
330
1E
100
AcDbEntity
  8
0
100
AcDbLine
 10
17.46669999999999
 20
152.8
 30
0.0
 11
25.4667
 21
156.1332999999999
 31
0.0
  0
LINE
  5
85
330
1E
100
AcDbEntity
  8
0
100
AcDbLine
 10
25.4667
 20
156.1332999999999
 30
0.0
 11
34.0
 21
157.3333
 31
0.0
  0
LINE
  5
86
330
1E
100
AcDbEntity
  8
0
100
AcDbLine
 10
34.0
 20
158.0
 30
0.0
 11
42.8
 21
156.8
 31
0.0
  0
LINE
  5
87
330
1E
100
AcDbEntity
  8
0
100
AcDbLine
 10
58.0
 20
148.0
 30
0.0
 11
59.1603789604766
 21
146.5
 31
0.0
  0
LINE
  5
88
330
1E
100
AcDbEntity
  8
0
100
AcDbLine
 10
50.9333
 20
153.4666999999999
 30
0.0
 11
58.0
 21
148.0
 31
0.0
  0
LINE
  5
89
330
1E
100
AcDbEntity
  8
0
100
AcDbLine
 10
57.6
 20
147.5999999999999
 30
0.0
 11
58.40943014419739
 21
146.5
 31
0.0
  0
LINE
  5
8A
330
1E
100
AcDbEntity
  8
0
100
AcDbLine
 10
50.53329999999999
 20
152.8
 30
0.0
 11
57.6
 21
147.5999999999999
 31
0.0
  0
LINE
  5
8B
330
1E
100
AcDbEntity
  8
0
100
AcDbLine
 10
42.8
 20
156.8
 30
0.0
 11
50.9333
 21
153.4666999999999
 31
0.0
  0
LINE
  5
8C
330
1E
100
AcDbEntity
  8
0
100
AcDbLine
 10
42.5333
 20
156.1332999999999
 30
0.0
 11
50.53329999999999
 21
152.8
 31
0.0
  0
LINE
  5
8D
330
1E
100
AcDbEntity
  8
0
100
AcDbLine
 10
34.0
 20
157.3333
 30
0.0
 11
42.5333
 21
156.1332999999999
 31
0.0
  0
LINE
  5
8E
330
1E
100
AcDbEntity
  8
0
100
AcDbLine
 10
96.3
 20
144.1
 30
0.0
 11
102.4
 21
146.6
 31
0.0
  0
LINE
  5
8F
330
1E
100
AcDbEntity
  8
0
100
AcDbLine
 10
91.3
 20
139.7
 30
0.0
 11
96.6
 21
143.5999999999999
 31
0.0
  0
LINE
  5
90
330
1E
100
AcDbEntity
  8
0
100
AcDbLine
 10
96.6
 20
143.5999999999999
 30
0.0
 11
102.6
 21
146.1
 31
0.0
  0
LINE
  5
91
330
1E
100
AcDbEntity
  8
0
100
AcDbLine
 10
97.5
 20
90.0
 30
0.0
 11
98.50000000000001
 21
60.0
 31
0.0
  0
LINE
  5
92
330
1E
100
AcDbEntity
  8
0
100
AcDbLine
 10
97.5
 20
90.0
 30
0.0
 11
97.9
 21
90.0
 31
0.0
  0
LINE
  5
93
330
1E
100
AcDbEntity
  8
0
100
AcDbLine
 10
101.5
 20
60.0
 30
0.0
 11
101.8
 21
60.0
 31
0.0
  0
LINE
  5
94
330
1E
100
AcDbEntity
  8
0
100
AcDbLine
 10
101.5
 20
60.0
 30
0.0
 11
101.5
 21
0.0000000000000088
 31
0.0
  0
LINE
  5
95
330
1E
100
AcDbEntity
  8
0
100
AcDbLine
 10
101.8627399999999
 20
0.0262500000000066
 30
0.0
 11
102.53799
 21
0.101220000000006
 31
0.0
  0
LINE
  5
96
330
1E
100
AcDbEntity
  8
0
100
AcDbLine
 10
102.53799
 20
0.101220000000006
 30
0.0
 11
103.7759499999999
 21
0.4760400000000061
 31
0.0
  0
LINE
  5
97
330
1E
100
AcDbEntity
  8
0
100
AcDbLine
 10
103.7759499999999
 20
0.4760400000000061
 30
0.0
 11
105.2764999999999
 21
1.15073000000001
 31
0.0
  0
LINE
  5
98
330
1E
100
AcDbEntity
  8
0
100
AcDbLine
 10
103.7
 20
60.0
 30
0.0
 11
104.4999999999999
 21
60.0
 31
0.0
  0
LINE
  5
99
330
1E
100
AcDbEntity
  8
0
100
AcDbLine
 10
103.7759499999999
 20
0.476040000000007
 30
0.0
 11
105.2764999999999
 21
1.15073000000001
 31
0.0
  0
LINE
  5
9A
330
1E
100
AcDbEntity
  8
0
100
AcDbLine
 10
102.4999999999999
 20
60.0
 30
0.0
 11
103.7
 21
60.0
 31
0.0
  0
LINE
  5
9B
330
1E
100
AcDbEntity
  8
0
100
AcDbLine
 10
102.53799
 20
0.101220000000007
 30
0.0
 11
103.7759499999999
 21
0.476040000000007
 31
0.0
  0
LINE
  5
9C
330
1E
100
AcDbEntity
  8
0
100
AcDbLine
 10
101.8
 20
60.0
 30
0.0
 11
102.4999999999999
 21
60.0
 31
0.0
  0
LINE
  5
9D
330
1E
100
AcDbEntity
  8
0
100
AcDbLine
 10
101.8627399999999
 20
0.0262500000000068
 30
0.0
 11
102.53799
 21
0.101220000000007
 31
0.0
  0
LINE
  5
9E
330
1E
100
AcDbEntity
  8
0
100
AcDbLine
 10
101.5
 20
0.0000000000000067
 30
0.0
 11
101.8627399999999
 21
0.0262500000000068
 31
0.0
  0
LINE
  5
9F
330
1E
100
AcDbEntity
  8
0
100
AcDbLine
 10
101.5
 20
0.0000000000000067
 30
0.0
 11
101.5
 21
60.0
 31
0.0
  0
LINE
  5
A0
330
1E
100
AcDbEntity
  8
0
100
AcDbLine
 10
105.2764999999999
 20
1.15073000000001
 30
0.0
 11
107.0771699999999
 21
2.275200000000009
 31
0.0
  0
LINE
  5
A1
330
1E
100
AcDbEntity
  8
0
100
AcDbLine
 10
104.7
 20
53.54169999999999
 30
0.0
 11
105.0999999999999
 21
53.8006
 31
0.0
  0
LINE
  5
A2
330
1E
100
AcDbEntity
  8
0
100
AcDbLine
 10
104.4999999999999
 20
53.2312
 30
0.0
 11
104.7
 21
52.9206
 31
0.0
  0
LINE
  5
A3
330
1E
100
AcDbEntity
  8
0
100
AcDbLine
 10
104.4999999999999
 20
53.2312
 30
0.0
 11
104.7
 21
53.54169999999999
 31
0.0
  0
LINE
  5
A4
330
1E
100
AcDbEntity
  8
0
100
AcDbLine
 10
104.4999999999999
 20
53.2312
 30
0.0
 11
104.4999999999999
 21
97.1136763636364
 31
0.0
  0
LINE
  5
A5
330
1E
100
AcDbEntity
  8
0
100
AcDbLine
 10
104.7
 20
52.9206
 30
0.0
 11
105.0999999999999
 21
52.48940000000001
 31
0.0
  0
LINE
  5
A6
330
1E
100
AcDbEntity
  8
0
100
AcDbLine
 10
105.0999999999999
 20
53.00699999999999
 30
0.0
 11
105.4999999999999
 21
53.26579999999999
 31
0.0
  0
LINE
  5
A7
330
1E
100
AcDbEntity
  8
0
100
AcDbLine
 10
105.0999999999999
 20
53.8006
 30
0.0
 11
105.8
 21
54.0594
 31
0.0
  0
LINE
  5
A8
330
1E
100
AcDbEntity
  8
0
100
AcDbLine
 10
105.4999999999999
 20
53.26579999999999
 30
0.0
 11
106.0999999999999
 21
53.4988
 31
0.0
  0
LINE
  5
A9
330
1E
100
AcDbEntity
  8
0
100
AcDbLine
 10
105.0
 20
52.7482
 30
0.0
 11
105.0999999999999
 21
52.48940000000001
 31
0.0
  0
LINE
  5
AA
330
1E
100
AcDbEntity
  8
0
100
AcDbLine
 10
105.0
 20
52.7482
 30
0.0
 11
105.0999999999999
 21
53.00699999999999
 31
0.0
  0
LINE
  5
AB
330
1E
100
AcDbEntity
  8
0
100
AcDbLine
 10
105.0999999999999
 20
52.48940000000001
 30
0.0
 11
105.4999999999999
 21
52.2305
 31
0.0
  0
LINE
  5
AC
330
1E
100
AcDbEntity
  8
0
100
AcDbLine
 10
106.0999999999999
 20
53.4988
 30
0.0
 11
107.0
 21
53.6541
 31
0.0
  0
LINE
  5
AD
330
1E
100
AcDbEntity
  8
0
100
AcDbLine
 10
105.8
 20
54.0594
 30
0.0
 11
106.8
 21
54.2405
 31
0.0
  0
LINE
  5
AE
330
1E
100
AcDbEntity
  8
0
100
AcDbLine
 10
106.8
 20
54.2405
 30
0.0
 11
107.8
 21
54.34409999999999
 31
0.0
  0
LINE
  5
AF
330
1E
100
AcDbEntity
  8
0
100
AcDbLine
 10
107.0
 20
53.6541
 30
0.0
 11
108.0
 21
53.75759999999999
 31
0.0
  0
LINE
  5
B0
330
1E
100
AcDbEntity
  8
0
100
AcDbLine
 10
105.4999999999999
 20
52.2305
 30
0.0
 11
106.0999999999999
 21
51.9976
 31
0.0
  0
LINE
  5
B1
330
1E
100
AcDbEntity
  8
0
100
AcDbLine
 10
106.0999999999999
 20
51.9976
 30
0.0
 11
107.0
 21
51.8423
 31
0.0
  0
LINE
  5
B2
330
1E
100
AcDbEntity
  8
0
100
AcDbLine
 10
107.0
 20
51.8423
 30
0.0
 11
108.0
 21
51.7388
 31
0.0
  0
LINE
  5
B3
330
1E
100
AcDbEntity
  8
0
100
AcDbLine
 10
107.0771699999999
 20
2.275200000000009
 30
0.0
 11
109.0278999999999
 21
4.261770000000009
 31
0.0
  0
LINE
  5
B4
330
1E
100
AcDbEntity
  8
0
100
AcDbLine
 10
109.0278999999999
 20
4.261770000000009
 30
0.0
 11
110.7909999999999
 21
5.611140000000009
 31
0.0
  0
LINE
  5
B5
330
1E
100
AcDbEntity
  8
0
100
AcDbLine
 10
109.0278999999999
 20
4.261770000000009
 30
0.0
 11
110.7909999999999
 21
5.611140000000009
 31
0.0
  0
LINE
  5
B6
330
1E
100
AcDbEntity
  8
0
100
AcDbLine
 10
112.6292
 20
6.810580000000009
 30
0.0
 11
114.4298999999999
 21
8.010019999999999
 31
0.0
  0
LINE
  5
B7
330
1E
100
AcDbEntity
  8
0
100
AcDbLine
 10
110.7909999999999
 20
5.611140000000009
 30
0.0
 11
112.6292
 21
6.810580000000009
 31
0.0
  0
LINE
  5
B8
330
1E
100
AcDbEntity
  8
0
100
AcDbLine
 10
114.4298999999999
 20
8.010019999999999
 30
0.0
 11
115.5178
 21
9.059530000000009
 31
0.0
  0
LINE
  5
B9
330
1E
100
AcDbEntity
  8
0
100
AcDbLine
 10
112.6292
 20
6.810580000000009
 30
0.0
 11
114.4298999999999
 21
8.010020000000009
 31
0.0
  0
LINE
  5
BA
330
1E
100
AcDbEntity
  8
0
100
AcDbLine
 10
114.4298999999999
 20
8.010020000000009
 30
0.0
 11
115.5178
 21
9.059530000000009
 31
0.0
  0
LINE
  5
BB
330
1E
100
AcDbEntity
  8
0
100
AcDbLine
 10
115.5178
 20
9.059530000000009
 30
0.0
 11
116.2306
 21
9.771700000000009
 31
0.0
  0
LINE
  5
BC
330
1E
100
AcDbEntity
  8
0
100
AcDbLine
 10
110.0
 20
51.7388
 30
0.0
 11
111.0
 21
51.8423
 31
0.0
  0
LINE
  5
BD
330
1E
100
AcDbEntity
  8
0
100
AcDbLine
 10
109.0
 20
51.71289999999999
 30
0.0
 11
110.0
 21
51.7388
 31
0.0
  0
LINE
  5
BE
330
1E
100
AcDbEntity
  8
0
100
AcDbLine
 10
107.8
 20
54.34409999999999
 30
0.0
 11
109.0
 21
54.3958
 31
0.0
  0
LINE
  5
BF
330
1E
100
AcDbEntity
  8
0
100
AcDbLine
 10
111.8999999999999
 20
53.4988
 30
0.0
 11
112.5
 21
53.26579999999999
 31
0.0
  0
LINE
  5
C0
330
1E
100
AcDbEntity
  8
0
100
AcDbLine
 10
111.0
 20
53.6541
 30
0.0
 11
111.8999999999999
 21
53.4988
 31
0.0
  0
LINE
  5
C1
330
1E
100
AcDbEntity
  8
0
100
AcDbLine
 10
110.0
 20
53.75759999999999
 30
0.0
 11
111.0
 21
53.6541
 31
0.0
  0
LINE
  5
C2
330
1E
100
AcDbEntity
  8
0
100
AcDbLine
 10
111.2
 20
54.2405
 30
0.0
 11
112.2
 21
54.0594
 31
0.0
  0
LINE
  5
C3
330
1E
100
AcDbEntity
  8
0
100
AcDbLine
 10
110.2
 20
54.34409999999999
 30
0.0
 11
111.2
 21
54.2405
 31
0.0
  0
LINE
  5
C4
330
1E
100
AcDbEntity
  8
0
100
AcDbLine
 10
109.0
 20
54.3958
 30
0.0
 11
110.2
 21
54.34409999999999
 31
0.0
  0
LINE
  5
C5
330
1E
100
AcDbEntity
  8
0
100
AcDbLine
 10
109.0
 20
53.7835
 30
0.0
 11
110.0
 21
53.75759999999999
 31
0.0
  0
LINE
  5
C6
330
1E
100
AcDbEntity
  8
0
100
AcDbLine
 10
112.9
 20
53.00699999999999
 30
0.0
 11
113.0
 21
52.7482
 31
0.0
  0
LINE
  5
C7
330
1E
100
AcDbEntity
  8
0
100
AcDbLine
 10
112.9
 20
53.8006
 30
0.0
 11
113.3
 21
53.54169999999999
 31
0.0
  0
LINE
  5
C8
330
1E
100
AcDbEntity
  8
0
100
AcDbLine
 10
112.2
 20
54.0594
 30
0.0
 11
112.9
 21
53.8006
 31
0.0
  0
LINE
  5
C9
330
1E
100
AcDbEntity
  8
0
100
AcDbLine
 10
112.5
 20
53.26579999999999
 30
0.0
 11
112.9
 21
53.00699999999999
 31
0.0
  0
LINE
  5
CA
330
1E
100
AcDbEntity
  8
0
100
AcDbLine
 10
113.3
 20
53.54169999999999
 30
0.0
 11
113.5
 21
53.2312
 31
0.0
  0
LINE
  5
CB
330
1E
100
AcDbEntity
  8
0
100
AcDbLine
 10
113.5
 20
53.2312
 30
0.0
 11
113.5
 21
97.1136763636364
 31
0.0
  0
LINE
  5
CC
330
1E
100
AcDbEntity
  8
0
100
AcDbLine
 10
113.3
 20
52.9206
 30
0.0
 11
113.5
 21
53.2312
 31
0.0
  0
LINE
  5
CD
330
1E
100
AcDbEntity
  8
0
100
AcDbLine
 10
112.9
 20
52.48940000000001
 30
0.0
 11
113.0
 21
52.7482
 31
0.0
  0
LINE
  5
CE
330
1E
100
AcDbEntity
  8
0
100
AcDbLine
 10
112.9
 20
52.48940000000001
 30
0.0
 11
113.3
 21
52.9206
 31
0.0
  0
LINE
  5
CF
330
1E
100
AcDbEntity
  8
0
100
AcDbLine
 10
112.5
 20
52.2305
 30
0.0
 11
112.9
 21
52.48940000000001
 31
0.0
  0
LINE
  5
D0
330
1E
100
AcDbEntity
  8
0
100
AcDbLine
 10
111.8999999999999
 20
51.9976
 30
0.0
 11
112.5
 21
52.2305
 31
0.0
  0
LINE
  5
D1
330
1E
100
AcDbEntity
  8
0
100
AcDbLine
 10
111.0
 20
51.8423
 30
0.0
 11
111.8999999999999
 21
51.9976
 31
0.0
  0
LINE
  5
D2
330
1E
100
AcDbEntity
  8
0
100
AcDbLine
 10
108.0
 20
53.75759999999999
 30
0.0
 11
109.0
 21
53.7835
 31
0.0
  0
LINE
  5
D3
330
1E
100
AcDbEntity
  8
0
100
AcDbLine
 10
108.0
 20
51.7388
 30
0.0
 11
109.0
 21
51.71289999999999
 31
0.0
  0
LINE
  5
D4
330
1E
100
AcDbEntity
  8
0
100
AcDbLine
 10
114.2
 20
60.0
 30
0.0
 11
116.4
 21
60.0
 31
0.0
  0
LINE
  5
D5
330
1E
100
AcDbEntity
  8
0
100
AcDbLine
 10
113.5
 20
60.0
 30
0.0
 11
114.3
 21
60.0
 31
0.0
  0
LINE
  5
D6
330
1E
100
AcDbEntity
  8
0
100
AcDbLine
 10
113.5
 20
60.0
 30
0.0
 11
114.2
 21
60.0
 31
0.0
  0
LINE
  5
D7
330
1E
100
AcDbEntity
  8
0
100
AcDbLine
 10
114.3
 20
60.0
 30
0.0
 11
115.5
 21
60.0
 31
0.0
  0
LINE
  5
D8
330
1E
100
AcDbEntity
  8
0
100
AcDbLine
 10
116.5
 20
10.0
 30
0.0
 11
116.5
 21
60.0
 31
0.0
  0
LINE
  5
D9
330
1E
100
AcDbEntity
  8
0
100
AcDbLine
 10
116.4
 20
60.0
 30
0.0
 11
118.1
 21
60.0
 31
0.0
  0
LINE
  5
DA
330
1E
100
AcDbEntity
  8
0
100
AcDbLine
 10
115.5
 20
60.0
 30
0.0
 11
116.2
 21
60.0
 31
0.0
  0
LINE
  5
DB
330
1E
100
AcDbEntity
  8
0
100
AcDbLine
 10
116.2
 20
60.0
 30
0.0
 11
116.5
 21
60.0
 31
0.0
  0
LINE
  5
DC
330
1E
100
AcDbEntity
  8
0
100
AcDbLine
 10
118.1
 20
60.0
 30
0.0
 11
119.1
 21
60.0
 31
0.0
  0
LINE
  5
DD
330
1E
100
AcDbEntity
  8
0
100
AcDbLine
 10
119.1
 20
60.0
 30
0.0
 11
119.5
 21
60.0
 31
0.0
  0
LINE
  5
DE
330
1E
100
AcDbEntity
  8
0
100
AcDbLine
 10
119.5
 20
60.0
 30
0.0
 11
120.5
 21
90.0
 31
0.0
  0
LINE
  5
DF
330
1E
100
AcDbEntity
  8
0
100
AcDbLine
 10
116.5
 20
60.0
 30
0.0
 11
116.5
 21
10.0
 31
0.0
  0
LINE
  5
E0
330
1E
100
AcDbEntity
  8
0
100
AcDbLine
 10
116.5
 20
60.0
 30
0.0
 11
118.1
 21
60.0
 31
0.0
  0
LINE
  5
E1
330
1E
100
AcDbEntity
  8
0
100
AcDbLine
 10
116.2306
 20
9.771700000000009
 30
0.0
 11
116.5
 21
10.0
 31
0.0
  0
LINE
  5
E2
330
1E
100
AcDbEntity
  8
0
100
AcDbLine
 10
107.0771699999999
 20
2.275200000000009
 30
0.0
 11
109.0278999999999
 21
4.261770000000009
 31
0.0
  0
LINE
  5
E3
330
1E
100
AcDbEntity
  8
0
100
AcDbLine
 10
105.2764999999999
 20
1.15073000000001
 30
0.0
 11
107.0771699999999
 21
2.275200000000009
 31
0.0
  0
LINE
  5
E4
330
1E
100
AcDbEntity
  8
0
100
AcDbLine
 10
103.8
 20
60.0
 30
0.0
 11
104.4999999999999
 21
60.0
 31
0.0
  0
LINE
  5
E5
330
1E
100
AcDbEntity
  8
0
100
AcDbLine
 10
101.6
 20
60.0
 30
0.0
 11
103.8
 21
60.0
 31
0.0
  0
LINE
  5
E6
330
1E
100
AcDbEntity
  8
0
100
AcDbLine
 10
99.90000000000001
 20
60.0
 30
0.0
 11
101.6
 21
60.0
 31
0.0
  0
LINE
  5
E7
330
1E
100
AcDbEntity
  8
0
100
AcDbLine
 10
99.90000000000001
 20
60.0
 30
0.0
 11
101.5
 21
60.0
 31
0.0
  0
LINE
  5
E8
330
1E
100
AcDbEntity
  8
0
100
AcDbLine
 10
99.0
 20
98.79348262295081
 30
0.0
 11
99.0
 21
90.26315999999999
 31
0.0
  0
LINE
  5
E9
330
1E
100
AcDbEntity
  8
0
100
AcDbLine
 10
99.0
 20
90.26315999999999
 30
0.0
 11
99.34780000000001
 21
90.26315999999999
 31
0.0
  0
LINE
  5
EA
330
1E
100
AcDbEntity
  8
0
100
AcDbLine
 10
99.0
 20
90.26315999999999
 30
0.0
 11
99.21739999999999
 21
90.0
 31
0.0
  0
LINE
  5
EB
330
1E
100
AcDbEntity
  8
0
100
AcDbLine
 10
99.0
 20
90.26315999999999
 30
0.0
 11
99.0
 21
98.79348262295081
 31
0.0
  0
LINE
  5
EC
330
1E
100
AcDbEntity
  8
0
100
AcDbLine
 10
113.5
 20
90.0
 30
0.0
 11
114.7
 21
90.0
 31
0.0
  0
LINE
  5
ED
330
1E
100
AcDbEntity
  8
0
100
AcDbLine
 10
118.7829999999999
 20
90.0
 30
0.0
 11
119.0
 21
90.26315999999999
 31
0.0
  0
LINE
  5
EE
330
1E
100
AcDbEntity
  8
0
100
AcDbLine
 10
114.7
 20
90.0
 30
0.0
 11
117.1
 21
90.0
 31
0.0
  0
LINE
  5
EF
330
1E
100
AcDbEntity
  8
0
100
AcDbLine
 10
117.1
 20
90.0
 30
0.0
 11
119.0
 21
90.0
 31
0.0
  0
LINE
  5
F0
330
1E
100
AcDbEntity
  8
0
100
AcDbLine
 10
184.0
 20
90.0
 30
0.0
 11
192.8
 21
91.2
 31
0.0
  0
LINE
  5
F1
330
1E
100
AcDbEntity
  8
0
100
AcDbLine
 10
119.0
 20
90.0
 30
0.0
 11
120.1
 21
90.0
 31
0.0
  0
LINE
  5
F2
330
1E
100
AcDbEntity
  8
0
100
AcDbLine
 10
120.1
 20
90.0
 30
0.0
 11
120.5
 21
90.0
 31
0.0
  0
LINE
  5
F3
330
1E
100
AcDbEntity
  8
0
100
AcDbLine
 10
103.2999999999999
 20
90.0
 30
0.0
 11
104.4999999999999
 21
90.0
 31
0.0
  0
LINE
  5
F4
330
1E
100
AcDbEntity
  8
0
100
AcDbLine
 10
99.34780000000001
 20
90.26315999999999
 30
0.0
 11
100.3479999999999
 21
90.26315999999999
 31
0.0
  0
LINE
  5
F5
330
1E
100
AcDbEntity
  8
0
100
AcDbLine
 10
100.3479999999999
 20
90.26315999999999
 30
0.0
 11
101.957
 21
90.26315999999999
 31
0.0
  0
LINE
  5
F6
330
1E
100
AcDbEntity
  8
0
100
AcDbLine
 10
101.957
 20
90.26315999999999
 30
0.0
 11
104.0429999999999
 21
90.26315999999999
 31
0.0
  0
LINE
  5
F7
330
1E
100
AcDbEntity
  8
0
100
AcDbLine
 10
102.4
 20
97.40004
 30
0.0
 11
104.4999999999999
 21
97.1136763636364
 31
0.0
  0
LINE
  5
F8
330
1E
100
AcDbEntity
  8
0
100
AcDbLine
 10
102.6
 20
97.90004000000001
 30
0.0
 11
105.8
 21
97.45004000000001
 31
0.0
  0
LINE
  5
F9
330
1E
100
AcDbEntity
  8
0
100
AcDbLine
 10
102.4
 20
146.6
 30
0.0
 11
109.0
 21
147.5
 31
0.0
  0
LINE
  5
FA
330
1E
100
AcDbEntity
  8
0
100
AcDbLine
 10
113.5
 20
97.1136763636364
 30
0.0
 11
113.5
 21
53.2312
 31
0.0
  0
LINE
  5
FB
330
1E
100
AcDbEntity
  8
0
100
AcDbLine
 10
104.0429999999999
 20
90.26315999999999
 30
0.0
 11
104.4999999999999
 21
90.26315999999999
 31
0.0
  0
LINE
  5
FC
330
1E
100
AcDbEntity
  8
0
100
AcDbLine
 10
118.652
 20
90.26315999999999
 30
0.0
 11
119.0
 21
90.26315999999999
 31
0.0
  0
LINE
  5
FD
330
1E
100
AcDbEntity
  8
0
100
AcDbLine
 10
119.0
 20
90.26315999999999
 30
0.0
 11
119.0
 21
98.79348262295081
 31
0.0
  0
LINE
  5
FE
330
1E
100
AcDbEntity
  8
0
100
AcDbLine
 10
117.652
 20
90.26315999999999
 30
0.0
 11
118.652
 21
90.26315999999999
 31
0.0
  0
LINE
  5
FF
330
1E
100
AcDbEntity
  8
0
100
AcDbLine
 10
116.0439999999999
 20
90.26315999999999
 30
0.0
 11
117.652
 21
90.26315999999999
 31
0.0
  0
LINE
  5
100
330
1E
100
AcDbEntity
  8
0
100
AcDbLine
 10
175.1999999999999
 20
91.2
 30
0.0
 11
184.0
 21
90.0
 31
0.0
  0
LINE
  5
101
330
1E
100
AcDbEntity
  8
0
100
AcDbLine
 10
167.067
 20
94.53329999999999
 30
0.0
 11
175.1999999999999
 21
91.2
 31
0.0
  0
LINE
  5
102
330
1E
100
AcDbEntity
  8
0
100
AcDbLine
 10
167.067
 20
94.53333999999999
 30
0.0
 11
175.1999999999999
 21
91.2
 31
0.0
  0
LINE
  5
103
330
1E
100
AcDbEntity
  8
0
100
AcDbLine
 10
167.467
 20
95.20000999999998
 30
0.0
 11
175.467
 21
91.86666999999999
 31
0.0
  0
LINE
  5
104
330
1E
100
AcDbEntity
  8
0
100
AcDbLine
 10
175.467
 20
91.86666999999999
 30
0.0
 11
184.0
 21
90.666668
 31
0.0
  0
LINE
  5
105
330
1E
100
AcDbEntity
  8
0
100
AcDbLine
 10
192.8
 20
91.2
 30
0.0
 11
200.9329999999999
 21
94.53333999999999
 31
0.0
  0
LINE
  5
106
330
1E
100
AcDbEntity
  8
0
100
AcDbLine
 10
192.8
 20
91.2
 30
0.0
 11
200.9329999999999
 21
94.53329999999999
 31
0.0
  0
LINE
  5
107
330
1E
100
AcDbEntity
  8
0
100
AcDbLine
 10
200.9329999999999
 20
94.53329999999999
 30
0.0
 11
208.0
 21
100.0
 31
0.0
  0
LINE
  5
108
330
1E
100
AcDbEntity
  8
0
100
AcDbLine
 10
200.5329999999999
 20
95.20000999999998
 30
0.0
 11
207.6
 21
100.4
 31
0.0
  0
LINE
  5
109
330
1E
100
AcDbEntity
  8
0
100
AcDbLine
 10
192.5329999999999
 20
91.86666999999999
 30
0.0
 11
200.5329999999999
 21
95.20000999999998
 31
0.0
  0
LINE
  5
10A
330
1E
100
AcDbEntity
  8
0
100
AcDbLine
 10
184.0
 20
90.666668
 30
0.0
 11
192.5329999999999
 21
91.86666999999999
 31
0.0
  0
LINE
  5
10B
330
1E
100
AcDbEntity
  8
0
100
AcDbLine
 10
113.956
 20
90.26315999999999
 30
0.0
 11
116.0439999999999
 21
90.26315999999999
 31
0.0
  0
LINE
  5
10C
330
1E
100
AcDbEntity
  8
0
100
AcDbLine
 10
113.5
 20
90.26315999999999
 30
0.0
 11
113.956
 21
90.26315999999999
 31
0.0
  0
LINE
  5
10D
330
1E
100
AcDbEntity
  8
0
100
AcDbLine
 10
115.5999999999999
 20
97.40004
 30
0.0
 11
121.7
 21
99.90004
 31
0.0
  0
LINE
  5
10E
330
1E
100
AcDbEntity
  8
0
100
AcDbLine
 10
115.4
 20
146.1
 30
0.0
 11
121.4
 21
143.5999999999999
 31
0.0
  0
LINE
  5
10F
330
1E
100
AcDbEntity
  8
0
100
AcDbLine
 10
109.0
 20
147.5
 30
0.0
 11
115.5999999999999
 21
146.6
 31
0.0
  0
LINE
  5
110
330
1E
100
AcDbEntity
  8
0
100
AcDbLine
 10
109.0
 20
147.0
 30
0.0
 11
115.4
 21
146.1
 31
0.0
  0
LINE
  5
111
330
1E
100
AcDbEntity
  8
0
100
AcDbLine
 10
115.5999999999999
 20
146.6
 30
0.0
 11
121.7
 21
144.1
 31
0.0
  0
LINE
  5
112
330
1E
100
AcDbEntity
  8
0
100
AcDbLine
 10
115.8439999999999
 20
146.5
 30
0.0
 11
216.0
 21
146.5
 31
0.0
  0
LINE
  5
113
330
1E
100
AcDbEntity
  8
0
100
AcDbLine
 10
115.4
 20
97.90004000000001
 30
0.0
 11
121.4
 21
100.4
 31
0.0
  0
LINE
  5
114
330
1E
100
AcDbEntity
  8
0
100
AcDbLine
 10
112.2
 20
97.45004000000001
 30
0.0
 11
115.4
 21
97.90004000000001
 31
0.0
  0
LINE
  5
115
330
1E
100
AcDbEntity
  8
0
100
AcDbLine
 10
160.0
 20
100.0
 30
0.0
 11
167.067
 21
94.53333999999999
 31
0.0
  0
LINE
  5
116
330
1E
100
AcDbEntity
  8
0
100
AcDbLine
 10
160.0
 20
100.0
 30
0.0
 11
167.067
 21
94.53329999999999
 31
0.0
  0
LINE
  5
117
330
1E
100
AcDbEntity
  8
0
100
AcDbLine
 10
160.4
 20
100.4
 30
0.0
 11
167.467
 21
95.20000999999998
 31
0.0
  0
LINE
  5
118
330
1E
100
AcDbEntity
  8
0
100
AcDbLine
 10
208.0
 20
100.0
 30
0.0
 11
209.160442639422
 21
101.5
 31
0.0
  0
LINE
  5
119
330
1E
100
AcDbEntity
  8
0
100
AcDbLine
 10
207.6
 20
100.4
 30
0.0
 11
208.409430144197
 21
101.5
 31
0.0
  0
LINE
  5
11A
330
1E
100
AcDbEntity
  8
0
100
AcDbLine
 10
126.7
 20
139.7
 30
0.0
 11
130.6
 21
134.4
 31
0.0
  0
LINE
  5
11B
330
1E
100
AcDbEntity
  8
0
100
AcDbLine
 10
121.4
 20
143.5999999999999
 30
0.0
 11
126.7
 21
139.7
 31
0.0
  0
LINE
  5
11C
330
1E
100
AcDbEntity
  8
0
100
AcDbLine
 10
123.768261153767
 20
101.5
 30
0.0
 11
216.0
 21
101.5
 31
0.0
  0
LINE
  5
11D
330
1E
100
AcDbEntity
  8
0
100
AcDbLine
 10
158.8395573605789
 20
101.5
 30
0.0
 11
160.0
 21
100.0
 31
0.0
  0
LINE
  5
11E
330
1E
100
AcDbEntity
  8
0
100
AcDbLine
 10
159.5905698558029
 20
101.5
 30
0.0
 11
160.4
 21
100.4
 31
0.0
  0
LINE
  5
11F
330
1E
100
AcDbEntity
  8
0
100
AcDbLine
 10
216.0
 20
101.5
 30
0.0
 11
217.5
 21
102.0
 31
0.0
  0
LINE
  5
120
330
1E
100
AcDbEntity
  8
0
100
AcDbLine
 10
217.5
 20
102.8
 30
0.0
 11
217.5
 21
102.0
 31
0.0
  0
LINE
  5
121
330
1E
100
AcDbEntity
  8
0
100
AcDbLine
 10
217.5
 20
102.8
 30
0.0
 11
217.5
 21
104.9
 31
0.0
  0
LINE
  5
122
330
1E
100
AcDbEntity
  8
0
100
AcDbLine
 10
218.0
 20
103.4999999999999
 30
0.0
 11
218.0
 21
104.2
 31
0.0
  0
LINE
  5
123
330
1E
100
AcDbEntity
  8
0
100
AcDbLine
 10
217.5
 20
102.0
 30
0.0
 11
218.0
 21
103.4999999999999
 31
0.0
  0
LINE
  5
124
330
1E
100
AcDbEntity
  8
0
100
AcDbLine
 10
217.5
 20
102.0
 30
0.0
 11
217.5
 21
102.8
 31
0.0
  0
LINE
  5
125
330
1E
100
AcDbEntity
  8
0
100
AcDbLine
 10
217.5
 20
104.9
 30
0.0
 11
217.5
 21
102.8
 31
0.0
  0
LINE
  5
126
330
1E
100
AcDbEntity
  8
0
100
AcDbLine
 10
217.5
 20
104.9
 30
0.0
 11
217.5
 21
108.4999999999999
 31
0.0
  0
LINE
  5
127
330
1E
100
AcDbEntity
  8
0
100
AcDbLine
 10
218.0
 20
104.2
 30
0.0
 11
218.0
 21
103.4999999999999
 31
0.0
  0
LINE
  5
128
330
1E
100
AcDbEntity
  8
0
100
AcDbLine
 10
218.0
 20
104.2
 30
0.0
 11
218.0
 21
106.2
 31
0.0
  0
LINE
  5
129
330
1E
100
AcDbEntity
  8
0
100
AcDbLine
 10
217.5
 20
108.4999999999999
 30
0.0
 11
217.5
 21
104.9
 31
0.0
  0
LINE
  5
12A
330
1E
100
AcDbEntity
  8
0
100
AcDbLine
 10
217.5
 20
108.4999999999999
 30
0.0
 11
217.5
 21
113.0
 31
0.0
  0
LINE
  5
12B
330
1E
100
AcDbEntity
  8
0
100
AcDbLine
 10
218.0
 20
106.2
 30
0.0
 11
218.0
 21
104.2
 31
0.0
  0
LINE
  5
12C
330
1E
100
AcDbEntity
  8
0
100
AcDbLine
 10
218.0
 20
106.2
 30
0.0
 11
218.0
 21
109.4999999999999
 31
0.0
  0
LINE
  5
12D
330
1E
100
AcDbEntity
  8
0
100
AcDbLine
 10
218.0
 20
109.4999999999999
 30
0.0
 11
218.0
 21
106.2
 31
0.0
  0
LINE
  5
12E
330
1E
100
AcDbEntity
  8
0
100
AcDbLine
 10
218.0
 20
109.4999999999999
 30
0.0
 11
218.0
 21
113.7999999999999
 31
0.0
  0
LINE
  5
12F
330
1E
100
AcDbEntity
  8
0
100
AcDbLine
 10
133.0999999999999
 20
128.4
 30
0.0
 11
134.0
 21
122.0
 31
0.0
  0
LINE
  5
130
330
1E
100
AcDbEntity
  8
0
100
AcDbLine
 10
127.0
 20
140.0
 30
0.0
 11
131.0999999999999
 21
134.6999999999999
 31
0.0
  0
LINE
  5
131
330
1E
100
AcDbEntity
  8
0
100
AcDbLine
 10
130.6
 20
134.4
 30
0.0
 11
133.0999999999999
 21
128.4
 31
0.0
  0
LINE
  5
132
330
1E
100
AcDbEntity
  8
0
100
AcDbLine
 10
217.5
 20
113.0
 30
0.0
 11
217.5
 21
108.4999999999999
 31
0.0
  0
LINE
  5
133
330
1E
100
AcDbEntity
  8
0
100
AcDbLine
 10
217.5
 20
113.0
 30
0.0
 11
217.5
 21
118.3
 31
0.0
  0
LINE
  5
134
330
1E
100
AcDbEntity
  8
0
100
AcDbLine
 10
218.0
 20
113.7999999999999
 30
0.0
 11
218.0
 21
109.4999999999999
 31
0.0
  0
LINE
  5
135
330
1E
100
AcDbEntity
  8
0
100
AcDbLine
 10
218.0
 20
113.7999999999999
 30
0.0
 11
218.0
 21
118.7
 31
0.0
  0
LINE
  5
136
330
1E
100
AcDbEntity
  8
0
100
AcDbLine
 10
217.5
 20
118.3
 30
0.0
 11
217.5
 21
113.0
 31
0.0
  0
LINE
  5
137
330
1E
100
AcDbEntity
  8
0
100
AcDbLine
 10
217.5
 20
118.3
 30
0.0
 11
217.5
 21
124.0
 31
0.0
  0
LINE
  5
138
330
1E
100
AcDbEntity
  8
0
100
AcDbLine
 10
133.6
 20
128.6
 30
0.0
 11
134.4999999999999
 21
122.0
 31
0.0
  0
LINE
  5
139
330
1E
100
AcDbEntity
  8
0
100
AcDbLine
 10
158.8395573605789
 20
146.5
 30
0.0
 11
160.0
 21
148.0
 31
0.0
  0
LINE
  5
13A
330
1E
100
AcDbEntity
  8
0
100
AcDbLine
 10
159.5905698558029
 20
146.5
 30
0.0
 11
160.4
 21
147.5999999999999
 31
0.0
  0
LINE
  5
13B
330
1E
100
AcDbEntity
  8
0
100
AcDbLine
 10
160.0
 20
148.0
 30
0.0
 11
167.067
 21
153.4666999999999
 31
0.0
  0
LINE
  5
13C
330
1E
100
AcDbEntity
  8
0
100
AcDbLine
 10
160.4
 20
147.5999999999999
 30
0.0
 11
167.467
 21
152.8
 31
0.0
  0
LINE
  5
13D
330
1E
100
AcDbEntity
  8
0
100
AcDbLine
 10
175.1999999999999
 20
156.8
 30
0.0
 11
184.0
 21
158.0
 31
0.0
  0
LINE
  5
13E
330
1E
100
AcDbEntity
  8
0
100
AcDbLine
 10
167.067
 20
153.4666999999999
 30
0.0
 11
175.1999999999999
 21
156.8
 31
0.0
  0
LINE
  5
13F
330
1E
100
AcDbEntity
  8
0
100
AcDbLine
 10
167.467
 20
152.8
 30
0.0
 11
175.467
 21
156.1332999999999
 31
0.0
  0
LINE
  5
140
330
1E
100
AcDbEntity
  8
0
100
AcDbLine
 10
207.6
 20
147.5999999999999
 30
0.0
 11
208.409430144197
 21
146.5
 31
0.0
  0
LINE
  5
141
330
1E
100
AcDbEntity
  8
0
100
AcDbLine
 10
192.8
 20
156.8
 30
0.0
 11
200.9329999999999
 21
153.4666999999999
 31
0.0
  0
LINE
  5
142
330
1E
100
AcDbEntity
  8
0
100
AcDbLine
 10
200.5329999999999
 20
152.8
 30
0.0
 11
207.6
 21
147.5999999999999
 31
0.0
  0
LINE
  5
143
330
1E
100
AcDbEntity
  8
0
100
AcDbLine
 10
192.5329999999999
 20
156.1332999999999
 30
0.0
 11
200.5329999999999
 21
152.8
 31
0.0
  0
LINE
  5
144
330
1E
100
AcDbEntity
  8
0
100
AcDbLine
 10
184.0
 20
158.0
 30
0.0
 11
192.8
 21
156.8
 31
0.0
  0
LINE
  5
145
330
1E
100
AcDbEntity
  8
0
100
AcDbLine
 10
184.0
 20
157.3333
 30
0.0
 11
192.5329999999999
 21
156.1332999999999
 31
0.0
  0
LINE
  5
146
330
1E
100
AcDbEntity
  8
0
100
AcDbLine
 10
175.467
 20
156.1332999999999
 30
0.0
 11
184.0
 21
157.3333
 31
0.0
  0
LINE
  5
147
330
1E
100
AcDbEntity
  8
0
100
AcDbLine
 10
216.0
 20
146.5
 30
0.0
 11
217.5
 21
146.0
 31
0.0
  0
LINE
  5
148
330
1E
100
AcDbEntity
  8
0
100
AcDbLine
 10
217.5
 20
146.0
 30
0.0
 11
217.5
 21
145.1999999999999
 31
0.0
  0
LINE
  5
149
330
1E
100
AcDbEntity
  8
0
100
AcDbLine
 10
217.5
 20
146.0
 30
0.0
 11
218.0
 21
144.5
 31
0.0
  0
LINE
  5
14A
330
1E
100
AcDbEntity
  8
0
100
AcDbLine
 10
217.5
 20
145.1999999999999
 30
0.0
 11
217.5
 21
143.1
 31
0.0
  0
LINE
  5
14B
330
1E
100
AcDbEntity
  8
0
100
AcDbLine
 10
217.5
 20
145.1999999999999
 30
0.0
 11
217.5
 21
146.0
 31
0.0
  0
LINE
  5
14C
330
1E
100
AcDbEntity
  8
0
100
AcDbLine
 10
217.5
 20
143.1
 30
0.0
 11
217.5
 21
139.5
 31
0.0
  0
LINE
  5
14D
330
1E
100
AcDbEntity
  8
0
100
AcDbLine
 10
217.5
 20
143.1
 30
0.0
 11
217.5
 21
145.1999999999999
 31
0.0
  0
LINE
  5
14E
330
1E
100
AcDbEntity
  8
0
100
AcDbLine
 10
217.5
 20
139.5
 30
0.0
 11
217.5
 21
135.0
 31
0.0
  0
LINE
  5
14F
330
1E
100
AcDbEntity
  8
0
100
AcDbLine
 10
217.5
 20
139.5
 30
0.0
 11
217.5
 21
143.1
 31
0.0
  0
LINE
  5
150
330
1E
100
AcDbEntity
  8
0
100
AcDbLine
 10
217.5
 20
135.0
 30
0.0
 11
217.5
 21
129.6999999999999
 31
0.0
  0
LINE
  5
151
330
1E
100
AcDbEntity
  8
0
100
AcDbLine
 10
217.5
 20
135.0
 30
0.0
 11
217.5
 21
139.5
 31
0.0
  0
LINE
  5
152
330
1E
100
AcDbEntity
  8
0
100
AcDbLine
 10
217.5
 20
129.6999999999999
 30
0.0
 11
217.5
 21
124.0
 31
0.0
  0
LINE
  5
153
330
1E
100
AcDbEntity
  8
0
100
AcDbLine
 10
217.5
 20
129.6999999999999
 30
0.0
 11
217.5
 21
135.0
 31
0.0
  0
LINE
  5
154
330
1E
100
AcDbEntity
  8
0
100
AcDbLine
 10
218.0
 20
144.5
 30
0.0
 11
218.0
 21
143.8
 31
0.0
  0
LINE
  5
155
330
1E
100
AcDbEntity
  8
0
100
AcDbLine
 10
218.0
 20
143.8
 30
0.0
 11
218.0
 21
141.8
 31
0.0
  0
LINE
  5
156
330
1E
100
AcDbEntity
  8
0
100
AcDbLine
 10
218.0
 20
143.8
 30
0.0
 11
218.0
 21
144.5
 31
0.0
  0
LINE
  5
157
330
1E
100
AcDbEntity
  8
0
100
AcDbLine
 10
218.0
 20
141.8
 30
0.0
 11
218.0
 21
138.5
 31
0.0
  0
LINE
  5
158
330
1E
100
AcDbEntity
  8
0
100
AcDbLine
 10
218.0
 20
141.8
 30
0.0
 11
218.0
 21
143.8
 31
0.0
  0
LINE
  5
159
330
1E
100
AcDbEntity
  8
0
100
AcDbLine
 10
218.0
 20
138.5
 30
0.0
 11
218.0
 21
134.1999999999999
 31
0.0
  0
LINE
  5
15A
330
1E
100
AcDbEntity
  8
0
100
AcDbLine
 10
218.0
 20
138.5
 30
0.0
 11
218.0
 21
141.8
 31
0.0
  0
LINE
  5
15B
330
1E
100
AcDbEntity
  8
0
100
AcDbLine
 10
218.0
 20
134.1999999999999
 30
0.0
 11
218.0
 21
129.3
 31
0.0
  0
LINE
  5
15C
330
1E
100
AcDbEntity
  8
0
100
AcDbLine
 10
218.0
 20
134.1999999999999
 30
0.0
 11
218.0
 21
138.5
 31
0.0
  0
LINE
  5
15D
330
1E
100
AcDbEntity
  8
0
100
AcDbLine
 10
218.0
 20
129.3
 30
0.0
 11
218.0
 21
124.0
 31
0.0
  0
LINE
  5
15E
330
1E
100
AcDbEntity
  8
0
100
AcDbLine
 10
218.0
 20
129.3
 30
0.0
 11
218.0
 21
134.1999999999999
 31
0.0
  0
LINE
  5
15F
330
1E
100
AcDbEntity
  8
0
100
AcDbLine
 10
217.5
 20
124.0
 30
0.0
 11
217.5
 21
118.3
 31
0.0
  0
LINE
  5
160
330
1E
100
AcDbEntity
  8
0
100
AcDbLine
 10
217.5
 20
124.0
 30
0.0
 11
217.5
 21
129.6999999999999
 31
0.0
  0
LINE
  5
161
330
1E
100
AcDbEntity
  8
0
100
AcDbLine
 10
218.0
 20
118.7
 30
0.0
 11
218.0
 21
113.7999999999999
 31
0.0
  0
LINE
  5
162
330
1E
100
AcDbEntity
  8
0
100
AcDbLine
 10
218.0
 20
118.7
 30
0.0
 11
218.0
 21
124.0
 31
0.0
  0
LINE
  5
163
330
1E
100
AcDbEntity
  8
0
100
AcDbLine
 10
218.0
 20
124.0
 30
0.0
 11
218.0
 21
118.7
 31
0.0
  0
LINE
  5
164
330
1E
100
AcDbEntity
  8
0
100
AcDbLine
 10
218.0
 20
124.0
 30
0.0
 11
218.0
 21
129.3
 31
0.0
  0
LINE
  5
165
330
1E
100
AcDbEntity
  8
0
100
AcDbLine
 10
133.6
 20
115.4
 30
0.0
 11
134.4999999999999
 21
122.0
 31
0.0
  0
LINE
  5
166
330
1E
100
AcDbEntity
  8
0
100
AcDbLine
 10
133.0999999999999
 20
115.5999999999999
 30
0.0
 11
134.0
 21
122.0
 31
0.0
  0
LINE
  5
167
330
1E
100
AcDbEntity
  8
0
100
AcDbLine
 10
130.6
 20
109.5999999999999
 30
0.0
 11
133.0999999999999
 21
115.5999999999999
 31
0.0
  0
LINE
  5
168
330
1E
100
AcDbEntity
  8
0
100
AcDbLine
 10
126.7
 20
104.2999999999999
 30
0.0
 11
130.6
 21
109.5999999999999
 31
0.0
  0
LINE
  5
169
330
1E
100
AcDbEntity
  8
0
100
AcDbLine
 10
121.4
 20
100.4
 30
0.0
 11
126.7
 21
104.2999999999999
 31
0.0
  0
LINE
  5
16A
330
1E
100
AcDbEntity
  8
0
100
AcDbLine
 10
119.0
 20
98.79348262295081
 30
0.0
 11
119.0
 21
90.26315999999999
 31
0.0
  0
LINE
  5
16B
330
1E
100
AcDbEntity
  8
0
100
AcDbLine
 10
104.4999999999999
 20
97.1136763636364
 30
0.0
 11
104.4999999999999
 21
53.2312
 31
0.0
  0
LINE
  5
16C
330
1E
100
AcDbEntity
  8
0
100
AcDbLine
 10
102.6
 20
146.1
 30
0.0
 11
109.0
 21
147.0
 31
0.0
  0
LINE
  5
16D
330
1E
100
AcDbEntity
  8
0
100
AcDbLine
 10
100.9
 20
90.0
 30
0.0
 11
103.2999999999999
 21
90.0
 31
0.0
  0
LINE
  5
16E
330
1E
100
AcDbEntity
  8
0
100
AcDbLine
 10
99.0
 20
90.0
 30
0.0
 11
100.9
 21
90.0
 31
0.0
  0
LINE
  5
16F
330
1E
100
AcDbEntity
  8
0
100
AcDbLine
 10
98.9
 20
60.0
 30
0.0
 11
99.90000000000001
 21
60.0
 31
0.0
  0
LINE
  5
170
330
1E
100
AcDbEntity
  8
0
100
AcDbLine
 10
98.50000000000001
 20
60.0
 30
0.0
 11
98.9
 21
60.0
 31
0.0
  0
LINE
  5
175
330
1E
100
AcDbEntity
  8
0
100
AcDbLine
 10
200.9329999999999
 20
153.4666999999999
 30
0.0
 11
207.9229786281987
 21
148.0527703924469
 31
0.0
  0
LINE
  5
176
330
1E
100
AcDbEntity
  8
0
100
AcDbLine
 10
207.9229786281987
 20
148.0527703924469
 30
0.0
 11
209.0218183142859
 21
146.4934531311098
 31
0.0
  0
LINE
  5
177
330
1E
100
AcDbEntity
  8
0
100
AcDbLine
 10
91.0
 20
140.0
 30
0.0
 11
96.3
 21
144.1
 31
0.0
  0
LINE
  5
178
330
1E
100
AcDbEntity
  8
0
100
AcDbLine
 10
121.7
 20
144.1
 30
0.0
 11
127.0
 21
140.0
 31
0.0
  0
LINE
  5
179
330
1E
100
AcDbEntity
  8
0
100
AcDbLine
 10
133.6
 20
128.6
 30
0.0
 11
131.0999999999999
 21
134.6999999999999
 31
0.0
  0
LINE
  5
17A
330
1E
100
AcDbEntity
  8
0
100
AcDbLine
 10
83.49999999999999
 20
122.0
 30
0.0
 11
84.40000000000001
 21
115.4
 31
0.0
  0
LINE
  5
17B
330
1E
100
AcDbEntity
  8
0
100
AcDbLine
 10
91.0
 20
104.0
 30
0.0
 11
94.2317388462327
 21
101.5
 31
0.0
  0
LINE
  5
17C
330
1E
100
AcDbEntity
  8
0
100
AcDbLine
 10
94.2317388462327
 20
101.5
 30
0.0
 11
96.3
 21
99.90004
 31
0.0
  0
LINE
  5
17D
330
1E
100
AcDbEntity
  8
0
100
AcDbLine
 10
133.6
 20
115.4
 30
0.0
 11
130.9414638629825
 21
109.4170617921819
 31
0.0
  0
LINE
  5
17E
330
1E
100
AcDbEntity
  8
0
100
AcDbLine
 10
130.9414638629825
 20
109.4170617921819
 30
0.0
 11
127.0343870695941
 21
104.1744199842124
 31
0.0
  0
LINE
  5
17F
330
1E
100
AcDbEntity
  8
0
100
AcDbLine
 10
127.0343870695941
 20
104.1744199842124
 30
0.0
 11
121.7
 21
99.90004
 31
0.0
  0
LINE
  5
180
330
1E
100
AcDbEntity
  8
0
100
AcDbLine
 10
115.5999999999999
 20
97.40004
 30
0.0
 11
113.5
 21
97.1136763636364
 31
0.0
  0
LINE
  5
181
330
1E
100
AcDbEntity
  8
0
100
AcDbLine
 10
112.2
 20
97.45004000000001
 30
0.0
 11
109.4542555126627
 21
97.2687048761896
 31
0.0
  0
LINE
  5
182
330
1E
100
AcDbEntity
  8
0
100
AcDbLine
 10
109.4542555126627
 20
97.2687048761896
 30
0.0
 11
105.8
 21
97.45004000000001
 31
0.0
  0
ENDSEC
  0
SECTION
  2
OBJECTS
  0
DICTIONARY
  5
C
330
0
100
AcDbDictionary
  3
ACAD_GROUP
350
D
  3
ACAD_LAYOUT
350
19
  3
ACAD_MLINESTYLE
350
16
  3
ACAD_PLOTSETTINGS
350
18
  3
ACAD_PLOTSTYLENAME
350
E
  3
ACDBHEADERROUNDTRIPXREC
350
186
  3
ACDBVARIABLEDICTIONARY
350
183
  0
DICTIONARY
  5
1A8
330
1E
100
AcDbDictionary
280
     1
  3
ACAD_LAYOUTSELFREF
360
1A9
  0
DICTIONARY
  5
1A6
330
1A
100
AcDbDictionary
280
     1
  3
ACAD_LAYOUTSELFREF
360
1A7
  0
DICTIONARY
  5
D
102
{ACAD_REACTORS
330
C
102
}
330
C
100
AcDbDictionary
  0
DICTIONARY
  5
19
102
{ACAD_REACTORS
330
C
102
}
330
C
100
AcDbDictionary
  0
DICTIONARY
  5
16
102
{ACAD_REACTORS
330
C
102
}
330
C
100
AcDbDictionary
  3
STANDARD
350
17
  0
DICTIONARY
  5
18
102
{ACAD_REACTORS
330
C
102
}
330
C
100
AcDbDictionary
  0
ACDBDICTIONARYWDFLT
  5
E
102
{ACAD_REACTORS
330
C
102
}
330
C
100
AcDbDictionary
281
     1
  3
Normal
350
F
100
AcDbDictionaryWithDefault
340
F
  0
DICTIONARY
  5
186
102
{ACAD_REACTORS
330
C
102
}
330
C
100
AcDbDictionary
  3
CEPSNTYPE
350
190
  3
FINGERPRINTGUID
350
191
  3
HYPERLINKBASE
350
189
  3
INSUNITS
350
18F
  3
LAYOUTDICT
350
18B
  3
LWETCUNION
350
18E
  3
PLOTSETDICT
350
18C
  3
PLOTSTYLNAMDICT
350
18D
  3
PSVPSCALE
350
193
  3
PUCSBASE
350
196
  3
PUCSORGBACK
350
19C
  3
PUCSORGBOTTOM
350
198
  3
PUCSORGFRONT
350
19B
  3
PUCSORGLEFT
350
199
  3
PUCSORGRIGHT
350
19A
  3
PUCSORGTOP
350
197
  3
PUCSORTHOREF
350
194
  3
PUCSORTHOVIEW
350
195
  3
STYLESHEET
350
18A
  3
TSTACKALIGN
350
187
  3
TSTACKSIZE
350
188
  3
UCSBASE
350
19F
  3
UCSORGBACK
350
1A5
  3
UCSORGBOTTOM
350
1A1
  3
UCSORGFRONT
350
1A4
  3
UCSORGLEFT
350
1A2
  3
UCSORGRIGHT
350
1A3
  3
UCSORGTOP
350
1A0
  3
UCSORTHOREF
350
19D
  3
UCSORTHOVIEW
350
19E
  3
VERSIONGUID
350
192
  0
DICTIONARY
  5
183
102
{ACAD_REACTORS
330
C
102
}
330
C
100
AcDbDictionary
  3
DIMASSOC
350
184
  0
XRECORD
  5
1A9
102
{ACAD_REACTORS
330
1A8
102
}
330
1A8
100
AcDbXrecord
340
1E
  0
XRECORD
  5
1A7
102
{ACAD_REACTORS
330
1A6
102
}
330
1A6
100
AcDbXrecord
340
1A
  0
MLINESTYLE
  5
17
102
{ACAD_REACTORS
330
16
102
}
330
16
100
AcDbMlineStyle
  2
STANDARD
 70
     0
  3

 62
   256
 51
90.0
 52
90.0
 71
     2
 49
0.5
 62
   256
  6
BYLAYER
 49
-0.5
 62
   256
  6
BYLAYER
  0
ACDBPLACEHOLDER
  5
F
102
{ACAD_REACTORS
330
E
102
}
330
E
100
AcDbPlaceHolder
280
     0
  0
XRECORD
  5
190
102
{ACAD_REACTORS
330
186
102
}
330
186
100
AcDbXrecord
 90
        0
  0
XRECORD
  5
191
102
{ACAD_REACTORS
330
186
102
}
330
186
100
AcDbXrecord
  1
{99C9D0AB-E470-4C88-80F2-C3ECF172B36B}
  0
XRECORD
  5
189
102
{ACAD_REACTORS
330
186
102
}
330
186
100
AcDbXrecord
  1

  0
XRECORD
  5
18F
102
{ACAD_REACTORS
330
186
102
}
330
186
100
AcDbXrecord
 90
        0
  0
XRECORD
  5
18B
102
{ACAD_REACTORS
330
186
102
}
330
186
100
AcDbXrecord
340
19
  0
XRECORD
  5
18E
102
{ACAD_REACTORS
330
186
102
}
330
186
100
AcDbXrecord
 90
    10781
  0
XRECORD
  5
18C
102
{ACAD_REACTORS
330
186
102
}
330
186
100
AcDbXrecord
340
18
  0
XRECORD
  5
18D
102
{ACAD_REACTORS
330
186
102
}
330
186
100
AcDbXrecord
340
E
  0
XRECORD
  5
193
102
{ACAD_REACTORS
330
186
102
}
330
186
100
AcDbXrecord
 40
0.0
  0
XRECORD
  5
196
102
{ACAD_REACTORS
330
186
102
}
330
186
100
AcDbXrecord
340
0
  0
XRECORD
  5
19C
102
{ACAD_REACTORS
330
186
102
}
330
186
100
AcDbXrecord
 10
0.0
 20
0.0
 30
0.0
  0
XRECORD
  5
198
102
{ACAD_REACTORS
330
186
102
}
330
186
100
AcDbXrecord
 10
0.0
 20
0.0
 30
0.0
  0
XRECORD
  5
19B
102
{ACAD_REACTORS
330
186
102
}
330
186
100
AcDbXrecord
 10
0.0
 20
0.0
 30
0.0
  0
XRECORD
  5
199
102
{ACAD_REACTORS
330
186
102
}
330
186
100
AcDbXrecord
 10
0.0
 20
0.0
 30
0.0
  0
XRECORD
  5
19A
102
{ACAD_REACTORS
330
186
102
}
330
186
100
AcDbXrecord
 10
0.0
 20
0.0
 30
0.0
  0
XRECORD
  5
197
102
{ACAD_REACTORS
330
186
102
}
330
186
100
AcDbXrecord
 10
0.0
 20
0.0
 30
0.0
  0
XRECORD
  5
194
102
{ACAD_REACTORS
330
186
102
}
330
186
100
AcDbXrecord
340
0
  0
XRECORD
  5
195
102
{ACAD_REACTORS
330
186
102
}
330
186
100
AcDbXrecord
 70
     0
  0
XRECORD
  5
18A
102
{ACAD_REACTORS
330
186
102
}
330
186
100
AcDbXrecord
  1

  0
XRECORD
  5
187
102
{ACAD_REACTORS
330
186
102
}
330
186
100
AcDbXrecord
 90
        1
  0
XRECORD
  5
188
102
{ACAD_REACTORS
330
186
102
}
330
186
100
AcDbXrecord
 90
       70
  0
XRECORD
  5
19F
102
{ACAD_REACTORS
330
186
102
}
330
186
100
AcDbXrecord
340
0
  0
XRECORD
  5
1A5
102
{ACAD_REACTORS
330
186
102
}
330
186
100
AcDbXrecord
 10
0.0
 20
0.0
 30
0.0
  0
XRECORD
  5
1A1
102
{ACAD_REACTORS
330
186
102
}
330
186
100
AcDbXrecord
 10
0.0
 20
0.0
 30
0.0
  0
XRECORD
  5
1A4
102
{ACAD_REACTORS
330
186
102
}
330
186
100
AcDbXrecord
 10
0.0
 20
0.0
 30
0.0
  0
XRECORD
  5
1A2
102
{ACAD_REACTORS
330
186
102
}
330
186
100
AcDbXrecord
 10
0.0
 20
0.0
 30
0.0
  0
XRECORD
  5
1A3
102
{ACAD_REACTORS
330
186
102
}
330
186
100
AcDbXrecord
 10
0.0
 20
0.0
 30
0.0
  0
XRECORD
  5
1A0
102
{ACAD_REACTORS
330
186
102
}
330
186
100
AcDbXrecord
 10
0.0
 20
0.0
 30
0.0
  0
XRECORD
  5
19D
102
{ACAD_REACTORS
330
186
102
}
330
186
100
AcDbXrecord
340
0
  0
XRECORD
  5
19E
102
{ACAD_REACTORS
330
186
102
}
330
186
100
AcDbXrecord
 70
     1
  0
XRECORD
  5
192
102
{ACAD_REACTORS
330
186
102
}
330
186
100
AcDbXrecord
  1
{7ACA73B6-E1E2-418C-B08C-67E918DB04DF}
  0
DICTIONARYVAR
  5
184
102
{ACAD_REACTORS
330
183
102
}
330
183
100
DictionaryVariables
280
     0
  1
1
  0
ENDSEC
  0
EOF
