  0
SECTION
  2
HEADER
  9
$ACADVER
  1
AC1014
  9
$ACADMAINTVER
 70
     9
  9
$DWGCODEPAGE
  3
ANSI_1252
  9
$INSBASE
 10
0.0
 20
0.0
 30
0.0
  9
$EXTMIN
 10
-0.0965880000000037
 20
-0.143550000000007
 30
0.0
  9
$EXTMAX
 10
72.09658799999999
 20
182.1435499999999
 30
0.0
  9
$LIMMIN
 10
0.0
 20
0.0
  9
$LIMMAX
 10
12.0
 20
9.0
  9
$ORTHOMODE
 70
     0
  9
$REGENMODE
 70
     1
  9
$FILLMODE
 70
     1
  9
$QTEXTMODE
 70
     0
  9
$MIRRTEXT
 70
     1
  9
$DRAGMODE
 70
     2
  9
$LTSCALE
 40
1.0
  9
$OSMODE
 70
    37
  9
$ATTMODE
 70
     1
  9
$TEXTSIZE
 40
0.2
  9
$TRACEWID
 40
0.05
  9
$TEXTSTYLE
  7
STANDARD
  9
$CLAYER
  8
0
  9
$CELTYPE
  6
CONTINUOUS
  9
$CECOLOR
 62
   256
  9
$CELTSCALE
 40
1.0
  9
$DELOBJ
 70
     1
  9
$DISPSILH
 70
     0
  9
$DIMSCALE
 40
1.0
  9
$DIMASZ
 40
0.18
  9
$DIMEXO
 40
0.0625
  9
$DIMDLI
 40
0.38
  9
$DIMRND
 40
0.0
  9
$DIMDLE
 40
0.0
  9
$DIMEXE
 40
0.18
  9
$DIMTP
 40
0.0
  9
$DIMTM
 40
0.0
  9
$DIMTXT
 40
0.18
  9
$DIMCEN
 40
0.09
  9
$DIMTSZ
 40
0.0
  9
$DIMTOL
 70
     0
  9
$DIMLIM
 70
     0
  9
$DIMTIH
 70
     1
  9
$DIMTOH
 70
     1
  9
$DIMSE1
 70
     0
  9
$DIMSE2
 70
     0
  9
$DIMTAD
 70
     0
  9
$DIMZIN
 70
     0
  9
$DIMBLK
  1

  9
$DIMASO
 70
     1
  9
$DIMSHO
 70
     1
  9
$DIMPOST
  1

  9
$DIMAPOST
  1

  9
$DIMALT
 70
     0
  9
$DIMALTD
 70
     2
  9
$DIMALTF
 40
25.4
  9
$DIMLFAC
 40
1.0
  9
$DIMTOFL
 70
     0
  9
$DIMTVP
 40
0.0
  9
$DIMTIX
 70
     0
  9
$DIMSOXD
 70
     0
  9
$DIMSAH
 70
     0
  9
$DIMBLK1
  1

  9
$DIMBLK2
  1

  9
$DIMSTYLE
  2
STANDARD
  9
$DIMCLRD
 70
     0
  9
$DIMCLRE
 70
     0
  9
$DIMCLRT
 70
     0
  9
$DIMTFAC
 40
1.0
  9
$DIMGAP
 40
0.09
  9
$DIMJUST
 70
     0
  9
$DIMSD1
 70
     0
  9
$DIMSD2
 70
     0
  9
$DIMTOLJ
 70
     1
  9
$DIMTZIN
 70
     0
  9
$DIMALTZ
 70
     0
  9
$DIMALTTZ
 70
     0
  9
$DIMFIT
 70
     3
  9
$DIMUPT
 70
     0
  9
$DIMUNIT
 70
     2
  9
$DIMDEC
 70
     4
  9
$DIMTDEC
 70
     4
  9
$DIMALTU
 70
     2
  9
$DIMALTTD
 70
     2
  9
$DIMTXSTY
  7
STANDARD
  9
$DIMAUNIT
 70
     0
  9
$LUNITS
 70
     2
  9
$LUPREC
 70
     4
  9
$SKETCHINC
 40
0.1
  9
$FILLETRAD
 40
0.0
  9
$AUNITS
 70
     0
  9
$AUPREC
 70
     0
  9
$MENU
  1
.
  9
$ELEVATION
 40
0.0
  9
$PELEVATION
 40
0.0
  9
$THICKNESS
 40
0.0
  9
$LIMCHECK
 70
     0
  9
$BLIPMODE
 70
     0
  9
$CHAMFERA
 40
0.0
  9
$CHAMFERB
 40
0.0
  9
$CHAMFERC
 40
0.0
  9
$CHAMFERD
 40
0.0
  9
$SKPOLY
 70
     0
  9
$TDCREATE
 40
2454699.491625242
  9
$TDUPDATE
 40
2454699.491832500
  9
$TDINDWG
 40
0.0002074306
  9
$TDUSRTIMER
 40
0.0002074306
  9
$USRTIMER
 70
     1
  9
$ANGBASE
 50
0.0
  9
$ANGDIR
 70
     0
  9
$PDMODE
 70
     0
  9
$PDSIZE
 40
0.0
  9
$PLINEWID
 40
0.0
  9
$COORDS
 70
     1
  9
$SPLFRAME
 70
     0
  9
$SPLINETYPE
 70
     6
  9
$SPLINESEGS
 70
     8
  9
$ATTDIA
 70
     0
  9
$ATTREQ
 70
     1
  9
$HANDLING
 70
 22529
  9
$HANDSEED
  5
19C
  9
$SURFTAB1
 70
     6
  9
$SURFTAB2
 70
     6
  9
$SURFTYPE
 70
     6
  9
$SURFU
 70
     6
  9
$SURFV
 70
     6
  9
$UCSNAME
  2

  9
$UCSORG
 10
0.0
 20
0.0
 30
0.0
  9
$UCSXDIR
 10
1.0
 20
0.0
 30
0.0
  9
$UCSYDIR
 10
0.0
 20
1.0
 30
0.0
  9
$PUCSNAME
  2

  9
$PUCSORG
 10
0.0
 20
0.0
 30
0.0
  9
$PUCSXDIR
 10
1.0
 20
0.0
 30
0.0
  9
$PUCSYDIR
 10
0.0
 20
1.0
 30
0.0
  9
$USERI1
 70
     0
  9
$USERI2
 70
     0
  9
$USERI3
 70
     0
  9
$USERI4
 70
     0
  9
$USERI5
 70
     0
  9
$USERR1
 40
0.0
  9
$USERR2
 40
0.0
  9
$USERR3
 40
0.0
  9
$USERR4
 40
0.0
  9
$USERR5
 40
0.0
  9
$WORLDVIEW
 70
     1
  9
$SHADEDGE
 70
     3
  9
$SHADEDIF
 70
    70
  9
$TILEMODE
 70
     1
  9
$MAXACTVP
 70
    64
  9
$PINSBASE
 10
0.0
 20
0.0
 30
0.0
  9
$PLIMCHECK
 70
     0
  9
$PEXTMIN
 10
1.000000000000000E+20
 20
1.000000000000000E+20
 30
1.000000000000000E+20
  9
$PEXTMAX
 10
-1.000000000000000E+20
 20
-1.000000000000000E+20
 30
-1.000000000000000E+20
  9
$PLIMMIN
 10
0.0
 20
0.0
  9
$PLIMMAX
 10
12.0
 20
9.0
  9
$UNITMODE
 70
     0
  9
$VISRETAIN
 70
     1
  9
$PLINEGEN
 70
     0
  9
$PSLTSCALE
 70
     1
  9
$TREEDEPTH
 70
  3020
  9
$PICKSTYLE
 70
     1
  9
$CMLSTYLE
  2
STANDARD
  9
$CMLJUST
 70
     0
  9
$CMLSCALE
 40
1.0
  9
$PROXYGRAPHICS
 70
     1
  9
$MEASUREMENT
 70
     0
  0
ENDSEC
  0
SECTION
  2
CLASSES
  0
CLASS
  1
ACDBDICTIONARYWDFLT
  2
AcDbDictionaryWithDefault
  3
AutoCAD 2000
 90
        0
280
     0
281
     0
  0
CLASS
  1
ACDBPLACEHOLDER
  2
AcDbPlaceHolder
  3
AutoCAD 2000
 90
        0
280
     0
281
     0
  0
CLASS
  1
LAYOUT
  2
AcDbLayout
  3
AutoCAD 2000
 90
        0
280
     0
281
     0
  0
CLASS
  1
DICTIONARYVAR
  2
AcDbDictionaryVar
  3
AutoCAD 2000
 90
        0
280
     0
281
     0
  0
CLASS
  1
LONG_TRANSACTION
  2
AcDbLongTransaction
  3
AutoCAD 2000
 90
        0
280
     0
281
     0
  0
CLASS
  1
LWPOLYLINE
  2
AcDbPolyline
  3
AutoCAD 2000
 90
        0
280
     0
281
     1
  0
CLASS
  1
HATCH
  2
AcDbHatch
  3
AutoCAD 2000
 90
        0
280
     0
281
     1
  0
CLASS
  1
XRECORD
  2
AcDbXrecord
  3
AutoCAD 2000
 90
        0
280
     0
281
     0
  0
ENDSEC
  0
SECTION
  2
TABLES
  0
TABLE
  2
VPORT
  5
8
330
0
100
AcDbSymbolTable
 70
     2
  0
VPORT
  5
177
330
8
100
AcDbSymbolTableRecord
100
AcDbViewportTableRecord
  2
*ACTIVE
 70
     0
 10
0.0
 20
0.0
 11
1.0
 21
1.0
 12
35.99999999999999
 22
91.0
 13
0.0
 23
0.0
 14
1.0
 24
1.0
 15
0.0
 25
0.0
 16
0.0
 26
0.0
 36
1.0
 17
0.0
 27
0.0
 37
0.0
 40
183.6857222506393
 41
2.078104993597951
 42
50.0
 43
0.0
 44
0.0
 50
0.0
 51
0.0
 71
     0
 72
   100
 73
     1
 74
     3
 75
     0
 76
     0
 77
     0
 78
     0
  0
ENDTAB
  0
TABLE
  2
LTYPE
  5
5
330
0
100
AcDbSymbolTable
 70
     1
  0
LTYPE
  5
13
330
5
100
AcDbSymbolTableRecord
100
AcDbLinetypeTableRecord
  2
BYBLOCK
 70
     0
  3

 72
    65
 73
     0
 40
0.0
  0
LTYPE
  5
14
330
5
100
AcDbSymbolTableRecord
100
AcDbLinetypeTableRecord
  2
BYLAYER
 70
     0
  3

 72
    65
 73
     0
 40
0.0
  0
LTYPE
  5
15
330
5
100
AcDbSymbolTableRecord
100
AcDbLinetypeTableRecord
  2
CONTINUOUS
 70
     0
  3
Solid line
 72
    65
 73
     0
 40
0.0
  0
ENDTAB
  0
TABLE
  2
LAYER
  5
2
330
0
100
AcDbSymbolTable
 70
     1
  0
LAYER
  5
10
330
2
100
AcDbSymbolTableRecord
100
AcDbLayerTableRecord
  2
0
 70
     0
 62
     7
  6
CONTINUOUS
  0
ENDTAB
  0
TABLE
  2
STYLE
  5
3
330
0
100
AcDbSymbolTable
 70
     1
  0
STYLE
  5
11
330
3
100
AcDbSymbolTableRecord
100
AcDbTextStyleTableRecord
  2
STANDARD
 70
     0
 40
0.0
 41
1.0
 50
0.0
 71
     0
 42
0.2
  3
txt
  4

  0
ENDTAB
  0
TABLE
  2
VIEW
  5
6
330
0
100
AcDbSymbolTable
 70
     0
  0
ENDTAB
  0
TABLE
  2
UCS
  5
7
330
0
100
AcDbSymbolTable
 70
     0
  0
ENDTAB
  0
TABLE
  2
APPID
  5
9
330
0
100
AcDbSymbolTable
 70
     1
  0
APPID
  5
12
330
9
100
AcDbSymbolTableRecord
100
AcDbRegAppTableRecord
  2
ACAD
 70
     0
  0
ENDTAB
  0
TABLE
  2
DIMSTYLE
  5
A
330
0
100
AcDbSymbolTable
 70
     1
  0
DIMSTYLE
105
171
330
A
100
AcDbSymbolTableRecord
100
AcDbDimStyleTableRecord
  2
STANDARD
 70
     0
  3

  4

  5

  6

  7

 40
1.0
 41
0.18
 42
0.0625
 43
0.38
 44
0.18
 45
0.0
 46
0.0
 47
0.0
 48
0.0
140
0.18
141
0.09
142
0.0
143
25.4
144
1.0
145
0.0
146
1.0
147
0.09
 71
     0
 72
     0
 73
     1
 74
     1
 75
     0
 76
     0
 77
     0
 78
     0
170
     0
171
     2
172
     0
173
     0
174
     0
175
     0
176
     0
177
     0
178
     0
270
     2
271
     4
272
     4
273
     2
274
     2
340
11
275
     0
280
     0
281
     0
282
     0
283
     1
284
     0
285
     0
286
     0
287
     3
288
     0
  0
ENDTAB
  0
TABLE
  2
BLOCK_RECORD
  5
1
330
0
100
AcDbSymbolTable
 70
     0
  0
BLOCK_RECORD
  5
1E
102
{ACAD_XDICTIONARY
360
19A
102
}
330
1
100
AcDbSymbolTableRecord
100
AcDbBlockTableRecord
  2
*MODEL_SPACE
  0
BLOCK_RECORD
  5
1A
102
{ACAD_XDICTIONARY
360
198
102
}
330
1
100
AcDbSymbolTableRecord
100
AcDbBlockTableRecord
  2
*PAPER_SPACE
  0
ENDTAB
  0
ENDSEC
  0
SECTION
  2
BLOCKS
  0
BLOCK
  5
1F
330
1E
100
AcDbEntity
  8
0
100
AcDbBlockBegin
  2
*MODEL_SPACE
 70
     0
 10
0.0
 20
0.0
 30
0.0
  3
*MODEL_SPACE
  1

  0
ENDBLK
  5
20
330
1E
100
AcDbEntity
  8
0
100
AcDbBlockEnd
  0
BLOCK
  5
1B
330
1A
100
AcDbEntity
 67
     1
  8
0
100
AcDbBlockBegin
  2
*PAPER_SPACE
 70
     0
 10
0.0
 20
0.0
 30
0.0
  3
*PAPER_SPACE
  1

  0
ENDBLK
  5
1C
330
1A
100
AcDbEntity
 67
     1
  8
0
100
AcDbBlockEnd
  0
ENDSEC
  0
SECTION
  2
ENTITIES
  0
LINE
  5
22
330
1E
100
AcDbEntity
  8
0
100
AcDbLine
 10
7.501408
 20
-0.0141500000000033
 30
0.0
 11
7.887777999999999
 21
-0.117650000000007
 31
0.0
  0
LINE
  5
23
330
1E
100
AcDbEntity
  8
0
100
AcDbLine
 10
5.086598
 20
0.632949999999995
 30
0.0
 11
6.052518
 21
0.374149999999998
 31
0.0
  0
LINE
  5
24
330
1E
100
AcDbEntity
  8
0
100
AcDbLine
 10
6.375117999999999
 20
0.8053499999999949
 30
0.0
 11
7.341038
 21
0.546449999999994
 31
0.0
  0
LINE
  5
25
330
1E
100
AcDbEntity
  8
0
100
AcDbLine
 10
7.341038
 20
0.546449999999994
 30
0.0
 11
8.017188
 21
0.365349999999997
 31
0.0
  0
LINE
  5
26
330
1E
100
AcDbEntity
  8
0
100
AcDbLine
 10
6.052518
 20
0.374149999999998
 30
0.0
 11
6.921858
 21
0.141149999999994
 31
0.0
  0
LINE
  5
27
330
1E
100
AcDbEntity
  8
0
100
AcDbLine
 10
6.921858
 20
0.141149999999994
 30
0.0
 11
7.501408
 21
-0.0141500000000033
 31
0.0
  0
LINE
  5
28
330
1E
100
AcDbEntity
  8
0
100
AcDbLine
 10
6.921858
 20
0.141149999999994
 30
0.0
 11
7.501408
 21
-0.0141500000000033
 31
0.0
  0
LINE
  5
29
330
1E
100
AcDbEntity
  8
0
100
AcDbLine
 10
7.501408
 20
-0.0141500000000033
 30
0.0
 11
7.887777999999999
 21
-0.117650000000007
 31
0.0
  0
LINE
  5
2A
330
1E
100
AcDbEntity
  8
0
100
AcDbLine
 10
7.887777999999999
 20
-0.117650000000007
 30
0.0
 11
7.984367999999999
 21
-0.143550000000007
 31
0.0
  0
LINE
  5
2B
330
1E
100
AcDbEntity
  8
0
100
AcDbLine
 10
8.596747999999999
 20
0.210049999999996
 30
0.0
 11
20.50266184012039
 21
44.64355
 31
0.0
  0
LINE
  5
2C
330
1E
100
AcDbEntity
  8
0
100
AcDbLine
 10
8.017188
 20
0.365349999999997
 30
0.0
 11
8.403558
 21
0.261749999999993
 31
0.0
  0
LINE
  5
2D
330
1E
100
AcDbEntity
  8
0
100
AcDbLine
 10
8.403558
 20
0.261749999999993
 30
0.0
 11
8.596747999999999
 21
0.210049999999996
 31
0.0
  0
LINE
  5
2E
330
1E
100
AcDbEntity
  8
0
100
AcDbLine
 10
8.59674799999999
 20
0.210049999999998
 30
0.0
 11
20.50266184012039
 21
44.64355
 31
0.0
  0
LINE
  5
2F
330
1E
100
AcDbEntity
  8
0
100
AcDbLine
 10
7.984367999999999
 20
-0.143550000000007
 30
0.0
 11
8.596747999999999
 21
0.210049999999996
 31
0.0
  0
LINE
  5
30
330
1E
100
AcDbEntity
  8
0
100
AcDbLine
 10
0.0965969999999972
 20
2.48764999999999
 30
0.0
 11
0.4829679999999971
 21
2.384049999999999
 31
0.0
  0
LINE
  5
31
330
1E
100
AcDbEntity
  8
0
100
AcDbLine
 10
-0.0965880000000028
 20
2.53934999999999
 30
0.0
 11
12.396388
 21
49.1637641864626
 31
0.0
  0
LINE
  5
32
330
1E
100
AcDbEntity
  8
0
100
AcDbLine
 10
-0.0965880000000028
 20
2.53934999999999
 30
0.0
 11
0.256964999999997
 21
1.927049999999999
 31
0.0
  0
LINE
  5
33
330
1E
100
AcDbEntity
  8
0
100
AcDbLine
 10
-0.0965880000000028
 20
2.53934999999999
 30
0.0
 11
0.0965969999999972
 21
2.48764999999999
 31
0.0
  0
LINE
  5
34
330
1E
100
AcDbEntity
  8
0
100
AcDbLine
 10
-0.0965880000000037
 20
2.53935
 30
0.0
 11
12.396388
 21
49.1637641864626
 31
0.0
  0
LINE
  5
35
330
1E
100
AcDbEntity
  8
0
100
AcDbLine
 10
-0.0965880000000028
 20
2.53934999999999
 30
0.0
 11
0.256964999999997
 21
1.927049999999999
 31
0.0
  0
LINE
  5
36
330
1E
100
AcDbEntity
  8
0
100
AcDbLine
 10
-0.0965880000000028
 20
2.53934999999999
 30
0.0
 11
0.0965969999999972
 21
2.48764999999999
 31
0.0
  0
LINE
  5
37
330
1E
100
AcDbEntity
  8
0
100
AcDbLine
 10
4.250078
 20
1.374749999999999
 30
0.0
 11
5.409187999999999
 21
1.064149999999999
 31
0.0
  0
LINE
  5
38
330
1E
100
AcDbEntity
  8
0
100
AcDbLine
 10
5.409187999999999
 20
1.064149999999999
 30
0.0
 11
6.375117999999999
 21
0.8053499999999949
 31
0.0
  0
LINE
  5
39
330
1E
100
AcDbEntity
  8
0
100
AcDbLine
 10
3.154748
 20
1.150549999999999
 30
0.0
 11
4.120668
 21
0.891749999999992
 31
0.0
  0
LINE
  5
3A
330
1E
100
AcDbEntity
  8
0
100
AcDbLine
 10
3.090968
 20
1.685249999999999
 30
0.0
 11
4.250078
 21
1.374749999999999
 31
0.0
  0
LINE
  5
3B
330
1E
100
AcDbEntity
  8
0
100
AcDbLine
 10
2.188817999999999
 20
1.409349999999989
 30
0.0
 11
3.154748
 21
1.150549999999999
 31
0.0
  0
LINE
  5
3C
330
1E
100
AcDbEntity
  8
0
100
AcDbLine
 10
1.319487999999999
 20
1.642349999999989
 30
0.0
 11
2.188817999999999
 21
1.409349999999989
 31
0.0
  0
LINE
  5
3D
330
1E
100
AcDbEntity
  8
0
100
AcDbLine
 10
0.4829679999999971
 20
2.384049999999999
 30
0.0
 11
1.159118
 21
2.202949999999999
 31
0.0
  0
LINE
  5
3E
330
1E
100
AcDbEntity
  8
0
100
AcDbLine
 10
2.125037999999999
 20
1.944149999999989
 30
0.0
 11
3.090968
 21
1.685249999999999
 31
0.0
  0
LINE
  5
3F
330
1E
100
AcDbEntity
  8
0
100
AcDbLine
 10
1.159118
 20
2.202949999999999
 30
0.0
 11
2.125037999999999
 21
1.944149999999989
 31
0.0
  0
LINE
  5
40
330
1E
100
AcDbEntity
  8
0
100
AcDbLine
 10
0.4829679999999971
 20
2.384049999999999
 30
0.0
 11
1.159118
 21
2.202949999999999
 31
0.0
  0
LINE
  5
41
330
1E
100
AcDbEntity
  8
0
100
AcDbLine
 10
0.353557999999997
 20
1.901149999999999
 30
0.0
 11
0.7399279999999971
 21
1.797649999999999
 31
0.0
  0
LINE
  5
42
330
1E
100
AcDbEntity
  8
0
100
AcDbLine
 10
0.7399279999999971
 20
1.797649999999999
 30
0.0
 11
1.319487999999999
 21
1.642349999999989
 31
0.0
  0
LINE
  5
43
330
1E
100
AcDbEntity
  8
0
100
AcDbLine
 10
0.256964999999997
 20
1.927049999999999
 30
0.0
 11
0.353557999999997
 21
1.901149999999999
 31
0.0
  0
LINE
  5
44
330
1E
100
AcDbEntity
  8
0
100
AcDbLine
 10
4.120668
 20
0.891749999999992
 30
0.0
 11
5.086598
 21
0.632949999999995
 31
0.0
  0
LINE
  5
45
330
1E
100
AcDbEntity
  8
0
100
AcDbLine
 10
59.09658799999999
 20
34.79061
 30
0.0
 11
59.59658799999999
 21
33.55531
 31
0.0
  0
LINE
  5
46
330
1E
100
AcDbEntity
  8
0
100
AcDbLine
 10
59.09658799999999
 20
34.79061
 30
0.0
 11
59.09658799999999
 21
35.49649
 31
0.0
  0
LINE
  5
47
330
1E
100
AcDbEntity
  8
0
100
AcDbLine
 10
12.896388
 20
45.58144548223999
 30
0.0
 11
12.896388
 21
46.04355
 31
0.0
  0
LINE
  5
48
330
1E
100
AcDbEntity
  8
0
100
AcDbLine
 10
12.396388
 20
46.97859779531611
 30
0.0
 11
12.396388
 21
47.54355
 31
0.0
  0
LINE
  5
49
330
1E
100
AcDbEntity
  8
0
100
AcDbLine
 10
12.896388
 20
46.04355
 30
0.0
 11
12.896388
 21
45.58144548223999
 31
0.0
  0
LINE
  5
4A
330
1E
100
AcDbEntity
  8
0
100
AcDbLine
 10
12.896388
 20
46.04355
 30
0.0
 11
12.896388
 21
48.54355
 31
0.0
  0
LINE
  5
4B
330
1E
100
AcDbEntity
  8
0
100
AcDbLine
 10
12.896388
 20
48.54355
 30
0.0
 11
12.896388
 21
46.04355
 31
0.0
  0
LINE
  5
4C
330
1E
100
AcDbEntity
  8
0
100
AcDbLine
 10
12.896388
 20
48.54355
 30
0.0
 11
12.896388
 21
52.44355
 31
0.0
  0
LINE
  5
4D
330
1E
100
AcDbEntity
  8
0
100
AcDbLine
 10
12.396388
 20
49.74355
 30
0.0
 11
12.396388
 21
47.54355
 31
0.0
  0
LINE
  5
4E
330
1E
100
AcDbEntity
  8
0
100
AcDbLine
 10
12.396388
 20
49.74355
 30
0.0
 11
12.396388
 21
53.54355
 31
0.0
  0
LINE
  5
4F
330
1E
100
AcDbEntity
  8
0
100
AcDbLine
 10
12.396388
 20
47.54355
 30
0.0
 11
12.396388
 21
46.97859779531611
 31
0.0
  0
LINE
  5
50
330
1E
100
AcDbEntity
  8
0
100
AcDbLine
 10
12.396388
 20
47.54355
 30
0.0
 11
12.396388
 21
49.74355
 31
0.0
  0
LINE
  5
51
330
1E
100
AcDbEntity
  8
0
100
AcDbLine
 10
47.396388
 20
48.04355000000001
 30
0.0
 11
47.396388
 21
45.54355
 31
0.0
  0
LINE
  5
52
330
1E
100
AcDbEntity
  8
0
100
AcDbLine
 10
47.396388
 20
48.04355000000001
 30
0.0
 11
47.396388
 21
52.14355
 31
0.0
  0
LINE
  5
53
330
1E
100
AcDbEntity
  8
0
100
AcDbLine
 10
48.396388
 20
46.64354999999999
 30
0.0
 11
59.09658799999999
 21
46.64354999999999
 31
0.0
  0
LINE
  5
54
330
1E
100
AcDbEntity
  8
0
100
AcDbLine
 10
59.09658799999999
 20
49.74355
 30
0.0
 11
59.09658799999999
 21
53.54355
 31
0.0
  0
LINE
  5
55
330
1E
100
AcDbEntity
  8
0
100
AcDbLine
 10
59.09658799999999
 20
47.54355
 30
0.0
 11
59.09658799999999
 21
49.74355
 31
0.0
  0
LINE
  5
56
330
1E
100
AcDbEntity
  8
0
100
AcDbLine
 10
48.396388
 20
48.94355
 30
0.0
 11
48.396388
 21
46.54355
 31
0.0
  0
LINE
  5
57
330
1E
100
AcDbEntity
  8
0
100
AcDbLine
 10
48.396388
 20
46.54355
 30
0.0
 11
48.396388
 21
45.64354999999999
 31
0.0
  0
LINE
  5
58
330
1E
100
AcDbEntity
  8
0
100
AcDbLine
 10
47.396388
 20
45.54355
 30
0.0
 11
47.396388
 21
44.64355
 31
0.0
  0
LINE
  5
59
330
1E
100
AcDbEntity
  8
0
100
AcDbLine
 10
47.396388
 20
45.54355
 30
0.0
 11
47.396388
 21
48.04355000000001
 31
0.0
  0
LINE
  5
5A
330
1E
100
AcDbEntity
  8
0
100
AcDbLine
 10
47.396388
 20
44.64355
 30
0.0
 11
48.396388
 21
45.64354999999999
 31
0.0
  0
LINE
  5
5B
330
1E
100
AcDbEntity
  8
0
100
AcDbLine
 10
47.396388
 20
44.64355
 30
0.0
 11
47.396388
 21
45.54355
 31
0.0
  0
LINE
  5
5C
330
1E
100
AcDbEntity
  8
0
100
AcDbLine
 10
20.50266184012039
 20
44.64355
 30
0.0
 11
47.396388
 21
44.64355
 31
0.0
  0
LINE
  5
5D
330
1E
100
AcDbEntity
  8
0
100
AcDbLine
 10
59.09658799999999
 20
35.49649
 30
0.0
 11
59.09658799999999
 21
34.79061
 31
0.0
  0
LINE
  5
5E
330
1E
100
AcDbEntity
  8
0
100
AcDbLine
 10
59.09658799999999
 20
35.49649
 30
0.0
 11
59.09658799999999
 21
37.43767
 31
0.0
  0
LINE
  5
5F
330
1E
100
AcDbEntity
  8
0
100
AcDbLine
 10
59.09658799999999
 20
37.43767
 30
0.0
 11
59.09658799999999
 21
35.49649
 31
0.0
  0
LINE
  5
60
330
1E
100
AcDbEntity
  8
0
100
AcDbLine
 10
59.09658799999999
 20
37.43767
 30
0.0
 11
59.09658799999999
 21
40.43767
 31
0.0
  0
LINE
  5
61
330
1E
100
AcDbEntity
  8
0
100
AcDbLine
 10
12.396388
 20
58.44355
 30
0.0
 11
12.396388
 21
53.54355
 31
0.0
  0
LINE
  5
62
330
1E
100
AcDbEntity
  8
0
100
AcDbLine
 10
12.396388
 20
58.44355
 30
0.0
 11
12.396388
 21
64.14355
 31
0.0
  0
LINE
  5
63
330
1E
100
AcDbEntity
  8
0
100
AcDbLine
 10
47.396388
 20
52.14355
 30
0.0
 11
47.396388
 21
57.44355
 31
0.0
  0
LINE
  5
64
330
1E
100
AcDbEntity
  8
0
100
AcDbLine
 10
12.396388
 20
64.14355
 30
0.0
 11
12.396388
 21
70.14355000000001
 31
0.0
  0
LINE
  5
65
330
1E
100
AcDbEntity
  8
0
100
AcDbLine
 10
12.896388
 20
63.74355
 30
0.0
 11
12.896388
 21
57.74354999999999
 31
0.0
  0
LINE
  5
66
330
1E
100
AcDbEntity
  8
0
100
AcDbLine
 10
12.896388
 20
63.74355
 30
0.0
 11
12.896388
 21
70.14355000000001
 31
0.0
  0
LINE
  5
67
330
1E
100
AcDbEntity
  8
0
100
AcDbLine
 10
59.09658799999999
 20
53.54355
 30
0.0
 11
59.09658799999999
 21
58.44355
 31
0.0
  0
LINE
  5
68
330
1E
100
AcDbEntity
  8
0
100
AcDbLine
 10
48.396388
 20
52.84355
 30
0.0
 11
48.396388
 21
48.94355
 31
0.0
  0
LINE
  5
69
330
1E
100
AcDbEntity
  8
0
100
AcDbLine
 10
12.896388
 20
70.14355000000001
 30
0.0
 11
12.896388
 21
76.54354999999999
 31
0.0
  0
LINE
  5
6A
330
1E
100
AcDbEntity
  8
0
100
AcDbLine
 10
47.396388
 20
70.14355000000001
 30
0.0
 11
47.396388
 21
63.54355
 31
0.0
  0
LINE
  5
6B
330
1E
100
AcDbEntity
  8
0
100
AcDbLine
 10
48.396388
 20
70.14355000000001
 30
0.0
 11
48.396388
 21
63.84355
 31
0.0
  0
LINE
  5
6C
330
1E
100
AcDbEntity
  8
0
100
AcDbLine
 10
59.09658799999999
 20
64.14355
 30
0.0
 11
59.09658799999999
 21
70.14355000000001
 31
0.0
  0
LINE
  5
6D
330
1E
100
AcDbEntity
  8
0
100
AcDbLine
 10
59.09658799999999
 20
58.44355
 30
0.0
 11
59.09658799999999
 21
64.14355
 31
0.0
  0
LINE
  5
6E
330
1E
100
AcDbEntity
  8
0
100
AcDbLine
 10
59.09658799999999
 20
70.14355000000001
 30
0.0
 11
59.09658799999999
 21
76.14355
 31
0.0
  0
LINE
  5
6F
330
1E
100
AcDbEntity
  8
0
100
AcDbLine
 10
48.396388
 20
63.84355
 30
0.0
 11
48.396388
 21
57.94355
 31
0.0
  0
LINE
  5
70
330
1E
100
AcDbEntity
  8
0
100
AcDbLine
 10
48.396388
 20
57.94355
 30
0.0
 11
48.396388
 21
52.84355
 31
0.0
  0
LINE
  5
71
330
1E
100
AcDbEntity
  8
0
100
AcDbLine
 10
47.396388
 20
63.54355
 30
0.0
 11
47.396388
 21
57.44355
 31
0.0
  0
LINE
  5
72
330
1E
100
AcDbEntity
  8
0
100
AcDbLine
 10
47.396388
 20
63.54355
 30
0.0
 11
47.396388
 21
70.14355000000001
 31
0.0
  0
LINE
  5
73
330
1E
100
AcDbEntity
  8
0
100
AcDbLine
 10
47.396388
 20
57.44355
 30
0.0
 11
47.396388
 21
52.14355
 31
0.0
  0
LINE
  5
74
330
1E
100
AcDbEntity
  8
0
100
AcDbLine
 10
47.396388
 20
57.44355
 30
0.0
 11
47.396388
 21
63.54355
 31
0.0
  0
LINE
  5
75
330
1E
100
AcDbEntity
  8
0
100
AcDbLine
 10
12.896388
 20
57.74354999999999
 30
0.0
 11
12.896388
 21
52.44355
 31
0.0
  0
LINE
  5
76
330
1E
100
AcDbEntity
  8
0
100
AcDbLine
 10
12.896388
 20
57.74354999999999
 30
0.0
 11
12.896388
 21
63.74355
 31
0.0
  0
LINE
  5
77
330
1E
100
AcDbEntity
  8
0
100
AcDbLine
 10
12.896388
 20
52.44355
 30
0.0
 11
12.896388
 21
48.54355
 31
0.0
  0
LINE
  5
78
330
1E
100
AcDbEntity
  8
0
100
AcDbLine
 10
12.896388
 20
52.44355
 30
0.0
 11
12.896388
 21
57.74354999999999
 31
0.0
  0
LINE
  5
79
330
1E
100
AcDbEntity
  8
0
100
AcDbLine
 10
12.396388
 20
53.54355
 30
0.0
 11
12.396388
 21
58.44355
 31
0.0
  0
LINE
  5
7A
330
1E
100
AcDbEntity
  8
0
100
AcDbLine
 10
12.396388
 20
53.54355
 30
0.0
 11
12.396388
 21
49.74355
 31
0.0
  0
LINE
  5
7B
330
1E
100
AcDbEntity
  8
0
100
AcDbLine
 10
59.09658799999999
 20
76.14355
 30
0.0
 11
59.09658799999999
 21
81.84355
 31
0.0
  0
LINE
  5
7C
330
1E
100
AcDbEntity
  8
0
100
AcDbLine
 10
46.59638799999999
 20
76.44355
 30
0.0
 11
48.396388
 21
70.14355000000001
 31
0.0
  0
LINE
  5
7D
330
1E
100
AcDbEntity
  8
0
100
AcDbLine
 10
45.596388
 20
76.74355
 30
0.0
 11
47.396388
 21
70.14355000000001
 31
0.0
  0
LINE
  5
7E
330
1E
100
AcDbEntity
  8
0
100
AcDbLine
 10
12.896388
 20
76.54354999999999
 30
0.0
 11
12.896388
 21
70.14355000000001
 31
0.0
  0
LINE
  5
7F
330
1E
100
AcDbEntity
  8
0
100
AcDbLine
 10
12.896388
 20
76.54354999999999
 30
0.0
 11
12.896388
 21
82.54355
 31
0.0
  0
LINE
  5
80
330
1E
100
AcDbEntity
  8
0
100
AcDbLine
 10
12.396388
 20
76.14355
 30
0.0
 11
12.396388
 21
70.14355000000001
 31
0.0
  0
LINE
  5
81
330
1E
100
AcDbEntity
  8
0
100
AcDbLine
 10
12.396388
 20
76.14355
 30
0.0
 11
12.396388
 21
81.84355
 31
0.0
  0
LINE
  5
82
330
1E
100
AcDbEntity
  8
0
100
AcDbLine
 10
12.396388
 20
70.14355000000001
 30
0.0
 11
12.396388
 21
76.14355
 31
0.0
  0
LINE
  5
83
330
1E
100
AcDbEntity
  8
0
100
AcDbLine
 10
12.396388
 20
70.14355000000001
 30
0.0
 11
12.396388
 21
64.14355
 31
0.0
  0
LINE
  5
84
330
1E
100
AcDbEntity
  8
0
100
AcDbLine
 10
59.09658799999999
 20
63.20235
 30
0.0
 11
59.09658799999999
 21
56.05534999999999
 31
0.0
  0
LINE
  5
85
330
1E
100
AcDbEntity
  8
0
100
AcDbLine
 10
12.396388
 20
81.84355
 30
0.0
 11
12.396388
 21
76.14355
 31
0.0
  0
LINE
  5
86
330
1E
100
AcDbEntity
  8
0
100
AcDbLine
 10
12.396388
 20
81.84355
 30
0.0
 11
12.396388
 21
86.74355
 31
0.0
  0
LINE
  5
87
330
1E
100
AcDbEntity
  8
0
100
AcDbLine
 10
59.09658799999999
 20
81.84355
 30
0.0
 11
59.09658799999999
 21
86.74355
 31
0.0
  0
LINE
  5
88
330
1E
100
AcDbEntity
  8
0
100
AcDbLine
 10
44.996388
 20
82.34354999999998
 30
0.0
 11
46.59638799999999
 21
76.44355
 31
0.0
  0
LINE
  5
89
330
1E
100
AcDbEntity
  8
0
100
AcDbLine
 10
59.09658799999999
 20
86.74355
 30
0.0
 11
59.09658799999999
 21
90.54354999999999
 31
0.0
  0
LINE
  5
8A
330
1E
100
AcDbEntity
  8
0
100
AcDbLine
 10
43.59638799999999
 20
87.44355
 30
0.0
 11
44.996388
 21
82.34354999999998
 31
0.0
  0
LINE
  5
8B
330
1E
100
AcDbEntity
  8
0
100
AcDbLine
 10
43.896388
 20
82.84354999999999
 30
0.0
 11
45.596388
 21
76.74355
 31
0.0
  0
LINE
  5
8C
330
1E
100
AcDbEntity
  8
0
100
AcDbLine
 10
12.896388
 20
82.54355
 30
0.0
 11
12.896388
 21
76.54354999999999
 31
0.0
  0
LINE
  5
8D
330
1E
100
AcDbEntity
  8
0
100
AcDbLine
 10
12.896388
 20
82.54355
 30
0.0
 11
12.896388
 21
87.84354999999999
 31
0.0
  0
LINE
  5
8E
330
1E
100
AcDbEntity
  8
0
100
AcDbLine
 10
42.396388
 20
88.14355
 30
0.0
 11
43.896388
 21
82.84354999999999
 31
0.0
  0
LINE
  5
8F
330
1E
100
AcDbEntity
  8
0
100
AcDbLine
 10
12.896388
 20
87.84354999999999
 30
0.0
 11
12.896388
 21
82.54355
 31
0.0
  0
LINE
  5
90
330
1E
100
AcDbEntity
  8
0
100
AcDbLine
 10
12.896388
 20
87.84354999999999
 30
0.0
 11
12.896388
 21
91.74355
 31
0.0
  0
LINE
  5
91
330
1E
100
AcDbEntity
  8
0
100
AcDbLine
 10
12.396388
 20
86.74355
 30
0.0
 11
12.396388
 21
90.54354999999999
 31
0.0
  0
LINE
  5
92
330
1E
100
AcDbEntity
  8
0
100
AcDbLine
 10
12.396388
 20
86.74355
 30
0.0
 11
12.396388
 21
81.84355
 31
0.0
  0
LINE
  5
93
330
1E
100
AcDbEntity
  8
0
100
AcDbLine
 10
59.09658799999999
 20
79.52594999999999
 30
0.0
 11
59.09658799999999
 21
71.14355
 31
0.0
  0
LINE
  5
94
330
1E
100
AcDbEntity
  8
0
100
AcDbLine
 10
59.09658799999999
 20
71.14355
 30
0.0
 11
59.09658799999999
 21
79.52594999999999
 31
0.0
  0
LINE
  5
95
330
1E
100
AcDbEntity
  8
0
100
AcDbLine
 10
41.296388
 20
92.24355
 30
0.0
 11
42.396388
 21
88.14355
 31
0.0
  0
LINE
  5
96
330
1E
100
AcDbEntity
  8
0
100
AcDbLine
 10
12.896388
 20
91.74355
 30
0.0
 11
12.896388
 21
87.84354999999999
 31
0.0
  0
LINE
  5
97
330
1E
100
AcDbEntity
  8
0
100
AcDbLine
 10
12.896388
 20
91.74355
 30
0.0
 11
12.896388
 21
94.24355
 31
0.0
  0
LINE
  5
98
330
1E
100
AcDbEntity
  8
0
100
AcDbLine
 10
12.396388
 20
90.54354999999999
 30
0.0
 11
12.396388
 21
92.74354999999999
 31
0.0
  0
LINE
  5
99
330
1E
100
AcDbEntity
  8
0
100
AcDbLine
 10
12.396388
 20
90.54354999999999
 30
0.0
 11
12.396388
 21
86.74355
 31
0.0
  0
LINE
  5
9A
330
1E
100
AcDbEntity
  8
0
100
AcDbLine
 10
12.396388
 20
92.74354999999999
 30
0.0
 11
12.396388
 21
93.64355000000001
 31
0.0
  0
LINE
  5
9B
330
1E
100
AcDbEntity
  8
0
100
AcDbLine
 10
12.396388
 20
92.74354999999999
 30
0.0
 11
12.396388
 21
90.54354999999999
 31
0.0
  0
LINE
  5
9C
330
1E
100
AcDbEntity
  8
0
100
AcDbLine
 10
42.596388
 20
91.34354999999999
 30
0.0
 11
43.59638799999999
 21
87.44355
 31
0.0
  0
LINE
  5
9D
330
1E
100
AcDbEntity
  8
0
100
AcDbLine
 10
42.22939770873789
 20
92.60180242718451
 30
0.0
 11
44.39638799999999
 21
93.14355
 31
0.0
  0
LINE
  5
9E
330
1E
100
AcDbEntity
  8
0
100
AcDbLine
 10
12.396388
 20
93.64355000000001
 30
0.0
 11
12.396388
 21
92.74354999999999
 31
0.0
  0
LINE
  5
9F
330
1E
100
AcDbEntity
  8
0
100
AcDbLine
 10
12.396388
 20
93.64355000000001
 30
0.0
 11
12.896388
 21
95.14355
 31
0.0
  0
LINE
  5
A0
330
1E
100
AcDbEntity
  8
0
100
AcDbLine
 10
44.39638799999999
 20
93.14355
 30
0.0
 11
47.396388
 21
93.64355000000001
 31
0.0
  0
LINE
  5
A1
330
1E
100
AcDbEntity
  8
0
100
AcDbLine
 10
59.09658799999999
 20
90.54354999999999
 30
0.0
 11
59.09658799999999
 21
92.74354999999999
 31
0.0
  0
LINE
  5
A2
330
1E
100
AcDbEntity
  8
0
100
AcDbLine
 10
59.09658799999999
 20
92.74354999999999
 30
0.0
 11
59.09658799999999
 21
93.64355000000001
 31
0.0
  0
LINE
  5
A3
330
1E
100
AcDbEntity
  8
0
100
AcDbLine
 10
47.396388
 20
93.64355000000001
 30
0.0
 11
59.09658799999999
 21
93.64355000000001
 31
0.0
  0
LINE
  5
A4
330
1E
100
AcDbEntity
  8
0
100
AcDbLine
 10
59.09658799999999
 20
88.43765000000001
 30
0.0
 11
59.09658799999999
 21
97.70234999999999
 31
0.0
  0
LINE
  5
A5
330
1E
100
AcDbEntity
  8
0
100
AcDbLine
 10
59.09658799999999
 20
56.05534999999999
 30
0.0
 11
59.09658799999999
 21
63.20235
 31
0.0
  0
LINE
  5
A6
330
1E
100
AcDbEntity
  8
0
100
AcDbLine
 10
59.09658799999999
 20
56.05534999999999
 30
0.0
 11
59.09658799999999
 21
49.79065
 31
0.0
  0
LINE
  5
A7
330
1E
100
AcDbEntity
  8
0
100
AcDbLine
 10
59.09658799999999
 20
49.79065
 30
0.0
 11
59.09658799999999
 21
56.05534999999999
 31
0.0
  0
LINE
  5
A8
330
1E
100
AcDbEntity
  8
0
100
AcDbLine
 10
59.09658799999999
 20
40.43767
 30
0.0
 11
59.09658799999999
 21
44.49645
 31
0.0
  0
LINE
  5
A9
330
1E
100
AcDbEntity
  8
0
100
AcDbLine
 10
59.09658799999999
 20
40.43767
 30
0.0
 11
59.09658799999999
 21
37.43767
 31
0.0
  0
LINE
  5
AA
330
1E
100
AcDbEntity
  8
0
100
AcDbLine
 10
12.896388
 20
94.24355
 30
0.0
 11
12.896388
 21
91.74355
 31
0.0
  0
LINE
  5
AB
330
1E
100
AcDbEntity
  8
0
100
AcDbLine
 10
12.896388
 20
94.24355
 30
0.0
 11
12.896388
 21
95.14355
 31
0.0
  0
LINE
  5
AC
330
1E
100
AcDbEntity
  8
0
100
AcDbLine
 10
14.39638799999999
 20
95.64355
 30
0.0
 11
40.396388
 21
95.64355
 31
0.0
  0
LINE
  5
AD
330
1E
100
AcDbEntity
  8
0
100
AcDbLine
 10
41.89638799999999
 20
93.74354999999999
 30
0.0
 11
42.596388
 21
91.34354999999999
 31
0.0
  0
LINE
  5
AE
330
1E
100
AcDbEntity
  8
0
100
AcDbLine
 10
41.696388
 20
94.64355000000001
 30
0.0
 11
41.89638799999999
 21
93.74354999999999
 31
0.0
  0
LINE
  5
AF
330
1E
100
AcDbEntity
  8
0
100
AcDbLine
 10
40.69638799999999
 20
94.74355
 30
0.0
 11
41.296388
 21
92.24355
 31
0.0
  0
LINE
  5
B0
330
1E
100
AcDbEntity
  8
0
100
AcDbLine
 10
40.396388
 20
95.64355
 30
0.0
 11
41.696388
 21
94.64355000000001
 31
0.0
  0
LINE
  5
B1
330
1E
100
AcDbEntity
  8
0
100
AcDbLine
 10
40.396388
 20
95.64355
 30
0.0
 11
40.69638799999999
 21
94.74355
 31
0.0
  0
LINE
  5
B2
330
1E
100
AcDbEntity
  8
0
100
AcDbLine
 10
14.39638799999999
 20
95.64355
 30
0.0
 11
40.396388
 21
95.64355
 31
0.0
  0
LINE
  5
B3
330
1E
100
AcDbEntity
  8
0
100
AcDbLine
 10
12.896388
 20
95.14355
 30
0.0
 11
14.39638799999999
 21
95.64355
 31
0.0
  0
LINE
  5
B4
330
1E
100
AcDbEntity
  8
0
100
AcDbLine
 10
12.896388
 20
95.14355
 30
0.0
 11
12.896388
 21
94.24355
 31
0.0
  0
LINE
  5
B5
330
1E
100
AcDbEntity
  8
0
100
AcDbLine
 10
59.09658799999999
 20
93.64355000000001
 30
0.0
 11
59.09658799999999
 21
97.70234999999999
 31
0.0
  0
LINE
  5
B6
330
1E
100
AcDbEntity
  8
0
100
AcDbLine
 10
59.09658799999999
 20
44.49645
 30
0.0
 11
59.09658799999999
 21
46.64354999999999
 31
0.0
  0
LINE
  5
B7
330
1E
100
AcDbEntity
  8
0
100
AcDbLine
 10
59.09658799999999
 20
44.49645
 30
0.0
 11
59.09658799999999
 21
40.43767
 31
0.0
  0
LINE
  5
B8
330
1E
100
AcDbEntity
  8
0
100
AcDbLine
 10
59.09658799999999
 20
97.70234999999999
 30
0.0
 11
59.09658799999999
 21
93.64355000000001
 31
0.0
  0
LINE
  5
B9
330
1E
100
AcDbEntity
  8
0
100
AcDbLine
 10
59.09658799999999
 20
97.70234999999999
 30
0.0
 11
59.09658799999999
 21
107.1435499999999
 31
0.0
  0
LINE
  5
BA
330
1E
100
AcDbEntity
  8
0
100
AcDbLine
 10
59.09658799999999
 20
97.70234999999999
 30
0.0
 11
59.09658799999999
 21
88.43765000000001
 31
0.0
  0
LINE
  5
BB
330
1E
100
AcDbEntity
  8
0
100
AcDbLine
 10
59.09658799999999
 20
46.64354999999999
 30
0.0
 11
59.09658799999999
 21
44.49645
 31
0.0
  0
LINE
  5
BC
330
1E
100
AcDbEntity
  8
0
100
AcDbLine
 10
59.09658799999999
 20
46.64354999999999
 30
0.0
 11
59.09658799999999
 21
47.54355
 31
0.0
  0
LINE
  5
BD
330
1E
100
AcDbEntity
  8
0
100
AcDbLine
 10
25.096588
 20
129.41055
 30
0.0
 11
25.096588
 21
132.13055
 31
0.0
  0
LINE
  5
BE
330
1E
100
AcDbEntity
  8
0
100
AcDbLine
 10
25.096588
 20
129.41055
 30
0.0
 11
25.096588
 21
127.71055
 31
0.0
  0
LINE
  5
BF
330
1E
100
AcDbEntity
  8
0
100
AcDbLine
 10
25.096588
 20
127.71055
 30
0.0
 11
25.096588
 21
129.41055
 31
0.0
  0
LINE
  5
C0
330
1E
100
AcDbEntity
  8
0
100
AcDbLine
 10
25.096588
 20
127.71055
 30
0.0
 11
25.096588
 21
127.14355
 31
0.0
  0
LINE
  5
C1
330
1E
100
AcDbEntity
  8
0
100
AcDbLine
 10
38.09658799999999
 20
129.41055
 30
0.0
 11
38.09658799999999
 21
132.13055
 31
0.0
  0
LINE
  5
C2
330
1E
100
AcDbEntity
  8
0
100
AcDbLine
 10
38.09658799999999
 20
129.41055
 30
0.0
 11
38.09658799999999
 21
127.71055
 31
0.0
  0
LINE
  5
C3
330
1E
100
AcDbEntity
  8
0
100
AcDbLine
 10
38.09658799999999
 20
127.71055
 30
0.0
 11
38.09658799999999
 21
129.41055
 31
0.0
  0
LINE
  5
C4
330
1E
100
AcDbEntity
  8
0
100
AcDbLine
 10
38.09658799999999
 20
127.71055
 30
0.0
 11
38.09658799999999
 21
127.14355
 31
0.0
  0
LINE
  5
C5
330
1E
100
AcDbEntity
  8
0
100
AcDbLine
 10
38.09658799999999
 20
127.14355
 30
0.0
 11
38.09658799999999
 21
127.71055
 31
0.0
  0
LINE
  5
C6
330
1E
100
AcDbEntity
  8
0
100
AcDbLine
 10
25.096588
 20
127.14355
 30
0.0
 11
38.09658799999999
 21
127.14355
 31
0.0
  0
LINE
  5
C7
330
1E
100
AcDbEntity
  8
0
100
AcDbLine
 10
25.096588
 20
127.14355
 30
0.0
 11
25.096588
 21
127.71055
 31
0.0
  0
LINE
  5
C8
330
1E
100
AcDbEntity
  8
0
100
AcDbLine
 10
50.096588
 20
129.64355
 30
0.0
 11
50.096588
 21
131.1435499999999
 31
0.0
  0
LINE
  5
C9
330
1E
100
AcDbEntity
  8
0
100
AcDbLine
 10
50.096588
 20
129.64355
 30
0.0
 11
50.096588
 21
129.14355
 31
0.0
  0
LINE
  5
CA
330
1E
100
AcDbEntity
  8
0
100
AcDbLine
 10
38.09658799999999
 20
130.54355
 30
0.0
 11
49.09658799999999
 21
130.54355
 31
0.0
  0
LINE
  5
CB
330
1E
100
AcDbEntity
  8
0
100
AcDbLine
 10
23.596588
 20
129.41055
 30
0.0
 11
25.096588
 21
127.14355
 31
0.0
  0
LINE
  5
CC
330
1E
100
AcDbEntity
  8
0
100
AcDbLine
 10
50.096588
 20
129.14355
 30
0.0
 11
59.09658799999999
 21
129.14355
 31
0.0
  0
LINE
  5
CD
330
1E
100
AcDbEntity
  8
0
100
AcDbLine
 10
50.096588
 20
129.14355
 30
0.0
 11
50.096588
 21
129.64355
 31
0.0
  0
LINE
  5
CE
330
1E
100
AcDbEntity
  8
0
100
AcDbLine
 10
38.09658799999999
 20
132.13055
 30
0.0
 11
38.09658799999999
 21
135.64355
 31
0.0
  0
LINE
  5
CF
330
1E
100
AcDbEntity
  8
0
100
AcDbLine
 10
38.09658799999999
 20
132.13055
 30
0.0
 11
38.09658799999999
 21
129.41055
 31
0.0
  0
LINE
  5
D0
330
1E
100
AcDbEntity
  8
0
100
AcDbLine
 10
25.096588
 20
132.13055
 30
0.0
 11
25.096588
 21
135.64355
 31
0.0
  0
LINE
  5
D1
330
1E
100
AcDbEntity
  8
0
100
AcDbLine
 10
25.096588
 20
132.13055
 30
0.0
 11
25.096588
 21
129.41055
 31
0.0
  0
LINE
  5
D2
330
1E
100
AcDbEntity
  8
0
100
AcDbLine
 10
38.09658799999999
 20
135.64355
 30
0.0
 11
38.09658799999999
 21
139.7235499999999
 31
0.0
  0
LINE
  5
D3
330
1E
100
AcDbEntity
  8
0
100
AcDbLine
 10
38.09658799999999
 20
135.64355
 30
0.0
 11
38.09658799999999
 21
132.13055
 31
0.0
  0
LINE
  5
D4
330
1E
100
AcDbEntity
  8
0
100
AcDbLine
 10
25.096588
 20
135.64355
 30
0.0
 11
25.096588
 21
139.7235499999999
 31
0.0
  0
LINE
  5
D5
330
1E
100
AcDbEntity
  8
0
100
AcDbLine
 10
25.096588
 20
135.64355
 30
0.0
 11
25.096588
 21
132.13055
 31
0.0
  0
LINE
  5
D6
330
1E
100
AcDbEntity
  8
0
100
AcDbLine
 10
25.096588
 20
144.14355
 30
0.0
 11
25.096588
 21
139.7235499999999
 31
0.0
  0
LINE
  5
D7
330
1E
100
AcDbEntity
  8
0
100
AcDbLine
 10
25.096588
 20
144.14355
 30
0.0
 11
25.096588
 21
148.5635499999999
 31
0.0
  0
LINE
  5
D8
330
1E
100
AcDbEntity
  8
0
100
AcDbLine
 10
38.09658799999999
 20
144.14355
 30
0.0
 11
38.09658799999999
 21
139.7235499999999
 31
0.0
  0
LINE
  5
D9
330
1E
100
AcDbEntity
  8
0
100
AcDbLine
 10
38.09658799999999
 20
144.14355
 30
0.0
 11
38.09658799999999
 21
148.5635499999999
 31
0.0
  0
LINE
  5
DA
330
1E
100
AcDbEntity
  8
0
100
AcDbLine
 10
38.09658799999999
 20
139.7235499999999
 30
0.0
 11
38.09658799999999
 21
144.14355
 31
0.0
  0
LINE
  5
DB
330
1E
100
AcDbEntity
  8
0
100
AcDbLine
 10
38.09658799999999
 20
139.7235499999999
 30
0.0
 11
38.09658799999999
 21
135.64355
 31
0.0
  0
LINE
  5
DC
330
1E
100
AcDbEntity
  8
0
100
AcDbLine
 10
25.096588
 20
139.7235499999999
 30
0.0
 11
25.096588
 21
144.14355
 31
0.0
  0
LINE
  5
DD
330
1E
100
AcDbEntity
  8
0
100
AcDbLine
 10
25.096588
 20
139.7235499999999
 30
0.0
 11
25.096588
 21
135.64355
 31
0.0
  0
LINE
  5
DE
330
1E
100
AcDbEntity
  8
0
100
AcDbLine
 10
49.09658799999999
 20
144.14355
 30
0.0
 11
49.09658799999999
 21
140.63055
 31
0.0
  0
LINE
  5
DF
330
1E
100
AcDbEntity
  8
0
100
AcDbLine
 10
49.09658799999999
 20
144.14355
 30
0.0
 11
49.09658799999999
 21
147.65655
 31
0.0
  0
LINE
  5
E0
330
1E
100
AcDbEntity
  8
0
100
AcDbLine
 10
49.09658799999999
 20
140.63055
 30
0.0
 11
49.09658799999999
 21
137.31055
 31
0.0
  0
LINE
  5
E1
330
1E
100
AcDbEntity
  8
0
100
AcDbLine
 10
49.09658799999999
 20
140.63055
 30
0.0
 11
49.09658799999999
 21
144.14355
 31
0.0
  0
LINE
  5
E2
330
1E
100
AcDbEntity
  8
0
100
AcDbLine
 10
49.09658799999999
 20
137.31055
 30
0.0
 11
49.09658799999999
 21
134.51055
 31
0.0
  0
LINE
  5
E3
330
1E
100
AcDbEntity
  8
0
100
AcDbLine
 10
49.09658799999999
 20
137.31055
 30
0.0
 11
49.09658799999999
 21
140.63055
 31
0.0
  0
LINE
  5
E4
330
1E
100
AcDbEntity
  8
0
100
AcDbLine
 10
49.09658799999999
 20
134.51055
 30
0.0
 11
49.09658799999999
 21
132.3565499999999
 31
0.0
  0
LINE
  5
E5
330
1E
100
AcDbEntity
  8
0
100
AcDbLine
 10
49.09658799999999
 20
134.51055
 30
0.0
 11
49.09658799999999
 21
137.31055
 31
0.0
  0
LINE
  5
E6
330
1E
100
AcDbEntity
  8
0
100
AcDbLine
 10
49.09658799999999
 20
132.3565499999999
 30
0.0
 11
49.09658799999999
 21
130.99655
 31
0.0
  0
LINE
  5
E7
330
1E
100
AcDbEntity
  8
0
100
AcDbLine
 10
49.09658799999999
 20
132.3565499999999
 30
0.0
 11
49.09658799999999
 21
134.51055
 31
0.0
  0
LINE
  5
E8
330
1E
100
AcDbEntity
  8
0
100
AcDbLine
 10
49.09658799999999
 20
130.99655
 30
0.0
 11
49.09658799999999
 21
130.54355
 31
0.0
  0
LINE
  5
E9
330
1E
100
AcDbEntity
  8
0
100
AcDbLine
 10
49.09658799999999
 20
130.99655
 30
0.0
 11
49.09658799999999
 21
132.3565499999999
 31
0.0
  0
LINE
  5
EA
330
1E
100
AcDbEntity
  8
0
100
AcDbLine
 10
38.09658799999999
 20
148.5635499999999
 30
0.0
 11
38.09658799999999
 21
152.64355
 31
0.0
  0
LINE
  5
EB
330
1E
100
AcDbEntity
  8
0
100
AcDbLine
 10
38.09658799999999
 20
148.5635499999999
 30
0.0
 11
38.09658799999999
 21
144.14355
 31
0.0
  0
LINE
  5
EC
330
1E
100
AcDbEntity
  8
0
100
AcDbLine
 10
25.096588
 20
148.5635499999999
 30
0.0
 11
25.096588
 21
152.64355
 31
0.0
  0
LINE
  5
ED
330
1E
100
AcDbEntity
  8
0
100
AcDbLine
 10
25.096588
 20
148.5635499999999
 30
0.0
 11
25.096588
 21
144.14355
 31
0.0
  0
LINE
  5
EE
330
1E
100
AcDbEntity
  8
0
100
AcDbLine
 10
49.09658799999999
 20
147.65655
 30
0.0
 11
49.09658799999999
 21
144.14355
 31
0.0
  0
LINE
  5
EF
330
1E
100
AcDbEntity
  8
0
100
AcDbLine
 10
49.09658799999999
 20
147.65655
 30
0.0
 11
49.09658799999999
 21
150.9435499999999
 31
0.0
  0
LINE
  5
F0
330
1E
100
AcDbEntity
  8
0
100
AcDbLine
 10
38.09658799999999
 20
152.64355
 30
0.0
 11
38.09658799999999
 21
156.15655
 31
0.0
  0
LINE
  5
F1
330
1E
100
AcDbEntity
  8
0
100
AcDbLine
 10
38.09658799999999
 20
152.64355
 30
0.0
 11
38.09658799999999
 21
148.5635499999999
 31
0.0
  0
LINE
  5
F2
330
1E
100
AcDbEntity
  8
0
100
AcDbLine
 10
25.096588
 20
152.64355
 30
0.0
 11
25.096588
 21
156.15655
 31
0.0
  0
LINE
  5
F3
330
1E
100
AcDbEntity
  8
0
100
AcDbLine
 10
49.09658799999999
 20
150.9435499999999
 30
0.0
 11
49.09658799999999
 21
147.65655
 31
0.0
  0
LINE
  5
F4
330
1E
100
AcDbEntity
  8
0
100
AcDbLine
 10
49.09658799999999
 20
150.9435499999999
 30
0.0
 11
49.09658799999999
 21
153.7765499999999
 31
0.0
  0
LINE
  5
F5
330
1E
100
AcDbEntity
  8
0
100
AcDbLine
 10
49.09658799999999
 20
153.7765499999999
 30
0.0
 11
49.09658799999999
 21
150.9435499999999
 31
0.0
  0
LINE
  5
F6
330
1E
100
AcDbEntity
  8
0
100
AcDbLine
 10
49.09658799999999
 20
153.7765499999999
 30
0.0
 11
49.09658799999999
 21
155.93055
 31
0.0
  0
LINE
  5
F7
330
1E
100
AcDbEntity
  8
0
100
AcDbLine
 10
38.09658799999999
 20
156.15655
 30
0.0
 11
38.09658799999999
 21
158.87655
 31
0.0
  0
LINE
  5
F8
330
1E
100
AcDbEntity
  8
0
100
AcDbLine
 10
38.09658799999999
 20
156.15655
 30
0.0
 11
38.09658799999999
 21
152.64355
 31
0.0
  0
LINE
  5
F9
330
1E
100
AcDbEntity
  8
0
100
AcDbLine
 10
25.096588
 20
156.15655
 30
0.0
 11
25.096588
 21
158.87655
 31
0.0
  0
LINE
  5
FA
330
1E
100
AcDbEntity
  8
0
100
AcDbLine
 10
25.096588
 20
156.15655
 30
0.0
 11
25.096588
 21
152.64355
 31
0.0
  0
LINE
  5
FB
330
1E
100
AcDbEntity
  8
0
100
AcDbLine
 10
49.09658799999999
 20
155.93055
 30
0.0
 11
49.09658799999999
 21
153.7765499999999
 31
0.0
  0
LINE
  5
FC
330
1E
100
AcDbEntity
  8
0
100
AcDbLine
 10
49.09658799999999
 20
155.93055
 30
0.0
 11
49.09658799999999
 21
157.29055
 31
0.0
  0
LINE
  5
FD
330
1E
100
AcDbEntity
  8
0
100
AcDbLine
 10
49.09658799999999
 20
157.29055
 30
0.0
 11
49.09658799999999
 21
155.93055
 31
0.0
  0
LINE
  5
FE
330
1E
100
AcDbEntity
  8
0
100
AcDbLine
 10
49.09658799999999
 20
157.29055
 30
0.0
 11
49.09658799999999
 21
157.7435499999999
 31
0.0
  0
LINE
  5
FF
330
1E
100
AcDbEntity
  8
0
100
AcDbLine
 10
38.09658799999999
 20
158.87655
 30
0.0
 11
38.09658799999999
 21
160.5765499999999
 31
0.0
  0
LINE
  5
100
330
1E
100
AcDbEntity
  8
0
100
AcDbLine
 10
25.096588
 20
158.87655
 30
0.0
 11
25.096588
 21
160.5765499999999
 31
0.0
  0
LINE
  5
101
330
1E
100
AcDbEntity
  8
0
100
AcDbLine
 10
25.096588
 20
158.87655
 30
0.0
 11
25.096588
 21
156.15655
 31
0.0
  0
LINE
  5
102
330
1E
100
AcDbEntity
  8
0
100
AcDbLine
 10
38.09658799999999
 20
157.7435499999999
 30
0.0
 11
49.09658799999999
 21
157.7435499999999
 31
0.0
  0
LINE
  5
103
330
1E
100
AcDbEntity
  8
0
100
AcDbLine
 10
23.596588
 20
158.87655
 30
0.0
 11
25.096588
 21
161.1435499999999
 31
0.0
  0
LINE
  5
104
330
1E
100
AcDbEntity
  8
0
100
AcDbLine
 10
23.096588
 20
144.14355
 30
0.0
 11
23.596588
 21
129.41055
 31
0.0
  0
LINE
  5
105
330
1E
100
AcDbEntity
  8
0
100
AcDbLine
 10
23.096588
 20
144.14355
 30
0.0
 11
23.596588
 21
158.87655
 31
0.0
  0
LINE
  5
106
330
1E
100
AcDbEntity
  8
0
100
AcDbLine
 10
50.096588
 20
148.04355
 30
0.0
 11
50.096588
 21
151.64355
 31
0.0
  0
LINE
  5
107
330
1E
100
AcDbEntity
  8
0
100
AcDbLine
 10
50.096588
 20
148.04355
 30
0.0
 11
50.096588
 21
144.14355
 31
0.0
  0
LINE
  5
108
330
1E
100
AcDbEntity
  8
0
100
AcDbLine
 10
50.096588
 20
151.64355
 30
0.0
 11
50.096588
 21
154.7435499999999
 31
0.0
  0
LINE
  5
109
330
1E
100
AcDbEntity
  8
0
100
AcDbLine
 10
50.096588
 20
151.64355
 30
0.0
 11
50.096588
 21
148.04355
 31
0.0
  0
LINE
  5
10A
330
1E
100
AcDbEntity
  8
0
100
AcDbLine
 10
50.096588
 20
154.7435499999999
 30
0.0
 11
50.096588
 21
157.1435499999999
 31
0.0
  0
LINE
  5
10B
330
1E
100
AcDbEntity
  8
0
100
AcDbLine
 10
50.096588
 20
154.7435499999999
 30
0.0
 11
50.096588
 21
151.64355
 31
0.0
  0
LINE
  5
10C
330
1E
100
AcDbEntity
  8
0
100
AcDbLine
 10
50.096588
 20
157.1435499999999
 30
0.0
 11
50.096588
 21
158.64355
 31
0.0
  0
LINE
  5
10D
330
1E
100
AcDbEntity
  8
0
100
AcDbLine
 10
50.096588
 20
157.1435499999999
 30
0.0
 11
50.096588
 21
154.7435499999999
 31
0.0
  0
LINE
  5
10E
330
1E
100
AcDbEntity
  8
0
100
AcDbLine
 10
50.096588
 20
158.64355
 30
0.0
 11
50.096588
 21
159.14355
 31
0.0
  0
LINE
  5
10F
330
1E
100
AcDbEntity
  8
0
100
AcDbLine
 10
50.096588
 20
158.64355
 30
0.0
 11
50.096588
 21
157.1435499999999
 31
0.0
  0
LINE
  5
110
330
1E
100
AcDbEntity
  8
0
100
AcDbLine
 10
50.096588
 20
144.14355
 30
0.0
 11
50.096588
 21
140.2435499999999
 31
0.0
  0
LINE
  5
111
330
1E
100
AcDbEntity
  8
0
100
AcDbLine
 10
50.096588
 20
144.14355
 30
0.0
 11
50.096588
 21
148.04355
 31
0.0
  0
LINE
  5
112
330
1E
100
AcDbEntity
  8
0
100
AcDbLine
 10
50.096588
 20
140.2435499999999
 30
0.0
 11
50.096588
 21
144.14355
 31
0.0
  0
LINE
  5
113
330
1E
100
AcDbEntity
  8
0
100
AcDbLine
 10
50.096588
 20
140.2435499999999
 30
0.0
 11
50.096588
 21
136.64355
 31
0.0
  0
LINE
  5
114
330
1E
100
AcDbEntity
  8
0
100
AcDbLine
 10
50.096588
 20
136.64355
 30
0.0
 11
50.096588
 21
140.2435499999999
 31
0.0
  0
LINE
  5
115
330
1E
100
AcDbEntity
  8
0
100
AcDbLine
 10
50.096588
 20
136.64355
 30
0.0
 11
50.096588
 21
133.54355
 31
0.0
  0
LINE
  5
116
330
1E
100
AcDbEntity
  8
0
100
AcDbLine
 10
50.096588
 20
133.54355
 30
0.0
 11
50.096588
 21
136.64355
 31
0.0
  0
LINE
  5
117
330
1E
100
AcDbEntity
  8
0
100
AcDbLine
 10
50.096588
 20
133.54355
 30
0.0
 11
50.096588
 21
131.1435499999999
 31
0.0
  0
LINE
  5
118
330
1E
100
AcDbEntity
  8
0
100
AcDbLine
 10
50.096588
 20
131.1435499999999
 30
0.0
 11
50.096588
 21
133.54355
 31
0.0
  0
LINE
  5
119
330
1E
100
AcDbEntity
  8
0
100
AcDbLine
 10
50.096588
 20
131.1435499999999
 30
0.0
 11
50.096588
 21
129.64355
 31
0.0
  0
LINE
  5
11A
330
1E
100
AcDbEntity
  8
0
100
AcDbLine
 10
50.096588
 20
159.14355
 30
0.0
 11
59.09658799999999
 21
159.14355
 31
0.0
  0
LINE
  5
11B
330
1E
100
AcDbEntity
  8
0
100
AcDbLine
 10
50.096588
 20
159.14355
 30
0.0
 11
50.096588
 21
158.64355
 31
0.0
  0
LINE
  5
11C
330
1E
100
AcDbEntity
  8
0
100
AcDbLine
 10
49.09658799999999
 20
157.7435499999999
 30
0.0
 11
50.096588
 21
159.14355
 31
0.0
  0
LINE
  5
11D
330
1E
100
AcDbEntity
  8
0
100
AcDbLine
 10
49.09658799999999
 20
157.7435499999999
 30
0.0
 11
49.09658799999999
 21
157.29055
 31
0.0
  0
LINE
  5
11E
330
1E
100
AcDbEntity
  8
0
100
AcDbLine
 10
49.09658799999999
 20
130.54355
 30
0.0
 11
50.096588
 21
129.14355
 31
0.0
  0
LINE
  5
11F
330
1E
100
AcDbEntity
  8
0
100
AcDbLine
 10
49.09658799999999
 20
130.54355
 30
0.0
 11
49.09658799999999
 21
130.99655
 31
0.0
  0
LINE
  5
120
330
1E
100
AcDbEntity
  8
0
100
AcDbLine
 10
59.09658799999999
 20
116.5847499999999
 30
0.0
 11
59.09658799999999
 21
134.76155
 31
0.0
  0
LINE
  5
121
330
1E
100
AcDbEntity
  8
0
100
AcDbLine
 10
59.09658799999999
 20
116.5847499999999
 30
0.0
 11
59.09658799999999
 21
107.1435499999999
 31
0.0
  0
LINE
  5
122
330
1E
100
AcDbEntity
  8
0
100
AcDbLine
 10
59.09658799999999
 20
134.76155
 30
0.0
 11
59.09658799999999
 21
143.14355
 31
0.0
  0
LINE
  5
123
330
1E
100
AcDbEntity
  8
0
100
AcDbLine
 10
59.09658799999999
 20
159.14355
 30
0.0
 11
59.09658799999999
 21
143.14355
 31
0.0
  0
LINE
  5
124
330
1E
100
AcDbEntity
  8
0
100
AcDbLine
 10
59.09658799999999
 20
143.14355
 30
0.0
 11
59.09658799999999
 21
159.14355
 31
0.0
  0
LINE
  5
125
330
1E
100
AcDbEntity
  8
0
100
AcDbLine
 10
59.09658799999999
 20
143.14355
 30
0.0
 11
59.09658799999999
 21
134.76155
 31
0.0
  0
LINE
  5
126
330
1E
100
AcDbEntity
  8
0
100
AcDbLine
 10
59.09658799999999
 20
107.1435499999999
 30
0.0
 11
59.09658799999999
 21
116.5847499999999
 31
0.0
  0
LINE
  5
127
330
1E
100
AcDbEntity
  8
0
100
AcDbLine
 10
59.09658799999999
 20
107.1435499999999
 30
0.0
 11
59.09658799999999
 21
97.70234999999999
 31
0.0
  0
LINE
  5
128
330
1E
100
AcDbEntity
  8
0
100
AcDbLine
 10
25.096588
 20
160.5765499999999
 30
0.0
 11
25.096588
 21
161.1435499999999
 31
0.0
  0
LINE
  5
129
330
1E
100
AcDbEntity
  8
0
100
AcDbLine
 10
25.096588
 20
160.5765499999999
 30
0.0
 11
25.096588
 21
158.87655
 31
0.0
  0
LINE
  5
12A
330
1E
100
AcDbEntity
  8
0
100
AcDbLine
 10
38.09658799999999
 20
161.1435499999999
 30
0.0
 11
38.09658799999999
 21
160.5765499999999
 31
0.0
  0
LINE
  5
12B
330
1E
100
AcDbEntity
  8
0
100
AcDbLine
 10
38.09658799999999
 20
160.5765499999999
 30
0.0
 11
38.09658799999999
 21
161.1435499999999
 31
0.0
  0
LINE
  5
12C
330
1E
100
AcDbEntity
  8
0
100
AcDbLine
 10
38.09658799999999
 20
160.5765499999999
 30
0.0
 11
38.09658799999999
 21
158.87655
 31
0.0
  0
LINE
  5
12D
330
1E
100
AcDbEntity
  8
0
100
AcDbLine
 10
25.096588
 20
161.1435499999999
 30
0.0
 11
38.09658799999999
 21
161.1435499999999
 31
0.0
  0
LINE
  5
12E
330
1E
100
AcDbEntity
  8
0
100
AcDbLine
 10
25.096588
 20
161.1435499999999
 30
0.0
 11
25.096588
 21
160.5765499999999
 31
0.0
  0
LINE
  5
12F
330
1E
100
AcDbEntity
  8
0
100
AcDbLine
 10
59.09658799999999
 20
178.7905499999999
 30
0.0
 11
59.09658799999999
 21
179.49655
 31
0.0
  0
LINE
  5
130
330
1E
100
AcDbEntity
  8
0
100
AcDbLine
 10
59.09658799999999
 20
178.7905499999999
 30
0.0
 11
59.09658799999999
 21
176.84955
 31
0.0
  0
LINE
  5
131
330
1E
100
AcDbEntity
  8
0
100
AcDbLine
 10
59.09658799999999
 20
176.84955
 30
0.0
 11
59.09658799999999
 21
178.7905499999999
 31
0.0
  0
LINE
  5
132
330
1E
100
AcDbEntity
  8
0
100
AcDbLine
 10
59.09658799999999
 20
176.84955
 30
0.0
 11
59.09658799999999
 21
173.8495499999999
 31
0.0
  0
LINE
  5
133
330
1E
100
AcDbEntity
  8
0
100
AcDbLine
 10
59.09658799999999
 20
173.8495499999999
 30
0.0
 11
59.09658799999999
 21
169.79055
 31
0.0
  0
LINE
  5
134
330
1E
100
AcDbEntity
  8
0
100
AcDbLine
 10
59.09658799999999
 20
173.8495499999999
 30
0.0
 11
59.09658799999999
 21
176.84955
 31
0.0
  0
LINE
  5
135
330
1E
100
AcDbEntity
  8
0
100
AcDbLine
 10
59.09658799999999
 20
164.49655
 30
0.0
 11
59.09658799999999
 21
159.14355
 31
0.0
  0
LINE
  5
136
330
1E
100
AcDbEntity
  8
0
100
AcDbLine
 10
59.09658799999999
 20
164.49655
 30
0.0
 11
59.09658799999999
 21
169.79055
 31
0.0
  0
LINE
  5
137
330
1E
100
AcDbEntity
  8
0
100
AcDbLine
 10
59.09658799999999
 20
159.14355
 30
0.0
 11
59.09658799999999
 21
164.49655
 31
0.0
  0
LINE
  5
138
330
1E
100
AcDbEntity
  8
0
100
AcDbLine
 10
59.59658799999999
 20
33.55531
 30
0.0
 11
60.696588
 21
32.584726
 31
0.0
  0
LINE
  5
139
330
1E
100
AcDbEntity
  8
0
100
AcDbLine
 10
59.09658799999999
 20
169.79055
 30
0.0
 11
59.09658799999999
 21
173.8495499999999
 31
0.0
  0
LINE
  5
13A
330
1E
100
AcDbEntity
  8
0
100
AcDbLine
 10
59.09658799999999
 20
169.79055
 30
0.0
 11
59.09658799999999
 21
164.49655
 31
0.0
  0
LINE
  5
13B
330
1E
100
AcDbEntity
  8
0
100
AcDbLine
 10
59.09658799999999
 20
179.49655
 30
0.0
 11
59.59658799999999
 21
180.7315499999999
 31
0.0
  0
LINE
  5
13C
330
1E
100
AcDbEntity
  8
0
100
AcDbLine
 10
59.09658799999999
 20
179.49655
 30
0.0
 11
59.09658799999999
 21
178.7905499999999
 31
0.0
  0
LINE
  5
13D
330
1E
100
AcDbEntity
  8
0
100
AcDbLine
 10
62.09658799999999
 20
32.14354999999999
 30
0.0
 11
72.09658799999999
 21
32.14354999999999
 31
0.0
  0
LINE
  5
13E
330
1E
100
AcDbEntity
  8
0
100
AcDbLine
 10
60.696588
 20
32.584726
 30
0.0
 11
62.09658799999999
 21
32.14354999999999
 31
0.0
  0
LINE
  5
13F
330
1E
100
AcDbEntity
  8
0
100
AcDbLine
 10
59.59658799999999
 20
180.7315499999999
 30
0.0
 11
60.696588
 21
181.7025499999999
 31
0.0
  0
LINE
  5
140
330
1E
100
AcDbEntity
  8
0
100
AcDbLine
 10
60.696588
 20
181.7025499999999
 30
0.0
 11
62.09658799999999
 21
182.1435499999999
 31
0.0
  0
LINE
  5
141
330
1E
100
AcDbEntity
  8
0
100
AcDbLine
 10
72.09658799999999
 20
32.14354999999999
 30
0.0
 11
72.09658799999999
 21
32.937668
 31
0.0
  0
LINE
  5
142
330
1E
100
AcDbEntity
  8
0
100
AcDbLine
 10
72.09658799999999
 20
32.937668
 30
0.0
 11
72.09658799999999
 21
32.14354999999999
 31
0.0
  0
LINE
  5
143
330
1E
100
AcDbEntity
  8
0
100
AcDbLine
 10
72.09658799999999
 20
32.937668
 30
0.0
 11
72.09658799999999
 21
34.87884
 31
0.0
  0
LINE
  5
144
330
1E
100
AcDbEntity
  8
0
100
AcDbLine
 10
72.09658799999999
 20
54.20235
 30
0.0
 11
72.09658799999999
 21
47.76114999999999
 31
0.0
  0
LINE
  5
145
330
1E
100
AcDbEntity
  8
0
100
AcDbLine
 10
72.09658799999999
 20
54.20235
 30
0.0
 11
72.09658799999999
 21
61.52595
 31
0.0
  0
LINE
  5
146
330
1E
100
AcDbEntity
  8
0
100
AcDbLine
 10
72.09658799999999
 20
47.76114999999999
 30
0.0
 11
72.09658799999999
 21
42.20235
 31
0.0
  0
LINE
  5
147
330
1E
100
AcDbEntity
  8
0
100
AcDbLine
 10
72.09658799999999
 20
47.76114999999999
 30
0.0
 11
72.09658799999999
 21
54.20235
 31
0.0
  0
LINE
  5
148
330
1E
100
AcDbEntity
  8
0
100
AcDbLine
 10
72.09658799999999
 20
97.34945000000001
 30
0.0
 11
72.09658799999999
 21
87.82004999999999
 31
0.0
  0
LINE
  5
149
330
1E
100
AcDbEntity
  8
0
100
AcDbLine
 10
72.09658799999999
 20
97.34945000000001
 30
0.0
 11
72.09658799999999
 21
107.1435499999999
 31
0.0
  0
LINE
  5
14A
330
1E
100
AcDbEntity
  8
0
100
AcDbLine
 10
72.09658799999999
 20
87.82004999999999
 30
0.0
 11
72.09658799999999
 21
78.46705
 31
0.0
  0
LINE
  5
14B
330
1E
100
AcDbEntity
  8
0
100
AcDbLine
 10
72.09658799999999
 20
87.82004999999999
 30
0.0
 11
72.09658799999999
 21
97.34945000000001
 31
0.0
  0
LINE
  5
14C
330
1E
100
AcDbEntity
  8
0
100
AcDbLine
 10
72.09658799999999
 20
78.46705
 30
0.0
 11
72.09658799999999
 21
69.82005
 31
0.0
  0
LINE
  5
14D
330
1E
100
AcDbEntity
  8
0
100
AcDbLine
 10
72.09658799999999
 20
78.46705
 30
0.0
 11
72.09658799999999
 21
87.82004999999999
 31
0.0
  0
LINE
  5
14E
330
1E
100
AcDbEntity
  8
0
100
AcDbLine
 10
72.09658799999999
 20
69.82005
 30
0.0
 11
72.09658799999999
 21
61.52595
 31
0.0
  0
LINE
  5
14F
330
1E
100
AcDbEntity
  8
0
100
AcDbLine
 10
72.09658799999999
 20
69.82005
 30
0.0
 11
72.09658799999999
 21
78.46705
 31
0.0
  0
LINE
  5
150
330
1E
100
AcDbEntity
  8
0
100
AcDbLine
 10
72.09658799999999
 20
61.52595
 30
0.0
 11
72.09658799999999
 21
69.82005
 31
0.0
  0
LINE
  5
151
330
1E
100
AcDbEntity
  8
0
100
AcDbLine
 10
72.09658799999999
 20
61.52595
 30
0.0
 11
72.09658799999999
 21
54.20235
 31
0.0
  0
LINE
  5
152
330
1E
100
AcDbEntity
  8
0
100
AcDbLine
 10
72.09658799999999
 20
42.20235
 30
0.0
 11
72.09658799999999
 21
37.96707999999999
 31
0.0
  0
LINE
  5
153
330
1E
100
AcDbEntity
  8
0
100
AcDbLine
 10
72.09658799999999
 20
42.20235
 30
0.0
 11
72.09658799999999
 21
47.76114999999999
 31
0.0
  0
LINE
  5
154
330
1E
100
AcDbEntity
  8
0
100
AcDbLine
 10
72.09658799999999
 20
34.87884
 30
0.0
 11
72.09658799999999
 21
32.937668
 31
0.0
  0
LINE
  5
155
330
1E
100
AcDbEntity
  8
0
100
AcDbLine
 10
72.09658799999999
 20
34.87884
 30
0.0
 11
72.09658799999999
 21
37.96707999999999
 31
0.0
  0
LINE
  5
156
330
1E
100
AcDbEntity
  8
0
100
AcDbLine
 10
72.09658799999999
 20
37.96707999999999
 30
0.0
 11
72.09658799999999
 21
34.87884
 31
0.0
  0
LINE
  5
157
330
1E
100
AcDbEntity
  8
0
100
AcDbLine
 10
72.09658799999999
 20
37.96707999999999
 30
0.0
 11
72.09658799999999
 21
42.20235
 31
0.0
  0
LINE
  5
158
330
1E
100
AcDbEntity
  8
0
100
AcDbLine
 10
72.09658799999999
 20
116.93765
 30
0.0
 11
72.09658799999999
 21
126.46705
 31
0.0
  0
LINE
  5
159
330
1E
100
AcDbEntity
  8
0
100
AcDbLine
 10
72.09658799999999
 20
179.4085499999999
 30
0.0
 11
72.09658799999999
 21
176.3195499999999
 31
0.0
  0
LINE
  5
15A
330
1E
100
AcDbEntity
  8
0
100
AcDbLine
 10
72.09658799999999
 20
179.4085499999999
 30
0.0
 11
72.09658799999999
 21
181.3495499999999
 31
0.0
  0
LINE
  5
15B
330
1E
100
AcDbEntity
  8
0
100
AcDbLine
 10
72.09658799999999
 20
181.3495499999999
 30
0.0
 11
72.09658799999999
 21
179.4085499999999
 31
0.0
  0
LINE
  5
15C
330
1E
100
AcDbEntity
  8
0
100
AcDbLine
 10
72.09658799999999
 20
181.3495499999999
 30
0.0
 11
72.09658799999999
 21
182.1435499999999
 31
0.0
  0
LINE
  5
15D
330
1E
100
AcDbEntity
  8
0
100
AcDbLine
 10
72.09658799999999
 20
182.1435499999999
 30
0.0
 11
72.09658799999999
 21
181.3495499999999
 31
0.0
  0
LINE
  5
15E
330
1E
100
AcDbEntity
  8
0
100
AcDbLine
 10
72.09658799999999
 20
176.3195499999999
 30
0.0
 11
72.09658799999999
 21
172.08455
 31
0.0
  0
LINE
  5
15F
330
1E
100
AcDbEntity
  8
0
100
AcDbLine
 10
72.09658799999999
 20
176.3195499999999
 30
0.0
 11
72.09658799999999
 21
179.4085499999999
 31
0.0
  0
LINE
  5
160
330
1E
100
AcDbEntity
  8
0
100
AcDbLine
 10
72.09658799999999
 20
172.08455
 30
0.0
 11
72.09658799999999
 21
166.52555
 31
0.0
  0
LINE
  5
161
330
1E
100
AcDbEntity
  8
0
100
AcDbLine
 10
72.09658799999999
 20
172.08455
 30
0.0
 11
72.09658799999999
 21
176.3195499999999
 31
0.0
  0
LINE
  5
162
330
1E
100
AcDbEntity
  8
0
100
AcDbLine
 10
72.09658799999999
 20
160.08455
 30
0.0
 11
72.09658799999999
 21
152.76155
 31
0.0
  0
LINE
  5
163
330
1E
100
AcDbEntity
  8
0
100
AcDbLine
 10
72.09658799999999
 20
160.08455
 30
0.0
 11
72.09658799999999
 21
166.52555
 31
0.0
  0
LINE
  5
164
330
1E
100
AcDbEntity
  8
0
100
AcDbLine
 10
72.09658799999999
 20
152.76155
 30
0.0
 11
72.09658799999999
 21
144.4675499999999
 31
0.0
  0
LINE
  5
165
330
1E
100
AcDbEntity
  8
0
100
AcDbLine
 10
72.09658799999999
 20
152.76155
 30
0.0
 11
72.09658799999999
 21
160.08455
 31
0.0
  0
LINE
  5
166
330
1E
100
AcDbEntity
  8
0
100
AcDbLine
 10
72.09658799999999
 20
144.4675499999999
 30
0.0
 11
72.09658799999999
 21
135.8195499999999
 31
0.0
  0
LINE
  5
167
330
1E
100
AcDbEntity
  8
0
100
AcDbLine
 10
72.09658799999999
 20
144.4675499999999
 30
0.0
 11
72.09658799999999
 21
152.76155
 31
0.0
  0
LINE
  5
168
330
1E
100
AcDbEntity
  8
0
100
AcDbLine
 10
72.09658799999999
 20
135.8195499999999
 30
0.0
 11
72.09658799999999
 21
126.46705
 31
0.0
  0
LINE
  5
169
330
1E
100
AcDbEntity
  8
0
100
AcDbLine
 10
72.09658799999999
 20
135.8195499999999
 30
0.0
 11
72.09658799999999
 21
144.4675499999999
 31
0.0
  0
LINE
  5
16A
330
1E
100
AcDbEntity
  8
0
100
AcDbLine
 10
72.09658799999999
 20
126.46705
 30
0.0
 11
72.09658799999999
 21
116.93765
 31
0.0
  0
LINE
  5
16B
330
1E
100
AcDbEntity
  8
0
100
AcDbLine
 10
72.09658799999999
 20
126.46705
 30
0.0
 11
72.09658799999999
 21
135.8195499999999
 31
0.0
  0
LINE
  5
16C
330
1E
100
AcDbEntity
  8
0
100
AcDbLine
 10
72.09658799999999
 20
166.52555
 30
0.0
 11
72.09658799999999
 21
160.08455
 31
0.0
  0
LINE
  5
16D
330
1E
100
AcDbEntity
  8
0
100
AcDbLine
 10
72.09658799999999
 20
166.52555
 30
0.0
 11
72.09658799999999
 21
172.08455
 31
0.0
  0
LINE
  5
16E
330
1E
100
AcDbEntity
  8
0
100
AcDbLine
 10
72.09658799999999
 20
107.1435499999999
 30
0.0
 11
72.09658799999999
 21
116.93765
 31
0.0
  0
LINE
  5
16F
330
1E
100
AcDbEntity
  8
0
100
AcDbLine
 10
72.09658799999999
 20
107.1435499999999
 30
0.0
 11
72.09658799999999
 21
97.34945000000001
 31
0.0
  0
LINE
  5
170
330
1E
100
AcDbEntity
  8
0
100
AcDbLine
 10
62.09658799999999
 20
182.1435499999999
 30
0.0
 11
72.09658799999999
 21
182.1435499999999
 31
0.0
  0
ENDSEC
  0
SECTION
  2
OBJECTS
  0
DICTIONARY
  5
C
330
0
100
AcDbDictionary
  3
ACAD_GROUP
350
D
  3
ACAD_LAYOUT
350
19
  3
ACAD_MLINESTYLE
350
16
  3
ACAD_PLOTSETTINGS
350
18
  3
ACAD_PLOTSTYLENAME
350
E
  3
ACDBHEADERROUNDTRIPXREC
350
178
  3
ACDBVARIABLEDICTIONARY
350
175
  0
DICTIONARY
  5
19A
330
1E
100
AcDbDictionary
280
     1
  3
ACAD_LAYOUTSELFREF
360
19B
  0
DICTIONARY
  5
198
330
1A
100
AcDbDictionary
280
     1
  3
ACAD_LAYOUTSELFREF
360
199
  0
DICTIONARY
  5
D
102
{ACAD_REACTORS
330
C
102
}
330
C
100
AcDbDictionary
  0
DICTIONARY
  5
19
102
{ACAD_REACTORS
330
C
102
}
330
C
100
AcDbDictionary
  0
DICTIONARY
  5
16
102
{ACAD_REACTORS
330
C
102
}
330
C
100
AcDbDictionary
  3
STANDARD
350
17
  0
DICTIONARY
  5
18
102
{ACAD_REACTORS
330
C
102
}
330
C
100
AcDbDictionary
  0
ACDBDICTIONARYWDFLT
  5
E
102
{ACAD_REACTORS
330
C
102
}
330
C
100
AcDbDictionary
281
     1
  3
Normal
350
F
100
AcDbDictionaryWithDefault
340
F
  0
DICTIONARY
  5
178
102
{ACAD_REACTORS
330
C
102
}
330
C
100
AcDbDictionary
  3
CEPSNTYPE
350
182
  3
FINGERPRINTGUID
350
183
  3
HYPERLINKBASE
350
17B
  3
INSUNITS
350
181
  3
LAYOUTDICT
350
17D
  3
LWETCUNION
350
180
  3
PLOTSETDICT
350
17E
  3
PLOTSTYLNAMDICT
350
17F
  3
PSVPSCALE
350
185
  3
PUCSBASE
350
188
  3
PUCSORGBACK
350
18E
  3
PUCSORGBOTTOM
350
18A
  3
PUCSORGFRONT
350
18D
  3
PUCSORGLEFT
350
18B
  3
PUCSORGRIGHT
350
18C
  3
PUCSORGTOP
350
189
  3
PUCSORTHOREF
350
186
  3
PUCSORTHOVIEW
350
187
  3
STYLESHEET
350
17C
  3
TSTACKALIGN
350
179
  3
TSTACKSIZE
350
17A
  3
UCSBASE
350
191
  3
UCSORGBACK
350
197
  3
UCSORGBOTTOM
350
193
  3
UCSORGFRONT
350
196
  3
UCSORGLEFT
350
194
  3
UCSORGRIGHT
350
195
  3
UCSORGTOP
350
192
  3
UCSORTHOREF
350
18F
  3
UCSORTHOVIEW
350
190
  3
VERSIONGUID
350
184
  0
DICTIONARY
  5
175
102
{ACAD_REACTORS
330
C
102
}
330
C
100
AcDbDictionary
  3
DIMASSOC
350
176
  0
XRECORD
  5
19B
102
{ACAD_REACTORS
330
19A
102
}
330
19A
100
AcDbXrecord
340
1E
  0
XRECORD
  5
199
102
{ACAD_REACTORS
330
198
102
}
330
198
100
AcDbXrecord
340
1A
  0
MLINESTYLE
  5
17
102
{ACAD_REACTORS
330
16
102
}
330
16
100
AcDbMlineStyle
  2
STANDARD
 70
     0
  3

 62
   256
 51
90.0
 52
90.0
 71
     2
 49
0.5
 62
   256
  6
BYLAYER
 49
-0.5
 62
   256
  6
BYLAYER
  0
ACDBPLACEHOLDER
  5
F
102
{ACAD_REACTORS
330
E
102
}
330
E
100
AcDbPlaceHolder
280
     0
  0
XRECORD
  5
182
102
{ACAD_REACTORS
330
178
102
}
330
178
100
AcDbXrecord
 90
        0
  0
XRECORD
  5
183
102
{ACAD_REACTORS
330
178
102
}
330
178
100
AcDbXrecord
  1
{B1D1C11C-E480-4919-9284-69234E325DDE}
  0
XRECORD
  5
17B
102
{ACAD_REACTORS
330
178
102
}
330
178
100
AcDbXrecord
  1

  0
XRECORD
  5
181
102
{ACAD_REACTORS
330
178
102
}
330
178
100
AcDbXrecord
 90
        0
  0
XRECORD
  5
17D
102
{ACAD_REACTORS
330
178
102
}
330
178
100
AcDbXrecord
340
19
  0
XRECORD
  5
180
102
{ACAD_REACTORS
330
178
102
}
330
178
100
AcDbXrecord
 90
    10781
  0
XRECORD
  5
17E
102
{ACAD_REACTORS
330
178
102
}
330
178
100
AcDbXrecord
340
18
  0
XRECORD
  5
17F
102
{ACAD_REACTORS
330
178
102
}
330
178
100
AcDbXrecord
340
E
  0
XRECORD
  5
185
102
{ACAD_REACTORS
330
178
102
}
330
178
100
AcDbXrecord
 40
0.0
  0
XRECORD
  5
188
102
{ACAD_REACTORS
330
178
102
}
330
178
100
AcDbXrecord
340
0
  0
XRECORD
  5
18E
102
{ACAD_REACTORS
330
178
102
}
330
178
100
AcDbXrecord
 10
0.0
 20
0.0
 30
0.0
  0
XRECORD
  5
18A
102
{ACAD_REACTORS
330
178
102
}
330
178
100
AcDbXrecord
 10
0.0
 20
0.0
 30
0.0
  0
XRECORD
  5
18D
102
{ACAD_REACTORS
330
178
102
}
330
178
100
AcDbXrecord
 10
0.0
 20
0.0
 30
0.0
  0
XRECORD
  5
18B
102
{ACAD_REACTORS
330
178
102
}
330
178
100
AcDbXrecord
 10
0.0
 20
0.0
 30
0.0
  0
XRECORD
  5
18C
102
{ACAD_REACTORS
330
178
102
}
330
178
100
AcDbXrecord
 10
0.0
 20
0.0
 30
0.0
  0
XRECORD
  5
189
102
{ACAD_REACTORS
330
178
102
}
330
178
100
AcDbXrecord
 10
0.0
 20
0.0
 30
0.0
  0
XRECORD
  5
186
102
{ACAD_REACTORS
330
178
102
}
330
178
100
AcDbXrecord
340
0
  0
XRECORD
  5
187
102
{ACAD_REACTORS
330
178
102
}
330
178
100
AcDbXrecord
 70
     0
  0
XRECORD
  5
17C
102
{ACAD_REACTORS
330
178
102
}
330
178
100
AcDbXrecord
  1

  0
XRECORD
  5
179
102
{ACAD_REACTORS
330
178
102
}
330
178
100
AcDbXrecord
 90
        1
  0
XRECORD
  5
17A
102
{ACAD_REACTORS
330
178
102
}
330
178
100
AcDbXrecord
 90
       70
  0
XRECORD
  5
191
102
{ACAD_REACTORS
330
178
102
}
330
178
100
AcDbXrecord
340
0
  0
XRECORD
  5
197
102
{ACAD_REACTORS
330
178
102
}
330
178
100
AcDbXrecord
 10
0.0
 20
0.0
 30
0.0
  0
XRECORD
  5
193
102
{ACAD_REACTORS
330
178
102
}
330
178
100
AcDbXrecord
 10
0.0
 20
0.0
 30
0.0
  0
XRECORD
  5
196
102
{ACAD_REACTORS
330
178
102
}
330
178
100
AcDbXrecord
 10
0.0
 20
0.0
 30
0.0
  0
XRECORD
  5
194
102
{ACAD_REACTORS
330
178
102
}
330
178
100
AcDbXrecord
 10
0.0
 20
0.0
 30
0.0
  0
XRECORD
  5
195
102
{ACAD_REACTORS
330
178
102
}
330
178
100
AcDbXrecord
 10
0.0
 20
0.0
 30
0.0
  0
XRECORD
  5
192
102
{ACAD_REACTORS
330
178
102
}
330
178
100
AcDbXrecord
 10
0.0
 20
0.0
 30
0.0
  0
XRECORD
  5
18F
102
{ACAD_REACTORS
330
178
102
}
330
178
100
AcDbXrecord
340
0
  0
XRECORD
  5
190
102
{ACAD_REACTORS
330
178
102
}
330
178
100
AcDbXrecord
 70
     1
  0
XRECORD
  5
184
102
{ACAD_REACTORS
330
178
102
}
330
178
100
AcDbXrecord
  1
{C9185E7B-8563-4AE3-B84B-5D3FF1E8E157}
  0
DICTIONARYVAR
  5
176
102
{ACAD_REACTORS
330
175
102
}
330
175
100
DictionaryVariables
280
     0
  1
1
  0
ENDSEC
  0
EOF
