  0
SECTION
  2
HEADER
  9
$ACADVER
  1
AC1014
  9
$ACADMAINTVER
 70
     9
  9
$DWGCODEPAGE
  3
ANSI_1252
  9
$INSBASE
 10
0.0
 20
0.0
 30
0.0
  9
$EXTMIN
 10
-0.162715000000004
 20
-0.0000000000000149
 30
0.0
  9
$EXTMAX
 10
182.1627149999999
 20
268.0
 30
0.0
  9
$LIMMIN
 10
0.0
 20
0.0
  9
$LIMMAX
 10
12.0
 20
9.0
  9
$ORTHOMODE
 70
     0
  9
$REGENMODE
 70
     1
  9
$FILLMODE
 70
     1
  9
$QTEXTMODE
 70
     0
  9
$MIRRTEXT
 70
     1
  9
$DRAGMODE
 70
     2
  9
$LTSCALE
 40
1.0
  9
$OSMODE
 70
    37
  9
$ATTMODE
 70
     1
  9
$TEXTSIZE
 40
0.2
  9
$TRACEWID
 40
0.05
  9
$TEXTSTYLE
  7
STANDARD
  9
$CLAYER
  8
0
  9
$CELTYPE
  6
CONTINUOUS
  9
$CECOLOR
 62
   256
  9
$CELTSCALE
 40
1.0
  9
$DELOBJ
 70
     1
  9
$DISPSILH
 70
     0
  9
$DIMSCALE
 40
1.0
  9
$DIMASZ
 40
0.18
  9
$DIMEXO
 40
0.0625
  9
$DIMDLI
 40
0.38
  9
$DIMRND
 40
0.0
  9
$DIMDLE
 40
0.0
  9
$DIMEXE
 40
0.18
  9
$DIMTP
 40
0.0
  9
$DIMTM
 40
0.0
  9
$DIMTXT
 40
0.18
  9
$DIMCEN
 40
0.09
  9
$DIMTSZ
 40
0.0
  9
$DIMTOL
 70
     0
  9
$DIMLIM
 70
     0
  9
$DIMTIH
 70
     1
  9
$DIMTOH
 70
     1
  9
$DIMSE1
 70
     0
  9
$DIMSE2
 70
     0
  9
$DIMTAD
 70
     0
  9
$DIMZIN
 70
     0
  9
$DIMBLK
  1

  9
$DIMASO
 70
     1
  9
$DIMSHO
 70
     1
  9
$DIMPOST
  1

  9
$DIMAPOST
  1

  9
$DIMALT
 70
     0
  9
$DIMALTD
 70
     2
  9
$DIMALTF
 40
25.4
  9
$DIMLFAC
 40
1.0
  9
$DIMTOFL
 70
     0
  9
$DIMTVP
 40
0.0
  9
$DIMTIX
 70
     0
  9
$DIMSOXD
 70
     0
  9
$DIMSAH
 70
     0
  9
$DIMBLK1
  1

  9
$DIMBLK2
  1

  9
$DIMSTYLE
  2
STANDARD
  9
$DIMCLRD
 70
     0
  9
$DIMCLRE
 70
     0
  9
$DIMCLRT
 70
     0
  9
$DIMTFAC
 40
1.0
  9
$DIMGAP
 40
0.09
  9
$DIMJUST
 70
     0
  9
$DIMSD1
 70
     0
  9
$DIMSD2
 70
     0
  9
$DIMTOLJ
 70
     1
  9
$DIMTZIN
 70
     0
  9
$DIMALTZ
 70
     0
  9
$DIMALTTZ
 70
     0
  9
$DIMFIT
 70
     3
  9
$DIMUPT
 70
     0
  9
$DIMUNIT
 70
     2
  9
$DIMDEC
 70
     4
  9
$DIMTDEC
 70
     4
  9
$DIMALTU
 70
     2
  9
$DIMALTTD
 70
     2
  9
$DIMTXSTY
  7
STANDARD
  9
$DIMAUNIT
 70
     0
  9
$LUNITS
 70
     2
  9
$LUPREC
 70
     4
  9
$SKETCHINC
 40
0.1
  9
$FILLETRAD
 40
0.0
  9
$AUNITS
 70
     0
  9
$AUPREC
 70
     0
  9
$MENU
  1
.
  9
$ELEVATION
 40
0.0
  9
$PELEVATION
 40
0.0
  9
$THICKNESS
 40
0.0
  9
$LIMCHECK
 70
     0
  9
$BLIPMODE
 70
     0
  9
$CHAMFERA
 40
0.0
  9
$CHAMFERB
 40
0.0
  9
$CHAMFERC
 40
0.0
  9
$CHAMFERD
 40
0.0
  9
$SKPOLY
 70
     0
  9
$TDCREATE
 40
2454699.481282905
  9
$TDUPDATE
 40
2454699.481914780
  9
$TDINDWG
 40
0.0006318750
  9
$TDUSRTIMER
 40
0.0006318750
  9
$USRTIMER
 70
     1
  9
$ANGBASE
 50
0.0
  9
$ANGDIR
 70
     0
  9
$PDMODE
 70
     0
  9
$PDSIZE
 40
0.0
  9
$PLINEWID
 40
0.0
  9
$COORDS
 70
     1
  9
$SPLFRAME
 70
     0
  9
$SPLINETYPE
 70
     6
  9
$SPLINESEGS
 70
     8
  9
$ATTDIA
 70
     0
  9
$ATTREQ
 70
     1
  9
$HANDLING
 70
 22529
  9
$HANDSEED
  5
16C
  9
$SURFTAB1
 70
     6
  9
$SURFTAB2
 70
     6
  9
$SURFTYPE
 70
     6
  9
$SURFU
 70
     6
  9
$SURFV
 70
     6
  9
$UCSNAME
  2

  9
$UCSORG
 10
0.0
 20
0.0
 30
0.0
  9
$UCSXDIR
 10
1.0
 20
0.0
 30
0.0
  9
$UCSYDIR
 10
0.0
 20
1.0
 30
0.0
  9
$PUCSNAME
  2

  9
$PUCSORG
 10
0.0
 20
0.0
 30
0.0
  9
$PUCSXDIR
 10
1.0
 20
0.0
 30
0.0
  9
$PUCSYDIR
 10
0.0
 20
1.0
 30
0.0
  9
$USERI1
 70
     0
  9
$USERI2
 70
     0
  9
$USERI3
 70
     0
  9
$USERI4
 70
     0
  9
$USERI5
 70
     0
  9
$USERR1
 40
0.0
  9
$USERR2
 40
0.0
  9
$USERR3
 40
0.0
  9
$USERR4
 40
0.0
  9
$USERR5
 40
0.0
  9
$WORLDVIEW
 70
     1
  9
$SHADEDGE
 70
     3
  9
$SHADEDIF
 70
    70
  9
$TILEMODE
 70
     1
  9
$MAXACTVP
 70
    64
  9
$PINSBASE
 10
0.0
 20
0.0
 30
0.0
  9
$PLIMCHECK
 70
     0
  9
$PEXTMIN
 10
1.000000000000000E+20
 20
1.000000000000000E+20
 30
1.000000000000000E+20
  9
$PEXTMAX
 10
-1.000000000000000E+20
 20
-1.000000000000000E+20
 30
-1.000000000000000E+20
  9
$PLIMMIN
 10
0.0
 20
0.0
  9
$PLIMMAX
 10
12.0
 20
9.0
  9
$UNITMODE
 70
     0
  9
$VISRETAIN
 70
     1
  9
$PLINEGEN
 70
     0
  9
$PSLTSCALE
 70
     1
  9
$TREEDEPTH
 70
  3020
  9
$PICKSTYLE
 70
     1
  9
$CMLSTYLE
  2
STANDARD
  9
$CMLJUST
 70
     0
  9
$CMLSCALE
 40
1.0
  9
$PROXYGRAPHICS
 70
     1
  9
$MEASUREMENT
 70
     0
  0
ENDSEC
  0
SECTION
  2
CLASSES
  0
CLASS
  1
ACDBDICTIONARYWDFLT
  2
AcDbDictionaryWithDefault
  3
AutoCAD 2000
 90
        0
280
     0
281
     0
  0
CLASS
  1
ACDBPLACEHOLDER
  2
AcDbPlaceHolder
  3
AutoCAD 2000
 90
        0
280
     0
281
     0
  0
CLASS
  1
LAYOUT
  2
AcDbLayout
  3
AutoCAD 2000
 90
        0
280
     0
281
     0
  0
CLASS
  1
DICTIONARYVAR
  2
AcDbDictionaryVar
  3
AutoCAD 2000
 90
        0
280
     0
281
     0
  0
CLASS
  1
LONG_TRANSACTION
  2
AcDbLongTransaction
  3
AutoCAD 2000
 90
        0
280
     0
281
     0
  0
CLASS
  1
LWPOLYLINE
  2
AcDbPolyline
  3
AutoCAD 2000
 90
        0
280
     0
281
     1
  0
CLASS
  1
HATCH
  2
AcDbHatch
  3
AutoCAD 2000
 90
        0
280
     0
281
     1
  0
CLASS
  1
XRECORD
  2
AcDbXrecord
  3
AutoCAD 2000
 90
        0
280
     0
281
     0
  0
ENDSEC
  0
SECTION
  2
TABLES
  0
TABLE
  2
VPORT
  5
8
330
0
100
AcDbSymbolTable
 70
     2
  0
VPORT
  5
147
330
8
100
AcDbSymbolTableRecord
100
AcDbViewportTableRecord
  2
*ACTIVE
 70
     0
 10
0.0
 20
0.0
 11
1.0
 21
1.0
 12
90.99999999999999
 22
133.9999999999999
 13
0.0
 23
0.0
 14
1.0
 24
1.0
 15
0.0
 25
0.0
 16
0.0
 26
0.0
 36
1.0
 17
0.0
 27
0.0
 37
0.0
 40
270.0562659846547
 41
2.078104993597951
 42
50.0
 43
0.0
 44
0.0
 50
0.0
 51
0.0
 71
     0
 72
   100
 73
     1
 74
     3
 75
     0
 76
     0
 77
     0
 78
     0
  0
ENDTAB
  0
TABLE
  2
LTYPE
  5
5
330
0
100
AcDbSymbolTable
 70
     1
  0
LTYPE
  5
13
330
5
100
AcDbSymbolTableRecord
100
AcDbLinetypeTableRecord
  2
BYBLOCK
 70
     0
  3

 72
    65
 73
     0
 40
0.0
  0
LTYPE
  5
14
330
5
100
AcDbSymbolTableRecord
100
AcDbLinetypeTableRecord
  2
BYLAYER
 70
     0
  3

 72
    65
 73
     0
 40
0.0
  0
LTYPE
  5
15
330
5
100
AcDbSymbolTableRecord
100
AcDbLinetypeTableRecord
  2
CONTINUOUS
 70
     0
  3
Solid line
 72
    65
 73
     0
 40
0.0
  0
ENDTAB
  0
TABLE
  2
LAYER
  5
2
330
0
100
AcDbSymbolTable
 70
     1
  0
LAYER
  5
10
330
2
100
AcDbSymbolTableRecord
100
AcDbLayerTableRecord
  2
0
 70
     0
 62
     7
  6
CONTINUOUS
  0
ENDTAB
  0
TABLE
  2
STYLE
  5
3
330
0
100
AcDbSymbolTable
 70
     1
  0
STYLE
  5
11
330
3
100
AcDbSymbolTableRecord
100
AcDbTextStyleTableRecord
  2
STANDARD
 70
     0
 40
0.0
 41
1.0
 50
0.0
 71
     0
 42
0.2
  3
txt
  4

  0
ENDTAB
  0
TABLE
  2
VIEW
  5
6
330
0
100
AcDbSymbolTable
 70
     0
  0
ENDTAB
  0
TABLE
  2
UCS
  5
7
330
0
100
AcDbSymbolTable
 70
     0
  0
ENDTAB
  0
TABLE
  2
APPID
  5
9
330
0
100
AcDbSymbolTable
 70
     1
  0
APPID
  5
12
330
9
100
AcDbSymbolTableRecord
100
AcDbRegAppTableRecord
  2
ACAD
 70
     0
  0
ENDTAB
  0
TABLE
  2
DIMSTYLE
  5
A
330
0
100
AcDbSymbolTable
 70
     1
  0
DIMSTYLE
105
141
330
A
100
AcDbSymbolTableRecord
100
AcDbDimStyleTableRecord
  2
STANDARD
 70
     0
  3

  4

  5

  6

  7

 40
1.0
 41
0.18
 42
0.0625
 43
0.38
 44
0.18
 45
0.0
 46
0.0
 47
0.0
 48
0.0
140
0.18
141
0.09
142
0.0
143
25.4
144
1.0
145
0.0
146
1.0
147
0.09
 71
     0
 72
     0
 73
     1
 74
     1
 75
     0
 76
     0
 77
     0
 78
     0
170
     0
171
     2
172
     0
173
     0
174
     0
175
     0
176
     0
177
     0
178
     0
270
     2
271
     4
272
     4
273
     2
274
     2
340
11
275
     0
280
     0
281
     0
282
     0
283
     1
284
     0
285
     0
286
     0
287
     3
288
     0
  0
ENDTAB
  0
TABLE
  2
BLOCK_RECORD
  5
1
330
0
100
AcDbSymbolTable
 70
     0
  0
BLOCK_RECORD
  5
1E
102
{ACAD_XDICTIONARY
360
16A
102
}
330
1
100
AcDbSymbolTableRecord
100
AcDbBlockTableRecord
  2
*MODEL_SPACE
  0
BLOCK_RECORD
  5
1A
102
{ACAD_XDICTIONARY
360
168
102
}
330
1
100
AcDbSymbolTableRecord
100
AcDbBlockTableRecord
  2
*PAPER_SPACE
  0
ENDTAB
  0
ENDSEC
  0
SECTION
  2
BLOCKS
  0
BLOCK
  5
1F
330
1E
100
AcDbEntity
  8
0
100
AcDbBlockBegin
  2
*MODEL_SPACE
 70
     0
 10
0.0
 20
0.0
 30
0.0
  3
*MODEL_SPACE
  1

  0
ENDBLK
  5
20
330
1E
100
AcDbEntity
  8
0
100
AcDbBlockEnd
  0
BLOCK
  5
1B
330
1A
100
AcDbEntity
 67
     1
  8
0
100
AcDbBlockBegin
  2
*PAPER_SPACE
 70
     0
 10
0.0
 20
0.0
 30
0.0
  3
*PAPER_SPACE
  1

  0
ENDBLK
  5
1C
330
1A
100
AcDbEntity
 67
     1
  8
0
100
AcDbBlockEnd
  0
ENDSEC
  0
SECTION
  2
ENTITIES
  0
LINE
  5
22
330
1E
100
AcDbEntity
  8
0
100
AcDbLine
 10
141.1777149999999
 20
-0.0000000000000061
 30
0.0
 11
146.2547149999999
 21
-0.0000000000000064
 31
0.0
  0
LINE
  5
23
330
1E
100
AcDbEntity
  8
0
100
AcDbLine
 10
134.1627149999999
 20
0.0
 30
0.0
 11
134.1627149999999
 21
92.1053
 31
0.0
  0
LINE
  5
24
330
1E
100
AcDbEntity
  8
0
100
AcDbLine
 10
134.1627149999999
 20
-0.0000000000000057
 30
0.0
 11
134.1627149999999
 21
92.1053
 31
0.0
  0
LINE
  5
25
330
1E
100
AcDbEntity
  8
0
100
AcDbLine
 10
134.1627149999999
 20
-0.0000000000000057
 30
0.0
 11
134.9937149999999
 21
-0.0000000000000058
 31
0.0
  0
LINE
  5
26
330
1E
100
AcDbEntity
  8
0
100
AcDbLine
 10
134.9937149999999
 20
-0.0000000000000058
 30
0.0
 11
137.3937149999999
 21
-0.0000000000000059
 31
0.0
  0
LINE
  5
27
330
1E
100
AcDbEntity
  8
0
100
AcDbLine
 10
137.3937149999999
 20
-0.0000000000000059
 30
0.0
 11
141.1777149999999
 21
-0.0000000000000061
 31
0.0
  0
LINE
  5
28
330
1E
100
AcDbEntity
  8
0
100
AcDbLine
 10
146.2547149999999
 20
-0.0000000000000064
 30
0.0
 11
151.9777149999999
 21
-0.0000000000000068
 31
0.0
  0
LINE
  5
2A
330
1E
100
AcDbEntity
  8
0
100
AcDbLine
 10
146.7517149999999
 20
45.015
 30
0.0
 11
152.1477149999999
 21
42.7933
 31
0.0
  0
LINE
  5
2D
330
1E
100
AcDbEntity
  8
0
100
AcDbLine
 10
138.2587149999999
 20
53.2179
 30
0.0
 11
141.885715
 21
48.5183
 31
0.0
  0
LINE
  5
2F
330
1E
100
AcDbEntity
  8
0
100
AcDbLine
 10
141.885715
 20
48.5183
 30
0.0
 11
146.7517149999999
 21
45.015
 31
0.0
  0
LINE
  5
33
330
1E
100
AcDbEntity
  8
0
100
AcDbLine
 10
141.2217149999999
 20
50.81
 30
0.0
 11
146.2097149999999
 21
47.35149999999999
 31
0.0
  0
LINE
  5
34
330
1E
100
AcDbEntity
  8
0
100
AcDbLine
 10
146.2097149999999
 20
47.35149999999999
 30
0.0
 11
151.950715
 21
45.2254
 31
0.0
  0
LINE
  5
35
330
1E
100
AcDbEntity
  8
0
100
AcDbLine
 10
151.9777149999999
 20
-0.0000000000000068
 30
0.0
 11
158.1627149999999
 21
-0.0000000000000072
 31
0.0
  0
LINE
  5
36
330
1E
100
AcDbEntity
  8
0
100
AcDbLine
 10
151.950715
 20
45.2254
 30
0.0
 11
158.1627149999999
 21
44.4806
 31
0.0
  0
LINE
  5
38
330
1E
100
AcDbEntity
  8
0
100
AcDbLine
 10
135.009715
 20
60.3915
 30
0.0
 11
137.3627149999999
 21
55.2616
 31
0.0
  0
LINE
  5
39
330
1E
100
AcDbEntity
  8
0
100
AcDbLine
 10
137.3802294500769
 20
55.2413959766872
 30
0.0
 11
138.2587149999999
 21
53.2179
 31
0.0
  0
LINE
  5
3A
330
1E
100
AcDbEntity
  8
0
100
AcDbLine
 10
137.3627149999999
 20
55.2616
 30
0.0
 11
141.2217149999999
 21
50.81
 31
0.0
  0
LINE
  5
3B
330
1E
100
AcDbEntity
  8
0
100
AcDbLine
 10
134.1627149999999
 20
74.01819999999999
 30
0.0
 11
134.1627149999999
 21
65.9517
 31
0.0
  0
LINE
  5
3C
330
1E
100
AcDbEntity
  8
0
100
AcDbLine
 10
134.1627149999999
 20
74.01819999999999
 30
0.0
 11
135.009715
 21
80.01829999999999
 31
0.0
  0
LINE
  5
3D
330
1E
100
AcDbEntity
  8
0
100
AcDbLine
 10
134.1627149999999
 20
65.9517
 30
0.0
 11
135.009715
 21
60.3915
 31
0.0
  0
LINE
  5
3E
330
1E
100
AcDbEntity
  8
0
100
AcDbLine
 10
134.1627149999999
 20
65.9517
 30
0.0
 11
134.1627149999999
 21
74.01819999999999
 31
0.0
  0
LINE
  5
3F
330
1E
100
AcDbEntity
  8
0
100
AcDbLine
 10
134.9937149999999
 20
92.1053
 30
0.0
 11
137.3937149999999
 21
92.1053
 31
0.0
  0
LINE
  5
40
330
1E
100
AcDbEntity
  8
0
100
AcDbLine
 10
135.0857149999999
 20
93.3684
 30
0.0
 11
136.931715
 21
94.0
 31
0.0
  0
LINE
  5
41
330
1E
100
AcDbEntity
  8
0
100
AcDbLine
 10
134.1627149999999
 20
92.1053
 30
0.0
 11
135.0857149999999
 21
93.3684
 31
0.0
  0
LINE
  5
42
330
1E
100
AcDbEntity
  8
0
100
AcDbLine
 10
134.1627149999999
 20
92.1053
 30
0.0
 11
134.9937149999999
 21
92.1053
 31
0.0
  0
LINE
  5
43
330
1E
100
AcDbEntity
  8
0
100
AcDbLine
 10
135.009715
 20
80.01829999999999
 30
0.0
 11
137.3627149999999
 21
85.5638
 31
0.0
  0
LINE
  5
44
330
1E
100
AcDbEntity
  8
0
100
AcDbLine
 10
135.480715
 20
80.2031
 30
0.0
 11
137.8337149999999
 21
85.6578
 31
0.0
  0
LINE
  5
45
330
1E
100
AcDbEntity
  8
0
100
AcDbLine
 10
134.6337149999999
 20
74.3849
 30
0.0
 11
135.480715
 21
68.56659999999999
 31
0.0
  0
LINE
  5
46
330
1E
100
AcDbEntity
  8
0
100
AcDbLine
 10
134.6337149999999
 20
74.3849
 30
0.0
 11
135.480715
 21
80.2031
 31
0.0
  0
LINE
  5
47
330
1E
100
AcDbEntity
  8
0
100
AcDbLine
 10
137.3627149999999
 20
85.5638
 30
0.0
 11
141.2217149999999
 21
90.3822
 31
0.0
  0
LINE
  5
48
330
1E
100
AcDbEntity
  8
0
100
AcDbLine
 10
141.2217149999999
 20
90.3822
 30
0.0
 11
146.2097149999999
 21
94.10949999999999
 31
0.0
  0
LINE
  5
49
330
1E
100
AcDbEntity
  8
0
100
AcDbLine
 10
137.8337149999999
 20
85.6578
 30
0.0
 11
141.503715
 21
90.476
 31
0.0
  0
LINE
  5
4A
330
1E
100
AcDbEntity
  8
0
100
AcDbLine
 10
136.931715
 20
94.0
 30
0.0
 11
137.670715
 21
94.0
 31
0.0
  0
LINE
  5
4B
330
1E
100
AcDbEntity
  8
0
100
AcDbLine
 10
137.670715
 20
94.0
 30
0.0
 11
139.7937149999999
 21
94.0
 31
0.0
  0
LINE
  5
4C
330
1E
100
AcDbEntity
  8
0
100
AcDbLine
 10
135.0857149999999
 20
93.3684
 30
0.0
 11
138.1317149999999
 21
93.3684
 31
0.0
  0
LINE
  5
4D
330
1E
100
AcDbEntity
  8
0
100
AcDbLine
 10
139.7937149999999
 20
94.0
 30
0.0
 11
143.2087149999999
 21
94.0
 31
0.0
  0
LINE
  5
4E
330
1E
100
AcDbEntity
  8
0
100
AcDbLine
 10
138.1317149999999
 20
93.3684
 30
0.0
 11
141.824715
 21
93.3684
 31
0.0
  0
LINE
  5
4F
330
1E
100
AcDbEntity
  8
0
100
AcDbLine
 10
137.3937149999999
 20
92.1053
 30
0.0
 11
141.1777149999999
 21
92.1053
 31
0.0
  0
LINE
  5
50
330
1E
100
AcDbEntity
  8
0
100
AcDbLine
 10
141.1777149999999
 20
92.1053
 30
0.0
 11
143.5276261957719
 21
92.1053
 31
0.0
  0
LINE
  5
51
330
1E
100
AcDbEntity
  8
0
100
AcDbLine
 10
141.503715
 20
90.476
 30
0.0
 11
146.4917149999999
 21
94.0216
 31
0.0
  0
LINE
  5
52
330
1E
100
AcDbEntity
  8
0
100
AcDbLine
 10
135.480715
 20
68.56659999999999
 30
0.0
 11
137.8337149999999
 21
63.11189999999999
 31
0.0
  0
LINE
  5
53
330
1E
100
AcDbEntity
  8
0
100
AcDbLine
 10
137.8337149999999
 20
63.11189999999999
 30
0.0
 11
141.503715
 21
58.2937
 31
0.0
  0
LINE
  5
54
330
1E
100
AcDbEntity
  8
0
100
AcDbLine
 10
144.1627149999999
 20
94.0
 30
0.0
 11
144.1627149999999
 21
181.0
 31
0.0
  0
LINE
  5
55
330
1E
100
AcDbEntity
  8
0
100
AcDbLine
 10
143.2087149999999
 20
94.0
 30
0.0
 11
146.063178364902
 21
94.0
 31
0.0
  0
LINE
  5
56
330
1E
100
AcDbEntity
  8
0
100
AcDbLine
 10
141.824715
 20
93.3684
 30
0.0
 11
145.217949700722
 21
93.3684
 31
0.0
  0
LINE
  5
57
330
1E
100
AcDbEntity
  8
0
100
AcDbLine
 10
146.2097149999999
 20
94.10949999999999
 30
0.0
 11
151.950715
 21
96.3822
 31
0.0
  0
LINE
  5
58
330
1E
100
AcDbEntity
  8
0
100
AcDbLine
 10
151.950715
 20
96.3822
 30
0.0
 11
153.8627149999999
 21
96.63403490019319
 31
0.0
  0
LINE
  5
59
330
1E
100
AcDbEntity
  8
0
100
AcDbLine
 10
146.4917149999999
 20
94.0216
 30
0.0
 11
152.139715
 21
96.2944
 31
0.0
  0
LINE
  5
5A
330
1E
100
AcDbEntity
  8
0
100
AcDbLine
 10
141.503715
 20
58.2937
 30
0.0
 11
146.4917149999999
 21
54.7482
 31
0.0
  0
LINE
  5
5B
330
1E
100
AcDbEntity
  8
0
100
AcDbLine
 10
146.4917149999999
 20
54.7482
 30
0.0
 11
152.139715
 21
52.4754
 31
0.0
  0
LINE
  5
5D
330
1E
100
AcDbEntity
  8
0
100
AcDbLine
 10
152.1477149999999
 20
42.7933
 30
0.0
 11
158.1627149999999
 21
42.02429999999999
 31
0.0
  0
LINE
  5
5F
330
1E
100
AcDbEntity
  8
0
100
AcDbLine
 10
152.139715
 20
96.2944
 30
0.0
 11
154.921353375354
 21
96.672228051615
 31
0.0
  0
LINE
  5
60
330
1E
100
AcDbEntity
  8
0
100
AcDbLine
 10
152.139715
 20
52.4754
 30
0.0
 11
158.1627149999999
 21
51.6572
 31
0.0
  0
LINE
  5
61
330
1E
100
AcDbEntity
  8
0
100
AcDbLine
 10
-0.162715000000004
 20
195.4169999999999
 30
0.0
 11
0.3202449999999961
 21
195.288
 31
0.0
  0
LINE
  5
62
330
1E
100
AcDbEntity
  8
0
100
AcDbLine
 10
-0.162715000000004
 20
195.4169999999999
 30
0.0
 11
4.625434999999999
 21
213.287
 31
0.0
  0
LINE
  5
63
330
1E
100
AcDbEntity
  8
0
100
AcDbLine
 10
-0.162715000000004
 20
195.4169999999999
 30
0.0
 11
0.5443949999999961
 21
194.192
 31
0.0
  0
LINE
  5
64
330
1E
100
AcDbEntity
  8
0
100
AcDbLine
 10
-0.162715000000004
 20
195.4169999999999
 30
0.0
 11
0.3202449999999961
 21
195.288
 31
0.0
  0
LINE
  5
69
330
1E
100
AcDbEntity
  8
0
100
AcDbLine
 10
0.5443949999999961
 20
194.192
 30
0.0
 11
1.027355
 21
194.0629999999999
 31
0.0
  0
LINE
  5
6B
330
1E
100
AcDbEntity
  8
0
100
AcDbLine
 10
-0.162715000000004
 20
195.4169999999999
 30
0.0
 11
0.5443949999999961
 21
194.192
 31
0.0
  0
LINE
  5
6C
330
1E
100
AcDbEntity
  8
0
100
AcDbLine
 10
-0.162715000000004
 20
195.4169999999999
 30
0.0
 11
4.625434999999999
 21
213.287
 31
0.0
  0
LINE
  5
6E
330
1E
100
AcDbEntity
  8
0
100
AcDbLine
 10
5.108405
 20
213.1569999999999
 30
0.0
 11
6.460694999999999
 21
212.7949999999999
 31
0.0
  0
LINE
  5
6F
330
1E
100
AcDbEntity
  8
0
100
AcDbLine
 10
6.460694999999999
 20
212.7949999999999
 30
0.0
 11
8.585735000000001
 21
212.2259999999999
 31
0.0
  0
LINE
  5
71
330
1E
100
AcDbEntity
  8
0
100
AcDbLine
 10
5.720774999999999
 20
213.511
 30
0.0
 11
6.203734999999999
 21
213.382
 31
0.0
  0
LINE
  5
72
330
1E
100
AcDbEntity
  8
0
100
AcDbLine
 10
6.203734999999999
 20
213.382
 30
0.0
 11
7.362845
 21
213.071
 31
0.0
  0
LINE
  5
73
330
1E
100
AcDbEntity
  8
0
100
AcDbLine
 10
5.367214999999999
 20
214.1229999999999
 30
0.0
 11
6.719514999999999
 21
213.761
 31
0.0
  0
LINE
  5
74
330
1E
100
AcDbEntity
  8
0
100
AcDbLine
 10
6.719514999999999
 20
213.761
 30
0.0
 11
8.844554999999999
 21
213.192
 31
0.0
  0
LINE
  5
75
330
1E
100
AcDbEntity
  8
0
100
AcDbLine
 10
4.884255
 20
214.2529999999999
 30
0.0
 11
5.720774999999999
 21
213.511
 31
0.0
  0
LINE
  5
76
330
1E
100
AcDbEntity
  8
0
100
AcDbLine
 10
4.884255
 20
214.2529999999999
 30
0.0
 11
9.818514999999999
 21
224.5
 31
0.0
  0
LINE
  5
77
330
1E
100
AcDbEntity
  8
0
100
AcDbLine
 10
4.884255
 20
214.2529999999999
 30
0.0
 11
5.367214999999999
 21
214.1229999999999
 31
0.0
  0
LINE
  5
78
330
1E
100
AcDbEntity
  8
0
100
AcDbLine
 10
4.625434999999999
 20
213.287
 30
0.0
 11
5.720774999999999
 21
213.511
 31
0.0
  0
LINE
  5
79
330
1E
100
AcDbEntity
  8
0
100
AcDbLine
 10
4.625434999999999
 20
213.287
 30
0.0
 11
5.108405
 21
213.1569999999999
 31
0.0
  0
LINE
  5
88
330
1E
100
AcDbEntity
  8
0
100
AcDbLine
 10
24.016415
 20
187.903
 30
0.0
 11
25.175515
 21
187.5929999999999
 31
0.0
  0
LINE
  5
89
330
1E
100
AcDbEntity
  8
0
100
AcDbLine
 10
25.65841499999999
 20
187.4629999999999
 30
0.0
 11
26.883215
 21
188.17
 31
0.0
  0
LINE
  5
8A
330
1E
100
AcDbEntity
  8
0
100
AcDbLine
 10
25.175515
 20
187.5929999999999
 30
0.0
 11
25.65841499999999
 21
187.4629999999999
 31
0.0
  0
LINE
  5
8B
330
1E
100
AcDbEntity
  8
0
100
AcDbLine
 10
26.400215
 20
188.3
 30
0.0
 11
26.883215
 21
188.17
 31
0.0
  0
LINE
  5
8C
330
1E
100
AcDbEntity
  8
0
100
AcDbLine
 10
26.883215
 20
188.17
 30
0.0
 11
31.671315
 21
206.04
 31
0.0
  0
LINE
  5
8D
330
1E
100
AcDbEntity
  8
0
100
AcDbLine
 10
23.55210783625599
 20
188.027517178741
 30
0.0
 11
24.016415
 21
187.903
 31
0.0
  0
LINE
  5
8E
330
1E
100
AcDbEntity
  8
0
100
AcDbLine
 10
1.027355
 20
194.0629999999999
 30
0.0
 11
23.55210783625599
 21
188.027517178741
 31
0.0
  0
LINE
  5
8F
330
1E
100
AcDbEntity
  8
0
100
AcDbLine
 10
0.3202449999999963
 20
195.288
 30
0.0
 11
26.400215
 21
188.3
 31
0.0
  0
LINE
  5
92
330
1E
100
AcDbEntity
  8
0
100
AcDbLine
 10
143.6577149999999
 20
188.701
 30
0.0
 11
144.1627149999999
 21
181.0
 31
0.0
  0
LINE
  5
95
330
1E
100
AcDbEntity
  8
0
100
AcDbLine
 10
7.362845
 20
213.071
 30
0.0
 11
9.391314999999998
 21
212.5269999999999
 31
0.0
  0
LINE
  5
96
330
1E
100
AcDbEntity
  8
0
100
AcDbLine
 10
8.585735000000001
 20
212.2259999999999
 30
0.0
 11
11.38691499999999
 21
211.4749999999999
 31
0.0
  0
LINE
  5
98
330
1E
100
AcDbEntity
  8
0
100
AcDbLine
 10
8.844554999999999
 20
213.192
 30
0.0
 11
11.64571499999999
 21
212.4409999999999
 31
0.0
  0
LINE
  5
9B
330
1E
100
AcDbEntity
  8
0
100
AcDbLine
 10
31.188415
 20
206.169
 30
0.0
 11
31.671315
 21
206.04
 31
0.0
  0
LINE
  5
9C
330
1E
100
AcDbEntity
  8
0
100
AcDbLine
 10
29.836115
 20
206.532
 30
0.0
 11
31.188415
 21
206.169
 31
0.0
  0
LINE
  5
9D
330
1E
100
AcDbEntity
  8
0
100
AcDbLine
 10
139.6717149999999
 20
203.5779999999999
 30
0.0
 11
142.152715
 21
196.27
 31
0.0
  0
LINE
  5
9E
330
1E
100
AcDbEntity
  8
0
100
AcDbLine
 10
142.152715
 20
196.27
 30
0.0
 11
143.6577149999999
 21
188.701
 31
0.0
  0
LINE
  5
9F
330
1E
100
AcDbEntity
  8
0
100
AcDbLine
 10
30.351915
 20
206.9109999999999
 30
0.0
 11
30.834815
 21
206.782
 31
0.0
  0
LINE
  5
A0
330
1E
100
AcDbEntity
  8
0
100
AcDbLine
 10
21.465315
 20
209.2919999999999
 30
0.0
 11
24.55631499999999
 21
208.464
 31
0.0
  0
LINE
  5
A1
330
1E
100
AcDbEntity
  8
0
100
AcDbLine
 10
21.62571499999999
 20
208.732
 30
0.0
 11
24.90991499999999
 21
207.852
 31
0.0
  0
LINE
  5
A2
330
1E
100
AcDbEntity
  8
0
100
AcDbLine
 10
18.277815
 20
210.1459999999999
 30
0.0
 11
21.465315
 21
209.2919999999999
 31
0.0
  0
LINE
  5
A3
330
1E
100
AcDbEntity
  8
0
100
AcDbLine
 10
18.14841499999999
 20
209.6629999999999
 30
0.0
 11
21.62571499999999
 21
208.732
 31
0.0
  0
LINE
  5
A4
330
1E
100
AcDbEntity
  8
0
100
AcDbLine
 10
27.164315
 20
207.7649999999999
 30
0.0
 11
29.192815
 21
207.222
 31
0.0
  0
LINE
  5
A5
330
1E
100
AcDbEntity
  8
0
100
AcDbLine
 10
27.711015
 20
207.101
 30
0.0
 11
29.836115
 21
206.532
 31
0.0
  0
LINE
  5
A6
330
1E
100
AcDbEntity
  8
0
100
AcDbLine
 10
24.55631499999999
 20
208.464
 30
0.0
 11
27.164315
 21
207.7649999999999
 31
0.0
  0
LINE
  5
A7
330
1E
100
AcDbEntity
  8
0
100
AcDbLine
 10
24.90991499999999
 20
207.852
 30
0.0
 11
27.711015
 21
207.101
 31
0.0
  0
LINE
  5
A8
330
1E
100
AcDbEntity
  8
0
100
AcDbLine
 10
29.192815
 20
207.222
 30
0.0
 11
30.351915
 21
206.9109999999999
 31
0.0
  0
LINE
  5
A9
330
1E
100
AcDbEntity
  8
0
100
AcDbLine
 10
31.447215
 20
207.1349999999999
 30
0.0
 11
31.930215
 21
207.0059999999999
 31
0.0
  0
LINE
  5
AA
330
1E
100
AcDbEntity
  8
0
100
AcDbLine
 10
30.094915
 20
207.498
 30
0.0
 11
31.447215
 21
207.1349999999999
 31
0.0
  0
LINE
  5
AB
330
1E
100
AcDbEntity
  8
0
100
AcDbLine
 10
27.969915
 20
208.067
 30
0.0
 11
30.094915
 21
207.498
 31
0.0
  0
LINE
  5
AC
330
1E
100
AcDbEntity
  8
0
100
AcDbLine
 10
25.168715
 20
208.8179999999999
 30
0.0
 11
27.969915
 21
208.067
 31
0.0
  0
LINE
  5
AD
330
1E
100
AcDbEntity
  8
0
100
AcDbLine
 10
21.884515
 20
209.6979999999999
 30
0.0
 11
25.168715
 21
208.8179999999999
 31
0.0
  0
LINE
  5
AE
330
1E
100
AcDbEntity
  8
0
100
AcDbLine
 10
11.38691499999999
 20
211.4749999999999
 30
0.0
 11
14.67111499999999
 21
210.5949999999999
 31
0.0
  0
LINE
  5
AF
330
1E
100
AcDbEntity
  8
0
100
AcDbLine
 10
15.090215
 20
211.0
 30
0.0
 11
18.277815
 21
210.1459999999999
 31
0.0
  0
LINE
  5
B0
330
1E
100
AcDbEntity
  8
0
100
AcDbLine
 10
14.67111499999999
 20
210.5949999999999
 30
0.0
 11
18.14841499999999
 21
209.6629999999999
 31
0.0
  0
LINE
  5
B1
330
1E
100
AcDbEntity
  8
0
100
AcDbLine
 10
9.391314999999998
 20
212.5269999999999
 30
0.0
 11
11.99931499999999
 21
211.829
 31
0.0
  0
LINE
  5
B2
330
1E
100
AcDbEntity
  8
0
100
AcDbLine
 10
11.99931499999999
 20
211.829
 30
0.0
 11
15.090215
 21
211.0
 31
0.0
  0
LINE
  5
B3
330
1E
100
AcDbEntity
  8
0
100
AcDbLine
 10
11.64571499999999
 20
212.4409999999999
 30
0.0
 11
14.929915
 21
211.5609999999999
 31
0.0
  0
LINE
  5
B4
330
1E
100
AcDbEntity
  8
0
100
AcDbLine
 10
14.929915
 20
211.5609999999999
 30
0.0
 11
18.407215
 21
210.629
 31
0.0
  0
LINE
  5
B5
330
1E
100
AcDbEntity
  8
0
100
AcDbLine
 10
18.407215
 20
210.629
 30
0.0
 11
21.884515
 21
209.6979999999999
 31
0.0
  0
LINE
  5
B6
330
1E
100
AcDbEntity
  8
0
100
AcDbLine
 10
34.067215
 20
210.4999999999999
 30
0.0
 11
38.354915
 21
216.917
 31
0.0
  0
LINE
  5
B7
330
1E
100
AcDbEntity
  8
0
100
AcDbLine
 10
38.354915
 20
216.917
 30
0.0
 11
43.443415
 21
222.719
 31
0.0
  0
LINE
  5
B8
330
1E
100
AcDbEntity
  8
0
100
AcDbLine
 10
31.930215
 20
207.0059999999999
 30
0.0
 11
34.067215
 21
210.4999999999999
 31
0.0
  0
LINE
  5
B9
330
1E
100
AcDbEntity
  8
0
100
AcDbLine
 10
131.9707149999999
 20
216.917
 30
0.0
 11
136.2587149999999
 21
210.4999999999999
 31
0.0
  0
LINE
  5
BA
330
1E
100
AcDbEntity
  8
0
100
AcDbLine
 10
9.818514999999999
 20
224.5
 30
0.0
 11
16.141015
 21
233.962
 31
0.0
  0
LINE
  5
BB
330
1E
100
AcDbEntity
  8
0
100
AcDbLine
 10
43.443415
 20
222.719
 30
0.0
 11
49.245815
 21
227.808
 31
0.0
  0
LINE
  5
BC
330
1E
100
AcDbEntity
  8
0
100
AcDbLine
 10
55.662715
 20
232.0959999999999
 30
0.0
 11
62.58441499999999
 21
235.509
 31
0.0
  0
LINE
  5
BD
330
1E
100
AcDbEntity
  8
0
100
AcDbLine
 10
62.58441499999999
 20
235.509
 30
0.0
 11
69.892415
 21
237.99
 31
0.0
  0
LINE
  5
BE
330
1E
100
AcDbEntity
  8
0
100
AcDbLine
 10
69.892415
 20
237.99
 30
0.0
 11
77.46171499999999
 21
239.495
 31
0.0
  0
LINE
  5
BF
330
1E
100
AcDbEntity
  8
0
100
AcDbLine
 10
49.245815
 20
227.808
 30
0.0
 11
55.662715
 21
232.0959999999999
 31
0.0
  0
LINE
  5
C0
330
1E
100
AcDbEntity
  8
0
100
AcDbLine
 10
16.141015
 20
233.962
 30
0.0
 11
23.64441499999999
 21
242.518
 31
0.0
  0
LINE
  5
C1
330
1E
100
AcDbEntity
  8
0
100
AcDbLine
 10
77.46171499999999
 20
239.495
 30
0.0
 11
85.162715
 21
240.0
 31
0.0
  0
LINE
  5
C2
330
1E
100
AcDbEntity
  8
0
100
AcDbLine
 10
23.64441499999999
 20
242.518
 30
0.0
 11
32.200515
 21
250.022
 31
0.0
  0
LINE
  5
C3
330
1E
100
AcDbEntity
  8
0
100
AcDbLine
 10
41.662715
 20
256.3439999999999
 30
0.0
 11
51.869215
 21
261.3779999999999
 31
0.0
  0
LINE
  5
C4
330
1E
100
AcDbEntity
  8
0
100
AcDbLine
 10
51.869215
 20
261.3779999999999
 30
0.0
 11
62.64541499999999
 21
265.036
 31
0.0
  0
LINE
  5
C5
330
1E
100
AcDbEntity
  8
0
100
AcDbLine
 10
62.64541499999999
 20
265.036
 30
0.0
 11
73.80691500000001
 21
267.2559999999999
 31
0.0
  0
LINE
  5
C6
330
1E
100
AcDbEntity
  8
0
100
AcDbLine
 10
73.80691500000001
 20
267.2559999999999
 30
0.0
 11
85.162715
 21
268.0
 31
0.0
  0
LINE
  5
C7
330
1E
100
AcDbEntity
  8
0
100
AcDbLine
 10
32.200515
 20
250.022
 30
0.0
 11
41.662715
 21
256.3439999999999
 31
0.0
  0
LINE
  5
C8
330
1E
100
AcDbEntity
  8
0
100
AcDbLine
 10
85.162715
 20
268.0
 30
0.0
 11
96.51851500000001
 21
267.2559999999999
 31
0.0
  0
LINE
  5
C9
330
1E
100
AcDbEntity
  8
0
100
AcDbLine
 10
85.162715
 20
240.0
 30
0.0
 11
92.86371499999999
 21
239.495
 31
0.0
  0
LINE
  5
CA
330
1E
100
AcDbEntity
  8
0
100
AcDbLine
 10
96.51851500000001
 20
267.2559999999999
 30
0.0
 11
107.6797149999999
 21
265.036
 31
0.0
  0
LINE
  5
CB
330
1E
100
AcDbEntity
  8
0
100
AcDbLine
 10
92.86371499999999
 20
239.495
 30
0.0
 11
100.4327149999999
 21
237.99
 31
0.0
  0
LINE
  5
CC
330
1E
100
AcDbEntity
  8
0
100
AcDbLine
 10
107.6797149999999
 20
265.036
 30
0.0
 11
118.4557149999999
 21
261.3779999999999
 31
0.0
  0
LINE
  5
CD
330
1E
100
AcDbEntity
  8
0
100
AcDbLine
 10
100.4327149999999
 20
237.99
 30
0.0
 11
107.7407149999999
 21
235.509
 31
0.0
  0
LINE
  5
CE
330
1E
100
AcDbEntity
  8
0
100
AcDbLine
 10
121.0797149999999
 20
227.808
 30
0.0
 11
126.8817149999999
 21
222.719
 31
0.0
  0
LINE
  5
CF
330
1E
100
AcDbEntity
  8
0
100
AcDbLine
 10
128.6627149999999
 20
256.3439999999999
 30
0.0
 11
138.1247149999999
 21
250.022
 31
0.0
  0
LINE
  5
D0
330
1E
100
AcDbEntity
  8
0
100
AcDbLine
 10
114.662715
 20
232.0959999999999
 30
0.0
 11
121.0797149999999
 21
227.808
 31
0.0
  0
LINE
  5
D1
330
1E
100
AcDbEntity
  8
0
100
AcDbLine
 10
118.4557149999999
 20
261.3779999999999
 30
0.0
 11
128.6627149999999
 21
256.3439999999999
 31
0.0
  0
LINE
  5
D2
330
1E
100
AcDbEntity
  8
0
100
AcDbLine
 10
107.7407149999999
 20
235.509
 30
0.0
 11
114.662715
 21
232.0959999999999
 31
0.0
  0
LINE
  5
D3
330
1E
100
AcDbEntity
  8
0
100
AcDbLine
 10
126.8817149999999
 20
222.719
 30
0.0
 11
131.9707149999999
 21
216.917
 31
0.0
  0
LINE
  5
D4
330
1E
100
AcDbEntity
  8
0
100
AcDbLine
 10
138.1247149999999
 20
250.022
 30
0.0
 11
146.6807149999999
 21
242.518
 31
0.0
  0
LINE
  5
D5
330
1E
100
AcDbEntity
  8
0
100
AcDbLine
 10
146.6807149999999
 20
242.518
 30
0.0
 11
154.1847149999999
 21
233.962
 31
0.0
  0
LINE
  5
D6
330
1E
100
AcDbEntity
  8
0
100
AcDbLine
 10
136.2587149999999
 20
210.4999999999999
 30
0.0
 11
139.6717149999999
 21
203.5779999999999
 31
0.0
  0
LINE
  5
D7
330
1E
100
AcDbEntity
  8
0
100
AcDbLine
 10
30.834815
 20
206.782
 30
0.0
 11
31.671315
 21
206.04
 31
0.0
  0
LINE
  5
D8
330
1E
100
AcDbEntity
  8
0
100
AcDbLine
 10
30.834815
 20
206.782
 30
0.0
 11
31.930215
 21
207.0059999999999
 31
0.0
  0
LINE
  5
DC
330
1E
100
AcDbEntity
  8
0
100
AcDbLine
 10
153.6627149999999
 20
96.60769233741149
 30
0.0
 11
153.6627149999999
 21
144.1879999999999
 31
0.0
  0
LINE
  5
DD
330
1E
100
AcDbEntity
  8
0
100
AcDbLine
 10
153.8627149999999
 20
144.1879999999999
 30
0.0
 11
154.2627149999999
 21
144.1879999999999
 31
0.0
  0
LINE
  5
DE
330
1E
100
AcDbEntity
  8
0
100
AcDbLine
 10
154.2627149999999
 20
144.1879999999999
 30
0.0
 11
154.962715
 21
144.1879999999999
 31
0.0
  0
LINE
  5
DF
330
1E
100
AcDbEntity
  8
0
100
AcDbLine
 10
154.162715
 20
144.6879999999999
 30
0.0
 11
154.2627149999999
 21
144.6879999999999
 31
0.0
  0
LINE
  5
E0
330
1E
100
AcDbEntity
  8
0
100
AcDbLine
 10
154.2627149999999
 20
144.6879999999999
 30
0.0
 11
154.6627149999999
 21
144.6879999999999
 31
0.0
  0
LINE
  5
E1
330
1E
100
AcDbEntity
  8
0
100
AcDbLine
 10
154.962715
 20
144.1879999999999
 30
0.0
 11
155.962715
 21
144.1879999999999
 31
0.0
  0
LINE
  5
E2
330
1E
100
AcDbEntity
  8
0
100
AcDbLine
 10
155.962715
 20
144.1879999999999
 30
0.0
 11
156.962715
 21
144.1879999999999
 31
0.0
  0
LINE
  5
E3
330
1E
100
AcDbEntity
  8
0
100
AcDbLine
 10
154.6627149999999
 20
144.6879999999999
 30
0.0
 11
155.262715
 21
144.6879999999999
 31
0.0
  0
LINE
  5
E4
330
1E
100
AcDbEntity
  8
0
100
AcDbLine
 10
155.262715
 20
144.6879999999999
 30
0.0
 11
156.1627149999999
 21
144.6879999999999
 31
0.0
  0
LINE
  5
E5
330
1E
100
AcDbEntity
  8
0
100
AcDbLine
 10
158.1627149999999
 20
-0.0000000000000072
 30
0.0
 11
164.347715
 21
-0.0000000000000076
 31
0.0
  0
LINE
  5
E7
330
1E
100
AcDbEntity
  8
0
100
AcDbLine
 10
158.1627149999999
 20
42.02429999999999
 30
0.0
 11
164.1777149999999
 21
42.7933
 31
0.0
  0
LINE
  5
E9
330
1E
100
AcDbEntity
  8
0
100
AcDbLine
 10
158.1627149999999
 20
44.4806
 30
0.0
 11
164.3747149999999
 21
45.2254
 31
0.0
  0
LINE
  5
EA
330
1E
100
AcDbEntity
  8
0
100
AcDbLine
 10
158.1627149999999
 20
51.6572
 30
0.0
 11
164.1857149999999
 21
52.4754
 31
0.0
  0
LINE
  5
EC
330
1E
100
AcDbEntity
  8
0
100
AcDbLine
 10
164.347715
 20
-0.0000000000000076
 30
0.0
 11
170.0707149999999
 21
-0.0000000000000079
 31
0.0
  0
LINE
  5
ED
330
1E
100
AcDbEntity
  8
0
100
AcDbLine
 10
164.1777149999999
 20
42.7933
 30
0.0
 11
169.573715
 21
45.015
 31
0.0
  0
LINE
  5
F0
330
1E
100
AcDbEntity
  8
0
100
AcDbLine
 10
169.573715
 20
45.015
 30
0.0
 11
174.4397149999999
 21
48.5183
 31
0.0
  0
LINE
  5
F2
330
1E
100
AcDbEntity
  8
0
100
AcDbLine
 10
164.3747149999999
 20
45.2254
 30
0.0
 11
170.115715
 21
47.35149999999999
 31
0.0
  0
LINE
  5
F3
330
1E
100
AcDbEntity
  8
0
100
AcDbLine
 10
169.8337149999999
 20
54.7482
 30
0.0
 11
174.8217149999999
 21
58.2937
 31
0.0
  0
LINE
  5
F4
330
1E
100
AcDbEntity
  8
0
100
AcDbLine
 10
164.1857149999999
 20
52.4754
 30
0.0
 11
169.8337149999999
 21
54.7482
 31
0.0
  0
LINE
  5
F5
330
1E
100
AcDbEntity
  8
0
100
AcDbLine
 10
170.0707149999999
 20
-0.0000000000000079
 30
0.0
 11
175.1477149999999
 21
-0.0000000000000082
 31
0.0
  0
LINE
  5
F7
330
1E
100
AcDbEntity
  8
0
100
AcDbLine
 10
174.4397149999999
 20
48.5183
 30
0.0
 11
178.066715
 21
53.2179
 31
0.0
  0
LINE
  5
F9
330
1E
100
AcDbEntity
  8
0
100
AcDbLine
 10
170.115715
 20
47.35149999999999
 30
0.0
 11
175.1037149999999
 21
50.81
 31
0.0
  0
LINE
  5
FA
330
1E
100
AcDbEntity
  8
0
100
AcDbLine
 10
175.1477149999999
 20
-0.0000000000000082
 30
0.0
 11
178.931715
 21
-0.0000000000000085
 31
0.0
  0
LINE
  5
FB
330
1E
100
AcDbEntity
  8
0
100
AcDbLine
 10
178.066715
 20
53.2179
 30
0.0
 11
178.945200549923
 21
55.2413959766872
 31
0.0
  0
LINE
  5
FC
330
1E
100
AcDbEntity
  8
0
100
AcDbLine
 10
175.1037149999999
 20
50.81
 30
0.0
 11
178.962715
 21
55.2616
 31
0.0
  0
LINE
  5
FD
330
1E
100
AcDbEntity
  8
0
100
AcDbLine
 10
178.491715
 20
63.11189999999999
 30
0.0
 11
180.8447149999999
 21
68.56659999999999
 31
0.0
  0
LINE
  5
FE
330
1E
100
AcDbEntity
  8
0
100
AcDbLine
 10
174.8217149999999
 20
58.2937
 30
0.0
 11
178.491715
 21
63.11189999999999
 31
0.0
  0
LINE
  5
FF
330
1E
100
AcDbEntity
  8
0
100
AcDbLine
 10
175.1037149999999
 20
90.3822
 30
0.0
 11
178.962715
 21
85.5638
 31
0.0
  0
LINE
  5
100
330
1E
100
AcDbEntity
  8
0
100
AcDbLine
 10
178.931715
 20
-0.0000000000000085
 30
0.0
 11
181.3317149999999
 21
-0.0000000000000086
 31
0.0
  0
LINE
  5
103
330
1E
100
AcDbEntity
  8
0
100
AcDbLine
 10
181.3157149999999
 20
60.3915
 30
0.0
 11
182.1627149999999
 21
65.9517
 31
0.0
  0
LINE
  5
104
330
1E
100
AcDbEntity
  8
0
100
AcDbLine
 10
178.962715
 20
55.2616
 30
0.0
 11
181.3157149999999
 21
60.3915
 31
0.0
  0
LINE
  5
105
330
1E
100
AcDbEntity
  8
0
100
AcDbLine
 10
180.8447149999999
 20
68.56659999999999
 30
0.0
 11
181.6917149999999
 21
74.3849
 31
0.0
  0
LINE
  5
106
330
1E
100
AcDbEntity
  8
0
100
AcDbLine
 10
182.1627149999999
 20
-0.0000000000000086
 30
0.0
 11
182.1627149999999
 21
65.9517
 31
0.0
  0
LINE
  5
107
330
1E
100
AcDbEntity
  8
0
100
AcDbLine
 10
182.1627149999999
 20
-0.0000000000000149
 30
0.0
 11
182.1627149999999
 21
65.9517
 31
0.0
  0
LINE
  5
108
330
1E
100
AcDbEntity
  8
0
100
AcDbLine
 10
182.1627149999999
 20
74.01819999999999
 30
0.0
 11
182.1627149999999
 21
92.1053
 31
0.0
  0
LINE
  5
109
330
1E
100
AcDbEntity
  8
0
100
AcDbLine
 10
181.3317149999999
 20
-0.0000000000000086
 30
0.0
 11
182.1627149999999
 21
-0.0000000000000086
 31
0.0
  0
LINE
  5
10A
330
1E
100
AcDbEntity
  8
0
100
AcDbLine
 10
182.1627149999999
 20
65.9517
 30
0.0
 11
182.1627149999999
 21
74.01819999999999
 31
0.0
  0
LINE
  5
10B
330
1E
100
AcDbEntity
  8
0
100
AcDbLine
 10
182.1627149999999
 20
74.01819999999999
 30
0.0
 11
182.1627149999999
 21
65.9517
 31
0.0
  0
LINE
  5
10C
330
1E
100
AcDbEntity
  8
0
100
AcDbLine
 10
181.3157149999999
 20
80.01829999999999
 30
0.0
 11
182.1627149999999
 21
74.01819999999999
 31
0.0
  0
LINE
  5
10D
330
1E
100
AcDbEntity
  8
0
100
AcDbLine
 10
178.962715
 20
85.5638
 30
0.0
 11
181.3157149999999
 21
80.01829999999999
 31
0.0
  0
LINE
  5
10E
330
1E
100
AcDbEntity
  8
0
100
AcDbLine
 10
180.8447149999999
 20
80.2031
 30
0.0
 11
181.6917149999999
 21
74.3849
 31
0.0
  0
LINE
  5
10F
330
1E
100
AcDbEntity
  8
0
100
AcDbLine
 10
178.491715
 20
85.6578
 30
0.0
 11
180.8447149999999
 21
80.2031
 31
0.0
  0
LINE
  5
110
330
1E
100
AcDbEntity
  8
0
100
AcDbLine
 10
171.1074802992779
 20
93.3684
 30
0.0
 11
174.5017149999999
 21
93.3684
 31
0.0
  0
LINE
  5
111
330
1E
100
AcDbEntity
  8
0
100
AcDbLine
 10
181.3317149999999
 20
92.1053
 30
0.0
 11
182.1627149999999
 21
92.1053
 31
0.0
  0
LINE
  5
112
330
1E
100
AcDbEntity
  8
0
100
AcDbLine
 10
178.931715
 20
92.1053
 30
0.0
 11
181.3317149999999
 21
92.1053
 31
0.0
  0
LINE
  5
113
330
1E
100
AcDbEntity
  8
0
100
AcDbLine
 10
178.193715
 20
93.3684
 30
0.0
 11
181.2397149999999
 21
93.3684
 31
0.0
  0
LINE
  5
114
330
1E
100
AcDbEntity
  8
0
100
AcDbLine
 10
174.5017149999999
 20
93.3684
 30
0.0
 11
178.193715
 21
93.3684
 31
0.0
  0
LINE
  5
115
330
1E
100
AcDbEntity
  8
0
100
AcDbLine
 10
175.1477149999999
 20
92.1053
 30
0.0
 11
178.931715
 21
92.1053
 31
0.0
  0
LINE
  5
116
330
1E
100
AcDbEntity
  8
0
100
AcDbLine
 10
172.7978038042279
 20
92.1053
 30
0.0
 11
175.1477149999999
 21
92.1053
 31
0.0
  0
LINE
  5
117
330
1E
100
AcDbEntity
  8
0
100
AcDbLine
 10
172.1627149999999
 20
94.0
 30
0.0
 11
172.1627149999999
 21
181.0
 31
0.0
  0
LINE
  5
118
330
1E
100
AcDbEntity
  8
0
100
AcDbLine
 10
178.6547149999999
 20
94.0
 30
0.0
 11
179.3937149999999
 21
94.0
 31
0.0
  0
LINE
  5
119
330
1E
100
AcDbEntity
  8
0
100
AcDbLine
 10
176.531715
 20
94.0
 30
0.0
 11
178.6547149999999
 21
94.0
 31
0.0
  0
LINE
  5
11A
330
1E
100
AcDbEntity
  8
0
100
AcDbLine
 10
173.116715
 20
94.0
 30
0.0
 11
176.531715
 21
94.0
 31
0.0
  0
LINE
  5
11B
330
1E
100
AcDbEntity
  8
0
100
AcDbLine
 10
170.262251635098
 20
94.0
 30
0.0
 11
173.116715
 21
94.0
 31
0.0
  0
LINE
  5
11C
330
1E
100
AcDbEntity
  8
0
100
AcDbLine
 10
179.3937149999999
 20
94.0
 30
0.0
 11
181.2397149999999
 21
93.3684
 31
0.0
  0
LINE
  5
11D
330
1E
100
AcDbEntity
  8
0
100
AcDbLine
 10
181.2397149999999
 20
93.3684
 30
0.0
 11
182.1627149999999
 21
92.1053
 31
0.0
  0
LINE
  5
11E
330
1E
100
AcDbEntity
  8
0
100
AcDbLine
 10
170.115715
 20
94.10949999999999
 30
0.0
 11
175.1037149999999
 21
90.3822
 31
0.0
  0
LINE
  5
11F
330
1E
100
AcDbEntity
  8
0
100
AcDbLine
 10
174.8217149999999
 20
90.476
 30
0.0
 11
178.491715
 21
85.6578
 31
0.0
  0
LINE
  5
120
330
1E
100
AcDbEntity
  8
0
100
AcDbLine
 10
169.8337149999999
 20
94.0216
 30
0.0
 11
174.8217149999999
 21
90.476
 31
0.0
  0
LINE
  5
121
330
1E
100
AcDbEntity
  8
0
100
AcDbLine
 10
164.3747149999999
 20
96.3822
 30
0.0
 11
170.115715
 21
94.10949999999999
 31
0.0
  0
LINE
  5
122
330
1E
100
AcDbEntity
  8
0
100
AcDbLine
 10
164.1857149999999
 20
96.2944
 30
0.0
 11
169.8337149999999
 21
94.0216
 31
0.0
  0
LINE
  5
124
330
1E
100
AcDbEntity
  8
0
100
AcDbLine
 10
161.3627149999999
 20
96.6778461730035
 30
0.0
 11
164.1857149999999
 21
96.2944
 31
0.0
  0
LINE
  5
125
330
1E
100
AcDbEntity
  8
0
100
AcDbLine
 10
162.439357939865
 20
96.63711132430821
 30
0.0
 11
164.3747149999999
 21
96.3822
 31
0.0
  0
LINE
  5
126
330
1E
100
AcDbEntity
  8
0
100
AcDbLine
 10
162.662715
 20
144.1879999999999
 30
0.0
 11
162.662715
 21
96.60769233741149
 31
0.0
  0
LINE
  5
127
330
1E
100
AcDbEntity
  8
0
100
AcDbLine
 10
162.462715
 20
144.1879999999999
 30
0.0
 11
162.662715
 21
144.1879999999999
 31
0.0
  0
LINE
  5
128
330
1E
100
AcDbEntity
  8
0
100
AcDbLine
 10
162.0627149999999
 20
144.1879999999999
 30
0.0
 11
162.462715
 21
144.1879999999999
 31
0.0
  0
LINE
  5
129
330
1E
100
AcDbEntity
  8
0
100
AcDbLine
 10
161.3627149999999
 20
144.1879999999999
 30
0.0
 11
162.0627149999999
 21
144.1879999999999
 31
0.0
  0
LINE
  5
12A
330
1E
100
AcDbEntity
  8
0
100
AcDbLine
 10
160.3627149999999
 20
144.1879999999999
 30
0.0
 11
161.3627149999999
 21
144.1879999999999
 31
0.0
  0
LINE
  5
12B
330
1E
100
AcDbEntity
  8
0
100
AcDbLine
 10
159.3627149999999
 20
144.1879999999999
 30
0.0
 11
160.3627149999999
 21
144.1879999999999
 31
0.0
  0
LINE
  5
12C
330
1E
100
AcDbEntity
  8
0
100
AcDbLine
 10
158.1627149999999
 20
144.1879999999999
 30
0.0
 11
159.3627149999999
 21
144.1879999999999
 31
0.0
  0
LINE
  5
12D
330
1E
100
AcDbEntity
  8
0
100
AcDbLine
 10
162.662715
 20
96.60769233741149
 30
0.0
 11
162.662715
 21
144.1879999999999
 31
0.0
  0
LINE
  5
12F
330
1E
100
AcDbEntity
  8
0
100
AcDbLine
 10
162.0627149999999
 20
144.6879999999999
 30
0.0
 11
162.1627149999999
 21
144.6879999999999
 31
0.0
  0
LINE
  5
130
330
1E
100
AcDbEntity
  8
0
100
AcDbLine
 10
161.662715
 20
144.6879999999999
 30
0.0
 11
162.0627149999999
 21
144.6879999999999
 31
0.0
  0
LINE
  5
131
330
1E
100
AcDbEntity
  8
0
100
AcDbLine
 10
161.062715
 20
144.6879999999999
 30
0.0
 11
161.662715
 21
144.6879999999999
 31
0.0
  0
LINE
  5
132
330
1E
100
AcDbEntity
  8
0
100
AcDbLine
 10
160.1627149999999
 20
144.6879999999999
 30
0.0
 11
161.062715
 21
144.6879999999999
 31
0.0
  0
LINE
  5
133
330
1E
100
AcDbEntity
  8
0
100
AcDbLine
 10
159.1627149999999
 20
144.6879999999999
 30
0.0
 11
160.1627149999999
 21
144.6879999999999
 31
0.0
  0
LINE
  5
134
330
1E
100
AcDbEntity
  8
0
100
AcDbLine
 10
158.1627149999999
 20
144.6879999999999
 30
0.0
 11
159.1627149999999
 21
144.6879999999999
 31
0.0
  0
LINE
  5
135
330
1E
100
AcDbEntity
  8
0
100
AcDbLine
 10
162.1627149999999
 20
144.6879999999999
 30
0.0
 11
162.662715
 21
144.1879999999999
 31
0.0
  0
LINE
  5
136
330
1E
100
AcDbEntity
  8
0
100
AcDbLine
 10
156.962715
 20
144.1879999999999
 30
0.0
 11
158.1627149999999
 21
144.1879999999999
 31
0.0
  0
LINE
  5
137
330
1E
100
AcDbEntity
  8
0
100
AcDbLine
 10
156.1627149999999
 20
144.6879999999999
 30
0.0
 11
157.1627149999999
 21
144.6879999999999
 31
0.0
  0
LINE
  5
138
330
1E
100
AcDbEntity
  8
0
100
AcDbLine
 10
154.1847149999999
 20
233.962
 30
0.0
 11
160.5067149999999
 21
224.5
 31
0.0
  0
LINE
  5
139
330
1E
100
AcDbEntity
  8
0
100
AcDbLine
 10
165.5407149999999
 20
214.293
 30
0.0
 11
169.1987149999999
 21
203.5169999999999
 31
0.0
  0
LINE
  5
13A
330
1E
100
AcDbEntity
  8
0
100
AcDbLine
 10
160.5067149999999
 20
224.5
 30
0.0
 11
165.5407149999999
 21
214.293
 31
0.0
  0
LINE
  5
13B
330
1E
100
AcDbEntity
  8
0
100
AcDbLine
 10
169.1987149999999
 20
203.5169999999999
 30
0.0
 11
171.4187149999999
 21
192.3559999999999
 31
0.0
  0
LINE
  5
13C
330
1E
100
AcDbEntity
  8
0
100
AcDbLine
 10
171.4187149999999
 20
192.3559999999999
 30
0.0
 11
172.1627149999999
 21
181.0
 31
0.0
  0
LINE
  5
13D
330
1E
100
AcDbEntity
  8
0
100
AcDbLine
 10
157.1627149999999
 20
144.6879999999999
 30
0.0
 11
158.1627149999999
 21
144.6879999999999
 31
0.0
  0
LINE
  5
13E
330
1E
100
AcDbEntity
  8
0
100
AcDbLine
 10
153.6627149999999
 20
144.1879999999999
 30
0.0
 11
154.162715
 21
144.6879999999999
 31
0.0
  0
LINE
  5
13F
330
1E
100
AcDbEntity
  8
0
100
AcDbLine
 10
153.6627149999999
 20
144.1879999999999
 30
0.0
 11
153.6627149999999
 21
96.60769233741149
 31
0.0
  0
LINE
  5
140
330
1E
100
AcDbEntity
  8
0
100
AcDbLine
 10
153.6627149999999
 20
144.1879999999999
 30
0.0
 11
153.8627149999999
 21
144.1879999999999
 31
0.0
  0
ENDSEC
  0
SECTION
  2
OBJECTS
  0
DICTIONARY
  5
C
330
0
100
AcDbDictionary
  3
ACAD_GROUP
350
D
  3
ACAD_LAYOUT
350
19
  3
ACAD_MLINESTYLE
350
16
  3
ACAD_PLOTSETTINGS
350
18
  3
ACAD_PLOTSTYLENAME
350
E
  3
ACDBHEADERROUNDTRIPXREC
350
148
  3
ACDBVARIABLEDICTIONARY
350
145
  0
DICTIONARY
  5
16A
330
1E
100
AcDbDictionary
280
     1
  3
ACAD_LAYOUTSELFREF
360
16B
  0
DICTIONARY
  5
168
330
1A
100
AcDbDictionary
280
     1
  3
ACAD_LAYOUTSELFREF
360
169
  0
DICTIONARY
  5
D
102
{ACAD_REACTORS
330
C
102
}
330
C
100
AcDbDictionary
  0
DICTIONARY
  5
19
102
{ACAD_REACTORS
330
C
102
}
330
C
100
AcDbDictionary
  0
DICTIONARY
  5
16
102
{ACAD_REACTORS
330
C
102
}
330
C
100
AcDbDictionary
  3
STANDARD
350
17
  0
DICTIONARY
  5
18
102
{ACAD_REACTORS
330
C
102
}
330
C
100
AcDbDictionary
  0
ACDBDICTIONARYWDFLT
  5
E
102
{ACAD_REACTORS
330
C
102
}
330
C
100
AcDbDictionary
281
     1
  3
Normal
350
F
100
AcDbDictionaryWithDefault
340
F
  0
DICTIONARY
  5
148
102
{ACAD_REACTORS
330
C
102
}
330
C
100
AcDbDictionary
  3
CEPSNTYPE
350
152
  3
FINGERPRINTGUID
350
153
  3
HYPERLINKBASE
350
14B
  3
INSUNITS
350
151
  3
LAYOUTDICT
350
14D
  3
LWETCUNION
350
150
  3
PLOTSETDICT
350
14E
  3
PLOTSTYLNAMDICT
350
14F
  3
PSVPSCALE
350
155
  3
PUCSBASE
350
158
  3
PUCSORGBACK
350
15E
  3
PUCSORGBOTTOM
350
15A
  3
PUCSORGFRONT
350
15D
  3
PUCSORGLEFT
350
15B
  3
PUCSORGRIGHT
350
15C
  3
PUCSORGTOP
350
159
  3
PUCSORTHOREF
350
156
  3
PUCSORTHOVIEW
350
157
  3
STYLESHEET
350
14C
  3
TSTACKALIGN
350
149
  3
TSTACKSIZE
350
14A
  3
UCSBASE
350
161
  3
UCSORGBACK
350
167
  3
UCSORGBOTTOM
350
163
  3
UCSORGFRONT
350
166
  3
UCSORGLEFT
350
164
  3
UCSORGRIGHT
350
165
  3
UCSORGTOP
350
162
  3
UCSORTHOREF
350
15F
  3
UCSORTHOVIEW
350
160
  3
VERSIONGUID
350
154
  0
DICTIONARY
  5
145
102
{ACAD_REACTORS
330
C
102
}
330
C
100
AcDbDictionary
  3
DIMASSOC
350
146
  0
XRECORD
  5
16B
102
{ACAD_REACTORS
330
16A
102
}
330
16A
100
AcDbXrecord
340
1E
  0
XRECORD
  5
169
102
{ACAD_REACTORS
330
168
102
}
330
168
100
AcDbXrecord
340
1A
  0
MLINESTYLE
  5
17
102
{ACAD_REACTORS
330
16
102
}
330
16
100
AcDbMlineStyle
  2
STANDARD
 70
     0
  3

 62
   256
 51
90.0
 52
90.0
 71
     2
 49
0.5
 62
   256
  6
BYLAYER
 49
-0.5
 62
   256
  6
BYLAYER
  0
ACDBPLACEHOLDER
  5
F
102
{ACAD_REACTORS
330
E
102
}
330
E
100
AcDbPlaceHolder
280
     0
  0
XRECORD
  5
152
102
{ACAD_REACTORS
330
148
102
}
330
148
100
AcDbXrecord
 90
        0
  0
XRECORD
  5
153
102
{ACAD_REACTORS
330
148
102
}
330
148
100
AcDbXrecord
  1
{EA688893-426B-4A55-8F40-DF94E9DA9E09}
  0
XRECORD
  5
14B
102
{ACAD_REACTORS
330
148
102
}
330
148
100
AcDbXrecord
  1

  0
XRECORD
  5
151
102
{ACAD_REACTORS
330
148
102
}
330
148
100
AcDbXrecord
 90
        0
  0
XRECORD
  5
14D
102
{ACAD_REACTORS
330
148
102
}
330
148
100
AcDbXrecord
340
19
  0
XRECORD
  5
150
102
{ACAD_REACTORS
330
148
102
}
330
148
100
AcDbXrecord
 90
    10781
  0
XRECORD
  5
14E
102
{ACAD_REACTORS
330
148
102
}
330
148
100
AcDbXrecord
340
18
  0
XRECORD
  5
14F
102
{ACAD_REACTORS
330
148
102
}
330
148
100
AcDbXrecord
340
E
  0
XRECORD
  5
155
102
{ACAD_REACTORS
330
148
102
}
330
148
100
AcDbXrecord
 40
0.0
  0
XRECORD
  5
158
102
{ACAD_REACTORS
330
148
102
}
330
148
100
AcDbXrecord
340
0
  0
XRECORD
  5
15E
102
{ACAD_REACTORS
330
148
102
}
330
148
100
AcDbXrecord
 10
0.0
 20
0.0
 30
0.0
  0
XRECORD
  5
15A
102
{ACAD_REACTORS
330
148
102
}
330
148
100
AcDbXrecord
 10
0.0
 20
0.0
 30
0.0
  0
XRECORD
  5
15D
102
{ACAD_REACTORS
330
148
102
}
330
148
100
AcDbXrecord
 10
0.0
 20
0.0
 30
0.0
  0
XRECORD
  5
15B
102
{ACAD_REACTORS
330
148
102
}
330
148
100
AcDbXrecord
 10
0.0
 20
0.0
 30
0.0
  0
XRECORD
  5
15C
102
{ACAD_REACTORS
330
148
102
}
330
148
100
AcDbXrecord
 10
0.0
 20
0.0
 30
0.0
  0
XRECORD
  5
159
102
{ACAD_REACTORS
330
148
102
}
330
148
100
AcDbXrecord
 10
0.0
 20
0.0
 30
0.0
  0
XRECORD
  5
156
102
{ACAD_REACTORS
330
148
102
}
330
148
100
AcDbXrecord
340
0
  0
XRECORD
  5
157
102
{ACAD_REACTORS
330
148
102
}
330
148
100
AcDbXrecord
 70
     0
  0
XRECORD
  5
14C
102
{ACAD_REACTORS
330
148
102
}
330
148
100
AcDbXrecord
  1

  0
XRECORD
  5
149
102
{ACAD_REACTORS
330
148
102
}
330
148
100
AcDbXrecord
 90
        1
  0
XRECORD
  5
14A
102
{ACAD_REACTORS
330
148
102
}
330
148
100
AcDbXrecord
 90
       70
  0
XRECORD
  5
161
102
{ACAD_REACTORS
330
148
102
}
330
148
100
AcDbXrecord
340
0
  0
XRECORD
  5
167
102
{ACAD_REACTORS
330
148
102
}
330
148
100
AcDbXrecord
 10
0.0
 20
0.0
 30
0.0
  0
XRECORD
  5
163
102
{ACAD_REACTORS
330
148
102
}
330
148
100
AcDbXrecord
 10
0.0
 20
0.0
 30
0.0
  0
XRECORD
  5
166
102
{ACAD_REACTORS
330
148
102
}
330
148
100
AcDbXrecord
 10
0.0
 20
0.0
 30
0.0
  0
XRECORD
  5
164
102
{ACAD_REACTORS
330
148
102
}
330
148
100
AcDbXrecord
 10
0.0
 20
0.0
 30
0.0
  0
XRECORD
  5
165
102
{ACAD_REACTORS
330
148
102
}
330
148
100
AcDbXrecord
 10
0.0
 20
0.0
 30
0.0
  0
XRECORD
  5
162
102
{ACAD_REACTORS
330
148
102
}
330
148
100
AcDbXrecord
 10
0.0
 20
0.0
 30
0.0
  0
XRECORD
  5
15F
102
{ACAD_REACTORS
330
148
102
}
330
148
100
AcDbXrecord
340
0
  0
XRECORD
  5
160
102
{ACAD_REACTORS
330
148
102
}
330
148
100
AcDbXrecord
 70
     1
  0
XRECORD
  5
154
102
{ACAD_REACTORS
330
148
102
}
330
148
100
AcDbXrecord
  1
{6E9383A2-DBA6-48E2-A203-E3D99874DD09}
  0
DICTIONARYVAR
  5
146
102
{ACAD_REACTORS
330
145
102
}
330
145
100
DictionaryVariables
280
     0
  1
1
  0
ENDSEC
  0
EOF
