  0
SECTION
  2
HEADER
  9
$ACADVER
  1
AC1014
  9
$ACADMAINTVER
 70
     9
  9
$DWGCODEPAGE
  3
ANSI_1252
  9
$INSBASE
 10
0.0
 20
0.0
 30
0.0
  9
$EXTMIN
 10
0.0
 20
-0.0225000000000063
 30
0.0
  9
$EXTMAX
 10
51.0
 20
159.0225
 30
0.0
  9
$LIMMIN
 10
0.0
 20
0.0
  9
$LIMMAX
 10
12.0
 20
9.0
  9
$ORTHOMODE
 70
     0
  9
$REGENMODE
 70
     1
  9
$FILLMODE
 70
     1
  9
$QTEXTMODE
 70
     0
  9
$MIRRTEXT
 70
     1
  9
$DRAGMODE
 70
     2
  9
$LTSCALE
 40
1.0
  9
$OSMODE
 70
    37
  9
$ATTMODE
 70
     1
  9
$TEXTSIZE
 40
0.2
  9
$TRACEWID
 40
0.05
  9
$TEXTSTYLE
  7
STANDARD
  9
$CLAYER
  8
0
  9
$CELTYPE
  6
CONTINUOUS
  9
$CECOLOR
 62
   256
  9
$CELTSCALE
 40
1.0
  9
$DELOBJ
 70
     1
  9
$DISPSILH
 70
     0
  9
$DIMSCALE
 40
1.0
  9
$DIMASZ
 40
0.18
  9
$DIMEXO
 40
0.0625
  9
$DIMDLI
 40
0.38
  9
$DIMRND
 40
0.0
  9
$DIMDLE
 40
0.0
  9
$DIMEXE
 40
0.18
  9
$DIMTP
 40
0.0
  9
$DIMTM
 40
0.0
  9
$DIMTXT
 40
0.18
  9
$DIMCEN
 40
0.09
  9
$DIMTSZ
 40
0.0
  9
$DIMTOL
 70
     0
  9
$DIMLIM
 70
     0
  9
$DIMTIH
 70
     1
  9
$DIMTOH
 70
     1
  9
$DIMSE1
 70
     0
  9
$DIMSE2
 70
     0
  9
$DIMTAD
 70
     0
  9
$DIMZIN
 70
     0
  9
$DIMBLK
  1

  9
$DIMASO
 70
     1
  9
$DIMSHO
 70
     1
  9
$DIMPOST
  1

  9
$DIMAPOST
  1

  9
$DIMALT
 70
     0
  9
$DIMALTD
 70
     2
  9
$DIMALTF
 40
25.4
  9
$DIMLFAC
 40
1.0
  9
$DIMTOFL
 70
     0
  9
$DIMTVP
 40
0.0
  9
$DIMTIX
 70
     0
  9
$DIMSOXD
 70
     0
  9
$DIMSAH
 70
     0
  9
$DIMBLK1
  1

  9
$DIMBLK2
  1

  9
$DIMSTYLE
  2
STANDARD
  9
$DIMCLRD
 70
     0
  9
$DIMCLRE
 70
     0
  9
$DIMCLRT
 70
     0
  9
$DIMTFAC
 40
1.0
  9
$DIMGAP
 40
0.09
  9
$DIMJUST
 70
     0
  9
$DIMSD1
 70
     0
  9
$DIMSD2
 70
     0
  9
$DIMTOLJ
 70
     1
  9
$DIMTZIN
 70
     0
  9
$DIMALTZ
 70
     0
  9
$DIMALTTZ
 70
     0
  9
$DIMFIT
 70
     3
  9
$DIMUPT
 70
     0
  9
$DIMUNIT
 70
     2
  9
$DIMDEC
 70
     4
  9
$DIMTDEC
 70
     4
  9
$DIMALTU
 70
     2
  9
$DIMALTTD
 70
     2
  9
$DIMTXSTY
  7
STANDARD
  9
$DIMAUNIT
 70
     0
  9
$LUNITS
 70
     2
  9
$LUPREC
 70
     4
  9
$SKETCHINC
 40
0.1
  9
$FILLETRAD
 40
0.0
  9
$AUNITS
 70
     0
  9
$AUPREC
 70
     0
  9
$MENU
  1
.
  9
$ELEVATION
 40
0.0
  9
$PELEVATION
 40
0.0
  9
$THICKNESS
 40
0.0
  9
$LIMCHECK
 70
     0
  9
$BLIPMODE
 70
     0
  9
$CHAMFERA
 40
0.0
  9
$CHAMFERB
 40
0.0
  9
$CHAMFERC
 40
0.0
  9
$CHAMFERD
 40
0.0
  9
$SKPOLY
 70
     0
  9
$TDCREATE
 40
2454699.450399479
  9
$TDUPDATE
 40
2454699.478599166
  9
$TDINDWG
 40
0.0281996875
  9
$TDUSRTIMER
 40
0.0281996875
  9
$USRTIMER
 70
     1
  9
$ANGBASE
 50
0.0
  9
$ANGDIR
 70
     0
  9
$PDMODE
 70
     0
  9
$PDSIZE
 40
0.0
  9
$PLINEWID
 40
0.0
  9
$COORDS
 70
     1
  9
$SPLFRAME
 70
     0
  9
$SPLINETYPE
 70
     6
  9
$SPLINESEGS
 70
     8
  9
$ATTDIA
 70
     0
  9
$ATTREQ
 70
     1
  9
$HANDLING
 70
 22529
  9
$HANDSEED
  5
19C
  9
$SURFTAB1
 70
     6
  9
$SURFTAB2
 70
     6
  9
$SURFTYPE
 70
     6
  9
$SURFU
 70
     6
  9
$SURFV
 70
     6
  9
$UCSNAME
  2

  9
$UCSORG
 10
0.0
 20
0.0
 30
0.0
  9
$UCSXDIR
 10
1.0
 20
0.0
 30
0.0
  9
$UCSYDIR
 10
0.0
 20
1.0
 30
0.0
  9
$PUCSNAME
  2

  9
$PUCSORG
 10
0.0
 20
0.0
 30
0.0
  9
$PUCSXDIR
 10
1.0
 20
0.0
 30
0.0
  9
$PUCSYDIR
 10
0.0
 20
1.0
 30
0.0
  9
$USERI1
 70
     0
  9
$USERI2
 70
     0
  9
$USERI3
 70
     0
  9
$USERI4
 70
     0
  9
$USERI5
 70
     0
  9
$USERR1
 40
0.0
  9
$USERR2
 40
0.0
  9
$USERR3
 40
0.0
  9
$USERR4
 40
0.0
  9
$USERR5
 40
0.0
  9
$WORLDVIEW
 70
     1
  9
$SHADEDGE
 70
     3
  9
$SHADEDIF
 70
    70
  9
$TILEMODE
 70
     1
  9
$MAXACTVP
 70
    64
  9
$PINSBASE
 10
0.0
 20
0.0
 30
0.0
  9
$PLIMCHECK
 70
     0
  9
$PEXTMIN
 10
1.000000000000000E+20
 20
1.000000000000000E+20
 30
1.000000000000000E+20
  9
$PEXTMAX
 10
-1.000000000000000E+20
 20
-1.000000000000000E+20
 30
-1.000000000000000E+20
  9
$PLIMMIN
 10
0.0
 20
0.0
  9
$PLIMMAX
 10
12.0
 20
9.0
  9
$UNITMODE
 70
     0
  9
$VISRETAIN
 70
     1
  9
$PLINEGEN
 70
     0
  9
$PSLTSCALE
 70
     1
  9
$TREEDEPTH
 70
  3020
  9
$PICKSTYLE
 70
     1
  9
$CMLSTYLE
  2
STANDARD
  9
$CMLJUST
 70
     0
  9
$CMLSCALE
 40
1.0
  9
$PROXYGRAPHICS
 70
     1
  9
$MEASUREMENT
 70
     0
  0
ENDSEC
  0
SECTION
  2
CLASSES
  0
CLASS
  1
ACDBDICTIONARYWDFLT
  2
AcDbDictionaryWithDefault
  3
AutoCAD 2000
 90
        0
280
     0
281
     0
  0
CLASS
  1
ACDBPLACEHOLDER
  2
AcDbPlaceHolder
  3
AutoCAD 2000
 90
        0
280
     0
281
     0
  0
CLASS
  1
LAYOUT
  2
AcDbLayout
  3
AutoCAD 2000
 90
        0
280
     0
281
     0
  0
CLASS
  1
DICTIONARYVAR
  2
AcDbDictionaryVar
  3
AutoCAD 2000
 90
        0
280
     0
281
     0
  0
CLASS
  1
LONG_TRANSACTION
  2
AcDbLongTransaction
  3
AutoCAD 2000
 90
        0
280
     0
281
     0
  0
CLASS
  1
LWPOLYLINE
  2
AcDbPolyline
  3
AutoCAD 2000
 90
        0
280
     0
281
     1
  0
CLASS
  1
HATCH
  2
AcDbHatch
  3
AutoCAD 2000
 90
        0
280
     0
281
     1
  0
CLASS
  1
XRECORD
  2
AcDbXrecord
  3
AutoCAD 2000
 90
        0
280
     0
281
     0
  0
ENDSEC
  0
SECTION
  2
TABLES
  0
TABLE
  2
VPORT
  5
8
330
0
100
AcDbSymbolTable
 70
     4
  0
VPORT
  5
177
330
8
100
AcDbSymbolTableRecord
100
AcDbViewportTableRecord
  2
*ACTIVE
 70
     0
 10
0.0
 20
0.0
 11
1.0
 21
1.0
 12
25.5
 22
79.5
 13
0.0
 23
0.0
 14
1.0
 24
1.0
 15
0.0
 25
0.0
 16
0.0
 26
0.0
 36
1.0
 17
0.0
 27
0.0
 37
0.0
 40
160.265294117647
 41
2.078104993597951
 42
50.0
 43
0.0
 44
0.0
 50
0.0
 51
0.0
 71
     0
 72
   100
 73
     1
 74
     3
 75
     0
 76
     0
 77
     0
 78
     0
  0
ENDTAB
  0
TABLE
  2
LTYPE
  5
5
330
0
100
AcDbSymbolTable
 70
     1
  0
LTYPE
  5
13
330
5
100
AcDbSymbolTableRecord
100
AcDbLinetypeTableRecord
  2
BYBLOCK
 70
     0
  3

 72
    65
 73
     0
 40
0.0
  0
LTYPE
  5
14
330
5
100
AcDbSymbolTableRecord
100
AcDbLinetypeTableRecord
  2
BYLAYER
 70
     0
  3

 72
    65
 73
     0
 40
0.0
  0
LTYPE
  5
15
330
5
100
AcDbSymbolTableRecord
100
AcDbLinetypeTableRecord
  2
CONTINUOUS
 70
     0
  3
Solid line
 72
    65
 73
     0
 40
0.0
  0
ENDTAB
  0
TABLE
  2
LAYER
  5
2
330
0
100
AcDbSymbolTable
 70
     1
  0
LAYER
  5
10
330
2
100
AcDbSymbolTableRecord
100
AcDbLayerTableRecord
  2
0
 70
     0
 62
     7
  6
CONTINUOUS
  0
ENDTAB
  0
TABLE
  2
STYLE
  5
3
330
0
100
AcDbSymbolTable
 70
     1
  0
STYLE
  5
11
330
3
100
AcDbSymbolTableRecord
100
AcDbTextStyleTableRecord
  2
STANDARD
 70
     0
 40
0.0
 41
1.0
 50
0.0
 71
     0
 42
0.2
  3
txt
  4

  0
ENDTAB
  0
TABLE
  2
VIEW
  5
6
330
0
100
AcDbSymbolTable
 70
     0
  0
ENDTAB
  0
TABLE
  2
UCS
  5
7
330
0
100
AcDbSymbolTable
 70
     0
  0
ENDTAB
  0
TABLE
  2
APPID
  5
9
330
0
100
AcDbSymbolTable
 70
     1
  0
APPID
  5
12
330
9
100
AcDbSymbolTableRecord
100
AcDbRegAppTableRecord
  2
ACAD
 70
     0
  0
ENDTAB
  0
TABLE
  2
DIMSTYLE
  5
A
330
0
100
AcDbSymbolTable
 70
     1
  0
DIMSTYLE
105
124
330
A
100
AcDbSymbolTableRecord
100
AcDbDimStyleTableRecord
  2
STANDARD
 70
     0
  3

  4

  5

  6

  7

 40
1.0
 41
0.18
 42
0.0625
 43
0.38
 44
0.18
 45
0.0
 46
0.0
 47
0.0
 48
0.0
140
0.18
141
0.09
142
0.0
143
25.4
144
1.0
145
0.0
146
1.0
147
0.09
 71
     0
 72
     0
 73
     1
 74
     1
 75
     0
 76
     0
 77
     0
 78
     0
170
     0
171
     2
172
     0
173
     0
174
     0
175
     0
176
     0
177
     0
178
     0
270
     2
271
     4
272
     4
273
     2
274
     2
340
11
275
     0
280
     0
281
     0
282
     0
283
     1
284
     0
285
     0
286
     0
287
     3
288
     0
  0
ENDTAB
  0
TABLE
  2
BLOCK_RECORD
  5
1
330
0
100
AcDbSymbolTable
 70
     0
  0
BLOCK_RECORD
  5
1E
102
{ACAD_XDICTIONARY
360
19A
102
}
330
1
100
AcDbSymbolTableRecord
100
AcDbBlockTableRecord
  2
*MODEL_SPACE
  0
BLOCK_RECORD
  5
1A
102
{ACAD_XDICTIONARY
360
198
102
}
330
1
100
AcDbSymbolTableRecord
100
AcDbBlockTableRecord
  2
*PAPER_SPACE
  0
ENDTAB
  0
ENDSEC
  0
SECTION
  2
BLOCKS
  0
BLOCK
  5
1F
330
1E
100
AcDbEntity
  8
0
100
AcDbBlockBegin
  2
*MODEL_SPACE
 70
     0
 10
0.0
 20
0.0
 30
0.0
  3
*MODEL_SPACE
  1

  0
ENDBLK
  5
20
330
1E
100
AcDbEntity
  8
0
100
AcDbBlockEnd
  0
BLOCK
  5
1B
330
1A
100
AcDbEntity
 67
     1
  8
0
100
AcDbBlockBegin
  2
*PAPER_SPACE
 70
     0
 10
0.0
 20
0.0
 30
0.0
  3
*PAPER_SPACE
  1

  0
ENDBLK
  5
1C
330
1A
100
AcDbEntity
 67
     1
  8
0
100
AcDbBlockEnd
  0
ENDSEC
  0
SECTION
  2
ENTITIES
  0
LINE
  5
22
330
1E
100
AcDbEntity
  8
0
100
AcDbLine
 10
3.399999999999999
 20
-0.0225000000000055
 30
0.0
 11
25.5
 21
-0.0225000000000047
 31
0.0
  0
LINE
  5
23
330
1E
100
AcDbEntity
  8
0
100
AcDbLine
 10
0.9
 20
-0.0225000000000051
 30
0.0
 11
3.399999999999999
 21
-0.0225000000000055
 31
0.0
  0
LINE
  5
24
330
1E
100
AcDbEntity
  8
0
100
AcDbLine
 10
0.0
 20
-0.0225000000000047
 30
0.0
 11
25.5
 21
-0.0225000000000047
 31
0.0
  0
LINE
  5
25
330
1E
100
AcDbEntity
  8
0
100
AcDbLine
 10
0.9
 20
-0.0225000000000043
 30
0.0
 11
3.399999999999999
 21
-0.0225000000000039
 31
0.0
  0
LINE
  5
26
330
1E
100
AcDbEntity
  8
0
100
AcDbLine
 10
0.9
 20
-0.0225000000000043
 30
0.0
 11
25.5
 21
-0.0225000000000047
 31
0.0
  0
LINE
  5
27
330
1E
100
AcDbEntity
  8
0
100
AcDbLine
 10
0.9
 20
-0.0225000000000043
 30
0.0
 11
3.399999999999999
 21
-0.0225000000000039
 31
0.0
  0
LINE
  5
28
330
1E
100
AcDbEntity
  8
0
100
AcDbLine
 10
0.9
 20
-0.0225000000000043
 30
0.0
 11
25.5
 21
-0.0225000000000047
 31
0.0
  0
LINE
  5
29
330
1E
100
AcDbEntity
  8
0
100
AcDbLine
 10
0.0000000000000004
 20
-0.0225000000000047
 30
0.0
 11
0.9
 21
-0.0225000000000051
 31
0.0
  0
LINE
  5
2A
330
1E
100
AcDbEntity
  8
0
100
AcDbLine
 10
0.0000000000000004
 20
-0.0225000000000047
 30
0.0
 11
25.5
 21
-0.0225000000000047
 31
0.0
  0
LINE
  5
2B
330
1E
100
AcDbEntity
  8
0
100
AcDbLine
 10
0.0000000000000004
 20
-0.0225000000000047
 30
0.0
 11
0.9
 21
-0.0225000000000043
 31
0.0
  0
LINE
  5
2C
330
1E
100
AcDbEntity
  8
0
100
AcDbLine
 10
0.0000000000000004
 20
-0.0225000000000047
 30
0.0
 11
0.0000000000000004
 21
113.4775
 31
0.0
  0
LINE
  5
2D
330
1E
100
AcDbEntity
  8
0
100
AcDbLine
 10
0.9
 20
-0.0225000000000051
 30
0.0
 11
25.5
 21
-0.0225000000000047
 31
0.0
  0
LINE
  5
2E
330
1E
100
AcDbEntity
  8
0
100
AcDbLine
 10
3.399999999999999
 20
-0.0225000000000039
 30
0.0
 11
25.5
 21
-0.0225000000000047
 31
0.0
  0
LINE
  5
2F
330
1E
100
AcDbEntity
  8
0
100
AcDbLine
 10
3.399999999999999
 20
-0.0225000000000039
 30
0.0
 11
7.5
 21
-0.0225000000000036
 31
0.0
  0
LINE
  5
30
330
1E
100
AcDbEntity
  8
0
100
AcDbLine
 10
7.5
 20
-0.0225000000000036
 30
0.0
 11
25.5
 21
-0.0225000000000047
 31
0.0
  0
LINE
  5
31
330
1E
100
AcDbEntity
  8
0
100
AcDbLine
 10
7.5
 20
-0.0225000000000036
 30
0.0
 11
12.8
 21
-0.0225000000000033
 31
0.0
  0
LINE
  5
32
330
1E
100
AcDbEntity
  8
0
100
AcDbLine
 10
3.399999999999999
 20
-0.0225000000000039
 30
0.0
 11
25.5
 21
-0.0225000000000047
 31
0.0
  0
LINE
  5
33
330
1E
100
AcDbEntity
  8
0
100
AcDbLine
 10
0.9
 20
-0.0225000000000051
 30
0.0
 11
3.399999999999999
 21
-0.0225000000000055
 31
0.0
  0
LINE
  5
34
330
1E
100
AcDbEntity
  8
0
100
AcDbLine
 10
0.9
 20
-0.0225000000000051
 30
0.0
 11
25.5
 21
-0.0225000000000047
 31
0.0
  0
LINE
  5
35
330
1E
100
AcDbEntity
  8
0
100
AcDbLine
 10
3.399999999999999
 20
-0.0225000000000055
 30
0.0
 11
7.5
 21
-0.0225000000000059
 31
0.0
  0
LINE
  5
36
330
1E
100
AcDbEntity
  8
0
100
AcDbLine
 10
3.399999999999999
 20
-0.0225000000000055
 30
0.0
 11
25.5
 21
-0.0225000000000047
 31
0.0
  0
LINE
  5
37
330
1E
100
AcDbEntity
  8
0
100
AcDbLine
 10
11.5
 20
55.8849
 30
0.0
 11
13.0
 21
53.2622
 31
0.0
  0
LINE
  5
38
330
1E
100
AcDbEntity
  8
0
100
AcDbLine
 10
11.0
 20
56.3798
 30
0.0
 11
12.5
 21
53.66649999999999
 31
0.0
  0
LINE
  5
39
330
1E
100
AcDbEntity
  8
0
100
AcDbLine
 10
13.0
 20
53.2622
 30
0.0
 11
15.3
 21
51.0082
 31
0.0
  0
LINE
  5
3A
330
1E
100
AcDbEntity
  8
0
100
AcDbLine
 10
12.5
 20
53.66649999999999
 30
0.0
 11
14.9
 21
51.3218
 31
0.0
  0
LINE
  5
3B
330
1E
100
AcDbEntity
  8
0
100
AcDbLine
 10
12.8
 20
-0.0225000000000033
 30
0.0
 11
25.5
 21
-0.0225000000000047
 31
0.0
  0
LINE
  5
3C
330
1E
100
AcDbEntity
  8
0
100
AcDbLine
 10
12.8
 20
-0.0225000000000033
 30
0.0
 11
18.89999999999999
 21
-0.0225000000000032
 31
0.0
  0
LINE
  5
3D
330
1E
100
AcDbEntity
  8
0
100
AcDbLine
 10
7.5
 20
-0.0225000000000059
 30
0.0
 11
12.8
 21
-0.0225000000000061
 31
0.0
  0
LINE
  5
3E
330
1E
100
AcDbEntity
  8
0
100
AcDbLine
 10
7.5
 20
-0.0225000000000059
 30
0.0
 11
25.5
 21
-0.0225000000000047
 31
0.0
  0
LINE
  5
3F
330
1E
100
AcDbEntity
  8
0
100
AcDbLine
 10
12.8
 20
-0.0225000000000061
 30
0.0
 11
18.89999999999999
 21
-0.0225000000000063
 31
0.0
  0
LINE
  5
40
330
1E
100
AcDbEntity
  8
0
100
AcDbLine
 10
12.8
 20
-0.0225000000000061
 30
0.0
 11
25.5
 21
-0.0225000000000047
 31
0.0
  0
LINE
  5
41
330
1E
100
AcDbEntity
  8
0
100
AcDbLine
 10
14.9
 20
51.3218
 30
0.0
 11
15.3
 21
51.0082
 31
0.0
  0
LINE
  5
42
330
1E
100
AcDbEntity
  8
0
100
AcDbLine
 10
15.3
 20
51.0082
 30
0.0
 11
15.9404198981169
 21
50.63536888264629
 31
0.0
  0
LINE
  5
43
330
1E
100
AcDbEntity
  8
0
100
AcDbLine
 10
14.4
 20
52.9381
 30
0.0
 11
15.55
 21
50.9935
 31
0.0
  0
LINE
  5
44
330
1E
100
AcDbEntity
  8
0
100
AcDbLine
 10
15.55
 20
50.9935
 30
0.0
 11
17.4
 21
49.2965
 31
0.0
  0
LINE
  5
46
330
1E
100
AcDbEntity
  8
0
100
AcDbLine
 10
14.0
 20
55.02399999999999
 30
0.0
 11
14.4
 21
57.11
 31
0.0
  0
LINE
  5
47
330
1E
100
AcDbEntity
  8
0
100
AcDbLine
 10
14.0
 20
55.02399999999999
 30
0.0
 11
14.4
 21
52.9381
 31
0.0
  0
LINE
  5
48
330
1E
100
AcDbEntity
  8
0
100
AcDbLine
 10
11.0
 20
58.6888
 30
0.0
 11
11.5
 21
55.8849
 31
0.0
  0
LINE
  5
49
330
1E
100
AcDbEntity
  8
0
100
AcDbLine
 10
11.0
 20
58.6888
 30
0.0
 11
11.5
 21
61.4505
 31
0.0
  0
LINE
  5
4A
330
1E
100
AcDbEntity
  8
0
100
AcDbLine
 10
10.5
 20
59.32269999999999
 30
0.0
 11
11.0
 21
56.3798
 31
0.0
  0
LINE
  5
4B
330
1E
100
AcDbEntity
  8
0
100
AcDbLine
 10
10.5
 20
59.32269999999999
 30
0.0
 11
10.5
 21
64.9013
 31
0.0
  0
LINE
  5
4D
330
1E
100
AcDbEntity
  8
0
100
AcDbLine
 10
14.4
 20
57.11
 30
0.0
 11
15.55
 21
59.0545
 31
0.0
  0
LINE
  5
4E
330
1E
100
AcDbEntity
  8
0
100
AcDbLine
 10
18.89999999999999
 20
-0.0225000000000032
 30
0.0
 11
25.5
 21
-0.0225000000000047
 31
0.0
  0
LINE
  5
4F
330
1E
100
AcDbEntity
  8
0
100
AcDbLine
 10
18.89999999999999
 20
-0.0225000000000032
 30
0.0
 11
25.5
 21
-0.0225000000000031
 31
0.0
  0
LINE
  5
50
330
1E
100
AcDbEntity
  8
0
100
AcDbLine
 10
18.89999999999999
 20
-0.0225000000000063
 30
0.0
 11
25.5
 21
-0.0225000000000063
 31
0.0
  0
LINE
  5
51
330
1E
100
AcDbEntity
  8
0
100
AcDbLine
 10
18.89999999999999
 20
-0.0225000000000063
 30
0.0
 11
25.5
 21
-0.0225000000000047
 31
0.0
  0
LINE
  5
52
330
1E
100
AcDbEntity
  8
0
100
AcDbLine
 10
17.4
 20
49.2965
 30
0.0
 11
19.8
 21
47.9883
 31
0.0
  0
LINE
  5
53
330
1E
100
AcDbEntity
  8
0
100
AcDbLine
 10
19.8
 20
47.9883
 30
0.0
 11
22.55
 21
47.17509999999999
 31
0.0
  0
LINE
  5
54
330
1E
100
AcDbEntity
  8
0
100
AcDbLine
 10
15.55
 20
59.0545
 30
0.0
 11
17.4
 21
60.7516
 31
0.0
  0
LINE
  5
55
330
1E
100
AcDbEntity
  8
0
100
AcDbLine
 10
11.5
 20
61.4505
 30
0.0
 11
13.0
 21
64.0732
 31
0.0
  0
LINE
  5
56
330
1E
100
AcDbEntity
  8
0
100
AcDbLine
 10
17.4
 20
60.7516
 30
0.0
 11
19.8
 21
62.0597
 31
0.0
  0
LINE
  5
57
330
1E
100
AcDbEntity
  8
0
100
AcDbLine
 10
25.5
 20
-0.0225000000000031
 30
0.0
 11
32.1
 21
-0.0225000000000032
 31
0.0
  0
LINE
  5
58
330
1E
100
AcDbEntity
  8
0
100
AcDbLine
 10
25.5
 20
-0.0225000000000047
 30
0.0
 11
32.1
 21
-0.0225000000000063
 31
0.0
  0
LINE
  5
59
330
1E
100
AcDbEntity
  8
0
100
AcDbLine
 10
25.5
 20
-0.0225000000000047
 30
0.0
 11
38.2
 21
-0.0225000000000061
 31
0.0
  0
LINE
  5
5A
330
1E
100
AcDbEntity
  8
0
100
AcDbLine
 10
25.5
 20
-0.0225000000000047
 30
0.0
 11
43.5
 21
-0.0225000000000059
 31
0.0
  0
LINE
  5
5B
330
1E
100
AcDbEntity
  8
0
100
AcDbLine
 10
25.5
 20
-0.0225000000000047
 30
0.0
 11
47.6
 21
-0.0225000000000055
 31
0.0
  0
LINE
  5
5C
330
1E
100
AcDbEntity
  8
0
100
AcDbLine
 10
25.5
 20
-0.0225000000000047
 30
0.0
 11
50.1
 21
-0.0225000000000051
 31
0.0
  0
LINE
  5
5D
330
1E
100
AcDbEntity
  8
0
100
AcDbLine
 10
25.5
 20
-0.0225000000000047
 30
0.0
 11
51.0
 21
-0.0225000000000047
 31
0.0
  0
LINE
  5
5E
330
1E
100
AcDbEntity
  8
0
100
AcDbLine
 10
25.5
 20
-0.0225000000000047
 30
0.0
 11
50.1
 21
-0.0225000000000043
 31
0.0
  0
LINE
  5
5F
330
1E
100
AcDbEntity
  8
0
100
AcDbLine
 10
25.5
 20
-0.0225000000000047
 30
0.0
 11
47.6
 21
-0.0225000000000039
 31
0.0
  0
LINE
  5
60
330
1E
100
AcDbEntity
  8
0
100
AcDbLine
 10
25.5
 20
-0.0225000000000047
 30
0.0
 11
43.5
 21
-0.0225000000000036
 31
0.0
  0
LINE
  5
61
330
1E
100
AcDbEntity
  8
0
100
AcDbLine
 10
25.5
 20
-0.0225000000000047
 30
0.0
 11
38.2
 21
-0.0225000000000033
 31
0.0
  0
LINE
  5
62
330
1E
100
AcDbEntity
  8
0
100
AcDbLine
 10
25.5
 20
-0.0225000000000047
 30
0.0
 11
32.1
 21
-0.0225000000000032
 31
0.0
  0
LINE
  5
63
330
1E
100
AcDbEntity
  8
0
100
AcDbLine
 10
25.5
 20
-0.0225000000000063
 30
0.0
 11
32.1
 21
-0.0225000000000063
 31
0.0
  0
LINE
  5
64
330
1E
100
AcDbEntity
  8
0
100
AcDbLine
 10
25.5
 20
46.8923
 30
0.0
 11
28.45
 21
47.17509999999999
 31
0.0
  0
LINE
  5
65
330
1E
100
AcDbEntity
  8
0
100
AcDbLine
 10
22.55
 20
47.17509999999999
 30
0.0
 11
25.5
 21
46.8923
 31
0.0
  0
LINE
  5
66
330
1E
100
AcDbEntity
  8
0
100
AcDbLine
 10
19.8
 20
62.0597
 30
0.0
 11
22.55
 21
62.8729
 31
0.0
  0
LINE
  5
67
330
1E
100
AcDbEntity
  8
0
100
AcDbLine
 10
0.0000000000000004
 20
119.1324999999999
 30
0.0
 11
0.9
 21
117.4244999999999
 31
0.0
  0
LINE
  5
68
330
1E
100
AcDbEntity
  8
0
100
AcDbLine
 10
0.0000000000000004
 20
119.1324999999999
 30
0.0
 11
0.0000000000000004
 21
151.0085
 31
0.0
  0
LINE
  5
69
330
1E
100
AcDbEntity
  8
0
100
AcDbLine
 10
0.0000000000000004
 20
151.0085
 30
0.0
 11
0.5
 21
152.4575
 31
0.0
  0
LINE
  5
6A
330
1E
100
AcDbEntity
  8
0
100
AcDbLine
 10
0.0000000000000004
 20
151.0085
 30
0.0
 11
0.0000000000000004
 21
119.1324999999999
 31
0.0
  0
LINE
  5
6B
330
1E
100
AcDbEntity
  8
0
100
AcDbLine
 10
1.399999999999999
 20
113.2775
 30
0.0
 11
3.9
 21
111.6775
 31
0.0
  0
LINE
  5
6C
330
1E
100
AcDbEntity
  8
0
100
AcDbLine
 10
13.0
 20
64.0732
 30
0.0
 11
15.3
 21
66.3272
 31
0.0
  0
LINE
  5
6D
330
1E
100
AcDbEntity
  8
0
100
AcDbLine
 10
10.5
 20
80.7699
 30
0.0
 11
10.5
 21
64.9013
 31
0.0
  0
LINE
  5
6E
330
1E
100
AcDbEntity
  8
0
100
AcDbLine
 10
18.3
 20
68.16419999999999
 30
0.0
 11
21.8
 21
69.2218
 31
0.0
  0
LINE
  5
6F
330
1E
100
AcDbEntity
  8
0
100
AcDbLine
 10
15.3
 20
66.3272
 30
0.0
 11
18.3
 21
68.16419999999999
 31
0.0
  0
LINE
  5
70
330
1E
100
AcDbEntity
  8
0
100
AcDbLine
 10
10.5
 20
64.9013
 30
0.0
 11
10.5
 21
59.32269999999999
 31
0.0
  0
LINE
  5
71
330
1E
100
AcDbEntity
  8
0
100
AcDbLine
 10
10.5
 20
64.9013
 30
0.0
 11
10.5
 21
80.7699
 31
0.0
  0
LINE
  5
72
330
1E
100
AcDbEntity
  8
0
100
AcDbLine
 10
25.5
 20
69.5904
 30
0.0
 11
29.19999999999999
 21
69.2218
 31
0.0
  0
LINE
  5
73
330
1E
100
AcDbEntity
  8
0
100
AcDbLine
 10
25.5
 20
108.4775
 30
0.0
 11
31.89999999999999
 21
108.6775
 31
0.0
  0
LINE
  5
74
330
1E
100
AcDbEntity
  8
0
100
AcDbLine
 10
21.8
 20
69.2218
 30
0.0
 11
25.5
 21
69.5904
 31
0.0
  0
LINE
  5
75
330
1E
100
AcDbEntity
  8
0
100
AcDbLine
 10
19.1
 20
108.6775
 30
0.0
 11
25.5
 21
108.4775
 31
0.0
  0
LINE
  5
76
330
1E
100
AcDbEntity
  8
0
100
AcDbLine
 10
13.1
 20
109.3774999999999
 30
0.0
 11
19.1
 21
108.6775
 31
0.0
  0
LINE
  5
77
330
1E
100
AcDbEntity
  8
0
100
AcDbLine
 10
7.799999999999999
 20
110.3774999999999
 30
0.0
 11
13.1
 21
109.3774999999999
 31
0.0
  0
LINE
  5
78
330
1E
100
AcDbEntity
  8
0
100
AcDbLine
 10
13.3
 20
112.6794999999999
 30
0.0
 11
19.19999999999999
 21
112.0584999999999
 31
0.0
  0
LINE
  5
79
330
1E
100
AcDbEntity
  8
0
100
AcDbLine
 10
8.199999999999999
 20
113.6894999999999
 30
0.0
 11
13.3
 21
112.6794999999999
 31
0.0
  0
LINE
  5
7A
330
1E
100
AcDbEntity
  8
0
100
AcDbLine
 10
7.5
 20
114.4735
 30
0.0
 11
12.8
 21
113.4125
 31
0.0
  0
LINE
  5
7B
330
1E
100
AcDbEntity
  8
0
100
AcDbLine
 10
12.8
 20
113.4125
 30
0.0
 11
18.89999999999999
 21
112.7655
 31
0.0
  0
LINE
  5
7C
330
1E
100
AcDbEntity
  8
0
100
AcDbLine
 10
25.5
 20
111.8254999999999
 30
0.0
 11
31.8
 21
112.0584999999999
 31
0.0
  0
LINE
  5
7D
330
1E
100
AcDbEntity
  8
0
100
AcDbLine
 10
25.5
 20
112.5324999999999
 30
0.0
 11
32.1
 21
112.7655
 31
0.0
  0
LINE
  5
7E
330
1E
100
AcDbEntity
  8
0
100
AcDbLine
 10
19.19999999999999
 20
112.0584999999999
 30
0.0
 11
25.5
 21
111.8254999999999
 31
0.0
  0
LINE
  5
7F
330
1E
100
AcDbEntity
  8
0
100
AcDbLine
 10
18.89999999999999
 20
112.7655
 30
0.0
 11
25.5
 21
112.5324999999999
 31
0.0
  0
LINE
  5
80
330
1E
100
AcDbEntity
  8
0
100
AcDbLine
 10
3.9
 20
111.6775
 30
0.0
 11
7.799999999999999
 21
110.3774999999999
 31
0.0
  0
LINE
  5
81
330
1E
100
AcDbEntity
  8
0
100
AcDbLine
 10
1.399999999999999
 20
113.2775
 30
0.0
 11
3.9
 21
111.6775
 31
0.0
  0
LINE
  5
82
330
1E
100
AcDbEntity
  8
0
100
AcDbLine
 10
4.299999999999999
 20
115.0095
 30
0.0
 11
8.199999999999999
 21
113.6894999999999
 31
0.0
  0
LINE
  5
83
330
1E
100
AcDbEntity
  8
0
100
AcDbLine
 10
2.0
 20
116.472875
 30
0.0
 11
2.0
 21
115.4775
 31
0.0
  0
LINE
  5
84
330
1E
100
AcDbEntity
  8
0
100
AcDbLine
 10
1.9
 20
116.5364999999999
 30
0.0
 11
4.299999999999999
 21
115.0095
 31
0.0
  0
LINE
  5
85
330
1E
100
AcDbEntity
  8
0
100
AcDbLine
 10
3.399999999999999
 20
115.8455
 30
0.0
 11
7.5
 21
114.4735
 31
0.0
  0
LINE
  5
86
330
1E
100
AcDbEntity
  8
0
100
AcDbLine
 10
2.0
 20
115.4775
 30
0.0
 11
2.0
 21
116.472875
 31
0.0
  0
LINE
  5
87
330
1E
100
AcDbEntity
  8
0
100
AcDbLine
 10
1.399999999999999
 20
116.5775
 30
0.0
 11
1.66374345549739
 21
116.746295811518
 31
0.0
  0
LINE
  5
88
330
1E
100
AcDbEntity
  8
0
100
AcDbLine
 10
0.500000000000001
 20
114.8775
 30
0.0
 11
1.399999999999999
 21
113.2775
 31
0.0
  0
LINE
  5
89
330
1E
100
AcDbEntity
  8
0
100
AcDbLine
 10
0.500000000000001
 20
114.8775
 30
0.0
 11
1.399999999999999
 21
116.5775
 31
0.0
  0
LINE
  5
8A
330
1E
100
AcDbEntity
  8
0
100
AcDbLine
 10
0.5
 20
114.8775
 30
0.0
 11
1.399999999999999
 21
116.5775
 31
0.0
  0
LINE
  5
8B
330
1E
100
AcDbEntity
  8
0
100
AcDbLine
 10
0.5
 20
114.8775
 30
0.0
 11
1.399999999999999
 21
113.2775
 31
0.0
  0
LINE
  5
8C
330
1E
100
AcDbEntity
  8
0
100
AcDbLine
 10
0.9
 20
117.4244999999999
 30
0.0
 11
3.399999999999999
 21
115.8455
 31
0.0
  0
LINE
  5
8D
330
1E
100
AcDbEntity
  8
0
100
AcDbLine
 10
0.9
 20
117.4244999999999
 30
0.0
 11
1.9
 21
116.5364999999999
 31
0.0
  0
LINE
  5
8E
330
1E
100
AcDbEntity
  8
0
100
AcDbLine
 10
0.9
 20
117.4244999999999
 30
0.0
 11
3.399999999999999
 21
115.8455
 31
0.0
  0
LINE
  5
8F
330
1E
100
AcDbEntity
  8
0
100
AcDbLine
 10
1.399999999999999
 20
150.8004999999999
 30
0.0
 11
3.9
 21
149.2474999999999
 31
0.0
  0
LINE
  5
90
330
1E
100
AcDbEntity
  8
0
100
AcDbLine
 10
1.399999999999999
 20
150.8004999999999
 30
0.0
 11
3.9
 21
149.2474999999999
 31
0.0
  0
LINE
  5
91
330
1E
100
AcDbEntity
  8
0
100
AcDbLine
 10
3.9
 20
149.2474999999999
 30
0.0
 11
7.799999999999999
 21
147.8764999999999
 31
0.0
  0
LINE
  5
92
330
1E
100
AcDbEntity
  8
0
100
AcDbLine
 10
0.500000000000001
 20
152.4575
 30
0.0
 11
1.399999999999999
 21
154.1134999999999
 31
0.0
  0
LINE
  5
93
330
1E
100
AcDbEntity
  8
0
100
AcDbLine
 10
0.500000000000001
 20
152.4575
 30
0.0
 11
1.399999999999999
 21
150.8004999999999
 31
0.0
  0
LINE
  5
94
330
1E
100
AcDbEntity
  8
0
100
AcDbLine
 10
1.399999999999999
 20
154.1134999999999
 30
0.0
 11
3.9
 21
155.6665
 31
0.0
  0
LINE
  5
95
330
1E
100
AcDbEntity
  8
0
100
AcDbLine
 10
0.5
 20
152.4575
 30
0.0
 11
1.399999999999999
 21
154.1134999999999
 31
0.0
  0
LINE
  5
96
330
1E
100
AcDbEntity
  8
0
100
AcDbLine
 10
0.5
 20
152.4575
 30
0.0
 11
1.399999999999999
 21
150.8004999999999
 31
0.0
  0
LINE
  5
97
330
1E
100
AcDbEntity
  8
0
100
AcDbLine
 10
1.399999999999999
 20
154.1134999999999
 30
0.0
 11
3.9
 21
155.6665
 31
0.0
  0
LINE
  5
98
330
1E
100
AcDbEntity
  8
0
100
AcDbLine
 10
7.799999999999999
 20
147.8764999999999
 30
0.0
 11
13.1
 21
146.8665
 31
0.0
  0
LINE
  5
99
330
1E
100
AcDbEntity
  8
0
100
AcDbLine
 10
3.9
 20
155.6665
 30
0.0
 11
7.799999999999999
 21
157.0384999999999
 31
0.0
  0
LINE
  5
9A
330
1E
100
AcDbEntity
  8
0
100
AcDbLine
 10
7.799999999999999
 20
157.0384999999999
 30
0.0
 11
8.9
 21
157.2365
 31
0.0
  0
LINE
  5
9C
330
1E
100
AcDbEntity
  8
0
100
AcDbLine
 10
13.1
 20
146.8665
 30
0.0
 11
19.1
 21
146.2195
 31
0.0
  0
LINE
  5
9D
330
1E
100
AcDbEntity
  8
0
100
AcDbLine
 10
19.1
 20
146.2195
 30
0.0
 11
22.2266200423581
 21
146.105671489083
 31
0.0
  0
LINE
  5
9E
330
1E
100
AcDbEntity
  8
0
100
AcDbLine
 10
8.9
 20
157.2365
 30
0.0
 11
13.8
 21
158.2195
 31
0.0
  0
LINE
  5
9F
330
1E
100
AcDbEntity
  8
0
100
AcDbLine
 10
13.8
 20
158.2195
 30
0.0
 11
19.5
 21
158.7895
 31
0.0
  0
LINE
  5
A0
330
1E
100
AcDbEntity
  8
0
100
AcDbLine
 10
23.3
 20
139.1105
 30
0.0
 11
24.3
 21
138.7105
 31
0.0
  0
LINE
  5
A1
330
1E
100
AcDbEntity
  8
0
100
AcDbLine
 10
25.5
 20
138.5105
 30
0.0
 11
26.69999999999999
 21
138.7105
 31
0.0
  0
LINE
  5
A2
330
1E
100
AcDbEntity
  8
0
100
AcDbLine
 10
25.5
 20
139.0105
 30
0.0
 11
26.5
 21
139.1105
 31
0.0
  0
LINE
  5
A3
330
1E
100
AcDbEntity
  8
0
100
AcDbLine
 10
24.3
 20
138.7105
 30
0.0
 11
25.5
 21
138.5105
 31
0.0
  0
LINE
  5
A4
330
1E
100
AcDbEntity
  8
0
100
AcDbLine
 10
22.29999999999999
 20
139.8104999999999
 30
0.0
 11
23.3
 21
139.1105
 31
0.0
  0
LINE
  5
A5
330
1E
100
AcDbEntity
  8
0
100
AcDbLine
 10
21.2
 20
141.8104999999999
 30
0.0
 11
21.6
 21
140.8104999999999
 31
0.0
  0
LINE
  5
A6
330
1E
100
AcDbEntity
  8
0
100
AcDbLine
 10
21.6
 20
140.8104999999999
 30
0.0
 11
22.29999999999999
 21
139.8104999999999
 31
0.0
  0
LINE
  5
A7
330
1E
100
AcDbEntity
  8
0
100
AcDbLine
 10
21.2
 20
144.2104999999999
 30
0.0
 11
21.6
 21
145.2104999999999
 31
0.0
  0
LINE
  5
A8
330
1E
100
AcDbEntity
  8
0
100
AcDbLine
 10
21.0
 20
143.0105
 30
0.0
 11
21.2
 21
141.8104999999999
 31
0.0
  0
LINE
  5
A9
330
1E
100
AcDbEntity
  8
0
100
AcDbLine
 10
21.0
 20
143.0105
 30
0.0
 11
21.2
 21
144.2104999999999
 31
0.0
  0
LINE
  5
AA
330
1E
100
AcDbEntity
  8
0
100
AcDbLine
 10
21.6
 20
144.0105
 30
0.0
 11
22.0
 21
145.0105
 31
0.0
  0
LINE
  5
AB
330
1E
100
AcDbEntity
  8
0
100
AcDbLine
 10
21.6
 20
145.2104999999999
 30
0.0
 11
22.29999999999999
 21
146.2105
 31
0.0
  0
LINE
  5
AC
330
1E
100
AcDbEntity
  8
0
100
AcDbLine
 10
22.0
 20
145.0105
 30
0.0
 11
22.6
 21
145.9105
 31
0.0
  0
LINE
  5
AD
330
1E
100
AcDbEntity
  8
0
100
AcDbLine
 10
21.49999999999999
 20
143.0105
 30
0.0
 11
21.6
 21
142.0105
 31
0.0
  0
LINE
  5
AE
330
1E
100
AcDbEntity
  8
0
100
AcDbLine
 10
21.49999999999999
 20
143.0105
 30
0.0
 11
21.6
 21
144.0105
 31
0.0
  0
LINE
  5
AF
330
1E
100
AcDbEntity
  8
0
100
AcDbLine
 10
21.6
 20
142.0105
 30
0.0
 11
22.0
 21
141.0105
 31
0.0
  0
LINE
  5
B0
330
1E
100
AcDbEntity
  8
0
100
AcDbLine
 10
22.29999999999999
 20
146.2105
 30
0.0
 11
23.3
 21
146.9105
 31
0.0
  0
LINE
  5
B1
330
1E
100
AcDbEntity
  8
0
100
AcDbLine
 10
22.6
 20
145.9105
 30
0.0
 11
23.5
 21
146.5105
 31
0.0
  0
LINE
  5
B2
330
1E
100
AcDbEntity
  8
0
100
AcDbLine
 10
23.3
 20
146.9105
 30
0.0
 11
24.3
 21
147.3104999999999
 31
0.0
  0
LINE
  5
B3
330
1E
100
AcDbEntity
  8
0
100
AcDbLine
 10
23.5
 20
146.5105
 30
0.0
 11
24.5
 21
146.9105
 31
0.0
  0
LINE
  5
B4
330
1E
100
AcDbEntity
  8
0
100
AcDbLine
 10
22.0
 20
141.0105
 30
0.0
 11
22.6
 21
140.1105
 31
0.0
  0
LINE
  5
B5
330
1E
100
AcDbEntity
  8
0
100
AcDbLine
 10
22.6
 20
140.1105
 30
0.0
 11
23.5
 21
139.5105
 31
0.0
  0
LINE
  5
B6
330
1E
100
AcDbEntity
  8
0
100
AcDbLine
 10
25.5
 20
159.0225
 30
0.0
 11
31.5
 21
158.7895
 31
0.0
  0
LINE
  5
B7
330
1E
100
AcDbEntity
  8
0
100
AcDbLine
 10
25.5
 20
147.5105
 30
0.0
 11
26.69999999999999
 21
147.3104999999999
 31
0.0
  0
LINE
  5
B8
330
1E
100
AcDbEntity
  8
0
100
AcDbLine
 10
25.5
 20
147.0105
 30
0.0
 11
26.5
 21
146.9105
 31
0.0
  0
LINE
  5
B9
330
1E
100
AcDbEntity
  8
0
100
AcDbLine
 10
24.3
 20
147.3104999999999
 30
0.0
 11
25.5
 21
147.5105
 31
0.0
  0
LINE
  5
BA
330
1E
100
AcDbEntity
  8
0
100
AcDbLine
 10
24.5
 20
146.9105
 30
0.0
 11
25.5
 21
147.0105
 31
0.0
  0
LINE
  5
BB
330
1E
100
AcDbEntity
  8
0
100
AcDbLine
 10
23.5
 20
139.5105
 30
0.0
 11
24.5
 21
139.1105
 31
0.0
  0
LINE
  5
BC
330
1E
100
AcDbEntity
  8
0
100
AcDbLine
 10
24.5
 20
139.1105
 30
0.0
 11
25.5
 21
139.0105
 31
0.0
  0
LINE
  5
BD
330
1E
100
AcDbEntity
  8
0
100
AcDbLine
 10
19.5
 20
158.7895
 30
0.0
 11
25.5
 21
159.0225
 31
0.0
  0
LINE
  5
BE
330
1E
100
AcDbEntity
  8
0
100
AcDbLine
 10
1.399999999999999
 20
116.5775
 30
0.0
 11
1.66374345549739
 21
116.746295811518
 31
0.0
  0
LINE
  5
BF
330
1E
100
AcDbEntity
  8
0
100
AcDbLine
 10
0.0000000000000004
 20
113.4775
 30
0.0
 11
0.0000000000000004
 21
-0.0225000000000048
 31
0.0
  0
LINE
  5
C0
330
1E
100
AcDbEntity
  8
0
100
AcDbLine
 10
0.0000000000000004
 20
113.4775
 30
0.0
 11
0.5
 21
114.8775
 31
0.0
  0
LINE
  5
C1
330
1E
100
AcDbEntity
  8
0
100
AcDbLine
 10
22.55
 20
62.8729
 30
0.0
 11
25.5
 21
63.15570000000001
 31
0.0
  0
LINE
  5
C2
330
1E
100
AcDbEntity
  8
0
100
AcDbLine
 10
31.2
 20
47.9883
 30
0.0
 11
33.6
 21
49.2965
 31
0.0
  0
LINE
  5
C3
330
1E
100
AcDbEntity
  8
0
100
AcDbLine
 10
28.45
 20
47.17509999999999
 30
0.0
 11
31.2
 21
47.9883
 31
0.0
  0
LINE
  5
C4
330
1E
100
AcDbEntity
  8
0
100
AcDbLine
 10
32.1
 20
-0.0225000000000032
 30
0.0
 11
38.2
 21
-0.0225000000000033
 31
0.0
  0
LINE
  5
C5
330
1E
100
AcDbEntity
  8
0
100
AcDbLine
 10
32.1
 20
-0.0225000000000063
 30
0.0
 11
38.2
 21
-0.0225000000000061
 31
0.0
  0
LINE
  5
C6
330
1E
100
AcDbEntity
  8
0
100
AcDbLine
 10
35.0595801018831
 20
50.63536888264629
 30
0.0
 11
35.7
 21
51.0082
 31
0.0
  0
LINE
  5
C7
330
1E
100
AcDbEntity
  8
0
100
AcDbLine
 10
35.45
 20
50.9935
 30
0.0
 11
36.6
 21
52.9381
 31
0.0
  0
LINE
  5
C8
330
1E
100
AcDbEntity
  8
0
100
AcDbLine
 10
33.6
 20
49.2965
 30
0.0
 11
35.45
 21
50.9935
 31
0.0
  0
LINE
  5
C9
330
1E
100
AcDbEntity
  8
0
100
AcDbLine
 10
35.7
 20
51.0082
 30
0.0
 11
36.1
 21
51.3218
 31
0.0
  0
LINE
  5
CA
330
1E
100
AcDbEntity
  8
0
100
AcDbLine
 10
35.7
 20
51.0082
 30
0.0
 11
38.0
 21
53.2622
 31
0.0
  0
LINE
  5
CB
330
1E
100
AcDbEntity
  8
0
100
AcDbLine
 10
36.1
 20
51.3218
 30
0.0
 11
38.5
 21
53.66649999999999
 31
0.0
  0
LINE
  5
CC
330
1E
100
AcDbEntity
  8
0
100
AcDbLine
 10
38.0
 20
53.2622
 30
0.0
 11
39.5
 21
55.8849
 31
0.0
  0
LINE
  5
CD
330
1E
100
AcDbEntity
  8
0
100
AcDbLine
 10
38.2
 20
-0.0225000000000033
 30
0.0
 11
43.5
 21
-0.0225000000000036
 31
0.0
  0
LINE
  5
CE
330
1E
100
AcDbEntity
  8
0
100
AcDbLine
 10
38.5
 20
53.66649999999999
 30
0.0
 11
40.0
 21
56.3798
 31
0.0
  0
LINE
  5
CF
330
1E
100
AcDbEntity
  8
0
100
AcDbLine
 10
43.5
 20
-0.0225000000000036
 30
0.0
 11
47.6
 21
-0.0225000000000039
 31
0.0
  0
LINE
  5
D0
330
1E
100
AcDbEntity
  8
0
100
AcDbLine
 10
47.6
 20
-0.0225000000000039
 30
0.0
 11
50.1
 21
-0.0225000000000043
 31
0.0
  0
LINE
  5
D1
330
1E
100
AcDbEntity
  8
0
100
AcDbLine
 10
51.0
 20
-0.0225000000000047
 30
0.0
 11
51.0
 21
113.4775
 31
0.0
  0
LINE
  5
D2
330
1E
100
AcDbEntity
  8
0
100
AcDbLine
 10
50.1
 20
-0.0225000000000043
 30
0.0
 11
51.0
 21
-0.0225000000000047
 31
0.0
  0
LINE
  5
D3
330
1E
100
AcDbEntity
  8
0
100
AcDbLine
 10
50.1
 20
-0.0225000000000051
 30
0.0
 11
51.0
 21
-0.0225000000000047
 31
0.0
  0
LINE
  5
D4
330
1E
100
AcDbEntity
  8
0
100
AcDbLine
 10
47.6
 20
-0.0225000000000055
 30
0.0
 11
50.1
 21
-0.0225000000000051
 31
0.0
  0
LINE
  5
D5
330
1E
100
AcDbEntity
  8
0
100
AcDbLine
 10
43.5
 20
-0.0225000000000059
 30
0.0
 11
47.6
 21
-0.0225000000000055
 31
0.0
  0
LINE
  5
D6
330
1E
100
AcDbEntity
  8
0
100
AcDbLine
 10
38.2
 20
-0.0225000000000061
 30
0.0
 11
43.5
 21
-0.0225000000000059
 31
0.0
  0
LINE
  5
D7
330
1E
100
AcDbEntity
  8
0
100
AcDbLine
 10
39.5
 20
55.8849
 30
0.0
 11
40.0
 21
58.6888
 31
0.0
  0
LINE
  5
D8
330
1E
100
AcDbEntity
  8
0
100
AcDbLine
 10
40.0
 20
56.3798
 30
0.0
 11
40.49999999999999
 21
59.32269999999999
 31
0.0
  0
LINE
  5
DA
330
1E
100
AcDbEntity
  8
0
100
AcDbLine
 10
36.6
 20
52.9381
 30
0.0
 11
37.0
 21
55.02399999999999
 31
0.0
  0
LINE
  5
DB
330
1E
100
AcDbEntity
  8
0
100
AcDbLine
 10
40.49999999999999
 20
59.32269999999999
 30
0.0
 11
40.49999999999999
 21
64.9013
 31
0.0
  0
LINE
  5
DD
330
1E
100
AcDbEntity
  8
0
100
AcDbLine
 10
36.6
 20
57.11
 30
0.0
 11
37.0
 21
55.02399999999999
 31
0.0
  0
LINE
  5
DE
330
1E
100
AcDbEntity
  8
0
100
AcDbLine
 10
35.45
 20
59.0545
 30
0.0
 11
36.6
 21
57.11
 31
0.0
  0
LINE
  5
DF
330
1E
100
AcDbEntity
  8
0
100
AcDbLine
 10
39.5
 20
61.4505
 30
0.0
 11
40.0
 21
58.6888
 31
0.0
  0
LINE
  5
E0
330
1E
100
AcDbEntity
  8
0
100
AcDbLine
 10
33.6
 20
60.7516
 30
0.0
 11
35.45
 21
59.0545
 31
0.0
  0
LINE
  5
E1
330
1E
100
AcDbEntity
  8
0
100
AcDbLine
 10
31.2
 20
62.0597
 30
0.0
 11
33.6
 21
60.7516
 31
0.0
  0
LINE
  5
E2
330
1E
100
AcDbEntity
  8
0
100
AcDbLine
 10
29.19999999999999
 20
69.2218
 30
0.0
 11
32.7
 21
68.16419999999999
 31
0.0
  0
LINE
  5
E3
330
1E
100
AcDbEntity
  8
0
100
AcDbLine
 10
38.0
 20
64.0732
 30
0.0
 11
39.5
 21
61.4505
 31
0.0
  0
LINE
  5
E4
330
1E
100
AcDbEntity
  8
0
100
AcDbLine
 10
32.7
 20
68.16419999999999
 30
0.0
 11
35.7
 21
66.3272
 31
0.0
  0
LINE
  5
E5
330
1E
100
AcDbEntity
  8
0
100
AcDbLine
 10
40.49999999999999
 20
80.7699
 30
0.0
 11
40.49999999999999
 21
64.9013
 31
0.0
  0
LINE
  5
E6
330
1E
100
AcDbEntity
  8
0
100
AcDbLine
 10
35.7
 20
66.3272
 30
0.0
 11
38.0
 21
64.0732
 31
0.0
  0
LINE
  5
E7
330
1E
100
AcDbEntity
  8
0
100
AcDbLine
 10
40.49999999999999
 20
64.9013
 30
0.0
 11
40.49999999999999
 21
59.32269999999999
 31
0.0
  0
LINE
  5
E8
330
1E
100
AcDbEntity
  8
0
100
AcDbLine
 10
40.49999999999999
 20
64.9013
 30
0.0
 11
40.49999999999999
 21
80.7699
 31
0.0
  0
LINE
  5
E9
330
1E
100
AcDbEntity
  8
0
100
AcDbLine
 10
31.89999999999999
 20
108.6775
 30
0.0
 11
37.9
 21
109.3774999999999
 31
0.0
  0
LINE
  5
EA
330
1E
100
AcDbEntity
  8
0
100
AcDbLine
 10
37.9
 20
109.3774999999999
 30
0.0
 11
43.2
 21
110.3774999999999
 31
0.0
  0
LINE
  5
EB
330
1E
100
AcDbEntity
  8
0
100
AcDbLine
 10
43.2
 20
110.3774999999999
 30
0.0
 11
47.09999999999999
 21
111.6775
 31
0.0
  0
LINE
  5
EC
330
1E
100
AcDbEntity
  8
0
100
AcDbLine
 10
26.5
 20
139.1105
 30
0.0
 11
27.5
 21
139.5105
 31
0.0
  0
LINE
  5
ED
330
1E
100
AcDbEntity
  8
0
100
AcDbLine
 10
27.7
 20
139.1105
 30
0.0
 11
28.7
 21
139.8104999999999
 31
0.0
  0
LINE
  5
EE
330
1E
100
AcDbEntity
  8
0
100
AcDbLine
 10
26.69999999999999
 20
138.7105
 30
0.0
 11
27.7
 21
139.1105
 31
0.0
  0
LINE
  5
EF
330
1E
100
AcDbEntity
  8
0
100
AcDbLine
 10
28.39999999999999
 20
140.1105
 30
0.0
 11
29.0
 21
141.0105
 31
0.0
  0
LINE
  5
F0
330
1E
100
AcDbEntity
  8
0
100
AcDbLine
 10
27.5
 20
139.5105
 30
0.0
 11
28.39999999999999
 21
140.1105
 31
0.0
  0
LINE
  5
F1
330
1E
100
AcDbEntity
  8
0
100
AcDbLine
 10
29.39999999999999
 20
140.8104999999999
 30
0.0
 11
29.8
 21
141.8104999999999
 31
0.0
  0
LINE
  5
F2
330
1E
100
AcDbEntity
  8
0
100
AcDbLine
 10
28.7
 20
139.8104999999999
 30
0.0
 11
29.39999999999999
 21
140.8104999999999
 31
0.0
  0
LINE
  5
F3
330
1E
100
AcDbEntity
  8
0
100
AcDbLine
 10
29.39999999999999
 20
142.0105
 30
0.0
 11
29.5
 21
143.0105
 31
0.0
  0
LINE
  5
F4
330
1E
100
AcDbEntity
  8
0
100
AcDbLine
 10
29.0
 20
141.0105
 30
0.0
 11
29.39999999999999
 21
142.0105
 31
0.0
  0
LINE
  5
F5
330
1E
100
AcDbEntity
  8
0
100
AcDbLine
 10
31.8
 20
112.0584999999999
 30
0.0
 11
37.7
 21
112.6794999999999
 31
0.0
  0
LINE
  5
F6
330
1E
100
AcDbEntity
  8
0
100
AcDbLine
 10
37.7
 20
112.6794999999999
 30
0.0
 11
42.8
 21
113.6894999999999
 31
0.0
  0
LINE
  5
F7
330
1E
100
AcDbEntity
  8
0
100
AcDbLine
 10
42.8
 20
113.6894999999999
 30
0.0
 11
46.7
 21
115.0095
 31
0.0
  0
LINE
  5
F8
330
1E
100
AcDbEntity
  8
0
100
AcDbLine
 10
46.7
 20
115.0095
 30
0.0
 11
49.1
 21
116.5364999999999
 31
0.0
  0
LINE
  5
F9
330
1E
100
AcDbEntity
  8
0
100
AcDbLine
 10
43.5
 20
114.4735
 30
0.0
 11
47.6
 21
115.8455
 31
0.0
  0
LINE
  5
FA
330
1E
100
AcDbEntity
  8
0
100
AcDbLine
 10
38.2
 20
113.4125
 30
0.0
 11
43.5
 21
114.4735
 31
0.0
  0
LINE
  5
FB
330
1E
100
AcDbEntity
  8
0
100
AcDbLine
 10
32.1
 20
112.7655
 30
0.0
 11
38.2
 21
113.4125
 31
0.0
  0
LINE
  5
FC
330
1E
100
AcDbEntity
  8
0
100
AcDbLine
 10
49.0
 20
116.472875
 30
0.0
 11
49.0
 21
115.4775
 31
0.0
  0
LINE
  5
FD
330
1E
100
AcDbEntity
  8
0
100
AcDbLine
 10
49.1
 20
116.5364999999999
 30
0.0
 11
50.1
 21
117.4244999999999
 31
0.0
  0
LINE
  5
FE
330
1E
100
AcDbEntity
  8
0
100
AcDbLine
 10
47.6
 20
115.8455
 30
0.0
 11
50.1
 21
117.4244999999999
 31
0.0
  0
LINE
  5
FF
330
1E
100
AcDbEntity
  8
0
100
AcDbLine
 10
49.0
 20
115.4775
 30
0.0
 11
49.0
 21
116.472875
 31
0.0
  0
LINE
  5
100
330
1E
100
AcDbEntity
  8
0
100
AcDbLine
 10
29.8
 20
141.8104999999999
 30
0.0
 11
30.0
 21
143.0105
 31
0.0
  0
LINE
  5
101
330
1E
100
AcDbEntity
  8
0
100
AcDbLine
 10
29.8
 20
144.2104999999999
 30
0.0
 11
30.0
 21
143.0105
 31
0.0
  0
LINE
  5
102
330
1E
100
AcDbEntity
  8
0
100
AcDbLine
 10
29.39999999999999
 20
144.0105
 30
0.0
 11
29.5
 21
143.0105
 31
0.0
  0
LINE
  5
103
330
1E
100
AcDbEntity
  8
0
100
AcDbLine
 10
31.89999999999999
 20
146.2195
 30
0.0
 11
37.9
 21
146.8665
 31
0.0
  0
LINE
  5
104
330
1E
100
AcDbEntity
  8
0
100
AcDbLine
 10
28.773379957642
 20
146.105671489083
 30
0.0
 11
31.89999999999999
 21
146.2195
 31
0.0
  0
LINE
  5
105
330
1E
100
AcDbEntity
  8
0
100
AcDbLine
 10
29.39999999999999
 20
145.2104999999999
 30
0.0
 11
29.8
 21
144.2104999999999
 31
0.0
  0
LINE
  5
106
330
1E
100
AcDbEntity
  8
0
100
AcDbLine
 10
28.7
 20
146.2105
 30
0.0
 11
29.39999999999999
 21
145.2104999999999
 31
0.0
  0
LINE
  5
107
330
1E
100
AcDbEntity
  8
0
100
AcDbLine
 10
29.0
 20
145.0105
 30
0.0
 11
29.39999999999999
 21
144.0105
 31
0.0
  0
LINE
  5
108
330
1E
100
AcDbEntity
  8
0
100
AcDbLine
 10
28.39999999999999
 20
145.9105
 30
0.0
 11
29.0
 21
145.0105
 31
0.0
  0
LINE
  5
109
330
1E
100
AcDbEntity
  8
0
100
AcDbLine
 10
37.9
 20
146.8665
 30
0.0
 11
43.2
 21
147.8764999999999
 31
0.0
  0
LINE
  5
10A
330
1E
100
AcDbEntity
  8
0
100
AcDbLine
 10
43.2
 20
157.0384999999999
 30
0.0
 11
47.09999999999999
 21
155.6665
 31
0.0
  0
LINE
  5
10C
330
1E
100
AcDbEntity
  8
0
100
AcDbLine
 10
42.09999999999999
 20
157.2365
 30
0.0
 11
43.2
 21
157.0384999999999
 31
0.0
  0
LINE
  5
10D
330
1E
100
AcDbEntity
  8
0
100
AcDbLine
 10
37.2
 20
158.2195
 30
0.0
 11
42.09999999999999
 21
157.2365
 31
0.0
  0
LINE
  5
10E
330
1E
100
AcDbEntity
  8
0
100
AcDbLine
 10
31.5
 20
158.7895
 30
0.0
 11
37.2
 21
158.2195
 31
0.0
  0
LINE
  5
10F
330
1E
100
AcDbEntity
  8
0
100
AcDbLine
 10
47.09999999999999
 20
155.6665
 30
0.0
 11
49.6
 21
154.1134999999999
 31
0.0
  0
LINE
  5
110
330
1E
100
AcDbEntity
  8
0
100
AcDbLine
 10
47.09999999999999
 20
149.2474999999999
 30
0.0
 11
49.6
 21
150.8004999999999
 31
0.0
  0
LINE
  5
111
330
1E
100
AcDbEntity
  8
0
100
AcDbLine
 10
43.2
 20
147.8764999999999
 30
0.0
 11
47.09999999999999
 21
149.2474999999999
 31
0.0
  0
LINE
  5
112
330
1E
100
AcDbEntity
  8
0
100
AcDbLine
 10
27.7
 20
146.9105
 30
0.0
 11
28.7
 21
146.2105
 31
0.0
  0
LINE
  5
113
330
1E
100
AcDbEntity
  8
0
100
AcDbLine
 10
26.69999999999999
 20
147.3104999999999
 30
0.0
 11
27.7
 21
146.9105
 31
0.0
  0
LINE
  5
114
330
1E
100
AcDbEntity
  8
0
100
AcDbLine
 10
27.5
 20
146.5105
 30
0.0
 11
28.39999999999999
 21
145.9105
 31
0.0
  0
LINE
  5
115
330
1E
100
AcDbEntity
  8
0
100
AcDbLine
 10
26.5
 20
146.9105
 30
0.0
 11
27.5
 21
146.5105
 31
0.0
  0
LINE
  5
116
330
1E
100
AcDbEntity
  8
0
100
AcDbLine
 10
47.09999999999999
 20
111.6775
 30
0.0
 11
49.6
 21
113.2775
 31
0.0
  0
LINE
  5
117
330
1E
100
AcDbEntity
  8
0
100
AcDbLine
 10
51.0
 20
113.4775
 30
0.0
 11
51.0
 21
-0.0225000000000048
 31
0.0
  0
LINE
  5
118
330
1E
100
AcDbEntity
  8
0
100
AcDbLine
 10
49.6
 20
113.2775
 30
0.0
 11
50.5
 21
114.8775
 31
0.0
  0
LINE
  5
119
330
1E
100
AcDbEntity
  8
0
100
AcDbLine
 10
49.6
 20
154.1134999999999
 30
0.0
 11
50.5
 21
152.4575
 31
0.0
  0
LINE
  5
11A
330
1E
100
AcDbEntity
  8
0
100
AcDbLine
 10
49.6
 20
150.8004999999999
 30
0.0
 11
50.5
 21
152.4575
 31
0.0
  0
LINE
  5
11B
330
1E
100
AcDbEntity
  8
0
100
AcDbLine
 10
51.0
 20
119.1324999999999
 30
0.0
 11
51.0
 21
151.0085
 31
0.0
  0
LINE
  5
11C
330
1E
100
AcDbEntity
  8
0
100
AcDbLine
 10
51.0
 20
151.0085
 30
0.0
 11
51.0
 21
119.1324999999999
 31
0.0
  0
LINE
  5
11D
330
1E
100
AcDbEntity
  8
0
100
AcDbLine
 10
50.1
 20
117.4244999999999
 30
0.0
 11
51.0
 21
119.1324999999999
 31
0.0
  0
LINE
  5
11E
330
1E
100
AcDbEntity
  8
0
100
AcDbLine
 10
50.5
 20
152.4575
 30
0.0
 11
51.0
 21
151.0085
 31
0.0
  0
LINE
  5
11F
330
1E
100
AcDbEntity
  8
0
100
AcDbLine
 10
49.6
 20
116.5775
 30
0.0
 11
50.5
 21
114.8775
 31
0.0
  0
LINE
  5
120
330
1E
100
AcDbEntity
  8
0
100
AcDbLine
 10
50.5
 20
114.8775
 30
0.0
 11
51.0
 21
113.4775
 31
0.0
  0
LINE
  5
121
330
1E
100
AcDbEntity
  8
0
100
AcDbLine
 10
49.3362565445026
 20
116.746295811518
 30
0.0
 11
49.6
 21
116.5775
 31
0.0
  0
LINE
  5
122
330
1E
100
AcDbEntity
  8
0
100
AcDbLine
 10
28.45
 20
62.8729
 30
0.0
 11
31.2
 21
62.0597
 31
0.0
  0
LINE
  5
123
330
1E
100
AcDbEntity
  8
0
100
AcDbLine
 10
25.5
 20
63.15570000000001
 30
0.0
 11
28.45
 21
62.8729
 31
0.0
  0
LWPOLYLINE
  5
129
330
1E
100
AcDbEntity
  8
0
100
AcDbPolyline
 90
       12
 70
     0
 43
0.0
 10
10.5
 20
80.76989999999993
 10
10.6727338117455
 20
83.06233934570526
 10
11.26573765673992
 20
85.75602280127156
 10
12.05840749545223
 20
87.7301103525507
 10
13.36216390310585
 20
89.92519889740391
 10
15.30484404645164
 20
92.13099152895784
 10
17.25760255818875
 20
93.66656862691234
 10
18.95426102093233
 20
94.61030853956406
 10
20.66692530055399
 20
95.33011004769191
 10
22.50763999239154
 20
95.82597315129573
 10
24.15627945362439
 20
96.06590723610281
 10
25.5
 20
96.2
  0
LWPOLYLINE
  5
12A
330
1E
100
AcDbEntity
  8
0
100
AcDbPolyline
 90
       12
 70
     0
 43
0.0
 10
40.49999999999999
 20
80.76989999999993
 10
40.32726618825449
 20
83.06233934570526
 10
39.73426234326007
 20
85.75602280127156
 10
38.94159250454777
 20
87.7301103525507
 10
37.63783609689415
 20
89.92519889740391
 10
35.69515595354835
 20
92.13099152895784
 10
33.74239744181124
 20
93.66656862691234
 10
32.04573897906766
 20
94.61030853956406
 10
30.333074699446
 20
95.33011004769191
 10
28.49236000760845
 20
95.82597315129573
 10
26.8437205463756
 20
96.06590723610281
 10
25.5
 20
96.2
  0
ENDSEC
  0
SECTION
  2
OBJECTS
  0
DICTIONARY
  5
C
330
0
100
AcDbDictionary
  3
ACAD_GROUP
350
D
  3
ACAD_LAYOUT
350
19
  3
ACAD_MLINESTYLE
350
16
  3
ACAD_PLOTSETTINGS
350
18
  3
ACAD_PLOTSTYLENAME
350
E
  3
ACDBHEADERROUNDTRIPXREC
350
178
  3
ACDBVARIABLEDICTIONARY
350
12B
  0
DICTIONARY
  5
19A
330
1E
100
AcDbDictionary
280
     1
  3
ACAD_LAYOUTSELFREF
360
19B
  0
DICTIONARY
  5
198
330
1A
100
AcDbDictionary
280
     1
  3
ACAD_LAYOUTSELFREF
360
199
  0
DICTIONARY
  5
D
102
{ACAD_REACTORS
330
C
102
}
330
C
100
AcDbDictionary
  0
DICTIONARY
  5
19
102
{ACAD_REACTORS
330
C
102
}
330
C
100
AcDbDictionary
  0
DICTIONARY
  5
16
102
{ACAD_REACTORS
330
C
102
}
330
C
100
AcDbDictionary
  3
STANDARD
350
17
  0
DICTIONARY
  5
18
102
{ACAD_REACTORS
330
C
102
}
330
C
100
AcDbDictionary
  0
ACDBDICTIONARYWDFLT
  5
E
102
{ACAD_REACTORS
330
C
102
}
330
C
100
AcDbDictionary
281
     1
  3
Normal
350
F
100
AcDbDictionaryWithDefault
340
F
  0
DICTIONARY
  5
178
102
{ACAD_REACTORS
330
C
102
}
330
C
100
AcDbDictionary
  3
CEPSNTYPE
350
182
  3
FINGERPRINTGUID
350
183
  3
HYPERLINKBASE
350
17B
  3
INSUNITS
350
181
  3
LAYOUTDICT
350
17D
  3
LWETCUNION
350
180
  3
PLOTSETDICT
350
17E
  3
PLOTSTYLNAMDICT
350
17F
  3
PSVPSCALE
350
185
  3
PUCSBASE
350
188
  3
PUCSORGBACK
350
18E
  3
PUCSORGBOTTOM
350
18A
  3
PUCSORGFRONT
350
18D
  3
PUCSORGLEFT
350
18B
  3
PUCSORGRIGHT
350
18C
  3
PUCSORGTOP
350
189
  3
PUCSORTHOREF
350
186
  3
PUCSORTHOVIEW
350
187
  3
STYLESHEET
350
17C
  3
TSTACKALIGN
350
179
  3
TSTACKSIZE
350
17A
  3
UCSBASE
350
191
  3
UCSORGBACK
350
197
  3
UCSORGBOTTOM
350
193
  3
UCSORGFRONT
350
196
  3
UCSORGLEFT
350
194
  3
UCSORGRIGHT
350
195
  3
UCSORGTOP
350
192
  3
UCSORTHOREF
350
18F
  3
UCSORTHOVIEW
350
190
  3
VERSIONGUID
350
184
  0
DICTIONARY
  5
12B
102
{ACAD_REACTORS
330
C
102
}
330
C
100
AcDbDictionary
  3
DIMASSOC
350
12C
  0
XRECORD
  5
19B
102
{ACAD_REACTORS
330
19A
102
}
330
19A
100
AcDbXrecord
340
1E
  0
XRECORD
  5
199
102
{ACAD_REACTORS
330
198
102
}
330
198
100
AcDbXrecord
340
1A
  0
MLINESTYLE
  5
17
102
{ACAD_REACTORS
330
16
102
}
330
16
100
AcDbMlineStyle
  2
STANDARD
 70
     0
  3

 62
   256
 51
90.0
 52
90.0
 71
     2
 49
0.5
 62
   256
  6
BYLAYER
 49
-0.5
 62
   256
  6
BYLAYER
  0
ACDBPLACEHOLDER
  5
F
102
{ACAD_REACTORS
330
E
102
}
330
E
100
AcDbPlaceHolder
280
     0
  0
XRECORD
  5
182
102
{ACAD_REACTORS
330
178
102
}
330
178
100
AcDbXrecord
 90
        0
  0
XRECORD
  5
183
102
{ACAD_REACTORS
330
178
102
}
330
178
100
AcDbXrecord
  1
{5A923645-B265-4B65-8103-1E089B536225}
  0
XRECORD
  5
17B
102
{ACAD_REACTORS
330
178
102
}
330
178
100
AcDbXrecord
  1

  0
XRECORD
  5
181
102
{ACAD_REACTORS
330
178
102
}
330
178
100
AcDbXrecord
 90
        0
  0
XRECORD
  5
17D
102
{ACAD_REACTORS
330
178
102
}
330
178
100
AcDbXrecord
340
19
  0
XRECORD
  5
180
102
{ACAD_REACTORS
330
178
102
}
330
178
100
AcDbXrecord
 90
    10781
  0
XRECORD
  5
17E
102
{ACAD_REACTORS
330
178
102
}
330
178
100
AcDbXrecord
340
18
  0
XRECORD
  5
17F
102
{ACAD_REACTORS
330
178
102
}
330
178
100
AcDbXrecord
340
E
  0
XRECORD
  5
185
102
{ACAD_REACTORS
330
178
102
}
330
178
100
AcDbXrecord
 40
0.0
  0
XRECORD
  5
188
102
{ACAD_REACTORS
330
178
102
}
330
178
100
AcDbXrecord
340
0
  0
XRECORD
  5
18E
102
{ACAD_REACTORS
330
178
102
}
330
178
100
AcDbXrecord
 10
0.0
 20
0.0
 30
0.0
  0
XRECORD
  5
18A
102
{ACAD_REACTORS
330
178
102
}
330
178
100
AcDbXrecord
 10
0.0
 20
0.0
 30
0.0
  0
XRECORD
  5
18D
102
{ACAD_REACTORS
330
178
102
}
330
178
100
AcDbXrecord
 10
0.0
 20
0.0
 30
0.0
  0
XRECORD
  5
18B
102
{ACAD_REACTORS
330
178
102
}
330
178
100
AcDbXrecord
 10
0.0
 20
0.0
 30
0.0
  0
XRECORD
  5
18C
102
{ACAD_REACTORS
330
178
102
}
330
178
100
AcDbXrecord
 10
0.0
 20
0.0
 30
0.0
  0
XRECORD
  5
189
102
{ACAD_REACTORS
330
178
102
}
330
178
100
AcDbXrecord
 10
0.0
 20
0.0
 30
0.0
  0
XRECORD
  5
186
102
{ACAD_REACTORS
330
178
102
}
330
178
100
AcDbXrecord
340
0
  0
XRECORD
  5
187
102
{ACAD_REACTORS
330
178
102
}
330
178
100
AcDbXrecord
 70
     0
  0
XRECORD
  5
17C
102
{ACAD_REACTORS
330
178
102
}
330
178
100
AcDbXrecord
  1

  0
XRECORD
  5
179
102
{ACAD_REACTORS
330
178
102
}
330
178
100
AcDbXrecord
 90
        1
  0
XRECORD
  5
17A
102
{ACAD_REACTORS
330
178
102
}
330
178
100
AcDbXrecord
 90
       70
  0
XRECORD
  5
191
102
{ACAD_REACTORS
330
178
102
}
330
178
100
AcDbXrecord
340
0
  0
XRECORD
  5
197
102
{ACAD_REACTORS
330
178
102
}
330
178
100
AcDbXrecord
 10
0.0
 20
0.0
 30
0.0
  0
XRECORD
  5
193
102
{ACAD_REACTORS
330
178
102
}
330
178
100
AcDbXrecord
 10
0.0
 20
0.0
 30
0.0
  0
XRECORD
  5
196
102
{ACAD_REACTORS
330
178
102
}
330
178
100
AcDbXrecord
 10
0.0
 20
0.0
 30
0.0
  0
XRECORD
  5
194
102
{ACAD_REACTORS
330
178
102
}
330
178
100
AcDbXrecord
 10
0.0
 20
0.0
 30
0.0
  0
XRECORD
  5
195
102
{ACAD_REACTORS
330
178
102
}
330
178
100
AcDbXrecord
 10
0.0
 20
0.0
 30
0.0
  0
XRECORD
  5
192
102
{ACAD_REACTORS
330
178
102
}
330
178
100
AcDbXrecord
 10
0.0
 20
0.0
 30
0.0
  0
XRECORD
  5
18F
102
{ACAD_REACTORS
330
178
102
}
330
178
100
AcDbXrecord
340
0
  0
XRECORD
  5
190
102
{ACAD_REACTORS
330
178
102
}
330
178
100
AcDbXrecord
 70
     1
  0
XRECORD
  5
184
102
{ACAD_REACTORS
330
178
102
}
330
178
100
AcDbXrecord
  1
{BF075387-7BA8-4840-BF57-6515081A01AB}
  0
DICTIONARYVAR
  5
12C
102
{ACAD_REACTORS
330
12B
102
}
330
12B
100
DictionaryVariables
280
     0
  1
1
  0
ENDSEC
  0
EOF
