  0
SECTION
  2
HEADER
  9
$ACADVER
  1
AC1014
  9
$ACADMAINTVER
 70
     9
  9
$DWGCODEPAGE
  3
ANSI_1252
  9
$INSBASE
 10
0.0
 20
0.0
 30
0.0
  9
$EXTMIN
 10
0.0000000000000013
 20
-0.0000000000000045
 30
0.0
  9
$EXTMAX
 10
48.0
 20
119.0
 30
0.0
  9
$LIMMIN
 10
0.0
 20
0.0
  9
$LIMMAX
 10
12.0
 20
9.0
  9
$ORTHOMODE
 70
     0
  9
$REGENMODE
 70
     1
  9
$FILLMODE
 70
     1
  9
$QTEXTMODE
 70
     0
  9
$MIRRTEXT
 70
     1
  9
$DRAGMODE
 70
     2
  9
$LTSCALE
 40
1.0
  9
$OSMODE
 70
    37
  9
$ATTMODE
 70
     1
  9
$TEXTSIZE
 40
0.2
  9
$TRACEWID
 40
0.05
  9
$TEXTSTYLE
  7
STANDARD
  9
$CLAYER
  8
0
  9
$CELTYPE
  6
CONTINUOUS
  9
$CECOLOR
 62
   256
  9
$CELTSCALE
 40
1.0
  9
$DELOBJ
 70
     1
  9
$DISPSILH
 70
     0
  9
$DIMSCALE
 40
1.0
  9
$DIMASZ
 40
0.18
  9
$DIMEXO
 40
0.0625
  9
$DIMDLI
 40
0.38
  9
$DIMRND
 40
0.0
  9
$DIMDLE
 40
0.0
  9
$DIMEXE
 40
0.18
  9
$DIMTP
 40
0.0
  9
$DIMTM
 40
0.0
  9
$DIMTXT
 40
0.18
  9
$DIMCEN
 40
0.09
  9
$DIMTSZ
 40
0.0
  9
$DIMTOL
 70
     0
  9
$DIMLIM
 70
     0
  9
$DIMTIH
 70
     1
  9
$DIMTOH
 70
     1
  9
$DIMSE1
 70
     0
  9
$DIMSE2
 70
     0
  9
$DIMTAD
 70
     0
  9
$DIMZIN
 70
     0
  9
$DIMBLK
  1

  9
$DIMASO
 70
     1
  9
$DIMSHO
 70
     1
  9
$DIMPOST
  1

  9
$DIMAPOST
  1

  9
$DIMALT
 70
     0
  9
$DIMALTD
 70
     2
  9
$DIMALTF
 40
25.4
  9
$DIMLFAC
 40
1.0
  9
$DIMTOFL
 70
     0
  9
$DIMTVP
 40
0.0
  9
$DIMTIX
 70
     0
  9
$DIMSOXD
 70
     0
  9
$DIMSAH
 70
     0
  9
$DIMBLK1
  1

  9
$DIMBLK2
  1

  9
$DIMSTYLE
  2
STANDARD
  9
$DIMCLRD
 70
     0
  9
$DIMCLRE
 70
     0
  9
$DIMCLRT
 70
     0
  9
$DIMTFAC
 40
1.0
  9
$DIMGAP
 40
0.09
  9
$DIMJUST
 70
     0
  9
$DIMSD1
 70
     0
  9
$DIMSD2
 70
     0
  9
$DIMTOLJ
 70
     1
  9
$DIMTZIN
 70
     0
  9
$DIMALTZ
 70
     0
  9
$DIMALTTZ
 70
     0
  9
$DIMFIT
 70
     3
  9
$DIMUPT
 70
     0
  9
$DIMUNIT
 70
     2
  9
$DIMDEC
 70
     4
  9
$DIMTDEC
 70
     4
  9
$DIMALTU
 70
     2
  9
$DIMALTTD
 70
     2
  9
$DIMTXSTY
  7
STANDARD
  9
$DIMAUNIT
 70
     0
  9
$LUNITS
 70
     2
  9
$LUPREC
 70
     4
  9
$SKETCHINC
 40
0.1
  9
$FILLETRAD
 40
0.0
  9
$AUNITS
 70
     0
  9
$AUPREC
 70
     0
  9
$MENU
  1
.
  9
$ELEVATION
 40
0.0
  9
$PELEVATION
 40
0.0
  9
$THICKNESS
 40
0.0
  9
$LIMCHECK
 70
     0
  9
$BLIPMODE
 70
     0
  9
$CHAMFERA
 40
0.0
  9
$CHAMFERB
 40
0.0
  9
$CHAMFERC
 40
0.0
  9
$CHAMFERD
 40
0.0
  9
$SKPOLY
 70
     0
  9
$TDCREATE
 40
2454699.447473044
  9
$TDUPDATE
 40
2454699.449448599
  9
$TDINDWG
 40
0.0019755556
  9
$TDUSRTIMER
 40
0.0019755556
  9
$USRTIMER
 70
     1
  9
$ANGBASE
 50
0.0
  9
$ANGDIR
 70
     0
  9
$PDMODE
 70
     0
  9
$PDSIZE
 40
0.0
  9
$PLINEWID
 40
0.0
  9
$COORDS
 70
     1
  9
$SPLFRAME
 70
     0
  9
$SPLINETYPE
 70
     6
  9
$SPLINESEGS
 70
     8
  9
$ATTDIA
 70
     0
  9
$ATTREQ
 70
     1
  9
$HANDLING
 70
 22529
  9
$HANDSEED
  5
112
  9
$SURFTAB1
 70
     6
  9
$SURFTAB2
 70
     6
  9
$SURFTYPE
 70
     6
  9
$SURFU
 70
     6
  9
$SURFV
 70
     6
  9
$UCSNAME
  2

  9
$UCSORG
 10
0.0
 20
0.0
 30
0.0
  9
$UCSXDIR
 10
1.0
 20
0.0
 30
0.0
  9
$UCSYDIR
 10
0.0
 20
1.0
 30
0.0
  9
$PUCSNAME
  2

  9
$PUCSORG
 10
0.0
 20
0.0
 30
0.0
  9
$PUCSXDIR
 10
1.0
 20
0.0
 30
0.0
  9
$PUCSYDIR
 10
0.0
 20
1.0
 30
0.0
  9
$USERI1
 70
     0
  9
$USERI2
 70
     0
  9
$USERI3
 70
     0
  9
$USERI4
 70
     0
  9
$USERI5
 70
     0
  9
$USERR1
 40
0.0
  9
$USERR2
 40
0.0
  9
$USERR3
 40
0.0
  9
$USERR4
 40
0.0
  9
$USERR5
 40
0.0
  9
$WORLDVIEW
 70
     1
  9
$SHADEDGE
 70
     3
  9
$SHADEDIF
 70
    70
  9
$TILEMODE
 70
     1
  9
$MAXACTVP
 70
    64
  9
$PINSBASE
 10
0.0
 20
0.0
 30
0.0
  9
$PLIMCHECK
 70
     0
  9
$PEXTMIN
 10
1.000000000000000E+20
 20
1.000000000000000E+20
 30
1.000000000000000E+20
  9
$PEXTMAX
 10
-1.000000000000000E+20
 20
-1.000000000000000E+20
 30
-1.000000000000000E+20
  9
$PLIMMIN
 10
0.0
 20
0.0
  9
$PLIMMAX
 10
12.0
 20
9.0
  9
$UNITMODE
 70
     0
  9
$VISRETAIN
 70
     1
  9
$PLINEGEN
 70
     0
  9
$PSLTSCALE
 70
     1
  9
$TREEDEPTH
 70
  3020
  9
$PICKSTYLE
 70
     1
  9
$CMLSTYLE
  2
STANDARD
  9
$CMLJUST
 70
     0
  9
$CMLSCALE
 40
1.0
  9
$PROXYGRAPHICS
 70
     1
  9
$MEASUREMENT
 70
     0
  0
ENDSEC
  0
SECTION
  2
CLASSES
  0
CLASS
  1
ACDBDICTIONARYWDFLT
  2
AcDbDictionaryWithDefault
  3
AutoCAD 2000
 90
        0
280
     0
281
     0
  0
CLASS
  1
ACDBPLACEHOLDER
  2
AcDbPlaceHolder
  3
AutoCAD 2000
 90
        0
280
     0
281
     0
  0
CLASS
  1
LAYOUT
  2
AcDbLayout
  3
AutoCAD 2000
 90
        0
280
     0
281
     0
  0
CLASS
  1
DICTIONARYVAR
  2
AcDbDictionaryVar
  3
AutoCAD 2000
 90
        0
280
     0
281
     0
  0
CLASS
  1
LONG_TRANSACTION
  2
AcDbLongTransaction
  3
AutoCAD 2000
 90
        0
280
     0
281
     0
  0
CLASS
  1
LWPOLYLINE
  2
AcDbPolyline
  3
AutoCAD 2000
 90
        0
280
     0
281
     1
  0
CLASS
  1
HATCH
  2
AcDbHatch
  3
AutoCAD 2000
 90
        0
280
     0
281
     1
  0
CLASS
  1
XRECORD
  2
AcDbXrecord
  3
AutoCAD 2000
 90
        0
280
     0
281
     0
  0
ENDSEC
  0
SECTION
  2
TABLES
  0
TABLE
  2
VPORT
  5
8
330
0
100
AcDbSymbolTable
 70
     2
  0
VPORT
  5
ED
330
8
100
AcDbSymbolTableRecord
100
AcDbViewportTableRecord
  2
*ACTIVE
 70
     0
 10
0.0
 20
0.0
 11
1.0
 21
1.0
 12
24.0
 22
59.49999999999999
 13
0.0
 23
0.0
 14
1.0
 24
1.0
 15
0.0
 25
0.0
 16
0.0
 26
0.0
 36
1.0
 17
0.0
 27
0.0
 37
0.0
 40
119.9130434782608
 41
2.078104993597951
 42
50.0
 43
0.0
 44
0.0
 50
0.0
 51
0.0
 71
     0
 72
   100
 73
     1
 74
     3
 75
     0
 76
     0
 77
     0
 78
     0
  0
ENDTAB
  0
TABLE
  2
LTYPE
  5
5
330
0
100
AcDbSymbolTable
 70
     1
  0
LTYPE
  5
13
330
5
100
AcDbSymbolTableRecord
100
AcDbLinetypeTableRecord
  2
BYBLOCK
 70
     0
  3

 72
    65
 73
     0
 40
0.0
  0
LTYPE
  5
14
330
5
100
AcDbSymbolTableRecord
100
AcDbLinetypeTableRecord
  2
BYLAYER
 70
     0
  3

 72
    65
 73
     0
 40
0.0
  0
LTYPE
  5
15
330
5
100
AcDbSymbolTableRecord
100
AcDbLinetypeTableRecord
  2
CONTINUOUS
 70
     0
  3
Solid line
 72
    65
 73
     0
 40
0.0
  0
ENDTAB
  0
TABLE
  2
LAYER
  5
2
330
0
100
AcDbSymbolTable
 70
     1
  0
LAYER
  5
10
330
2
100
AcDbSymbolTableRecord
100
AcDbLayerTableRecord
  2
0
 70
     0
 62
     7
  6
CONTINUOUS
  0
ENDTAB
  0
TABLE
  2
STYLE
  5
3
330
0
100
AcDbSymbolTable
 70
     1
  0
STYLE
  5
11
330
3
100
AcDbSymbolTableRecord
100
AcDbTextStyleTableRecord
  2
STANDARD
 70
     0
 40
0.0
 41
1.0
 50
0.0
 71
     0
 42
0.2
  3
txt
  4

  0
ENDTAB
  0
TABLE
  2
VIEW
  5
6
330
0
100
AcDbSymbolTable
 70
     0
  0
ENDTAB
  0
TABLE
  2
UCS
  5
7
330
0
100
AcDbSymbolTable
 70
     0
  0
ENDTAB
  0
TABLE
  2
APPID
  5
9
330
0
100
AcDbSymbolTable
 70
     1
  0
APPID
  5
12
330
9
100
AcDbSymbolTableRecord
100
AcDbRegAppTableRecord
  2
ACAD
 70
     0
  0
ENDTAB
  0
TABLE
  2
DIMSTYLE
  5
A
330
0
100
AcDbSymbolTable
 70
     1
  0
DIMSTYLE
105
E3
330
A
100
AcDbSymbolTableRecord
100
AcDbDimStyleTableRecord
  2
STANDARD
 70
     0
  3

  4

  5

  6

  7

 40
1.0
 41
0.18
 42
0.0625
 43
0.38
 44
0.18
 45
0.0
 46
0.0
 47
0.0
 48
0.0
140
0.18
141
0.09
142
0.0
143
25.4
144
1.0
145
0.0
146
1.0
147
0.09
 71
     0
 72
     0
 73
     1
 74
     1
 75
     0
 76
     0
 77
     0
 78
     0
170
     0
171
     2
172
     0
173
     0
174
     0
175
     0
176
     0
177
     0
178
     0
270
     2
271
     4
272
     4
273
     2
274
     2
340
11
275
     0
280
     0
281
     0
282
     0
283
     1
284
     0
285
     0
286
     0
287
     3
288
     0
  0
ENDTAB
  0
TABLE
  2
BLOCK_RECORD
  5
1
330
0
100
AcDbSymbolTable
 70
     0
  0
BLOCK_RECORD
  5
1E
102
{ACAD_XDICTIONARY
360
110
102
}
330
1
100
AcDbSymbolTableRecord
100
AcDbBlockTableRecord
  2
*MODEL_SPACE
  0
BLOCK_RECORD
  5
1A
102
{ACAD_XDICTIONARY
360
10E
102
}
330
1
100
AcDbSymbolTableRecord
100
AcDbBlockTableRecord
  2
*PAPER_SPACE
  0
ENDTAB
  0
ENDSEC
  0
SECTION
  2
BLOCKS
  0
BLOCK
  5
1F
330
1E
100
AcDbEntity
  8
0
100
AcDbBlockBegin
  2
*MODEL_SPACE
 70
     0
 10
0.0
 20
0.0
 30
0.0
  3
*MODEL_SPACE
  1

  0
ENDBLK
  5
20
330
1E
100
AcDbEntity
  8
0
100
AcDbBlockEnd
  0
BLOCK
  5
1B
330
1A
100
AcDbEntity
 67
     1
  8
0
100
AcDbBlockBegin
  2
*PAPER_SPACE
 70
     0
 10
0.0
 20
0.0
 30
0.0
  3
*PAPER_SPACE
  1

  0
ENDBLK
  5
1C
330
1A
100
AcDbEntity
 67
     1
  8
0
100
AcDbBlockEnd
  0
ENDSEC
  0
SECTION
  2
ENTITIES
  0
LINE
  5
22
330
1E
100
AcDbEntity
  8
0
100
AcDbLine
 10
0.0000000000000013
 20
0.0
 30
0.0
 11
3.0
 21
81.92629999999999
 31
0.0
  0
LINE
  5
23
330
1E
100
AcDbEntity
  8
0
100
AcDbLine
 10
0.900000000000001
 20
-0.0000000000000034
 30
0.0
 11
3.2
 21
-0.0000000000000038
 31
0.0
  0
LINE
  5
24
330
1E
100
AcDbEntity
  8
0
100
AcDbLine
 10
7.099999999999999
 20
-0.0000000000000041
 30
0.0
 11
12.09999999999999
 21
-0.0000000000000043
 31
0.0
  0
LINE
  5
25
330
1E
100
AcDbEntity
  8
0
100
AcDbLine
 10
12.09999999999999
 20
-0.0000000000000043
 30
0.0
 11
17.8
 21
-0.0000000000000045
 31
0.0
  0
LINE
  5
26
330
1E
100
AcDbEntity
  8
0
100
AcDbLine
 10
0.900000000000001
 20
-0.0000000000000034
 30
0.0
 11
3.2
 21
-0.0000000000000038
 31
0.0
  0
LINE
  5
27
330
1E
100
AcDbEntity
  8
0
100
AcDbLine
 10
3.2
 20
-0.0000000000000038
 30
0.0
 11
7.099999999999999
 21
-0.0000000000000041
 31
0.0
  0
LINE
  5
28
330
1E
100
AcDbEntity
  8
0
100
AcDbLine
 10
0.900000000000001
 20
-0.0000000000000027
 30
0.0
 11
3.2
 21
-0.0000000000000023
 31
0.0
  0
LINE
  5
29
330
1E
100
AcDbEntity
  8
0
100
AcDbLine
 10
7.099999999999999
 20
-0.000000000000002
 30
0.0
 11
12.09999999999999
 21
-0.0000000000000018
 31
0.0
  0
LINE
  5
2A
330
1E
100
AcDbEntity
  8
0
100
AcDbLine
 10
12.09999999999999
 20
-0.0000000000000018
 30
0.0
 11
17.8
 21
-0.0000000000000016
 31
0.0
  0
LINE
  5
2B
330
1E
100
AcDbEntity
  8
0
100
AcDbLine
 10
3.2
 20
-0.0000000000000023
 30
0.0
 11
7.099999999999999
 21
-0.000000000000002
 31
0.0
  0
LINE
  5
2C
330
1E
100
AcDbEntity
  8
0
100
AcDbLine
 10
0.900000000000001
 20
-0.0000000000000027
 30
0.0
 11
3.2
 21
-0.0000000000000023
 31
0.0
  0
LINE
  5
2D
330
1E
100
AcDbEntity
  8
0
100
AcDbLine
 10
0.0000000000000013
 20
-0.0000000000000031
 30
0.0
 11
0.900000000000001
 21
-0.0000000000000027
 31
0.0
  0
LINE
  5
2E
330
1E
100
AcDbEntity
  8
0
100
AcDbLine
 10
0.0000000000000013
 20
-0.0000000000000031
 30
0.0
 11
0.900000000000001
 21
-0.0000000000000034
 31
0.0
  0
LINE
  5
2F
330
1E
100
AcDbEntity
  8
0
100
AcDbLine
 10
0.0000000000000013
 20
-0.0000000000000031
 30
0.0
 11
3.0
 21
81.92629999999999
 31
0.0
  0
LINE
  5
30
330
1E
100
AcDbEntity
  8
0
100
AcDbLine
 10
11.0
 20
33.689
 30
0.0
 11
13.4
 21
31.3443
 31
0.0
  0
LINE
  5
31
330
1E
100
AcDbEntity
  8
0
100
AcDbLine
 10
11.5
 20
33.2847
 30
0.0
 11
13.8
 21
31.0307
 31
0.0
  0
LINE
  5
32
330
1E
100
AcDbEntity
  8
0
100
AcDbLine
 10
12.9
 20
33.4059
 30
0.0
 11
14.05
 21
31.5901
 31
0.0
  0
LINE
  5
33
330
1E
100
AcDbEntity
  8
0
100
AcDbLine
 10
9.5
 20
38.7113
 30
0.0
 11
10.0
 21
35.9074
 31
0.0
  0
LINE
  5
34
330
1E
100
AcDbEntity
  8
0
100
AcDbLine
 10
9.5
 20
38.7113
 30
0.0
 11
10.0
 21
41.473
 31
0.0
  0
LINE
  5
35
330
1E
100
AcDbEntity
  8
0
100
AcDbLine
 10
9.5
 20
36.40229999999999
 30
0.0
 11
11.0
 21
33.689
 31
0.0
  0
LINE
  5
36
330
1E
100
AcDbEntity
  8
0
100
AcDbLine
 10
10.0
 20
35.9074
 30
0.0
 11
11.5
 21
33.2847
 31
0.0
  0
LINE
  5
38
330
1E
100
AcDbEntity
  8
0
100
AcDbLine
 10
12.5
 20
35.3536
 30
0.0
 11
12.9
 21
37.3014
 31
0.0
  0
LINE
  5
39
330
1E
100
AcDbEntity
  8
0
100
AcDbLine
 10
12.5
 20
35.3536
 30
0.0
 11
12.9
 21
33.4059
 31
0.0
  0
LINE
  5
3B
330
1E
100
AcDbEntity
  8
0
100
AcDbLine
 10
13.8
 20
31.0307
 30
0.0
 11
16.8
 21
29.2842
 31
0.0
  0
LINE
  5
3C
330
1E
100
AcDbEntity
  8
0
100
AcDbLine
 10
13.4
 20
31.3443
 30
0.0
 11
13.8
 21
31.0307
 31
0.0
  0
LINE
  5
3D
330
1E
100
AcDbEntity
  8
0
100
AcDbLine
 10
14.05
 20
31.5901
 30
0.0
 11
15.9
 21
30.0055
 31
0.0
  0
LINE
  5
3E
330
1E
100
AcDbEntity
  8
0
100
AcDbLine
 10
15.9
 20
30.0055
 30
0.0
 11
18.3
 21
28.784
 31
0.0
  0
LINE
  5
3F
330
1E
100
AcDbEntity
  8
0
100
AcDbLine
 10
12.9
 20
37.3014
 30
0.0
 11
14.05
 21
39.11699999999999
 31
0.0
  0
LINE
  5
40
330
1E
100
AcDbEntity
  8
0
100
AcDbLine
 10
10.0
 20
41.473
 30
0.0
 11
11.5
 21
44.0957
 31
0.0
  0
LINE
  5
41
330
1E
100
AcDbEntity
  8
0
100
AcDbLine
 10
9.0
 20
39.3452
 30
0.0
 11
9.5
 21
36.40229999999999
 31
0.0
  0
LINE
  5
42
330
1E
100
AcDbEntity
  8
0
100
AcDbLine
 10
9.0
 20
39.3452
 30
0.0
 11
9.0
 21
56.7924
 31
0.0
  0
LINE
  5
43
330
1E
100
AcDbEntity
  8
0
100
AcDbLine
 10
14.05
 20
39.11699999999999
 30
0.0
 11
15.9
 21
40.7017
 31
0.0
  0
LINE
  5
44
330
1E
100
AcDbEntity
  8
0
100
AcDbLine
 10
17.8
 20
-0.0000000000000045
 30
0.0
 11
24.0
 21
-0.0000000000000045
 31
0.0
  0
LINE
  5
45
330
1E
100
AcDbEntity
  8
0
100
AcDbLine
 10
17.8
 20
-0.0000000000000016
 30
0.0
 11
24.0
 21
-0.0000000000000016
 31
0.0
  0
LINE
  5
46
330
1E
100
AcDbEntity
  8
0
100
AcDbLine
 10
16.8
 20
29.2842
 30
0.0
 11
18.25491541705869
 21
28.8069461741928
 31
0.0
  0
LINE
  5
47
330
1E
100
AcDbEntity
  8
0
100
AcDbLine
 10
18.45711141127619
 20
28.7406201110611
 30
0.0
 11
20.3
 21
28.1361
 31
0.0
  0
LINE
  5
48
330
1E
100
AcDbEntity
  8
0
100
AcDbLine
 10
20.3
 20
28.1361
 30
0.0
 11
20.8421451084777
 21
28.08209062513919
 31
0.0
  0
LINE
  5
49
330
1E
100
AcDbEntity
  8
0
100
AcDbLine
 10
18.3
 20
28.784
 30
0.0
 11
21.04999999999999
 21
28.02469999999999
 31
0.0
  0
LINE
  5
4A
330
1E
100
AcDbEntity
  8
0
100
AcDbLine
 10
21.04999999999999
 20
28.02469999999999
 30
0.0
 11
24.0
 21
27.7606
 31
0.0
  0
LINE
  5
4B
330
1E
100
AcDbEntity
  8
0
100
AcDbLine
 10
15.9
 20
40.7017
 30
0.0
 11
18.3
 21
41.92309999999999
 31
0.0
  0
LINE
  5
4C
330
1E
100
AcDbEntity
  8
0
100
AcDbLine
 10
3.0
 20
81.92629999999999
 30
0.0
 11
3.47939791001137
 21
83.03304999999999
 31
0.0
  0
LINE
  5
4D
330
1E
100
AcDbEntity
  8
0
100
AcDbLine
 10
3.5
 20
111.861
 30
0.0
 11
4.2
 21
110.0479999999999
 31
0.0
  0
LINE
  5
4E
330
1E
100
AcDbEntity
  8
0
100
AcDbLine
 10
3.5
 20
111.861
 30
0.0
 11
4.2
 21
113.6729999999999
 31
0.0
  0
LINE
  5
4F
330
1E
100
AcDbEntity
  8
0
100
AcDbLine
 10
3.0
 20
110.921
 30
0.0
 11
3.0
 21
84.1398
 31
0.0
  0
LINE
  5
50
330
1E
100
AcDbEntity
  8
0
100
AcDbLine
 10
3.0
 20
110.921
 30
0.0
 11
3.799999999999999
 21
112.7679999999999
 31
0.0
  0
LINE
  5
51
330
1E
100
AcDbEntity
  8
0
100
AcDbLine
 10
3.0
 20
84.1398
 30
0.0
 11
3.799999999999999
 21
82.2929
 31
0.0
  0
LINE
  5
52
330
1E
100
AcDbEntity
  8
0
100
AcDbLine
 10
3.0
 20
84.1398
 30
0.0
 11
3.0
 21
110.921
 31
0.0
  0
LINE
  5
53
330
1E
100
AcDbEntity
  8
0
100
AcDbLine
 10
5.799999999999999
 20
80.58280000000001
 30
0.0
 11
9.199999999999999
 21
79.0779
 31
0.0
  0
LINE
  5
54
330
1E
100
AcDbEntity
  8
0
100
AcDbLine
 10
10.2
 20
78.61589999999999
 30
0.0
 11
14.3
 21
77.5557
 31
0.0
  0
LINE
  5
55
330
1E
100
AcDbEntity
  8
0
100
AcDbLine
 10
9.5
 20
77.9067
 30
0.0
 11
13.8
 21
76.77800000000001
 31
0.0
  0
LINE
  5
56
330
1E
100
AcDbEntity
  8
0
100
AcDbLine
 10
9.199999999999999
 20
79.0779
 30
0.0
 11
13.6
 21
77.915
 31
0.0
  0
LINE
  5
57
330
1E
100
AcDbEntity
  8
0
100
AcDbLine
 10
8.20945142745786
 20
79.51633427847609
 30
0.0
 11
10.2
 21
78.61589999999999
 31
0.0
  0
LINE
  5
58
330
1E
100
AcDbEntity
  8
0
100
AcDbLine
 10
8.20945142745786
 20
79.51633427847609
 30
0.0
 11
10.2
 21
78.61589999999999
 31
0.0
  0
LINE
  5
59
330
1E
100
AcDbEntity
  8
0
100
AcDbLine
 10
6.2
 20
79.37739999999999
 30
0.0
 11
9.5
 21
77.9067
 31
0.0
  0
LINE
  5
5A
330
1E
100
AcDbEntity
  8
0
100
AcDbLine
 10
3.799999999999999
 20
112.7679999999999
 30
0.0
 11
4.2
 21
113.6729999999999
 31
0.0
  0
LINE
  5
5B
330
1E
100
AcDbEntity
  8
0
100
AcDbLine
 10
9.5
 20
106.901
 30
0.0
 11
13.8
 21
105.773
 31
0.0
  0
LINE
  5
5C
330
1E
100
AcDbEntity
  8
0
100
AcDbLine
 10
6.2
 20
108.372
 30
0.0
 11
9.5
 21
106.901
 31
0.0
  0
LINE
  5
5D
330
1E
100
AcDbEntity
  8
0
100
AcDbLine
 10
6.2
 20
115.3489999999999
 30
0.0
 11
9.5
 21
116.8199999999999
 31
0.0
  0
LINE
  5
5E
330
1E
100
AcDbEntity
  8
0
100
AcDbLine
 10
4.2
 20
113.6729999999999
 30
0.0
 11
6.2
 21
115.3489999999999
 31
0.0
  0
LINE
  5
5F
330
1E
100
AcDbEntity
  8
0
100
AcDbLine
 10
9.5
 20
116.8199999999999
 30
0.0
 11
10.2
 21
117.05
 31
0.0
  0
LINE
  5
60
330
1E
100
AcDbEntity
  8
0
100
AcDbLine
 10
10.2
 20
117.05
 30
0.0
 11
14.3
 21
118.111
 31
0.0
  0
LINE
  5
61
330
1E
100
AcDbEntity
  8
0
100
AcDbLine
 10
4.2
 20
110.0479999999999
 30
0.0
 11
6.2
 21
108.372
 31
0.0
  0
LINE
  5
62
330
1E
100
AcDbEntity
  8
0
100
AcDbLine
 10
3.799999999999999
 20
82.2929
 30
0.0
 11
5.799999999999999
 21
80.58280000000001
 31
0.0
  0
LINE
  5
63
330
1E
100
AcDbEntity
  8
0
100
AcDbLine
 10
4.2
 20
81.0533
 30
0.0
 11
6.2
 21
79.37739999999999
 31
0.0
  0
LINE
  5
64
330
1E
100
AcDbEntity
  8
0
100
AcDbLine
 10
3.5
 20
82.86599999999999
 30
0.0
 11
4.2
 21
81.0533
 31
0.0
  0
LINE
  5
65
330
1E
100
AcDbEntity
  8
0
100
AcDbLine
 10
3.5
 20
82.86599999999999
 30
0.0
 11
3.524394182990089
 21
82.92917047929449
 31
0.0
  0
LINE
  5
66
330
1E
100
AcDbEntity
  8
0
100
AcDbLine
 10
9.0
 20
56.7924
 30
0.0
 11
9.0
 21
39.3452
 31
0.0
  0
LINE
  5
67
330
1E
100
AcDbEntity
  8
0
100
AcDbLine
 10
14.3
 20
77.5557
 30
0.0
 11
19.0
 21
76.9058
 31
0.0
  0
LINE
  5
68
330
1E
100
AcDbEntity
  8
0
100
AcDbLine
 10
13.8
 20
76.77800000000001
 30
0.0
 11
18.7
 21
76.09399999999999
 31
0.0
  0
LINE
  5
69
330
1E
100
AcDbEntity
  8
0
100
AcDbLine
 10
14.3
 20
118.111
 30
0.0
 11
19.0
 21
118.761
 31
0.0
  0
LINE
  5
6A
330
1E
100
AcDbEntity
  8
0
100
AcDbLine
 10
13.8
 20
105.773
 30
0.0
 11
18.7
 21
105.089
 31
0.0
  0
LINE
  5
6B
330
1E
100
AcDbEntity
  8
0
100
AcDbLine
 10
13.6
 20
77.915
 30
0.0
 11
18.6
 21
77.23100000000001
 31
0.0
  0
LINE
  5
6C
330
1E
100
AcDbEntity
  8
0
100
AcDbLine
 10
21.0
 20
88.3581
 30
0.0
 11
21.16029999999999
 21
87.99979999999999
 31
0.0
  0
LINE
  5
6D
330
1E
100
AcDbEntity
  8
0
100
AcDbLine
 10
21.0
 20
88.3581
 30
0.0
 11
21.49999999999999
 21
100.574
 31
0.0
  0
LINE
  5
6E
330
1E
100
AcDbEntity
  8
0
100
AcDbLine
 10
21.49999999999999
 20
100.574
 30
0.0
 11
21.0
 21
88.3581
 31
0.0
  0
LINE
  5
6F
330
1E
100
AcDbEntity
  8
0
100
AcDbLine
 10
19.0
 20
76.9058
 30
0.0
 11
24.0
 21
76.6664
 31
0.0
  0
LINE
  5
70
330
1E
100
AcDbEntity
  8
0
100
AcDbLine
 10
18.7
 20
76.09399999999999
 30
0.0
 11
24.0
 21
75.85460000000001
 31
0.0
  0
LINE
  5
71
330
1E
100
AcDbEntity
  8
0
100
AcDbLine
 10
19.0
 20
118.761
 30
0.0
 11
24.0
 21
119.0
 31
0.0
  0
LINE
  5
72
330
1E
100
AcDbEntity
  8
0
100
AcDbLine
 10
18.7
 20
105.089
 30
0.0
 11
21.49143829511209
 21
104.962595247014
 31
0.0
  0
LINE
  5
73
330
1E
100
AcDbEntity
  8
0
100
AcDbLine
 10
18.6
 20
77.23100000000001
 30
0.0
 11
24.0
 21
76.9574
 31
0.0
  0
LINE
  5
74
330
1E
100
AcDbEntity
  8
0
100
AcDbLine
 10
20.3
 20
49.2443
 30
0.0
 11
24.0
 21
49.6129
 31
0.0
  0
LINE
  5
75
330
1E
100
AcDbEntity
  8
0
100
AcDbLine
 10
16.8
 20
48.1867
 30
0.0
 11
20.3
 21
49.2443
 31
0.0
  0
LINE
  5
76
330
1E
100
AcDbEntity
  8
0
100
AcDbLine
 10
13.8
 20
46.3497
 30
0.0
 11
16.8
 21
48.1867
 31
0.0
  0
LINE
  5
77
330
1E
100
AcDbEntity
  8
0
100
AcDbLine
 10
11.5
 20
44.0957
 30
0.0
 11
13.8
 21
46.3497
 31
0.0
  0
LINE
  5
78
330
1E
100
AcDbEntity
  8
0
100
AcDbLine
 10
18.3
 20
41.92309999999999
 30
0.0
 11
21.04999999999999
 21
42.6825
 31
0.0
  0
LINE
  5
79
330
1E
100
AcDbEntity
  8
0
100
AcDbLine
 10
21.16029999999999
 20
87.99979999999999
 30
0.0
 11
21.64
 21
87.1071
 31
0.0
  0
LINE
  5
7A
330
1E
100
AcDbEntity
  8
0
100
AcDbLine
 10
22.16
 20
86.81980000000001
 30
0.0
 11
22.89
 21
86.6488
 31
0.0
  0
LINE
  5
7B
330
1E
100
AcDbEntity
  8
0
100
AcDbLine
 10
21.64
 20
87.1071
 30
0.0
 11
22.16
 21
86.81980000000001
 31
0.0
  0
LINE
  5
7C
330
1E
100
AcDbEntity
  8
0
100
AcDbLine
 10
22.89
 20
86.6488
 30
0.0
 11
24.0
 21
86.5633
 31
0.0
  0
LINE
  5
7D
330
1E
100
AcDbEntity
  8
0
100
AcDbLine
 10
24.0
 20
-0.0000000000000045
 30
0.0
 11
30.2
 21
-0.0000000000000045
 31
0.0
  0
LINE
  5
7E
330
1E
100
AcDbEntity
  8
0
100
AcDbLine
 10
24.0
 20
-0.0000000000000016
 30
0.0
 11
30.2
 21
-0.0000000000000016
 31
0.0
  0
LINE
  5
7F
330
1E
100
AcDbEntity
  8
0
100
AcDbLine
 10
24.0
 20
27.7606
 30
0.0
 11
26.95
 21
28.02469999999999
 31
0.0
  0
LINE
  5
80
330
1E
100
AcDbEntity
  8
0
100
AcDbLine
 10
24.0
 20
76.9574
 30
0.0
 11
29.39999999999999
 21
77.23100000000001
 31
0.0
  0
LINE
  5
81
330
1E
100
AcDbEntity
  8
0
100
AcDbLine
 10
24.0
 20
76.6664
 30
0.0
 11
29.0
 21
76.9058
 31
0.0
  0
LINE
  5
82
330
1E
100
AcDbEntity
  8
0
100
AcDbLine
 10
24.0
 20
75.85460000000001
 30
0.0
 11
29.3
 21
76.09399999999999
 31
0.0
  0
LINE
  5
83
330
1E
100
AcDbEntity
  8
0
100
AcDbLine
 10
24.0
 20
49.6129
 30
0.0
 11
27.7
 21
49.2443
 31
0.0
  0
LINE
  5
84
330
1E
100
AcDbEntity
  8
0
100
AcDbLine
 10
24.0
 20
42.94649999999999
 30
0.0
 11
26.95
 21
42.6825
 31
0.0
  0
LINE
  5
85
330
1E
100
AcDbEntity
  8
0
100
AcDbLine
 10
24.0
 20
86.5633
 30
0.0
 11
25.11
 21
86.6488
 31
0.0
  0
LINE
  5
86
330
1E
100
AcDbEntity
  8
0
100
AcDbLine
 10
25.11
 20
86.6488
 30
0.0
 11
25.84
 21
86.81980000000001
 31
0.0
  0
LINE
  5
89
330
1E
100
AcDbEntity
  8
0
100
AcDbLine
 10
24.0
 20
99.71899999999999
 30
0.0
 11
25.11
 21
99.80450000000001
 31
0.0
  0
LINE
  5
8A
330
1E
100
AcDbEntity
  8
0
100
AcDbLine
 10
26.95
 20
28.02469999999999
 30
0.0
 11
29.7
 21
28.784
 31
0.0
  0
LINE
  5
8B
330
1E
100
AcDbEntity
  8
0
100
AcDbLine
 10
26.95
 20
42.6825
 30
0.0
 11
29.7
 21
41.92309999999999
 31
0.0
  0
LINE
  5
8C
330
1E
100
AcDbEntity
  8
0
100
AcDbLine
 10
35.89999999999999
 20
-0.0000000000000043
 30
0.0
 11
40.89999999999999
 21
-0.0000000000000041
 31
0.0
  0
LINE
  5
8D
330
1E
100
AcDbEntity
  8
0
100
AcDbLine
 10
30.2
 20
-0.0000000000000045
 30
0.0
 11
35.89999999999999
 21
-0.0000000000000043
 31
0.0
  0
LINE
  5
8E
330
1E
100
AcDbEntity
  8
0
100
AcDbLine
 10
40.89999999999999
 20
-0.0000000000000041
 30
0.0
 11
44.79999999999999
 21
-0.0000000000000038
 31
0.0
  0
LINE
  5
8F
330
1E
100
AcDbEntity
  8
0
100
AcDbLine
 10
44.79999999999999
 20
-0.0000000000000038
 30
0.0
 11
47.09999999999999
 21
-0.0000000000000034
 31
0.0
  0
LINE
  5
90
330
1E
100
AcDbEntity
  8
0
100
AcDbLine
 10
47.09999999999999
 20
-0.0000000000000034
 30
0.0
 11
48.0
 21
-0.0000000000000031
 31
0.0
  0
LINE
  5
91
330
1E
100
AcDbEntity
  8
0
100
AcDbLine
 10
35.89999999999999
 20
-0.0000000000000018
 30
0.0
 11
40.89999999999999
 21
-0.000000000000002
 31
0.0
  0
LINE
  5
92
330
1E
100
AcDbEntity
  8
0
100
AcDbLine
 10
27.7
 20
28.1361
 30
0.0
 11
29.5428885887238
 21
28.7406201110611
 31
0.0
  0
LINE
  5
93
330
1E
100
AcDbEntity
  8
0
100
AcDbLine
 10
29.74508458294129
 20
28.8069461741928
 30
0.0
 11
31.2
 21
29.2842
 31
0.0
  0
LINE
  5
94
330
1E
100
AcDbEntity
  8
0
100
AcDbLine
 10
29.7
 20
28.784
 30
0.0
 11
32.1
 21
30.0055
 31
0.0
  0
LINE
  5
95
330
1E
100
AcDbEntity
  8
0
100
AcDbLine
 10
33.95
 20
31.5901
 30
0.0
 11
35.1
 21
33.4059
 31
0.0
  0
LINE
  5
96
330
1E
100
AcDbEntity
  8
0
100
AcDbLine
 10
32.1
 20
30.0055
 30
0.0
 11
33.95
 21
31.5901
 31
0.0
  0
LINE
  5
97
330
1E
100
AcDbEntity
  8
0
100
AcDbLine
 10
34.6
 20
31.3443
 30
0.0
 11
37.0
 21
33.689
 31
0.0
  0
LINE
  5
98
330
1E
100
AcDbEntity
  8
0
100
AcDbLine
 10
34.2
 20
31.0307
 30
0.0
 11
34.6
 21
31.3443
 31
0.0
  0
LINE
  5
99
330
1E
100
AcDbEntity
  8
0
100
AcDbLine
 10
34.2
 20
31.0307
 30
0.0
 11
36.5
 21
33.2847
 31
0.0
  0
LINE
  5
9A
330
1E
100
AcDbEntity
  8
0
100
AcDbLine
 10
31.2
 20
29.2842
 30
0.0
 11
34.2
 21
31.0307
 31
0.0
  0
LINE
  5
9B
330
1E
100
AcDbEntity
  8
0
100
AcDbLine
 10
35.1
 20
33.4059
 30
0.0
 11
35.5
 21
35.3536
 31
0.0
  0
LINE
  5
9D
330
1E
100
AcDbEntity
  8
0
100
AcDbLine
 10
35.1
 20
37.3014
 30
0.0
 11
35.5
 21
35.3536
 31
0.0
  0
LINE
  5
9E
330
1E
100
AcDbEntity
  8
0
100
AcDbLine
 10
36.5
 20
33.2847
 30
0.0
 11
38.0
 21
35.9074
 31
0.0
  0
LINE
  5
A0
330
1E
100
AcDbEntity
  8
0
100
AcDbLine
 10
27.7
 20
49.2443
 30
0.0
 11
31.2
 21
48.1867
 31
0.0
  0
LINE
  5
A1
330
1E
100
AcDbEntity
  8
0
100
AcDbLine
 10
29.7
 20
41.92309999999999
 30
0.0
 11
32.1
 21
40.7017
 31
0.0
  0
LINE
  5
A2
330
1E
100
AcDbEntity
  8
0
100
AcDbLine
 10
32.1
 20
40.7017
 30
0.0
 11
33.95
 21
39.11699999999999
 31
0.0
  0
LINE
  5
A3
330
1E
100
AcDbEntity
  8
0
100
AcDbLine
 10
34.2
 20
46.3497
 30
0.0
 11
36.5
 21
44.0957
 31
0.0
  0
LINE
  5
A4
330
1E
100
AcDbEntity
  8
0
100
AcDbLine
 10
31.2
 20
48.1867
 30
0.0
 11
34.2
 21
46.3497
 31
0.0
  0
LINE
  5
A5
330
1E
100
AcDbEntity
  8
0
100
AcDbLine
 10
33.95
 20
39.11699999999999
 30
0.0
 11
35.1
 21
37.3014
 31
0.0
  0
LINE
  5
A6
330
1E
100
AcDbEntity
  8
0
100
AcDbLine
 10
38.0
 20
35.9074
 30
0.0
 11
38.5
 21
38.7113
 31
0.0
  0
LINE
  5
A7
330
1E
100
AcDbEntity
  8
0
100
AcDbLine
 10
39.0
 20
39.3452
 30
0.0
 11
39.0
 21
56.7924
 31
0.0
  0
LINE
  5
A8
330
1E
100
AcDbEntity
  8
0
100
AcDbLine
 10
38.5
 20
36.40229999999999
 30
0.0
 11
39.0
 21
39.3452
 31
0.0
  0
LINE
  5
A9
330
1E
100
AcDbEntity
  8
0
100
AcDbLine
 10
37.0
 20
33.689
 30
0.0
 11
38.5
 21
36.40229999999999
 31
0.0
  0
LINE
  5
AA
330
1E
100
AcDbEntity
  8
0
100
AcDbLine
 10
39.0
 20
56.7924
 30
0.0
 11
39.0
 21
39.3452
 31
0.0
  0
LINE
  5
AB
330
1E
100
AcDbEntity
  8
0
100
AcDbLine
 10
38.0
 20
41.473
 30
0.0
 11
38.5
 21
38.7113
 31
0.0
  0
LINE
  5
AC
330
1E
100
AcDbEntity
  8
0
100
AcDbLine
 10
36.5
 20
44.0957
 30
0.0
 11
38.0
 21
41.473
 31
0.0
  0
LINE
  5
AD
330
1E
100
AcDbEntity
  8
0
100
AcDbLine
 10
30.2
 20
-0.0000000000000016
 30
0.0
 11
35.89999999999999
 21
-0.0000000000000018
 31
0.0
  0
LINE
  5
AE
330
1E
100
AcDbEntity
  8
0
100
AcDbLine
 10
40.89999999999999
 20
-0.000000000000002
 30
0.0
 11
44.79999999999999
 21
-0.0000000000000023
 31
0.0
  0
LINE
  5
AF
330
1E
100
AcDbEntity
  8
0
100
AcDbLine
 10
44.79999999999999
 20
-0.0000000000000023
 30
0.0
 11
47.09999999999999
 21
-0.0000000000000027
 31
0.0
  0
LINE
  5
B0
330
1E
100
AcDbEntity
  8
0
100
AcDbLine
 10
47.09999999999999
 20
-0.0000000000000027
 30
0.0
 11
48.0
 21
-0.0000000000000031
 31
0.0
  0
LINE
  5
B1
330
1E
100
AcDbEntity
  8
0
100
AcDbLine
 10
29.39999999999999
 20
77.23100000000001
 30
0.0
 11
34.39999999999999
 21
77.915
 31
0.0
  0
LINE
  5
B2
330
1E
100
AcDbEntity
  8
0
100
AcDbLine
 10
33.7
 20
77.5557
 30
0.0
 11
37.79999999999999
 21
78.61589999999999
 31
0.0
  0
LINE
  5
B3
330
1E
100
AcDbEntity
  8
0
100
AcDbLine
 10
29.0
 20
76.9058
 30
0.0
 11
33.7
 21
77.5557
 31
0.0
  0
LINE
  5
B4
330
1E
100
AcDbEntity
  8
0
100
AcDbLine
 10
37.79999999999999
 20
78.61589999999999
 30
0.0
 11
39.79054857254221
 21
79.51633427847609
 31
0.0
  0
LINE
  5
B5
330
1E
100
AcDbEntity
  8
0
100
AcDbLine
 10
38.5
 20
77.9067
 30
0.0
 11
41.79999999999999
 21
79.37739999999999
 31
0.0
  0
LINE
  5
B6
330
1E
100
AcDbEntity
  8
0
100
AcDbLine
 10
41.79999999999999
 20
79.37739999999999
 30
0.0
 11
43.79999999999999
 21
81.0533
 31
0.0
  0
LINE
  5
B7
330
1E
100
AcDbEntity
  8
0
100
AcDbLine
 10
38.79999999999999
 20
79.0779
 30
0.0
 11
42.2
 21
80.58280000000001
 31
0.0
  0
LINE
  5
B8
330
1E
100
AcDbEntity
  8
0
100
AcDbLine
 10
43.79999999999999
 20
81.0533
 30
0.0
 11
44.5
 21
82.86599999999999
 31
0.0
  0
LINE
  5
B9
330
1E
100
AcDbEntity
  8
0
100
AcDbLine
 10
42.2
 20
80.58280000000001
 30
0.0
 11
44.2
 21
82.2929
 31
0.0
  0
LINE
  5
BA
330
1E
100
AcDbEntity
  8
0
100
AcDbLine
 10
34.39999999999999
 20
77.915
 30
0.0
 11
38.79999999999999
 21
79.0779
 31
0.0
  0
LINE
  5
BB
330
1E
100
AcDbEntity
  8
0
100
AcDbLine
 10
44.47560581700989
 20
82.92917047929449
 30
0.0
 11
44.5
 21
82.86599999999999
 31
0.0
  0
LINE
  5
BC
330
1E
100
AcDbEntity
  8
0
100
AcDbLine
 10
44.47560581700989
 20
82.92917047929449
 30
0.0
 11
44.5
 21
82.86599999999999
 31
0.0
  0
LINE
  5
BD
330
1E
100
AcDbEntity
  8
0
100
AcDbLine
 10
44.2
 20
82.2929
 30
0.0
 11
45.0
 21
84.1398
 31
0.0
  0
LINE
  5
BE
330
1E
100
AcDbEntity
  8
0
100
AcDbLine
 10
45.0
 20
84.1398
 30
0.0
 11
45.0
 21
110.921
 31
0.0
  0
LINE
  5
BF
330
1E
100
AcDbEntity
  8
0
100
AcDbLine
 10
44.52060208998861
 20
83.03304999999999
 30
0.0
 11
45.0
 21
81.92629999999999
 31
0.0
  0
LINE
  5
C0
330
1E
100
AcDbEntity
  8
0
100
AcDbLine
 10
45.0
 20
81.92629999999999
 30
0.0
 11
48.0
 21
-0.0000000000000031
 31
0.0
  0
LINE
  5
C1
330
1E
100
AcDbEntity
  8
0
100
AcDbLine
 10
45.0
 20
81.92629999999999
 30
0.0
 11
48.0
 21
0.0
 31
0.0
  0
LINE
  5
C2
330
1E
100
AcDbEntity
  8
0
100
AcDbLine
 10
34.2
 20
76.77800000000001
 30
0.0
 11
38.5
 21
77.9067
 31
0.0
  0
LINE
  5
C3
330
1E
100
AcDbEntity
  8
0
100
AcDbLine
 10
29.3
 20
76.09399999999999
 30
0.0
 11
34.2
 21
76.77800000000001
 31
0.0
  0
LINE
  5
C4
330
1E
100
AcDbEntity
  8
0
100
AcDbLine
 10
27.1578548915223
 20
28.08209062513919
 30
0.0
 11
27.7
 21
28.1361
 31
0.0
  0
LINE
  5
C5
330
1E
100
AcDbEntity
  8
0
100
AcDbLine
 10
26.36
 20
87.1071
 30
0.0
 11
26.8397
 21
87.99979999999999
 31
0.0
  0
LINE
  5
C6
330
1E
100
AcDbEntity
  8
0
100
AcDbLine
 10
26.8397
 20
87.99979999999999
 30
0.0
 11
27.0
 21
88.3581
 31
0.0
  0
LINE
  5
C7
330
1E
100
AcDbEntity
  8
0
100
AcDbLine
 10
25.84
 20
86.81980000000001
 30
0.0
 11
26.36
 21
87.1071
 31
0.0
  0
LINE
  5
C8
330
1E
100
AcDbEntity
  8
0
100
AcDbLine
 10
25.11
 20
99.80450000000001
 30
0.0
 11
25.84
 21
99.9755
 31
0.0
  0
LINE
  5
C9
330
1E
100
AcDbEntity
  8
0
100
AcDbLine
 10
25.84
 20
99.9755
 30
0.0
 11
26.36
 21
100.2629999999999
 31
0.0
  0
LINE
  5
CA
330
1E
100
AcDbEntity
  8
0
100
AcDbLine
 10
26.36
 20
100.2629999999999
 30
0.0
 11
26.5
 21
100.574
 31
0.0
  0
LINE
  5
CB
330
1E
100
AcDbEntity
  8
0
100
AcDbLine
 10
22.89
 20
99.80450000000001
 30
0.0
 11
24.0
 21
99.71899999999999
 31
0.0
  0
LINE
  5
CC
330
1E
100
AcDbEntity
  8
0
100
AcDbLine
 10
22.16
 20
99.9755
 30
0.0
 11
22.89
 21
99.80450000000001
 31
0.0
  0
LINE
  5
CD
330
1E
100
AcDbEntity
  8
0
100
AcDbLine
 10
26.5085617048879
 20
104.962595247014
 30
0.0
 11
29.3
 21
105.089
 31
0.0
  0
LINE
  5
CE
330
1E
100
AcDbEntity
  8
0
100
AcDbLine
 10
26.5
 20
100.574
 30
0.0
 11
26.5085617048879
 21
104.962595247014
 31
0.0
  0
LINE
  5
CF
330
1E
100
AcDbEntity
  8
0
100
AcDbLine
 10
21.64
 20
100.2629999999999
 30
0.0
 11
22.16
 21
99.9755
 31
0.0
  0
LINE
  5
D0
330
1E
100
AcDbEntity
  8
0
100
AcDbLine
 10
21.49999999999999
 20
100.574
 30
0.0
 11
21.64
 21
100.2629999999999
 31
0.0
  0
LINE
  5
D1
330
1E
100
AcDbEntity
  8
0
100
AcDbLine
 10
33.7
 20
118.111
 30
0.0
 11
37.79999999999999
 21
117.05
 31
0.0
  0
LINE
  5
D2
330
1E
100
AcDbEntity
  8
0
100
AcDbLine
 10
29.0
 20
118.761
 30
0.0
 11
33.7
 21
118.111
 31
0.0
  0
LINE
  5
D3
330
1E
100
AcDbEntity
  8
0
100
AcDbLine
 10
24.0
 20
119.0
 30
0.0
 11
29.0
 21
118.761
 31
0.0
  0
LINE
  5
D4
330
1E
100
AcDbEntity
  8
0
100
AcDbLine
 10
38.5
 20
106.901
 30
0.0
 11
41.79999999999999
 21
108.372
 31
0.0
  0
LINE
  5
D5
330
1E
100
AcDbEntity
  8
0
100
AcDbLine
 10
41.79999999999999
 20
108.372
 30
0.0
 11
43.79999999999999
 21
110.0479999999999
 31
0.0
  0
LINE
  5
D6
330
1E
100
AcDbEntity
  8
0
100
AcDbLine
 10
38.5
 20
116.8199999999999
 30
0.0
 11
41.79999999999999
 21
115.3489999999999
 31
0.0
  0
LINE
  5
D7
330
1E
100
AcDbEntity
  8
0
100
AcDbLine
 10
41.79999999999999
 20
115.3489999999999
 30
0.0
 11
43.79999999999999
 21
113.6729999999999
 31
0.0
  0
LINE
  5
D8
330
1E
100
AcDbEntity
  8
0
100
AcDbLine
 10
43.79999999999999
 20
113.6729999999999
 30
0.0
 11
44.5
 21
111.861
 31
0.0
  0
LINE
  5
D9
330
1E
100
AcDbEntity
  8
0
100
AcDbLine
 10
43.79999999999999
 20
113.6729999999999
 30
0.0
 11
44.2
 21
112.7679999999999
 31
0.0
  0
LINE
  5
DA
330
1E
100
AcDbEntity
  8
0
100
AcDbLine
 10
44.2
 20
112.7679999999999
 30
0.0
 11
45.0
 21
110.921
 31
0.0
  0
LINE
  5
DB
330
1E
100
AcDbEntity
  8
0
100
AcDbLine
 10
45.0
 20
110.921
 30
0.0
 11
45.0
 21
84.1398
 31
0.0
  0
LINE
  5
DC
330
1E
100
AcDbEntity
  8
0
100
AcDbLine
 10
37.79999999999999
 20
117.05
 30
0.0
 11
38.5
 21
116.8199999999999
 31
0.0
  0
LINE
  5
DD
330
1E
100
AcDbEntity
  8
0
100
AcDbLine
 10
43.79999999999999
 20
110.0479999999999
 30
0.0
 11
44.5
 21
111.861
 31
0.0
  0
LINE
  5
DE
330
1E
100
AcDbEntity
  8
0
100
AcDbLine
 10
34.2
 20
105.773
 30
0.0
 11
38.5
 21
106.901
 31
0.0
  0
LINE
  5
DF
330
1E
100
AcDbEntity
  8
0
100
AcDbLine
 10
29.3
 20
105.089
 30
0.0
 11
34.2
 21
105.773
 31
0.0
  0
LINE
  5
E1
330
1E
100
AcDbEntity
  8
0
100
AcDbLine
 10
21.49143829511209
 20
104.962595247014
 30
0.0
 11
21.49999999999999
 21
100.574
 31
0.0
  0
LINE
  5
E2
330
1E
100
AcDbEntity
  8
0
100
AcDbLine
 10
21.04999999999999
 20
42.6825
 30
0.0
 11
24.0
 21
42.94649999999999
 31
0.0
  0
LINE
  5
E7
330
1E
100
AcDbEntity
  8
0
100
AcDbLine
 10
27.0
 20
88.3581
 30
0.0
 11
26.36
 21
100.2629999999999
 31
0.0
  0
LWPOLYLINE
  5
E9
330
1E
100
AcDbEntity
  8
0
100
AcDbPolyline
 90
       11
 70
     0
 43
0.0
 10
9.0
 20
56.7924
 10
9.211826482787728
 20
59.3593021208203
 10
10.06686927346243
 20
62.56358535684819
 10
10.79365587761401
 20
64.16572711445923
 10
11.96933942469422
 20
65.8960397212972
 10
13.42291263299728
 20
67.64771460166355
 10
15.15437434213322
 20
69.18577065546685
 10
16.92858772664669
 20
70.16841736933435
 10
19.21582759783814
 20
71.25787377567764
 10
21.48169076104818
 20
71.81328283641915
 10
24.0
 20
72.0
  0
LWPOLYLINE
  5
EA
330
1E
100
AcDbEntity
  8
0
100
AcDbPolyline
 90
       11
 70
     0
 43
0.0
 10
39.0
 20
56.7924
 10
38.78817351721227
 20
59.3593021208203
 10
37.93313072653757
 20
62.56358535684819
 10
37.20634412238598
 20
64.16572711445923
 10
36.03066057530577
 20
65.8960397212972
 10
34.57708736700272
 20
67.64771460166355
 10
32.84562565786677
 20
69.18577065546685
 10
31.0714122733533
 20
70.16841736933435
 10
28.78417240216185
 20
71.25787377567764
 10
26.51830923895181
 20
71.81328283641915
 10
24.0
 20
72.0
  0
ENDSEC
  0
SECTION
  2
OBJECTS
  0
DICTIONARY
  5
C
330
0
100
AcDbDictionary
  3
ACAD_GROUP
350
D
  3
ACAD_LAYOUT
350
19
  3
ACAD_MLINESTYLE
350
16
  3
ACAD_PLOTSETTINGS
350
18
  3
ACAD_PLOTSTYLENAME
350
E
  3
ACDBHEADERROUNDTRIPXREC
350
EE
  3
ACDBVARIABLEDICTIONARY
350
EB
  0
DICTIONARY
  5
110
330
1E
100
AcDbDictionary
280
     1
  3
ACAD_LAYOUTSELFREF
360
111
  0
DICTIONARY
  5
10E
330
1A
100
AcDbDictionary
280
     1
  3
ACAD_LAYOUTSELFREF
360
10F
  0
DICTIONARY
  5
D
102
{ACAD_REACTORS
330
C
102
}
330
C
100
AcDbDictionary
  0
DICTIONARY
  5
19
102
{ACAD_REACTORS
330
C
102
}
330
C
100
AcDbDictionary
  0
DICTIONARY
  5
16
102
{ACAD_REACTORS
330
C
102
}
330
C
100
AcDbDictionary
  3
STANDARD
350
17
  0
DICTIONARY
  5
18
102
{ACAD_REACTORS
330
C
102
}
330
C
100
AcDbDictionary
  0
ACDBDICTIONARYWDFLT
  5
E
102
{ACAD_REACTORS
330
C
102
}
330
C
100
AcDbDictionary
281
     1
  3
Normal
350
F
100
AcDbDictionaryWithDefault
340
F
  0
DICTIONARY
  5
EE
102
{ACAD_REACTORS
330
C
102
}
330
C
100
AcDbDictionary
  3
CEPSNTYPE
350
F8
  3
FINGERPRINTGUID
350
F9
  3
HYPERLINKBASE
350
F1
  3
INSUNITS
350
F7
  3
LAYOUTDICT
350
F3
  3
LWETCUNION
350
F6
  3
PLOTSETDICT
350
F4
  3
PLOTSTYLNAMDICT
350
F5
  3
PSVPSCALE
350
FB
  3
PUCSBASE
350
FE
  3
PUCSORGBACK
350
104
  3
PUCSORGBOTTOM
350
100
  3
PUCSORGFRONT
350
103
  3
PUCSORGLEFT
350
101
  3
PUCSORGRIGHT
350
102
  3
PUCSORGTOP
350
FF
  3
PUCSORTHOREF
350
FC
  3
PUCSORTHOVIEW
350
FD
  3
STYLESHEET
350
F2
  3
TSTACKALIGN
350
EF
  3
TSTACKSIZE
350
F0
  3
UCSBASE
350
107
  3
UCSORGBACK
350
10D
  3
UCSORGBOTTOM
350
109
  3
UCSORGFRONT
350
10C
  3
UCSORGLEFT
350
10A
  3
UCSORGRIGHT
350
10B
  3
UCSORGTOP
350
108
  3
UCSORTHOREF
350
105
  3
UCSORTHOVIEW
350
106
  3
VERSIONGUID
350
FA
  0
DICTIONARY
  5
EB
102
{ACAD_REACTORS
330
C
102
}
330
C
100
AcDbDictionary
  3
DIMASSOC
350
EC
  0
XRECORD
  5
111
102
{ACAD_REACTORS
330
110
102
}
330
110
100
AcDbXrecord
340
1E
  0
XRECORD
  5
10F
102
{ACAD_REACTORS
330
10E
102
}
330
10E
100
AcDbXrecord
340
1A
  0
MLINESTYLE
  5
17
102
{ACAD_REACTORS
330
16
102
}
330
16
100
AcDbMlineStyle
  2
STANDARD
 70
     0
  3

 62
   256
 51
90.0
 52
90.0
 71
     2
 49
0.5
 62
   256
  6
BYLAYER
 49
-0.5
 62
   256
  6
BYLAYER
  0
ACDBPLACEHOLDER
  5
F
102
{ACAD_REACTORS
330
E
102
}
330
E
100
AcDbPlaceHolder
280
     0
  0
XRECORD
  5
F8
102
{ACAD_REACTORS
330
EE
102
}
330
EE
100
AcDbXrecord
 90
        0
  0
XRECORD
  5
F9
102
{ACAD_REACTORS
330
EE
102
}
330
EE
100
AcDbXrecord
  1
{4D07C6BF-6E3B-458F-BDFD-ADBCC35B4762}
  0
XRECORD
  5
F1
102
{ACAD_REACTORS
330
EE
102
}
330
EE
100
AcDbXrecord
  1

  0
XRECORD
  5
F7
102
{ACAD_REACTORS
330
EE
102
}
330
EE
100
AcDbXrecord
 90
        0
  0
XRECORD
  5
F3
102
{ACAD_REACTORS
330
EE
102
}
330
EE
100
AcDbXrecord
340
19
  0
XRECORD
  5
F6
102
{ACAD_REACTORS
330
EE
102
}
330
EE
100
AcDbXrecord
 90
    10781
  0
XRECORD
  5
F4
102
{ACAD_REACTORS
330
EE
102
}
330
EE
100
AcDbXrecord
340
18
  0
XRECORD
  5
F5
102
{ACAD_REACTORS
330
EE
102
}
330
EE
100
AcDbXrecord
340
E
  0
XRECORD
  5
FB
102
{ACAD_REACTORS
330
EE
102
}
330
EE
100
AcDbXrecord
 40
0.0
  0
XRECORD
  5
FE
102
{ACAD_REACTORS
330
EE
102
}
330
EE
100
AcDbXrecord
340
0
  0
XRECORD
  5
104
102
{ACAD_REACTORS
330
EE
102
}
330
EE
100
AcDbXrecord
 10
0.0
 20
0.0
 30
0.0
  0
XRECORD
  5
100
102
{ACAD_REACTORS
330
EE
102
}
330
EE
100
AcDbXrecord
 10
0.0
 20
0.0
 30
0.0
  0
XRECORD
  5
103
102
{ACAD_REACTORS
330
EE
102
}
330
EE
100
AcDbXrecord
 10
0.0
 20
0.0
 30
0.0
  0
XRECORD
  5
101
102
{ACAD_REACTORS
330
EE
102
}
330
EE
100
AcDbXrecord
 10
0.0
 20
0.0
 30
0.0
  0
XRECORD
  5
102
102
{ACAD_REACTORS
330
EE
102
}
330
EE
100
AcDbXrecord
 10
0.0
 20
0.0
 30
0.0
  0
XRECORD
  5
FF
102
{ACAD_REACTORS
330
EE
102
}
330
EE
100
AcDbXrecord
 10
0.0
 20
0.0
 30
0.0
  0
XRECORD
  5
FC
102
{ACAD_REACTORS
330
EE
102
}
330
EE
100
AcDbXrecord
340
0
  0
XRECORD
  5
FD
102
{ACAD_REACTORS
330
EE
102
}
330
EE
100
AcDbXrecord
 70
     0
  0
XRECORD
  5
F2
102
{ACAD_REACTORS
330
EE
102
}
330
EE
100
AcDbXrecord
  1

  0
XRECORD
  5
EF
102
{ACAD_REACTORS
330
EE
102
}
330
EE
100
AcDbXrecord
 90
        1
  0
XRECORD
  5
F0
102
{ACAD_REACTORS
330
EE
102
}
330
EE
100
AcDbXrecord
 90
       70
  0
XRECORD
  5
107
102
{ACAD_REACTORS
330
EE
102
}
330
EE
100
AcDbXrecord
340
0
  0
XRECORD
  5
10D
102
{ACAD_REACTORS
330
EE
102
}
330
EE
100
AcDbXrecord
 10
0.0
 20
0.0
 30
0.0
  0
XRECORD
  5
109
102
{ACAD_REACTORS
330
EE
102
}
330
EE
100
AcDbXrecord
 10
0.0
 20
0.0
 30
0.0
  0
XRECORD
  5
10C
102
{ACAD_REACTORS
330
EE
102
}
330
EE
100
AcDbXrecord
 10
0.0
 20
0.0
 30
0.0
  0
XRECORD
  5
10A
102
{ACAD_REACTORS
330
EE
102
}
330
EE
100
AcDbXrecord
 10
0.0
 20
0.0
 30
0.0
  0
XRECORD
  5
10B
102
{ACAD_REACTORS
330
EE
102
}
330
EE
100
AcDbXrecord
 10
0.0
 20
0.0
 30
0.0
  0
XRECORD
  5
108
102
{ACAD_REACTORS
330
EE
102
}
330
EE
100
AcDbXrecord
 10
0.0
 20
0.0
 30
0.0
  0
XRECORD
  5
105
102
{ACAD_REACTORS
330
EE
102
}
330
EE
100
AcDbXrecord
340
0
  0
XRECORD
  5
106
102
{ACAD_REACTORS
330
EE
102
}
330
EE
100
AcDbXrecord
 70
     1
  0
XRECORD
  5
FA
102
{ACAD_REACTORS
330
EE
102
}
330
EE
100
AcDbXrecord
  1
{BAC22376-A40C-4DB9-B9B4-9FF4BC0E8388}
  0
DICTIONARYVAR
  5
EC
102
{ACAD_REACTORS
330
EB
102
}
330
EB
100
DictionaryVariables
280
     0
  1
1
  0
ENDSEC
  0
EOF
