  0
SECTION
  2
HEADER
  9
$ACADVER
  1
AC1014
  9
$ACADMAINTVER
 70
     9
  9
$DWGCODEPAGE
  3
ANSI_1252
  9
$INSBASE
 10
0.0
 20
0.0
 30
0.0
  9
$EXTMIN
 10
-0.0000000000000044
 20
-0.210775000000002
 30
0.0
  9
$EXTMAX
 10
66.0
 20
155.210775
 30
0.0
  9
$LIMMIN
 10
0.0
 20
0.0
  9
$LIMMAX
 10
12.0
 20
9.0
  9
$ORTHOMODE
 70
     0
  9
$REGENMODE
 70
     1
  9
$FILLMODE
 70
     1
  9
$QTEXTMODE
 70
     0
  9
$MIRRTEXT
 70
     1
  9
$DRAGMODE
 70
     2
  9
$LTSCALE
 40
1.0
  9
$OSMODE
 70
    37
  9
$ATTMODE
 70
     1
  9
$TEXTSIZE
 40
0.2
  9
$TRACEWID
 40
0.05
  9
$TEXTSTYLE
  7
STANDARD
  9
$CLAYER
  8
0
  9
$CELTYPE
  6
CONTINUOUS
  9
$CECOLOR
 62
   256
  9
$CELTSCALE
 40
1.0
  9
$DELOBJ
 70
     1
  9
$DISPSILH
 70
     0
  9
$DIMSCALE
 40
1.0
  9
$DIMASZ
 40
0.18
  9
$DIMEXO
 40
0.0625
  9
$DIMDLI
 40
0.38
  9
$DIMRND
 40
0.0
  9
$DIMDLE
 40
0.0
  9
$DIMEXE
 40
0.18
  9
$DIMTP
 40
0.0
  9
$DIMTM
 40
0.0
  9
$DIMTXT
 40
0.18
  9
$DIMCEN
 40
0.09
  9
$DIMTSZ
 40
0.0
  9
$DIMTOL
 70
     0
  9
$DIMLIM
 70
     0
  9
$DIMTIH
 70
     1
  9
$DIMTOH
 70
     1
  9
$DIMSE1
 70
     0
  9
$DIMSE2
 70
     0
  9
$DIMTAD
 70
     0
  9
$DIMZIN
 70
     0
  9
$DIMBLK
  1

  9
$DIMASO
 70
     1
  9
$DIMSHO
 70
     1
  9
$DIMPOST
  1

  9
$DIMAPOST
  1

  9
$DIMALT
 70
     0
  9
$DIMALTD
 70
     2
  9
$DIMALTF
 40
25.4
  9
$DIMLFAC
 40
1.0
  9
$DIMTOFL
 70
     0
  9
$DIMTVP
 40
0.0
  9
$DIMTIX
 70
     0
  9
$DIMSOXD
 70
     0
  9
$DIMSAH
 70
     0
  9
$DIMBLK1
  1

  9
$DIMBLK2
  1

  9
$DIMSTYLE
  2
STANDARD
  9
$DIMCLRD
 70
     0
  9
$DIMCLRE
 70
     0
  9
$DIMCLRT
 70
     0
  9
$DIMTFAC
 40
1.0
  9
$DIMGAP
 40
0.09
  9
$DIMJUST
 70
     0
  9
$DIMSD1
 70
     0
  9
$DIMSD2
 70
     0
  9
$DIMTOLJ
 70
     1
  9
$DIMTZIN
 70
     0
  9
$DIMALTZ
 70
     0
  9
$DIMALTTZ
 70
     0
  9
$DIMFIT
 70
     3
  9
$DIMUPT
 70
     0
  9
$DIMUNIT
 70
     2
  9
$DIMDEC
 70
     4
  9
$DIMTDEC
 70
     4
  9
$DIMALTU
 70
     2
  9
$DIMALTTD
 70
     2
  9
$DIMTXSTY
  7
STANDARD
  9
$DIMAUNIT
 70
     0
  9
$LUNITS
 70
     2
  9
$LUPREC
 70
     4
  9
$SKETCHINC
 40
0.1
  9
$FILLETRAD
 40
0.0
  9
$AUNITS
 70
     0
  9
$AUPREC
 70
     0
  9
$MENU
  1
.
  9
$ELEVATION
 40
0.0
  9
$PELEVATION
 40
0.0
  9
$THICKNESS
 40
0.0
  9
$LIMCHECK
 70
     0
  9
$BLIPMODE
 70
     0
  9
$CHAMFERA
 40
0.0
  9
$CHAMFERB
 40
0.0
  9
$CHAMFERC
 40
0.0
  9
$CHAMFERD
 40
0.0
  9
$SKPOLY
 70
     0
  9
$TDCREATE
 40
2454698.393859954
  9
$TDUPDATE
 40
2454698.394118009
  9
$TDINDWG
 40
0.0002582407
  9
$TDUSRTIMER
 40
0.0002582407
  9
$USRTIMER
 70
     1
  9
$ANGBASE
 50
0.0
  9
$ANGDIR
 70
     0
  9
$PDMODE
 70
     0
  9
$PDSIZE
 40
0.0
  9
$PLINEWID
 40
0.0
  9
$COORDS
 70
     1
  9
$SPLFRAME
 70
     0
  9
$SPLINETYPE
 70
     6
  9
$SPLINESEGS
 70
     8
  9
$ATTDIA
 70
     0
  9
$ATTREQ
 70
     1
  9
$HANDLING
 70
 22529
  9
$HANDSEED
  5
1D2
  9
$SURFTAB1
 70
     6
  9
$SURFTAB2
 70
     6
  9
$SURFTYPE
 70
     6
  9
$SURFU
 70
     6
  9
$SURFV
 70
     6
  9
$UCSNAME
  2

  9
$UCSORG
 10
0.0
 20
0.0
 30
0.0
  9
$UCSXDIR
 10
1.0
 20
0.0
 30
0.0
  9
$UCSYDIR
 10
0.0
 20
1.0
 30
0.0
  9
$PUCSNAME
  2

  9
$PUCSORG
 10
0.0
 20
0.0
 30
0.0
  9
$PUCSXDIR
 10
1.0
 20
0.0
 30
0.0
  9
$PUCSYDIR
 10
0.0
 20
1.0
 30
0.0
  9
$USERI1
 70
     0
  9
$USERI2
 70
     0
  9
$USERI3
 70
     0
  9
$USERI4
 70
     0
  9
$USERI5
 70
     0
  9
$USERR1
 40
0.0
  9
$USERR2
 40
0.0
  9
$USERR3
 40
0.0
  9
$USERR4
 40
0.0
  9
$USERR5
 40
0.0
  9
$WORLDVIEW
 70
     1
  9
$SHADEDGE
 70
     3
  9
$SHADEDIF
 70
    70
  9
$TILEMODE
 70
     1
  9
$MAXACTVP
 70
    64
  9
$PINSBASE
 10
0.0
 20
0.0
 30
0.0
  9
$PLIMCHECK
 70
     0
  9
$PEXTMIN
 10
1.000000000000000E+20
 20
1.000000000000000E+20
 30
1.000000000000000E+20
  9
$PEXTMAX
 10
-1.000000000000000E+20
 20
-1.000000000000000E+20
 30
-1.000000000000000E+20
  9
$PLIMMIN
 10
0.0
 20
0.0
  9
$PLIMMAX
 10
12.0
 20
9.0
  9
$UNITMODE
 70
     0
  9
$VISRETAIN
 70
     1
  9
$PLINEGEN
 70
     0
  9
$PSLTSCALE
 70
     1
  9
$TREEDEPTH
 70
  3020
  9
$PICKSTYLE
 70
     1
  9
$CMLSTYLE
  2
STANDARD
  9
$CMLJUST
 70
     0
  9
$CMLSCALE
 40
1.0
  9
$PROXYGRAPHICS
 70
     1
  9
$MEASUREMENT
 70
     0
  0
ENDSEC
  0
SECTION
  2
CLASSES
  0
CLASS
  1
ACDBDICTIONARYWDFLT
  2
AcDbDictionaryWithDefault
  3
AutoCAD 2000
 90
        0
280
     0
281
     0
  0
CLASS
  1
ACDBPLACEHOLDER
  2
AcDbPlaceHolder
  3
AutoCAD 2000
 90
        0
280
     0
281
     0
  0
CLASS
  1
LAYOUT
  2
AcDbLayout
  3
AutoCAD 2000
 90
        0
280
     0
281
     0
  0
CLASS
  1
DICTIONARYVAR
  2
AcDbDictionaryVar
  3
AutoCAD 2000
 90
        0
280
     0
281
     0
  0
CLASS
  1
LONG_TRANSACTION
  2
AcDbLongTransaction
  3
AutoCAD 2000
 90
        0
280
     0
281
     0
  0
CLASS
  1
LWPOLYLINE
  2
AcDbPolyline
  3
AutoCAD 2000
 90
        0
280
     0
281
     1
  0
CLASS
  1
HATCH
  2
AcDbHatch
  3
AutoCAD 2000
 90
        0
280
     0
281
     1
  0
CLASS
  1
XRECORD
  2
AcDbXrecord
  3
AutoCAD 2000
 90
        0
280
     0
281
     0
  0
ENDSEC
  0
SECTION
  2
TABLES
  0
TABLE
  2
VPORT
  5
8
330
0
100
AcDbSymbolTable
 70
     2
  0
VPORT
  5
1AD
330
8
100
AcDbSymbolTableRecord
100
AcDbViewportTableRecord
  2
*ACTIVE
 70
     0
 10
0.0
 20
0.0
 11
1.0
 21
1.0
 12
32.99999999999999
 22
77.50000000000001
 13
0.0
 23
0.0
 14
1.0
 24
1.0
 15
0.0
 25
0.0
 16
0.0
 26
0.0
 36
1.0
 17
0.0
 27
0.0
 37
0.0
 40
156.6140427109974
 41
2.078104993597951
 42
50.0
 43
0.0
 44
0.0
 50
0.0
 51
0.0
 71
     0
 72
   100
 73
     1
 74
     3
 75
     0
 76
     0
 77
     0
 78
     0
  0
ENDTAB
  0
TABLE
  2
LTYPE
  5
5
330
0
100
AcDbSymbolTable
 70
     1
  0
LTYPE
  5
13
330
5
100
AcDbSymbolTableRecord
100
AcDbLinetypeTableRecord
  2
BYBLOCK
 70
     0
  3

 72
    65
 73
     0
 40
0.0
  0
LTYPE
  5
14
330
5
100
AcDbSymbolTableRecord
100
AcDbLinetypeTableRecord
  2
BYLAYER
 70
     0
  3

 72
    65
 73
     0
 40
0.0
  0
LTYPE
  5
15
330
5
100
AcDbSymbolTableRecord
100
AcDbLinetypeTableRecord
  2
CONTINUOUS
 70
     0
  3
Solid line
 72
    65
 73
     0
 40
0.0
  0
ENDTAB
  0
TABLE
  2
LAYER
  5
2
330
0
100
AcDbSymbolTable
 70
     1
  0
LAYER
  5
10
330
2
100
AcDbSymbolTableRecord
100
AcDbLayerTableRecord
  2
0
 70
     0
 62
     7
  6
CONTINUOUS
  0
ENDTAB
  0
TABLE
  2
STYLE
  5
3
330
0
100
AcDbSymbolTable
 70
     1
  0
STYLE
  5
11
330
3
100
AcDbSymbolTableRecord
100
AcDbTextStyleTableRecord
  2
STANDARD
 70
     0
 40
0.0
 41
1.0
 50
0.0
 71
     0
 42
0.2
  3
txt
  4

  0
ENDTAB
  0
TABLE
  2
VIEW
  5
6
330
0
100
AcDbSymbolTable
 70
     0
  0
ENDTAB
  0
TABLE
  2
UCS
  5
7
330
0
100
AcDbSymbolTable
 70
     0
  0
ENDTAB
  0
TABLE
  2
APPID
  5
9
330
0
100
AcDbSymbolTable
 70
     1
  0
APPID
  5
12
330
9
100
AcDbSymbolTableRecord
100
AcDbRegAppTableRecord
  2
ACAD
 70
     0
  0
ENDTAB
  0
TABLE
  2
DIMSTYLE
  5
A
330
0
100
AcDbSymbolTable
 70
     1
  0
DIMSTYLE
105
1A7
330
A
100
AcDbSymbolTableRecord
100
AcDbDimStyleTableRecord
  2
STANDARD
 70
     0
  3

  4

  5

  6

  7

 40
1.0
 41
0.18
 42
0.0625
 43
0.38
 44
0.18
 45
0.0
 46
0.0
 47
0.0
 48
0.0
140
0.18
141
0.09
142
0.0
143
25.4
144
1.0
145
0.0
146
1.0
147
0.09
 71
     0
 72
     0
 73
     1
 74
     1
 75
     0
 76
     0
 77
     0
 78
     0
170
     0
171
     2
172
     0
173
     0
174
     0
175
     0
176
     0
177
     0
178
     0
270
     2
271
     4
272
     4
273
     2
274
     2
340
11
275
     0
280
     0
281
     0
282
     0
283
     1
284
     0
285
     0
286
     0
287
     3
288
     0
  0
ENDTAB
  0
TABLE
  2
BLOCK_RECORD
  5
1
330
0
100
AcDbSymbolTable
 70
     0
  0
BLOCK_RECORD
  5
1E
102
{ACAD_XDICTIONARY
360
1D0
102
}
330
1
100
AcDbSymbolTableRecord
100
AcDbBlockTableRecord
  2
*MODEL_SPACE
  0
BLOCK_RECORD
  5
1A
102
{ACAD_XDICTIONARY
360
1CE
102
}
330
1
100
AcDbSymbolTableRecord
100
AcDbBlockTableRecord
  2
*PAPER_SPACE
  0
ENDTAB
  0
ENDSEC
  0
SECTION
  2
BLOCKS
  0
BLOCK
  5
1F
330
1E
100
AcDbEntity
  8
0
100
AcDbBlockBegin
  2
*MODEL_SPACE
 70
     0
 10
0.0
 20
0.0
 30
0.0
  3
*MODEL_SPACE
  1

  0
ENDBLK
  5
20
330
1E
100
AcDbEntity
  8
0
100
AcDbBlockEnd
  0
BLOCK
  5
1B
330
1A
100
AcDbEntity
 67
     1
  8
0
100
AcDbBlockBegin
  2
*PAPER_SPACE
 70
     0
 10
0.0
 20
0.0
 30
0.0
  3
*PAPER_SPACE
  1

  0
ENDBLK
  5
1C
330
1A
100
AcDbEntity
 67
     1
  8
0
100
AcDbBlockEnd
  0
ENDSEC
  0
SECTION
  2
ENTITIES
  0
LINE
  5
22
330
1E
100
AcDbEntity
  8
0
100
AcDbLine
 10
5.71108999999999
 20
-0.0261750000000023
 30
0.0
 11
6.04441999999999
 21
-0.0261750000000023
 31
0.0
  0
LINE
  5
23
330
1E
100
AcDbEntity
  8
0
100
AcDbLine
 10
5.71108999999999
 20
-0.0261750000000023
 30
0.0
 11
6.37774999999999
 21
-0.0261750000000023
 31
0.0
  0
LINE
  5
24
330
1E
100
AcDbEntity
  8
0
100
AcDbLine
 10
4.46108999999999
 20
0.8969249999999989
 30
0.0
 11
4.96108999999999
 21
0.8969249999999979
 31
0.0
  0
LINE
  5
25
330
1E
100
AcDbEntity
  8
0
100
AcDbLine
 10
4.29441999999999
 20
0.8969249999999989
 30
0.0
 11
4.54441999999999
 21
1.543025
 31
0.0
  0
LINE
  5
26
330
1E
100
AcDbEntity
  8
0
100
AcDbLine
 10
4.29441999999999
 20
0.8969249999999989
 30
0.0
 11
4.54441999999999
 21
0.250724999999998
 31
0.0
  0
LINE
  5
27
330
1E
100
AcDbEntity
  8
0
100
AcDbLine
 10
4.29441999999999
 20
0.8969249999999989
 30
0.0
 11
4.46108999999999
 21
0.8969249999999989
 31
0.0
  0
LINE
  5
28
330
1E
100
AcDbEntity
  8
0
100
AcDbLine
 10
4.54441999999999
 20
1.543025
 30
0.0
 11
5.12774999999999
 21
1.820025
 31
0.0
  0
LINE
  5
29
330
1E
100
AcDbEntity
  8
0
100
AcDbLine
 10
4.54441999999999
 20
1.543025
 30
0.0
 11
4.71108999999999
 21
1.543025
 31
0.0
  0
LINE
  5
2A
330
1E
100
AcDbEntity
  8
0
100
AcDbLine
 10
4.29441999999999
 20
0.8969249999999989
 30
0.0
 11
4.54441999999999
 21
0.250724999999998
 31
0.0
  0
LINE
  5
2B
330
1E
100
AcDbEntity
  8
0
100
AcDbLine
 10
4.96108999999999
 20
0.8969249999999979
 30
0.0
 11
5.79441999999999
 21
0.8969249999999979
 31
0.0
  0
LINE
  5
2C
330
1E
100
AcDbEntity
  8
0
100
AcDbLine
 10
4.71108999999999
 20
0.250724999999998
 30
0.0
 11
5.21108999999999
 21
0.250724999999998
 31
0.0
  0
LINE
  5
2D
330
1E
100
AcDbEntity
  8
0
100
AcDbLine
 10
5.21108999999999
 20
0.250724999999998
 30
0.0
 11
5.96108999999999
 21
0.250724999999998
 31
0.0
  0
LINE
  5
2E
330
1E
100
AcDbEntity
  8
0
100
AcDbLine
 10
5.29441999999999
 20
-0.0261750000000022
 30
0.0
 11
5.71108999999999
 21
-0.0261750000000023
 31
0.0
  0
LINE
  5
2F
330
1E
100
AcDbEntity
  8
0
100
AcDbLine
 10
5.12774999999999
 20
-0.0261750000000022
 30
0.0
 11
5.29441999999999
 21
-0.0261750000000022
 31
0.0
  0
LINE
  5
30
330
1E
100
AcDbEntity
  8
0
100
AcDbLine
 10
5.21108999999999
 20
1.543025
 30
0.0
 11
5.96108999999999
 21
1.543025
 31
0.0
  0
LINE
  5
31
330
1E
100
AcDbEntity
  8
0
100
AcDbLine
 10
5.12774999999999
 20
1.820025
 30
0.0
 11
5.54441999999999
 21
6.712324999999999
 31
0.0
  0
LINE
  5
32
330
1E
100
AcDbEntity
  8
0
100
AcDbLine
 10
5.71108999999999
 20
1.820025
 30
0.0
 11
6.37774999999999
 21
1.820025
 31
0.0
  0
LINE
  5
33
330
1E
100
AcDbEntity
  8
0
100
AcDbLine
 10
5.29441999999999
 20
1.820025
 30
0.0
 11
5.71108999999999
 21
1.820025
 31
0.0
  0
LINE
  5
34
330
1E
100
AcDbEntity
  8
0
100
AcDbLine
 10
4.71108999999999
 20
1.543025
 30
0.0
 11
5.21108999999999
 21
1.543025
 31
0.0
  0
LINE
  5
35
330
1E
100
AcDbEntity
  8
0
100
AcDbLine
 10
5.96108999999999
 20
1.543025
 30
0.0
 11
6.96108999999999
 21
1.543025
 31
0.0
  0
LINE
  5
36
330
1E
100
AcDbEntity
  8
0
100
AcDbLine
 10
5.79441999999999
 20
0.8969249999999979
 30
0.0
 11
6.79441999999999
 21
0.8969249999999979
 31
0.0
  0
LINE
  5
37
330
1E
100
AcDbEntity
  8
0
100
AcDbLine
 10
5.96108999999999
 20
0.250724999999998
 30
0.0
 11
6.96108999999999
 21
0.250724999999998
 31
0.0
  0
LINE
  5
38
330
1E
100
AcDbEntity
  8
0
100
AcDbLine
 10
5.96108999999999
 20
15.020025
 30
0.0
 11
5.96108999999999
 21
29.789275
 31
0.0
  0
LINE
  5
39
330
1E
100
AcDbEntity
  8
0
100
AcDbLine
 10
5.54441999999999
 20
6.712324999999999
 30
0.0
 11
5.96108999999999
 21
15.020025
 31
0.0
  0
LINE
  5
3A
330
1E
100
AcDbEntity
  8
0
100
AcDbLine
 10
5.12774999999999
 20
1.820025
 30
0.0
 11
5.54441999999999
 21
6.712324999999999
 31
0.0
  0
LINE
  5
3B
330
1E
100
AcDbEntity
  8
0
100
AcDbLine
 10
5.12774999999999
 20
1.820025
 30
0.0
 11
5.29441999999999
 21
1.820025
 31
0.0
  0
LINE
  5
3C
330
1E
100
AcDbEntity
  8
0
100
AcDbLine
 10
4.54441999999999
 20
0.250724999999998
 30
0.0
 11
5.12774999999999
 21
-0.0261750000000022
 31
0.0
  0
LINE
  5
3D
330
1E
100
AcDbEntity
  8
0
100
AcDbLine
 10
4.54441999999999
 20
0.250724999999998
 30
0.0
 11
4.71108999999999
 21
0.250724999999998
 31
0.0
  0
LINE
  5
3E
330
1E
100
AcDbEntity
  8
0
100
AcDbLine
 10
4.54441999999999
 20
0.250724999999998
 30
0.0
 11
5.12774999999999
 21
-0.0261750000000022
 31
0.0
  0
LINE
  5
3F
330
1E
100
AcDbEntity
  8
0
100
AcDbLine
 10
5.54441999999999
 20
-0.0261750000000023
 30
0.0
 11
5.71108999999999
 21
-0.0261750000000023
 31
0.0
  0
LINE
  5
40
330
1E
100
AcDbEntity
  8
0
100
AcDbLine
 10
10.9611
 20
-0.118475000000002
 30
0.0
 11
11.51666666666669
 21
-0.0261750000000026
 31
0.0
  0
LINE
  5
41
330
1E
100
AcDbEntity
  8
0
100
AcDbLine
 10
10.9611
 20
-0.118475000000002
 30
0.0
 11
11.51666666666669
 21
-0.0261750000000026
 31
0.0
  0
LINE
  5
42
330
1E
100
AcDbEntity
  8
0
100
AcDbLine
 10
9.294419999999989
 20
-0.210775000000002
 30
0.0
 11
10.9611
 21
-0.118475000000002
 31
0.0
  0
LINE
  5
43
330
1E
100
AcDbEntity
  8
0
100
AcDbLine
 10
7.07219666666666
 20
-0.0261750000000023
 30
0.0
 11
7.62774999999999
 21
-0.118475000000002
 31
0.0
  0
LINE
  5
44
330
1E
100
AcDbEntity
  8
0
100
AcDbLine
 10
6.37774999999999
 20
1.820025
 30
0.0
 11
7.21108999999999
 21
1.820025
 31
0.0
  0
LINE
  5
45
330
1E
100
AcDbEntity
  8
0
100
AcDbLine
 10
6.96108999999999
 20
1.543025
 30
0.0
 11
8.044419999999989
 21
1.543025
 31
0.0
  0
LINE
  5
46
330
1E
100
AcDbEntity
  8
0
100
AcDbLine
 10
6.79441999999999
 20
0.8969249999999979
 30
0.0
 11
8.044419999999989
 21
0.8969249999999979
 31
0.0
  0
LINE
  5
47
330
1E
100
AcDbEntity
  8
0
100
AcDbLine
 10
6.96108999999999
 20
0.250724999999998
 30
0.0
 11
8.044419999999989
 21
0.250724999999998
 31
0.0
  0
LINE
  5
48
330
1E
100
AcDbEntity
  8
0
100
AcDbLine
 10
6.37774999999999
 20
-0.0261750000000023
 30
0.0
 11
7.21108999999999
 21
-0.0261750000000024
 31
0.0
  0
LINE
  5
49
330
1E
100
AcDbEntity
  8
0
100
AcDbLine
 10
12.2111
 20
-0.0261750000000027
 30
0.0
 11
12.8778
 21
-0.0261750000000027
 31
0.0
  0
LINE
  5
4A
330
1E
100
AcDbEntity
  8
0
100
AcDbLine
 10
11.3778
 20
-0.0261750000000026
 30
0.0
 11
12.2111
 21
-0.0261750000000027
 31
0.0
  0
LINE
  5
4B
330
1E
100
AcDbEntity
  8
0
100
AcDbLine
 10
10.3778
 20
-0.0261750000000026
 30
0.0
 11
11.3778
 21
-0.0261750000000026
 31
0.0
  0
LINE
  5
4C
330
1E
100
AcDbEntity
  8
0
100
AcDbLine
 10
9.294419999999989
 20
-0.0261750000000025
 30
0.0
 11
10.3778
 21
-0.0261750000000026
 31
0.0
  0
LINE
  5
4D
330
1E
100
AcDbEntity
  8
0
100
AcDbLine
 10
7.21108999999999
 20
1.820025
 30
0.0
 11
8.211089999999989
 21
1.820025
 31
0.0
  0
LINE
  5
4E
330
1E
100
AcDbEntity
  8
0
100
AcDbLine
 10
12.6278
 20
0.250724999999998
 30
0.0
 11
13.3778
 21
0.250724999999998
 31
0.0
  0
LINE
  5
4F
330
1E
100
AcDbEntity
  8
0
100
AcDbLine
 10
11.6278
 20
0.250724999999998
 30
0.0
 11
12.6278
 21
0.250724999999998
 31
0.0
  0
LINE
  5
50
330
1E
100
AcDbEntity
  8
0
100
AcDbLine
 10
10.5444
 20
0.250724999999998
 30
0.0
 11
11.6278
 21
0.250724999999998
 31
0.0
  0
LINE
  5
51
330
1E
100
AcDbEntity
  8
0
100
AcDbLine
 10
9.294419999999989
 20
0.250724999999998
 30
0.0
 11
10.5444
 21
0.250724999999998
 31
0.0
  0
LINE
  5
52
330
1E
100
AcDbEntity
  8
0
100
AcDbLine
 10
8.044419999999989
 20
1.543025
 30
0.0
 11
9.294419999999989
 21
1.543025
 31
0.0
  0
LINE
  5
53
330
1E
100
AcDbEntity
  8
0
100
AcDbLine
 10
9.294419999999989
 20
1.820025
 30
0.0
 11
10.3778
 21
1.820025
 31
0.0
  0
LINE
  5
54
330
1E
100
AcDbEntity
  8
0
100
AcDbLine
 10
9.294419999999989
 20
1.543025
 30
0.0
 11
10.5444
 21
1.543025
 31
0.0
  0
LINE
  5
55
330
1E
100
AcDbEntity
  8
0
100
AcDbLine
 10
11.7944
 20
0.8969249999999979
 30
0.0
 11
12.7944
 21
0.8969249999999979
 31
0.0
  0
LINE
  5
56
330
1E
100
AcDbEntity
  8
0
100
AcDbLine
 10
10.3778
 20
1.820025
 30
0.0
 11
11.3778
 21
1.820025
 31
0.0
  0
LINE
  5
57
330
1E
100
AcDbEntity
  8
0
100
AcDbLine
 10
12.6278
 20
1.543025
 30
0.0
 11
13.3778
 21
1.543025
 31
0.0
  0
LINE
  5
58
330
1E
100
AcDbEntity
  8
0
100
AcDbLine
 10
12.2111
 20
1.820025
 30
0.0
 11
12.8778
 21
1.820025
 31
0.0
  0
LINE
  5
59
330
1E
100
AcDbEntity
  8
0
100
AcDbLine
 10
11.3778
 20
1.820025
 30
0.0
 11
12.2111
 21
1.820025
 31
0.0
  0
LINE
  5
5A
330
1E
100
AcDbEntity
  8
0
100
AcDbLine
 10
11.6278
 20
1.543025
 30
0.0
 11
12.6278
 21
1.543025
 31
0.0
  0
LINE
  5
5B
330
1E
100
AcDbEntity
  8
0
100
AcDbLine
 10
10.5444
 20
1.543025
 30
0.0
 11
11.6278
 21
1.543025
 31
0.0
  0
LINE
  5
5C
330
1E
100
AcDbEntity
  8
0
100
AcDbLine
 10
10.5444
 20
0.8969249999999979
 30
0.0
 11
11.7944
 21
0.8969249999999979
 31
0.0
  0
LINE
  5
5D
330
1E
100
AcDbEntity
  8
0
100
AcDbLine
 10
9.294419999999989
 20
0.8969249999999979
 30
0.0
 11
10.5444
 21
0.8969249999999979
 31
0.0
  0
LINE
  5
5E
330
1E
100
AcDbEntity
  8
0
100
AcDbLine
 10
8.211089999999989
 20
1.820025
 30
0.0
 11
9.294419999999989
 21
1.820025
 31
0.0
  0
LINE
  5
5F
330
1E
100
AcDbEntity
  8
0
100
AcDbLine
 10
8.044419999999989
 20
0.8969249999999979
 30
0.0
 11
9.294419999999989
 21
0.8969249999999979
 31
0.0
  0
LINE
  5
60
330
1E
100
AcDbEntity
  8
0
100
AcDbLine
 10
8.044419999999989
 20
0.250724999999998
 30
0.0
 11
9.294419999999989
 21
0.250724999999998
 31
0.0
  0
LINE
  5
61
330
1E
100
AcDbEntity
  8
0
100
AcDbLine
 10
7.21108999999999
 20
-0.0261750000000024
 30
0.0
 11
8.211089999999989
 21
-0.0261750000000024
 31
0.0
  0
LINE
  5
62
330
1E
100
AcDbEntity
  8
0
100
AcDbLine
 10
8.211089999999989
 20
-0.0261750000000024
 30
0.0
 11
9.294419999999989
 21
-0.0261750000000025
 31
0.0
  0
LINE
  5
63
330
1E
100
AcDbEntity
  8
0
100
AcDbLine
 10
12.6278
 20
15.020025
 30
0.0
 11
13.0444
 21
6.712324999999999
 31
0.0
  0
LINE
  5
64
330
1E
100
AcDbEntity
  8
0
100
AcDbLine
 10
12.6278
 20
15.020025
 30
0.0
 11
12.6278
 21
29.789275
 31
0.0
  0
LINE
  5
65
330
1E
100
AcDbEntity
  8
0
100
AcDbLine
 10
12.54439999999999
 20
-0.0261750000000027
 30
0.0
 11
12.8778
 21
-0.0261750000000027
 31
0.0
  0
LINE
  5
66
330
1E
100
AcDbEntity
  8
0
100
AcDbLine
 10
7.07219666666666
 20
-0.0261750000000023
 30
0.0
 11
7.62774999999999
 21
-0.118475000000002
 31
0.0
  0
LINE
  5
67
330
1E
100
AcDbEntity
  8
0
100
AcDbLine
 10
7.62774999999999
 20
-0.118475000000002
 30
0.0
 11
9.294419999999989
 21
-0.210775000000002
 31
0.0
  0
LINE
  5
68
330
1E
100
AcDbEntity
  8
0
100
AcDbLine
 10
5.96108999999999
 20
29.789275
 30
0.0
 11
5.96109
 21
44.55847499999999
 31
0.0
  0
LINE
  5
69
330
1E
100
AcDbEntity
  8
0
100
AcDbLine
 10
4.46109
 20
58.681575
 30
0.0
 11
4.96109
 21
58.681575
 31
0.0
  0
LINE
  5
6A
330
1E
100
AcDbEntity
  8
0
100
AcDbLine
 10
4.544419999999999
 20
58.035375
 30
0.0
 11
5.12774999999999
 21
57.758375
 31
0.0
  0
LINE
  5
6B
330
1E
100
AcDbEntity
  8
0
100
AcDbLine
 10
4.544419999999999
 20
58.035375
 30
0.0
 11
4.71109
 21
58.035375
 31
0.0
  0
LINE
  5
6C
330
1E
100
AcDbEntity
  8
0
100
AcDbLine
 10
4.294419999999999
 20
58.681575
 30
0.0
 11
4.544419999999999
 21
59.327775
 31
0.0
  0
LINE
  5
6D
330
1E
100
AcDbEntity
  8
0
100
AcDbLine
 10
4.294419999999999
 20
58.681575
 30
0.0
 11
4.544419999999999
 21
58.035375
 31
0.0
  0
LINE
  5
6E
330
1E
100
AcDbEntity
  8
0
100
AcDbLine
 10
4.294419999999999
 20
58.681575
 30
0.0
 11
4.46109
 21
58.681575
 31
0.0
  0
LINE
  5
6F
330
1E
100
AcDbEntity
  8
0
100
AcDbLine
 10
5.294419999999999
 20
57.758375
 30
0.0
 11
5.71109
 21
57.758375
 31
0.0
  0
LINE
  5
70
330
1E
100
AcDbEntity
  8
0
100
AcDbLine
 10
6.377749999999999
 20
57.758375
 30
0.0
 11
7.211089999999999
 21
57.758375
 31
0.0
  0
LINE
  5
71
330
1E
100
AcDbEntity
  8
0
100
AcDbLine
 10
7.211089999999999
 20
57.758375
 30
0.0
 11
8.211089999999989
 21
57.758375
 31
0.0
  0
LINE
  5
72
330
1E
100
AcDbEntity
  8
0
100
AcDbLine
 10
8.211089999999989
 20
57.758375
 30
0.0
 11
9.29442
 21
57.758375
 31
0.0
  0
LINE
  5
73
330
1E
100
AcDbEntity
  8
0
100
AcDbLine
 10
5.71109
 20
57.758375
 30
0.0
 11
6.377749999999999
 21
57.758375
 31
0.0
  0
LINE
  5
74
330
1E
100
AcDbEntity
  8
0
100
AcDbLine
 10
12.2111
 20
57.758375
 30
0.0
 11
12.8778
 21
57.758375
 31
0.0
  0
LINE
  5
75
330
1E
100
AcDbEntity
  8
0
100
AcDbLine
 10
11.3778
 20
57.758375
 30
0.0
 11
12.2111
 21
57.758375
 31
0.0
  0
LINE
  5
76
330
1E
100
AcDbEntity
  8
0
100
AcDbLine
 10
10.3778
 20
57.758375
 30
0.0
 11
11.3778
 21
57.758375
 31
0.0
  0
LINE
  5
77
330
1E
100
AcDbEntity
  8
0
100
AcDbLine
 10
9.29442
 20
57.758375
 30
0.0
 11
10.3778
 21
57.758375
 31
0.0
  0
LINE
  5
78
330
1E
100
AcDbEntity
  8
0
100
AcDbLine
 10
5.544419999999999
 20
52.866075
 30
0.0
 11
5.96109
 21
44.55847499999999
 31
0.0
  0
LINE
  5
79
330
1E
100
AcDbEntity
  8
0
100
AcDbLine
 10
5.96109
 20
58.035375
 30
0.0
 11
6.961089999999999
 21
58.035375
 31
0.0
  0
LINE
  5
7A
330
1E
100
AcDbEntity
  8
0
100
AcDbLine
 10
6.961089999999999
 20
58.035375
 30
0.0
 11
8.04442
 21
58.035375
 31
0.0
  0
LINE
  5
7B
330
1E
100
AcDbEntity
  8
0
100
AcDbLine
 10
8.04442
 20
58.035375
 30
0.0
 11
9.29442
 21
58.035375
 31
0.0
  0
LINE
  5
7C
330
1E
100
AcDbEntity
  8
0
100
AcDbLine
 10
5.21109
 20
58.035375
 30
0.0
 11
5.96109
 21
58.035375
 31
0.0
  0
LINE
  5
7D
330
1E
100
AcDbEntity
  8
0
100
AcDbLine
 10
4.71109
 20
58.035375
 30
0.0
 11
5.21109
 21
58.035375
 31
0.0
  0
LINE
  5
7E
330
1E
100
AcDbEntity
  8
0
100
AcDbLine
 10
5.79441999999999
 20
58.681575
 30
0.0
 11
6.79441999999999
 21
58.681575
 31
0.0
  0
LINE
  5
7F
330
1E
100
AcDbEntity
  8
0
100
AcDbLine
 10
6.79441999999999
 20
58.681575
 30
0.0
 11
8.04442
 21
58.681575
 31
0.0
  0
LINE
  5
80
330
1E
100
AcDbEntity
  8
0
100
AcDbLine
 10
5.96109
 20
59.327775
 30
0.0
 11
6.961089999999999
 21
59.327775
 31
0.0
  0
LINE
  5
81
330
1E
100
AcDbEntity
  8
0
100
AcDbLine
 10
8.04442
 20
58.681575
 30
0.0
 11
9.29442
 21
58.681575
 31
0.0
  0
LINE
  5
82
330
1E
100
AcDbEntity
  8
0
100
AcDbLine
 10
6.961089999999999
 20
59.327775
 30
0.0
 11
8.04442
 21
59.327775
 31
0.0
  0
LINE
  5
83
330
1E
100
AcDbEntity
  8
0
100
AcDbLine
 10
8.04442
 20
59.327775
 30
0.0
 11
9.29442
 21
59.327775
 31
0.0
  0
LINE
  5
84
330
1E
100
AcDbEntity
  8
0
100
AcDbLine
 10
4.96109
 20
58.681575
 30
0.0
 11
5.79441999999999
 21
58.681575
 31
0.0
  0
LINE
  5
85
330
1E
100
AcDbEntity
  8
0
100
AcDbLine
 10
5.21109
 20
59.327775
 30
0.0
 11
5.96109
 21
59.327775
 31
0.0
  0
LINE
  5
86
330
1E
100
AcDbEntity
  8
0
100
AcDbLine
 10
4.71109
 20
59.327775
 30
0.0
 11
5.21109
 21
59.327775
 31
0.0
  0
LINE
  5
87
330
1E
100
AcDbEntity
  8
0
100
AcDbLine
 10
9.29442
 20
58.035375
 30
0.0
 11
10.5444
 21
58.035375
 31
0.0
  0
LINE
  5
88
330
1E
100
AcDbEntity
  8
0
100
AcDbLine
 10
9.29442
 20
58.681575
 30
0.0
 11
10.5444
 21
58.681575
 31
0.0
  0
LINE
  5
89
330
1E
100
AcDbEntity
  8
0
100
AcDbLine
 10
5.79441999999999
 20
59.604675
 30
0.0
 11
5.79441999999999
 21
62.21077499999999
 31
0.0
  0
LINE
  5
8A
330
1E
100
AcDbEntity
  8
0
100
AcDbLine
 10
6.377749999999999
 20
59.604675
 30
0.0
 11
7.211089999999999
 21
59.604675
 31
0.0
  0
LINE
  5
8B
330
1E
100
AcDbEntity
  8
0
100
AcDbLine
 10
7.211089999999999
 20
59.604675
 30
0.0
 11
8.211089999999998
 21
59.604675
 31
0.0
  0
LINE
  5
8C
330
1E
100
AcDbEntity
  8
0
100
AcDbLine
 10
8.211089999999998
 20
59.604675
 30
0.0
 11
9.29442
 21
59.604675
 31
0.0
  0
LINE
  5
8D
330
1E
100
AcDbEntity
  8
0
100
AcDbLine
 10
5.71109
 20
59.604675
 30
0.0
 11
6.377749999999999
 21
59.604675
 31
0.0
  0
LINE
  5
8E
330
1E
100
AcDbEntity
  8
0
100
AcDbLine
 10
5.294419999999999
 20
59.604675
 30
0.0
 11
5.71109
 21
59.604675
 31
0.0
  0
LINE
  5
8F
330
1E
100
AcDbEntity
  8
0
100
AcDbLine
 10
5.12774999999999
 20
59.604675
 30
0.0
 11
5.294419999999999
 21
59.604675
 31
0.0
  0
LINE
  5
90
330
1E
100
AcDbEntity
  8
0
100
AcDbLine
 10
9.29442
 20
59.327775
 30
0.0
 11
10.5444
 21
59.327775
 31
0.0
  0
LINE
  5
91
330
1E
100
AcDbEntity
  8
0
100
AcDbLine
 10
10.5444
 20
58.035375
 30
0.0
 11
11.6278
 21
58.035375
 31
0.0
  0
LINE
  5
92
330
1E
100
AcDbEntity
  8
0
100
AcDbLine
 10
10.5444
 20
58.681575
 30
0.0
 11
11.7944
 21
58.681575
 31
0.0
  0
LINE
  5
93
330
1E
100
AcDbEntity
  8
0
100
AcDbLine
 10
10.5444
 20
59.327775
 30
0.0
 11
11.6278
 21
59.327775
 31
0.0
  0
LINE
  5
94
330
1E
100
AcDbEntity
  8
0
100
AcDbLine
 10
11.6278
 20
58.035375
 30
0.0
 11
12.6278
 21
58.035375
 31
0.0
  0
LINE
  5
95
330
1E
100
AcDbEntity
  8
0
100
AcDbLine
 10
12.6278
 20
58.035375
 30
0.0
 11
13.3778
 21
58.035375
 31
0.0
  0
LINE
  5
96
330
1E
100
AcDbEntity
  8
0
100
AcDbLine
 10
12.6278
 20
59.327775
 30
0.0
 11
13.3778
 21
59.327775
 31
0.0
  0
LINE
  5
97
330
1E
100
AcDbEntity
  8
0
100
AcDbLine
 10
11.7944
 20
58.681575
 30
0.0
 11
12.7944
 21
58.681575
 31
0.0
  0
LINE
  5
98
330
1E
100
AcDbEntity
  8
0
100
AcDbLine
 10
12.2111
 20
59.604675
 30
0.0
 11
12.8778
 21
59.604675
 31
0.0
  0
LINE
  5
99
330
1E
100
AcDbEntity
  8
0
100
AcDbLine
 10
11.6278
 20
59.327775
 30
0.0
 11
12.6278
 21
59.327775
 31
0.0
  0
LINE
  5
9A
330
1E
100
AcDbEntity
  8
0
100
AcDbLine
 10
11.3778
 20
59.604675
 30
0.0
 11
12.2111
 21
59.604675
 31
0.0
  0
LINE
  5
9B
330
1E
100
AcDbEntity
  8
0
100
AcDbLine
 10
10.3778
 20
59.604675
 30
0.0
 11
11.3778
 21
59.604675
 31
0.0
  0
LINE
  5
9C
330
1E
100
AcDbEntity
  8
0
100
AcDbLine
 10
9.29442
 20
59.604675
 30
0.0
 11
10.3778
 21
59.604675
 31
0.0
  0
LINE
  5
9D
330
1E
100
AcDbEntity
  8
0
100
AcDbLine
 10
5.12774999999999
 20
57.758375
 30
0.0
 11
5.544419999999999
 21
52.866075
 31
0.0
  0
LINE
  5
9E
330
1E
100
AcDbEntity
  8
0
100
AcDbLine
 10
5.12774999999999
 20
57.758375
 30
0.0
 11
5.294419999999999
 21
57.758375
 31
0.0
  0
LINE
  5
9F
330
1E
100
AcDbEntity
  8
0
100
AcDbLine
 10
4.544419999999999
 20
59.327775
 30
0.0
 11
5.12774999999999
 21
59.604675
 31
0.0
  0
LINE
  5
A0
330
1E
100
AcDbEntity
  8
0
100
AcDbLine
 10
4.544419999999999
 20
59.327775
 30
0.0
 11
4.71109
 21
59.327775
 31
0.0
  0
LINE
  5
A1
330
1E
100
AcDbEntity
  8
0
100
AcDbLine
 10
12.6278
 20
29.789275
 30
0.0
 11
12.6278
 21
44.55847499999999
 31
0.0
  0
LINE
  5
A2
330
1E
100
AcDbEntity
  8
0
100
AcDbLine
 10
12.6278
 20
29.789275
 30
0.0
 11
12.6278
 21
15.020025
 31
0.0
  0
LINE
  5
A3
330
1E
100
AcDbEntity
  8
0
100
AcDbLine
 10
12.7944
 20
0.8969249999999979
 30
0.0
 11
13.6278
 21
0.8969249999999979
 31
0.0
  0
LINE
  5
A4
330
1E
100
AcDbEntity
  8
0
100
AcDbLine
 10
12.6278
 20
44.55847499999999
 30
0.0
 11
13.0444
 21
52.866075
 31
0.0
  0
LINE
  5
A5
330
1E
100
AcDbEntity
  8
0
100
AcDbLine
 10
2.5
 20
62.21077499999999
 30
0.0
 11
12.7944
 21
62.21077499999999
 31
0.0
  0
LINE
  5
A6
330
1E
100
AcDbEntity
  8
0
100
AcDbLine
 10
2.5
 20
62.21077499999999
 30
0.0
 11
2.5
 21
62.910775
 31
0.0
  0
LINE
  5
A7
330
1E
100
AcDbEntity
  8
0
100
AcDbLine
 10
12.8778
 20
1.820025
 30
0.0
 11
13.29439999999999
 21
1.820025
 31
0.0
  0
LINE
  5
A8
330
1E
100
AcDbEntity
  8
0
100
AcDbLine
 10
12.8778
 20
-0.0261750000000027
 30
0.0
 11
13.29439999999999
 21
-0.0261750000000027
 31
0.0
  0
LINE
  5
A9
330
1E
100
AcDbEntity
  8
0
100
AcDbLine
 10
12.8778
 20
57.758375
 30
0.0
 11
13.29439999999999
 21
57.758375
 31
0.0
  0
LINE
  5
AA
330
1E
100
AcDbEntity
  8
0
100
AcDbLine
 10
13.0444
 20
6.712324999999999
 30
0.0
 11
13.4611
 21
1.820025
 31
0.0
  0
LINE
  5
AB
330
1E
100
AcDbEntity
  8
0
100
AcDbLine
 10
13.0444
 20
6.712324999999999
 30
0.0
 11
13.4611
 21
1.820025
 31
0.0
  0
LINE
  5
AC
330
1E
100
AcDbEntity
  8
0
100
AcDbLine
 10
13.29439999999999
 20
1.820025
 30
0.0
 11
13.4611
 21
1.820025
 31
0.0
  0
LINE
  5
AD
330
1E
100
AcDbEntity
  8
0
100
AcDbLine
 10
13.3778
 20
1.543025
 30
0.0
 11
13.8778
 21
1.543025
 31
0.0
  0
LINE
  5
AE
330
1E
100
AcDbEntity
  8
0
100
AcDbLine
 10
13.3778
 20
0.250724999999998
 30
0.0
 11
13.8778
 21
0.250724999999998
 31
0.0
  0
LINE
  5
AF
330
1E
100
AcDbEntity
  8
0
100
AcDbLine
 10
13.29439999999999
 20
-0.0261750000000027
 30
0.0
 11
13.4611
 21
-0.0261750000000027
 31
0.0
  0
LINE
  5
B0
330
1E
100
AcDbEntity
  8
0
100
AcDbLine
 10
13.29439999999999
 20
57.758375
 30
0.0
 11
13.4611
 21
57.758375
 31
0.0
  0
LINE
  5
B1
330
1E
100
AcDbEntity
  8
0
100
AcDbLine
 10
13.4611
 20
1.820025
 30
0.0
 11
14.0444
 21
1.543025
 31
0.0
  0
LINE
  5
B2
330
1E
100
AcDbEntity
  8
0
100
AcDbLine
 10
13.4611
 20
-0.0261750000000027
 30
0.0
 11
14.0444
 21
0.250724999999998
 31
0.0
  0
LINE
  5
B3
330
1E
100
AcDbEntity
  8
0
100
AcDbLine
 10
13.0444
 20
52.866075
 30
0.0
 11
13.4611
 21
57.758375
 31
0.0
  0
LINE
  5
B4
330
1E
100
AcDbEntity
  8
0
100
AcDbLine
 10
12.7944
 20
59.604675
 30
0.0
 11
12.7944
 21
62.21077499999999
 31
0.0
  0
LINE
  5
B5
330
1E
100
AcDbEntity
  8
0
100
AcDbLine
 10
12.7944
 20
58.681575
 30
0.0
 11
13.6278
 21
58.681575
 31
0.0
  0
LINE
  5
B6
330
1E
100
AcDbEntity
  8
0
100
AcDbLine
 10
12.8778
 20
59.604675
 30
0.0
 11
13.29439999999999
 21
59.604675
 31
0.0
  0
LINE
  5
B7
330
1E
100
AcDbEntity
  8
0
100
AcDbLine
 10
13.3778
 20
58.035375
 30
0.0
 11
13.8778
 21
58.035375
 31
0.0
  0
LINE
  5
B8
330
1E
100
AcDbEntity
  8
0
100
AcDbLine
 10
13.3778
 20
59.327775
 30
0.0
 11
13.8778
 21
59.327775
 31
0.0
  0
LINE
  5
B9
330
1E
100
AcDbEntity
  8
0
100
AcDbLine
 10
13.29439999999999
 20
59.604675
 30
0.0
 11
13.4611
 21
59.604675
 31
0.0
  0
LINE
  5
BA
330
1E
100
AcDbEntity
  8
0
100
AcDbLine
 10
13.4611
 20
57.758375
 30
0.0
 11
14.0444
 21
58.035375
 31
0.0
  0
LINE
  5
BB
330
1E
100
AcDbEntity
  8
0
100
AcDbLine
 10
13.6278
 20
0.8969249999999979
 30
0.0
 11
14.1278
 21
0.8969249999999979
 31
0.0
  0
LINE
  5
BC
330
1E
100
AcDbEntity
  8
0
100
AcDbLine
 10
13.8778
 20
1.543025
 30
0.0
 11
14.0444
 21
1.543025
 31
0.0
  0
LINE
  5
BD
330
1E
100
AcDbEntity
  8
0
100
AcDbLine
 10
14.0444
 20
0.250724999999998
 30
0.0
 11
14.2944
 21
0.8969249999999979
 31
0.0
  0
LINE
  5
BE
330
1E
100
AcDbEntity
  8
0
100
AcDbLine
 10
13.8778
 20
0.250724999999998
 30
0.0
 11
14.0444
 21
0.250724999999998
 31
0.0
  0
LINE
  5
BF
330
1E
100
AcDbEntity
  8
0
100
AcDbLine
 10
13.8778
 20
58.035375
 30
0.0
 11
14.0444
 21
58.035375
 31
0.0
  0
LINE
  5
C0
330
1E
100
AcDbEntity
  8
0
100
AcDbLine
 10
13.6278
 20
58.681575
 30
0.0
 11
14.1278
 21
58.681575
 31
0.0
  0
LINE
  5
C1
330
1E
100
AcDbEntity
  8
0
100
AcDbLine
 10
13.8778
 20
59.327775
 30
0.0
 11
14.0444
 21
59.327775
 31
0.0
  0
LINE
  5
C2
330
1E
100
AcDbEntity
  8
0
100
AcDbLine
 10
14.0444
 20
1.543025
 30
0.0
 11
14.2944
 21
0.8969249999999979
 31
0.0
  0
LINE
  5
C3
330
1E
100
AcDbEntity
  8
0
100
AcDbLine
 10
14.0444
 20
0.250724999999998
 30
0.0
 11
14.2944
 21
0.8969249999999979
 31
0.0
  0
LINE
  5
C4
330
1E
100
AcDbEntity
  8
0
100
AcDbLine
 10
14.1278
 20
0.8969249999999979
 30
0.0
 11
14.2944
 21
0.8969249999999979
 31
0.0
  0
LINE
  5
C5
330
1E
100
AcDbEntity
  8
0
100
AcDbLine
 10
14.1278
 20
58.681575
 30
0.0
 11
14.2944
 21
58.681575
 31
0.0
  0
LINE
  5
C6
330
1E
100
AcDbEntity
  8
0
100
AcDbLine
 10
14.0444
 20
58.035375
 30
0.0
 11
14.2944
 21
58.681575
 31
0.0
  0
LINE
  5
D6
330
1E
100
AcDbEntity
  8
0
100
AcDbLine
 10
14.0444
 20
59.327775
 30
0.0
 11
14.2944
 21
58.681575
 31
0.0
  0
LINE
  5
D7
330
1E
100
AcDbEntity
  8
0
100
AcDbLine
 10
13.4611
 20
59.604675
 30
0.0
 11
14.0444
 21
59.327775
 31
0.0
  0
LINE
  5
D8
330
1E
100
AcDbEntity
  8
0
100
AcDbLine
 10
12.7944
 20
62.21077499999999
 30
0.0
 11
30.8926
 21
62.21077499999999
 31
0.0
  0
LINE
  5
D9
330
1E
100
AcDbEntity
  8
0
100
AcDbLine
 10
12.7944
 20
62.21077499999999
 30
0.0
 11
12.7944
 21
59.604675
 31
0.0
  0
LINE
  5
DA
330
1E
100
AcDbEntity
  8
0
100
AcDbLine
 10
12.7944
 20
62.21077499999999
 30
0.0
 11
30.8926
 21
62.21077499999999
 31
0.0
  0
LINE
  5
DB
330
1E
100
AcDbEntity
  8
0
100
AcDbLine
 10
2.0
 20
63.210775
 30
0.0
 11
2.0
 21
63.81077499999999
 31
0.0
  0
LINE
  5
DC
330
1E
100
AcDbEntity
  8
0
100
AcDbLine
 10
1.5
 20
63.710775
 30
0.0
 11
2.0
 21
63.210775
 31
0.0
  0
LINE
  5
DE
330
1E
100
AcDbEntity
  8
0
100
AcDbLine
 10
2.5
 20
62.910775
 30
0.0
 11
2.5
 21
62.21077499999999
 31
0.0
  0
LINE
  5
DF
330
1E
100
AcDbEntity
  8
0
100
AcDbLine
 10
2.5
 20
62.910775
 30
0.0
 11
2.5
 21
64.610775
 31
0.0
  0
LINE
  5
E0
330
1E
100
AcDbEntity
  8
0
100
AcDbLine
 10
2.0
 20
63.81077499999999
 30
0.0
 11
2.0
 21
63.310775
 31
0.0
  0
LINE
  5
E1
330
1E
100
AcDbEntity
  8
0
100
AcDbLine
 10
2.0
 20
63.81077499999999
 30
0.0
 11
2.0
 21
65.51077499999999
 31
0.0
  0
LINE
  5
E2
330
1E
100
AcDbEntity
  8
0
100
AcDbLine
 10
2.0
 20
63.310775
 30
0.0
 11
2.0
 21
63.81077499999999
 31
0.0
  0
LINE
  5
E3
330
1E
100
AcDbEntity
  8
0
100
AcDbLine
 10
2.0
 20
63.310775
 30
0.0
 11
2.0
 21
65.010775
 31
0.0
  0
LINE
  5
E4
330
1E
100
AcDbEntity
  8
0
100
AcDbLine
 10
2.0
 20
62.710775
 30
0.0
 11
2.0
 21
63.310775
 31
0.0
  0
LINE
  5
E5
330
1E
100
AcDbEntity
  8
0
100
AcDbLine
 10
2.0
 20
62.710775
 30
0.0
 11
2.5
 21
62.21077499999999
 31
0.0
  0
LINE
  5
E6
330
1E
100
AcDbEntity
  8
0
100
AcDbLine
 10
2.5
 20
62.21077499999999
 30
0.0
 11
12.7944
 21
62.21077499999999
 31
0.0
  0
LINE
  5
E7
330
1E
100
AcDbEntity
  8
0
100
AcDbLine
 10
53.0
 20
10.504895
 30
0.0
 11
53.0
 21
13.504895
 31
0.0
  0
LINE
  5
E8
330
1E
100
AcDbEntity
  8
0
100
AcDbLine
 10
53.0
 20
10.504895
 30
0.0
 11
53.0
 21
8.563714999999991
 31
0.0
  0
LINE
  5
E9
330
1E
100
AcDbEntity
  8
0
100
AcDbLine
 10
53.0
 20
13.504895
 30
0.0
 11
53.0
 21
10.504895
 31
0.0
  0
LINE
  5
EA
330
1E
100
AcDbEntity
  8
0
100
AcDbLine
 10
53.0
 20
13.504895
 30
0.0
 11
53.0
 21
17.563675
 31
0.0
  0
LINE
  5
EB
330
1E
100
AcDbEntity
  8
0
100
AcDbLine
 10
53.0
 20
8.563714999999991
 30
0.0
 11
53.0
 21
10.504895
 31
0.0
  0
LINE
  5
EC
330
1E
100
AcDbEntity
  8
0
100
AcDbLine
 10
53.0
 20
8.563714999999991
 30
0.0
 11
53.0
 21
7.857835
 31
0.0
  0
LINE
  5
ED
330
1E
100
AcDbEntity
  8
0
100
AcDbLine
 10
53.0
 20
7.857835
 30
0.0
 11
53.0
 21
8.563714999999991
 31
0.0
  0
LINE
  5
EE
330
1E
100
AcDbEntity
  8
0
100
AcDbLine
 10
53.0
 20
7.857835
 30
0.0
 11
53.5
 21
6.62253499999999
 31
0.0
  0
LINE
  5
EF
330
1E
100
AcDbEntity
  8
0
100
AcDbLine
 10
53.0
 20
17.563675
 30
0.0
 11
53.0
 21
22.857875
 31
0.0
  0
LINE
  5
F0
330
1E
100
AcDbEntity
  8
0
100
AcDbLine
 10
53.0
 20
17.563675
 30
0.0
 11
53.0
 21
13.504895
 31
0.0
  0
LINE
  5
F1
330
1E
100
AcDbEntity
  8
0
100
AcDbLine
 10
53.0
 20
29.122575
 30
0.0
 11
53.0
 21
36.269575
 31
0.0
  0
LINE
  5
F2
330
1E
100
AcDbEntity
  8
0
100
AcDbLine
 10
53.0
 20
29.122575
 30
0.0
 11
53.0
 21
22.857875
 31
0.0
  0
LINE
  5
F3
330
1E
100
AcDbEntity
  8
0
100
AcDbLine
 10
53.0
 20
52.593175
 30
0.0
 11
53.0
 21
61.504875
 31
0.0
  0
LINE
  5
F4
330
1E
100
AcDbEntity
  8
0
100
AcDbLine
 10
53.0
 20
52.593175
 30
0.0
 11
53.0
 21
44.21077499999999
 31
0.0
  0
LINE
  5
F5
330
1E
100
AcDbEntity
  8
0
100
AcDbLine
 10
53.0
 20
36.269575
 30
0.0
 11
53.0
 21
44.21077499999999
 31
0.0
  0
LINE
  5
F6
330
1E
100
AcDbEntity
  8
0
100
AcDbLine
 10
53.0
 20
36.269575
 30
0.0
 11
53.0
 21
29.122575
 31
0.0
  0
LINE
  5
F7
330
1E
100
AcDbEntity
  8
0
100
AcDbLine
 10
53.0
 20
61.504875
 30
0.0
 11
53.0
 21
52.593175
 31
0.0
  0
LINE
  5
F8
330
1E
100
AcDbEntity
  8
0
100
AcDbLine
 10
53.0
 20
61.504875
 30
0.0
 11
53.0
 21
64.21077499999999
 31
0.0
  0
LINE
  5
F9
330
1E
100
AcDbEntity
  8
0
100
AcDbLine
 10
53.0
 20
22.857875
 30
0.0
 11
53.0
 21
17.563675
 31
0.0
  0
LINE
  5
FA
330
1E
100
AcDbEntity
  8
0
100
AcDbLine
 10
53.0
 20
22.857875
 30
0.0
 11
53.0
 21
29.122575
 31
0.0
  0
LINE
  5
FB
330
1E
100
AcDbEntity
  8
0
100
AcDbLine
 10
53.0
 20
44.21077499999999
 30
0.0
 11
53.0
 21
36.269575
 31
0.0
  0
LINE
  5
FC
330
1E
100
AcDbEntity
  8
0
100
AcDbLine
 10
53.0
 20
44.21077499999999
 30
0.0
 11
53.0
 21
52.593175
 31
0.0
  0
LINE
  5
FD
330
1E
100
AcDbEntity
  8
0
100
AcDbLine
 10
53.0
 20
64.21077499999999
 30
0.0
 11
53.0
 21
61.504875
 31
0.0
  0
LINE
  5
FE
330
1E
100
AcDbEntity
  8
0
100
AcDbLine
 10
37.0
 20
62.910775
 30
0.0
 11
37.0
 21
64.610775
 31
0.0
  0
LINE
  5
FF
330
1E
100
AcDbEntity
  8
0
100
AcDbLine
 10
37.0
 20
62.21077499999999
 30
0.0
 11
37.0
 21
62.910775
 31
0.0
  0
LINE
  5
100
330
1E
100
AcDbEntity
  8
0
100
AcDbLine
 10
30.8926
 20
62.21077499999999
 30
0.0
 11
37.0
 21
62.21077499999999
 31
0.0
  0
LINE
  5
101
330
1E
100
AcDbEntity
  8
0
100
AcDbLine
 10
0.4999999999999961
 20
64.21077499999999
 30
0.0
 11
1.5
 21
63.710775
 31
0.0
  0
LINE
  5
102
330
1E
100
AcDbEntity
  8
0
100
AcDbLine
 10
2.0
 20
65.010775
 30
0.0
 11
2.0
 21
63.310775
 31
0.0
  0
LINE
  5
103
330
1E
100
AcDbEntity
  8
0
100
AcDbLine
 10
2.0
 20
65.010775
 30
0.0
 11
2.0
 21
67.81077500000001
 31
0.0
  0
LINE
  5
104
330
1E
100
AcDbEntity
  8
0
100
AcDbLine
 10
-0.0000000000000042
 20
66.810775
 30
0.0
 11
-0.0000000000000041
 21
69.310775
 31
0.0
  0
LINE
  5
105
330
1E
100
AcDbEntity
  8
0
100
AcDbLine
 10
-0.0000000000000043
 20
65.31077500000001
 30
0.0
 11
-0.0000000000000042
 21
66.810775
 31
0.0
  0
LINE
  5
106
330
1E
100
AcDbEntity
  8
0
100
AcDbLine
 10
-0.0000000000000044
 20
64.71077499999999
 30
0.0
 11
0.4999999999999961
 21
64.21077499999999
 31
0.0
  0
LINE
  5
107
330
1E
100
AcDbEntity
  8
0
100
AcDbLine
 10
-0.0000000000000044
 20
64.71077499999999
 30
0.0
 11
-0.0000000000000043
 21
65.31077500000001
 31
0.0
  0
LINE
  5
108
330
1E
100
AcDbEntity
  8
0
100
AcDbLine
 10
-0.0000000000000044
 20
64.71077499999999
 30
0.0
 11
0.4999999999999961
 21
64.21077499999999
 31
0.0
  0
LINE
  5
109
330
1E
100
AcDbEntity
  8
0
100
AcDbLine
 10
0.4999999999999961
 20
64.21077499999999
 30
0.0
 11
1.5
 21
63.710775
 31
0.0
  0
LINE
  5
10A
330
1E
100
AcDbEntity
  8
0
100
AcDbLine
 10
37.0
 20
64.610775
 30
0.0
 11
37.0
 21
67.510775
 31
0.0
  0
LINE
  5
10B
330
1E
100
AcDbEntity
  8
0
100
AcDbLine
 10
2.5
 20
67.510775
 30
0.0
 11
2.5
 21
71.310775
 31
0.0
  0
LINE
  5
10C
330
1E
100
AcDbEntity
  8
0
100
AcDbLine
 10
37.0
 20
67.510775
 30
0.0
 11
37.0
 21
71.310775
 31
0.0
  0
LINE
  5
10D
330
1E
100
AcDbEntity
  8
0
100
AcDbLine
 10
2.5
 20
64.610775
 30
0.0
 11
2.5
 21
62.910775
 31
0.0
  0
LINE
  5
10E
330
1E
100
AcDbEntity
  8
0
100
AcDbLine
 10
2.5
 20
64.610775
 30
0.0
 11
2.5
 21
67.510775
 31
0.0
  0
LINE
  5
10F
330
1E
100
AcDbEntity
  8
0
100
AcDbLine
 10
2.0
 20
65.51077499999999
 30
0.0
 11
2.0
 21
68.210775
 31
0.0
  0
LINE
  5
110
330
1E
100
AcDbEntity
  8
0
100
AcDbLine
 10
2.0
 20
65.51077499999999
 30
0.0
 11
2.0
 21
63.81077499999999
 31
0.0
  0
LINE
  5
111
330
1E
100
AcDbEntity
  8
0
100
AcDbLine
 10
2.0
 20
68.210775
 30
0.0
 11
2.0
 21
71.71077499999999
 31
0.0
  0
LINE
  5
112
330
1E
100
AcDbEntity
  8
0
100
AcDbLine
 10
2.0
 20
67.81077500000001
 30
0.0
 11
2.0
 21
71.51077499999999
 31
0.0
  0
LINE
  5
113
330
1E
100
AcDbEntity
  8
0
100
AcDbLine
 10
37.0
 20
64.49648928571429
 30
0.0
 11
39.0
 21
64.21077499999999
 31
0.0
  0
LINE
  5
114
330
1E
100
AcDbEntity
  8
0
100
AcDbLine
 10
-0.0000000000000041
 20
69.310775
 30
0.0
 11
-0.0000000000000039
 21
72.510775
 31
0.0
  0
LINE
  5
115
330
1E
100
AcDbEntity
  8
0
100
AcDbLine
 10
-0.0000000000000039
 20
72.510775
 30
0.0
 11
-0.0000000000000037
 21
76.210775
 31
0.0
  0
LINE
  5
116
330
1E
100
AcDbEntity
  8
0
100
AcDbLine
 10
2.0
 20
71.51077499999999
 30
0.0
 11
2.0
 21
75.710775
 31
0.0
  0
LINE
  5
117
330
1E
100
AcDbEntity
  8
0
100
AcDbLine
 10
37.0
 20
71.310775
 30
0.0
 11
37.0
 21
75.610775
 31
0.0
  0
LINE
  5
118
330
1E
100
AcDbEntity
  8
0
100
AcDbLine
 10
2.5
 20
71.310775
 30
0.0
 11
2.5
 21
75.610775
 31
0.0
  0
LINE
  5
119
330
1E
100
AcDbEntity
  8
0
100
AcDbLine
 10
2.5
 20
71.310775
 30
0.0
 11
2.5
 21
67.510775
 31
0.0
  0
LINE
  5
11A
330
1E
100
AcDbEntity
  8
0
100
AcDbLine
 10
53.0
 20
70.769575
 30
0.0
 11
53.0
 21
80.210775
 31
0.0
  0
LINE
  5
11B
330
1E
100
AcDbEntity
  8
0
100
AcDbLine
 10
37.0
 20
75.610775
 30
0.0
 11
37.0
 21
80.210775
 31
0.0
  0
LINE
  5
11C
330
1E
100
AcDbEntity
  8
0
100
AcDbLine
 10
2.5
 20
75.610775
 30
0.0
 11
2.5
 21
80.210775
 31
0.0
  0
LINE
  5
11D
330
1E
100
AcDbEntity
  8
0
100
AcDbLine
 10
2.0
 20
71.71077499999999
 30
0.0
 11
2.0
 21
75.81077500000001
 31
0.0
  0
LINE
  5
11E
330
1E
100
AcDbEntity
  8
0
100
AcDbLine
 10
2.0
 20
75.81077500000001
 30
0.0
 11
2.0
 21
80.210775
 31
0.0
  0
LINE
  5
11F
330
1E
100
AcDbEntity
  8
0
100
AcDbLine
 10
2.0
 20
75.710775
 30
0.0
 11
2.0
 21
80.210775
 31
0.0
  0
LINE
  5
120
330
1E
100
AcDbEntity
  8
0
100
AcDbLine
 10
53.0
 20
72.21077499999999
 30
0.0
 11
53.0
 21
68.910775
 31
0.0
  0
LINE
  5
121
330
1E
100
AcDbEntity
  8
0
100
AcDbLine
 10
-0.0000000000000037
 20
76.210775
 30
0.0
 11
-0.0000000000000034
 21
80.210775
 31
0.0
  0
LINE
  5
122
330
1E
100
AcDbEntity
  8
0
100
AcDbLine
 10
-0.000000000000003
 20
87.910775
 30
0.0
 11
-0.0000000000000028
 21
91.110775
 31
0.0
  0
LINE
  5
123
330
1E
100
AcDbEntity
  8
0
100
AcDbLine
 10
-0.0000000000000028
 20
91.110775
 30
0.0
 11
-0.0000000000000026
 21
93.610775
 31
0.0
  0
LINE
  5
124
330
1E
100
AcDbEntity
  8
0
100
AcDbLine
 10
-0.0000000000000026
 20
93.610775
 30
0.0
 11
-0.0000000000000025
 21
95.110775
 31
0.0
  0
LINE
  5
125
330
1E
100
AcDbEntity
  8
0
100
AcDbLine
 10
-0.0000000000000025
 20
95.71077499999999
 30
0.0
 11
0.4999999999999981
 21
96.210775
 31
0.0
  0
LINE
  5
126
330
1E
100
AcDbEntity
  8
0
100
AcDbLine
 10
-0.0000000000000025
 20
95.110775
 30
0.0
 11
-0.0000000000000025
 21
95.71077499999999
 31
0.0
  0
LINE
  5
127
330
1E
100
AcDbEntity
  8
0
100
AcDbLine
 10
-0.0000000000000032
 20
84.210775
 30
0.0
 11
-0.000000000000003
 21
87.910775
 31
0.0
  0
LINE
  5
128
330
1E
100
AcDbEntity
  8
0
100
AcDbLine
 10
-0.0000000000000034
 20
80.210775
 30
0.0
 11
-0.0000000000000032
 21
84.210775
 31
0.0
  0
LINE
  5
129
330
1E
100
AcDbEntity
  8
0
100
AcDbLine
 10
0.4999999999999981
 20
96.210775
 30
0.0
 11
1.5
 21
96.710775
 31
0.0
  0
LINE
  5
12A
330
1E
100
AcDbEntity
  8
0
100
AcDbLine
 10
-0.0000000000000025
 20
95.71077499999999
 30
0.0
 11
0.4999999999999981
 21
96.210775
 31
0.0
  0
LINE
  5
12B
330
1E
100
AcDbEntity
  8
0
100
AcDbLine
 10
2.0
 20
88.91077499999999
 30
0.0
 11
2.0
 21
92.610775
 31
0.0
  0
LINE
  5
12C
330
1E
100
AcDbEntity
  8
0
100
AcDbLine
 10
2.0
 20
84.71077499999999
 30
0.0
 11
2.0
 21
88.91077499999999
 31
0.0
  0
LINE
  5
12D
330
1E
100
AcDbEntity
  8
0
100
AcDbLine
 10
2.0
 20
80.210775
 30
0.0
 11
2.0
 21
84.71077499999999
 31
0.0
  0
LINE
  5
12E
330
1E
100
AcDbEntity
  8
0
100
AcDbLine
 10
2.0
 20
92.610775
 30
0.0
 11
2.0
 21
95.410775
 31
0.0
  0
LINE
  5
12F
330
1E
100
AcDbEntity
  8
0
100
AcDbLine
 10
2.0
 20
95.410775
 30
0.0
 11
2.0
 21
97.11077500000001
 31
0.0
  0
LINE
  5
130
330
1E
100
AcDbEntity
  8
0
100
AcDbLine
 10
2.0
 20
95.410775
 30
0.0
 11
2.0
 21
96.61077500000001
 31
0.0
  0
LINE
  5
131
330
1E
100
AcDbEntity
  8
0
100
AcDbLine
 10
0.4999999999999981
 20
96.210775
 30
0.0
 11
1.5
 21
96.710775
 31
0.0
  0
LINE
  5
132
330
1E
100
AcDbEntity
  8
0
100
AcDbLine
 10
1.5
 20
96.710775
 30
0.0
 11
2.0
 21
97.21077499999999
 31
0.0
  0
LINE
  5
133
330
1E
100
AcDbEntity
  8
0
100
AcDbLine
 10
2.0
 20
96.61077500000001
 30
0.0
 11
2.0
 21
97.21077499999999
 31
0.0
  0
LINE
  5
134
330
1E
100
AcDbEntity
  8
0
100
AcDbLine
 10
2.0
 20
96.61077500000001
 30
0.0
 11
2.0
 21
95.410775
 31
0.0
  0
LINE
  5
135
330
1E
100
AcDbEntity
  8
0
100
AcDbLine
 10
2.0
 20
97.11077500000001
 30
0.0
 11
2.0
 21
97.710775
 31
0.0
  0
LINE
  5
136
330
1E
100
AcDbEntity
  8
0
100
AcDbLine
 10
2.5
 20
80.210775
 30
0.0
 11
2.5
 21
84.81077500000001
 31
0.0
  0
LINE
  5
137
330
1E
100
AcDbEntity
  8
0
100
AcDbLine
 10
2.5
 20
89.11077500000001
 30
0.0
 11
2.5
 21
92.910775
 31
0.0
  0
LINE
  5
138
330
1E
100
AcDbEntity
  8
0
100
AcDbLine
 10
2.5
 20
84.81077500000001
 30
0.0
 11
2.5
 21
80.210775
 31
0.0
  0
LINE
  5
139
330
1E
100
AcDbEntity
  8
0
100
AcDbLine
 10
2.5
 20
84.81077500000001
 30
0.0
 11
2.5
 21
89.11077500000001
 31
0.0
  0
LINE
  5
13A
330
1E
100
AcDbEntity
  8
0
100
AcDbLine
 10
2.5
 20
95.81077500000001
 30
0.0
 11
2.5
 21
97.510775
 31
0.0
  0
LINE
  5
13B
330
1E
100
AcDbEntity
  8
0
100
AcDbLine
 10
2.5
 20
92.910775
 30
0.0
 11
2.5
 21
95.81077500000001
 31
0.0
  0
LINE
  5
13C
330
1E
100
AcDbEntity
  8
0
100
AcDbLine
 10
2.5
 20
92.910775
 30
0.0
 11
2.5
 21
89.11077500000001
 31
0.0
  0
LINE
  5
13D
330
1E
100
AcDbEntity
  8
0
100
AcDbLine
 10
2.5
 20
97.510775
 30
0.0
 11
2.5
 21
95.81077500000001
 31
0.0
  0
LINE
  5
13E
330
1E
100
AcDbEntity
  8
0
100
AcDbLine
 10
2.5
 20
97.510775
 30
0.0
 11
2.5
 21
98.21077500000001
 31
0.0
  0
LINE
  5
13F
330
1E
100
AcDbEntity
  8
0
100
AcDbLine
 10
2.0
 20
97.710775
 30
0.0
 11
2.5
 21
98.21077500000001
 31
0.0
  0
LINE
  5
140
330
1E
100
AcDbEntity
  8
0
100
AcDbLine
 10
2.0
 20
97.710775
 30
0.0
 11
2.0
 21
97.11077500000001
 31
0.0
  0
LINE
  5
141
330
1E
100
AcDbEntity
  8
0
100
AcDbLine
 10
2.5
 20
98.21077500000001
 30
0.0
 11
32.0
 21
98.21077500000001
 31
0.0
  0
LINE
  5
142
330
1E
100
AcDbEntity
  8
0
100
AcDbLine
 10
2.5
 20
98.21077500000001
 30
0.0
 11
2.5
 21
97.510775
 31
0.0
  0
LINE
  5
143
330
1E
100
AcDbEntity
  8
0
100
AcDbLine
 10
32.8998599584134
 20
94.967877845261
 30
0.0
 11
35.5
 21
95.71077499999999
 31
0.0
  0
LINE
  5
144
330
1E
100
AcDbEntity
  8
0
100
AcDbLine
 10
35.5
 20
95.71077499999999
 30
0.0
 11
39.0
 21
96.210775
 31
0.0
  0
LINE
  5
145
330
1E
100
AcDbEntity
  8
0
100
AcDbLine
 10
33.4731
 20
92.84197500000001
 30
0.0
 11
34.5283
 21
89.098375
 31
0.0
  0
LINE
  5
146
330
1E
100
AcDbEntity
  8
0
100
AcDbLine
 10
34.5283
 20
89.098375
 30
0.0
 11
35.6794
 21
84.778975
 31
0.0
  0
LINE
  5
147
330
1E
100
AcDbEntity
  8
0
100
AcDbLine
 10
53.0
 20
88.21077499999999
 30
0.0
 11
53.0
 21
84.310775
 31
0.0
  0
LINE
  5
148
330
1E
100
AcDbEntity
  8
0
100
AcDbLine
 10
53.0
 20
84.310775
 30
0.0
 11
53.0
 21
80.210775
 31
0.0
  0
LINE
  5
149
330
1E
100
AcDbEntity
  8
0
100
AcDbLine
 10
53.0
 20
91.51077499999999
 30
0.0
 11
53.0
 21
88.21077499999999
 31
0.0
  0
LINE
  5
14A
330
1E
100
AcDbEntity
  8
0
100
AcDbLine
 10
53.0
 20
94.11077500000001
 30
0.0
 11
53.0
 21
91.51077499999999
 31
0.0
  0
LINE
  5
14B
330
1E
100
AcDbEntity
  8
0
100
AcDbLine
 10
53.0
 20
95.61077500000001
 30
0.0
 11
53.0
 21
94.11077500000001
 31
0.0
  0
LINE
  5
14C
330
1E
100
AcDbEntity
  8
0
100
AcDbLine
 10
53.0
 20
89.651975
 30
0.0
 11
53.0
 21
80.210775
 31
0.0
  0
LINE
  5
14D
330
1E
100
AcDbEntity
  8
0
100
AcDbLine
 10
35.6794
 20
84.778975
 30
0.0
 11
37.0
 21
80.210775
 31
0.0
  0
LINE
  5
14E
330
1E
100
AcDbEntity
  8
0
100
AcDbLine
 10
39.0
 20
96.210775
 30
0.0
 11
53.0
 21
96.210775
 31
0.0
  0
LINE
  5
14F
330
1E
100
AcDbEntity
  8
0
100
AcDbLine
 10
53.0
 20
116.210775
 30
0.0
 11
53.0
 21
124.151775
 31
0.0
  0
LINE
  5
150
330
1E
100
AcDbEntity
  8
0
100
AcDbLine
 10
53.0
 20
116.210775
 30
0.0
 11
53.0
 21
107.8287749999999
 31
0.0
  0
LINE
  5
151
330
1E
100
AcDbEntity
  8
0
100
AcDbLine
 10
53.0
 20
107.8287749999999
 30
0.0
 11
53.0
 21
98.916675
 31
0.0
  0
LINE
  5
152
330
1E
100
AcDbEntity
  8
0
100
AcDbLine
 10
53.0
 20
107.8287749999999
 30
0.0
 11
53.0
 21
116.210775
 31
0.0
  0
LINE
  5
153
330
1E
100
AcDbEntity
  8
0
100
AcDbLine
 10
53.0
 20
98.916675
 30
0.0
 11
53.0
 21
107.8287749999999
 31
0.0
  0
LINE
  5
154
330
1E
100
AcDbEntity
  8
0
100
AcDbLine
 10
53.0
 20
98.916675
 30
0.0
 11
53.0
 21
96.210775
 31
0.0
  0
LINE
  5
155
330
1E
100
AcDbEntity
  8
0
100
AcDbLine
 10
53.0
 20
96.210775
 30
0.0
 11
53.0
 21
98.916675
 31
0.0
  0
LINE
  5
156
330
1E
100
AcDbEntity
  8
0
100
AcDbLine
 10
53.0
 20
96.210775
 30
0.0
 11
53.0
 21
95.61077500000001
 31
0.0
  0
LINE
  5
157
330
1E
100
AcDbEntity
  8
0
100
AcDbLine
 10
32.1781
 20
97.449375
 30
0.0
 11
32.6578
 21
95.86557500000001
 31
0.0
  0
LINE
  5
158
330
1E
100
AcDbEntity
  8
0
100
AcDbLine
 10
32.6578
 20
95.86557500000001
 30
0.0
 11
32.8998599584134
 21
94.967877845261
 31
0.0
  0
LINE
  5
159
330
1E
100
AcDbEntity
  8
0
100
AcDbLine
 10
32.6578
 20
95.86557500000001
 30
0.0
 11
33.4731
 21
92.84197500000001
 31
0.0
  0
LINE
  5
15A
330
1E
100
AcDbEntity
  8
0
100
AcDbLine
 10
32.0
 20
98.21077500000001
 30
0.0
 11
32.1781
 21
97.449375
 31
0.0
  0
LINE
  5
15B
330
1E
100
AcDbEntity
  8
0
100
AcDbLine
 10
53.0
 20
76.110775
 30
0.0
 11
53.0
 21
72.21077499999999
 31
0.0
  0
LINE
  5
15C
330
1E
100
AcDbEntity
  8
0
100
AcDbLine
 10
53.0
 20
80.210775
 30
0.0
 11
53.0
 21
76.110775
 31
0.0
  0
LINE
  5
15D
330
1E
100
AcDbEntity
  8
0
100
AcDbLine
 10
53.0
 20
80.210775
 30
0.0
 11
53.0
 21
89.651975
 31
0.0
  0
LINE
  5
15E
330
1E
100
AcDbEntity
  8
0
100
AcDbLine
 10
53.0
 20
80.210775
 30
0.0
 11
53.0
 21
70.769575
 31
0.0
  0
LINE
  5
15F
330
1E
100
AcDbEntity
  8
0
100
AcDbLine
 10
53.0
 20
68.910775
 30
0.0
 11
53.0
 21
66.310775
 31
0.0
  0
LINE
  5
160
330
1E
100
AcDbEntity
  8
0
100
AcDbLine
 10
53.0
 20
66.310775
 30
0.0
 11
53.0
 21
64.81077500000001
 31
0.0
  0
LINE
  5
161
330
1E
100
AcDbEntity
  8
0
100
AcDbLine
 10
39.0
 20
64.21077499999999
 30
0.0
 11
53.0
 21
64.21077499999999
 31
0.0
  0
LINE
  5
162
330
1E
100
AcDbEntity
  8
0
100
AcDbLine
 10
53.0
 20
131.298775
 30
0.0
 11
53.0
 21
137.5637749999999
 31
0.0
  0
LINE
  5
163
330
1E
100
AcDbEntity
  8
0
100
AcDbLine
 10
53.0
 20
131.298775
 30
0.0
 11
53.0
 21
124.151775
 31
0.0
  0
LINE
  5
164
330
1E
100
AcDbEntity
  8
0
100
AcDbLine
 10
53.0
 20
124.151775
 30
0.0
 11
53.0
 21
131.298775
 31
0.0
  0
LINE
  5
165
330
1E
100
AcDbEntity
  8
0
100
AcDbLine
 10
53.0
 20
142.857775
 30
0.0
 11
53.0
 21
137.5637749999999
 31
0.0
  0
LINE
  5
166
330
1E
100
AcDbEntity
  8
0
100
AcDbLine
 10
53.0
 20
142.857775
 30
0.0
 11
53.0
 21
146.9167749999999
 31
0.0
  0
LINE
  5
167
330
1E
100
AcDbEntity
  8
0
100
AcDbLine
 10
53.0
 20
137.5637749999999
 30
0.0
 11
53.0
 21
142.857775
 31
0.0
  0
LINE
  5
168
330
1E
100
AcDbEntity
  8
0
100
AcDbLine
 10
53.0
 20
137.5637749999999
 30
0.0
 11
53.0
 21
131.298775
 31
0.0
  0
LINE
  5
169
330
1E
100
AcDbEntity
  8
0
100
AcDbLine
 10
53.0
 20
146.9167749999999
 30
0.0
 11
53.0
 21
149.9167749999999
 31
0.0
  0
LINE
  5
16A
330
1E
100
AcDbEntity
  8
0
100
AcDbLine
 10
53.0
 20
146.9167749999999
 30
0.0
 11
53.0
 21
142.857775
 31
0.0
  0
LINE
  5
16B
330
1E
100
AcDbEntity
  8
0
100
AcDbLine
 10
53.0
 20
151.857775
 30
0.0
 11
53.0
 21
149.9167749999999
 31
0.0
  0
LINE
  5
16C
330
1E
100
AcDbEntity
  8
0
100
AcDbLine
 10
53.0
 20
151.857775
 30
0.0
 11
53.0
 21
152.563775
 31
0.0
  0
LINE
  5
16D
330
1E
100
AcDbEntity
  8
0
100
AcDbLine
 10
53.0
 20
149.9167749999999
 30
0.0
 11
53.0
 21
151.857775
 31
0.0
  0
LINE
  5
16E
330
1E
100
AcDbEntity
  8
0
100
AcDbLine
 10
53.0
 20
149.9167749999999
 30
0.0
 11
53.0
 21
146.9167749999999
 31
0.0
  0
LINE
  5
16F
330
1E
100
AcDbEntity
  8
0
100
AcDbLine
 10
53.5
 20
6.62253499999999
 30
0.0
 11
54.6
 21
5.651951
 31
0.0
  0
LINE
  5
170
330
1E
100
AcDbEntity
  8
0
100
AcDbLine
 10
54.6
 20
5.651951
 30
0.0
 11
56.0
 21
5.210774999999999
 31
0.0
  0
LINE
  5
171
330
1E
100
AcDbEntity
  8
0
100
AcDbLine
 10
53.0
 20
152.563775
 30
0.0
 11
53.5
 21
153.798775
 31
0.0
  0
LINE
  5
172
330
1E
100
AcDbEntity
  8
0
100
AcDbLine
 10
53.0
 20
152.563775
 30
0.0
 11
53.0
 21
151.857775
 31
0.0
  0
LINE
  5
173
330
1E
100
AcDbEntity
  8
0
100
AcDbLine
 10
53.5
 20
153.798775
 30
0.0
 11
54.6
 21
154.769775
 31
0.0
  0
LINE
  5
174
330
1E
100
AcDbEntity
  8
0
100
AcDbLine
 10
56.0
 20
5.210774999999999
 30
0.0
 11
66.0
 21
5.21077499999999
 31
0.0
  0
LINE
  5
175
330
1E
100
AcDbEntity
  8
0
100
AcDbLine
 10
66.0
 20
5.21077499999999
 30
0.0
 11
66.0
 21
6.00489299999999
 31
0.0
  0
LINE
  5
176
330
1E
100
AcDbEntity
  8
0
100
AcDbLine
 10
66.0
 20
6.00489299999999
 30
0.0
 11
66.0
 21
5.21077499999999
 31
0.0
  0
LINE
  5
177
330
1E
100
AcDbEntity
  8
0
100
AcDbLine
 10
66.0
 20
6.00489299999999
 30
0.0
 11
66.0
 21
7.94606499999999
 31
0.0
  0
LINE
  5
178
330
1E
100
AcDbEntity
  8
0
100
AcDbLine
 10
66.0
 20
27.269575
 30
0.0
 11
66.0
 21
20.828375
 31
0.0
  0
LINE
  5
179
330
1E
100
AcDbEntity
  8
0
100
AcDbLine
 10
66.0
 20
27.269575
 30
0.0
 11
66.0
 21
34.593175
 31
0.0
  0
LINE
  5
17A
330
1E
100
AcDbEntity
  8
0
100
AcDbLine
 10
66.0
 20
20.828375
 30
0.0
 11
66.0
 21
15.26957499999999
 31
0.0
  0
LINE
  5
17B
330
1E
100
AcDbEntity
  8
0
100
AcDbLine
 10
66.0
 20
20.828375
 30
0.0
 11
66.0
 21
27.269575
 31
0.0
  0
LINE
  5
17C
330
1E
100
AcDbEntity
  8
0
100
AcDbLine
 10
66.0
 20
34.593175
 30
0.0
 11
66.0
 21
42.887275
 31
0.0
  0
LINE
  5
17D
330
1E
100
AcDbEntity
  8
0
100
AcDbLine
 10
66.0
 20
34.593175
 30
0.0
 11
66.0
 21
27.269575
 31
0.0
  0
LINE
  5
17E
330
1E
100
AcDbEntity
  8
0
100
AcDbLine
 10
66.0
 20
15.26957499999999
 30
0.0
 11
66.0
 21
11.03430499999999
 31
0.0
  0
LINE
  5
17F
330
1E
100
AcDbEntity
  8
0
100
AcDbLine
 10
66.0
 20
15.26957499999999
 30
0.0
 11
66.0
 21
20.828375
 31
0.0
  0
LINE
  5
180
330
1E
100
AcDbEntity
  8
0
100
AcDbLine
 10
66.0
 20
7.94606499999999
 30
0.0
 11
66.0
 21
6.00489299999999
 31
0.0
  0
LINE
  5
181
330
1E
100
AcDbEntity
  8
0
100
AcDbLine
 10
66.0
 20
7.94606499999999
 30
0.0
 11
66.0
 21
11.03430499999999
 31
0.0
  0
LINE
  5
182
330
1E
100
AcDbEntity
  8
0
100
AcDbLine
 10
66.0
 20
11.03430499999999
 30
0.0
 11
66.0
 21
7.94606499999999
 31
0.0
  0
LINE
  5
183
330
1E
100
AcDbEntity
  8
0
100
AcDbLine
 10
66.0
 20
11.03430499999999
 30
0.0
 11
66.0
 21
15.26957499999999
 31
0.0
  0
LINE
  5
184
330
1E
100
AcDbEntity
  8
0
100
AcDbLine
 10
66.0
 20
51.534275
 30
0.0
 11
66.0
 21
60.887275
 31
0.0
  0
LINE
  5
185
330
1E
100
AcDbEntity
  8
0
100
AcDbLine
 10
66.0
 20
70.41667499999999
 30
0.0
 11
66.0
 21
60.887275
 31
0.0
  0
LINE
  5
186
330
1E
100
AcDbEntity
  8
0
100
AcDbLine
 10
66.0
 20
70.41667499999999
 30
0.0
 11
66.0
 21
80.210775
 31
0.0
  0
LINE
  5
187
330
1E
100
AcDbEntity
  8
0
100
AcDbLine
 10
66.0
 20
60.887275
 30
0.0
 11
66.0
 21
51.534275
 31
0.0
  0
LINE
  5
188
330
1E
100
AcDbEntity
  8
0
100
AcDbLine
 10
66.0
 20
60.887275
 30
0.0
 11
66.0
 21
70.41667499999999
 31
0.0
  0
LINE
  5
189
330
1E
100
AcDbEntity
  8
0
100
AcDbLine
 10
66.0
 20
42.887275
 30
0.0
 11
66.0
 21
51.534275
 31
0.0
  0
LINE
  5
18A
330
1E
100
AcDbEntity
  8
0
100
AcDbLine
 10
66.0
 20
42.887275
 30
0.0
 11
66.0
 21
34.593175
 31
0.0
  0
LINE
  5
18B
330
1E
100
AcDbEntity
  8
0
100
AcDbLine
 10
66.0
 20
80.210775
 30
0.0
 11
66.0
 21
90.004875
 31
0.0
  0
LINE
  5
18C
330
1E
100
AcDbEntity
  8
0
100
AcDbLine
 10
66.0
 20
80.210775
 30
0.0
 11
66.0
 21
70.41667499999999
 31
0.0
  0
LINE
  5
18D
330
1E
100
AcDbEntity
  8
0
100
AcDbLine
 10
66.0
 20
133.1517749999999
 30
0.0
 11
66.0
 21
125.828775
 31
0.0
  0
LINE
  5
18E
330
1E
100
AcDbEntity
  8
0
100
AcDbLine
 10
66.0
 20
133.1517749999999
 30
0.0
 11
66.0
 21
139.592775
 31
0.0
  0
LINE
  5
18F
330
1E
100
AcDbEntity
  8
0
100
AcDbLine
 10
66.0
 20
125.828775
 30
0.0
 11
66.0
 21
117.534775
 31
0.0
  0
LINE
  5
190
330
1E
100
AcDbEntity
  8
0
100
AcDbLine
 10
66.0
 20
125.828775
 30
0.0
 11
66.0
 21
133.1517749999999
 31
0.0
  0
LINE
  5
191
330
1E
100
AcDbEntity
  8
0
100
AcDbLine
 10
66.0
 20
117.534775
 30
0.0
 11
66.0
 21
108.886775
 31
0.0
  0
LINE
  5
192
330
1E
100
AcDbEntity
  8
0
100
AcDbLine
 10
66.0
 20
117.534775
 30
0.0
 11
66.0
 21
125.828775
 31
0.0
  0
LINE
  5
193
330
1E
100
AcDbEntity
  8
0
100
AcDbLine
 10
66.0
 20
108.886775
 30
0.0
 11
66.0
 21
99.534275
 31
0.0
  0
LINE
  5
194
330
1E
100
AcDbEntity
  8
0
100
AcDbLine
 10
66.0
 20
108.886775
 30
0.0
 11
66.0
 21
117.534775
 31
0.0
  0
LINE
  5
195
330
1E
100
AcDbEntity
  8
0
100
AcDbLine
 10
66.0
 20
99.534275
 30
0.0
 11
66.0
 21
90.004875
 31
0.0
  0
LINE
  5
196
330
1E
100
AcDbEntity
  8
0
100
AcDbLine
 10
66.0
 20
99.534275
 30
0.0
 11
66.0
 21
108.886775
 31
0.0
  0
LINE
  5
197
330
1E
100
AcDbEntity
  8
0
100
AcDbLine
 10
66.0
 20
90.004875
 30
0.0
 11
66.0
 21
80.210775
 31
0.0
  0
LINE
  5
198
330
1E
100
AcDbEntity
  8
0
100
AcDbLine
 10
66.0
 20
90.004875
 30
0.0
 11
66.0
 21
99.534275
 31
0.0
  0
LINE
  5
199
330
1E
100
AcDbEntity
  8
0
100
AcDbLine
 10
66.0
 20
152.475775
 30
0.0
 11
66.0
 21
149.3867749999999
 31
0.0
  0
LINE
  5
19A
330
1E
100
AcDbEntity
  8
0
100
AcDbLine
 10
66.0
 20
152.475775
 30
0.0
 11
66.0
 21
154.4167749999999
 31
0.0
  0
LINE
  5
19B
330
1E
100
AcDbEntity
  8
0
100
AcDbLine
 10
66.0
 20
154.4167749999999
 30
0.0
 11
66.0
 21
152.475775
 31
0.0
  0
LINE
  5
19C
330
1E
100
AcDbEntity
  8
0
100
AcDbLine
 10
66.0
 20
154.4167749999999
 30
0.0
 11
66.0
 21
155.210775
 31
0.0
  0
LINE
  5
19D
330
1E
100
AcDbEntity
  8
0
100
AcDbLine
 10
66.0
 20
155.210775
 30
0.0
 11
66.0
 21
154.4167749999999
 31
0.0
  0
LINE
  5
19E
330
1E
100
AcDbEntity
  8
0
100
AcDbLine
 10
66.0
 20
149.3867749999999
 30
0.0
 11
66.0
 21
145.1517749999999
 31
0.0
  0
LINE
  5
19F
330
1E
100
AcDbEntity
  8
0
100
AcDbLine
 10
66.0
 20
149.3867749999999
 30
0.0
 11
66.0
 21
152.475775
 31
0.0
  0
LINE
  5
1A0
330
1E
100
AcDbEntity
  8
0
100
AcDbLine
 10
66.0
 20
145.1517749999999
 30
0.0
 11
66.0
 21
139.592775
 31
0.0
  0
LINE
  5
1A1
330
1E
100
AcDbEntity
  8
0
100
AcDbLine
 10
66.0
 20
145.1517749999999
 30
0.0
 11
66.0
 21
149.3867749999999
 31
0.0
  0
LINE
  5
1A2
330
1E
100
AcDbEntity
  8
0
100
AcDbLine
 10
66.0
 20
139.592775
 30
0.0
 11
66.0
 21
133.1517749999999
 31
0.0
  0
LINE
  5
1A3
330
1E
100
AcDbEntity
  8
0
100
AcDbLine
 10
66.0
 20
139.592775
 30
0.0
 11
66.0
 21
145.1517749999999
 31
0.0
  0
LINE
  5
1A4
330
1E
100
AcDbEntity
  8
0
100
AcDbLine
 10
54.6
 20
154.769775
 30
0.0
 11
56.0
 21
155.210775
 31
0.0
  0
LINE
  5
1A5
330
1E
100
AcDbEntity
  8
0
100
AcDbLine
 10
56.0
 20
155.210775
 30
0.0
 11
66.0
 21
155.210775
 31
0.0
  0
LINE
  5
1A6
330
1E
100
AcDbEntity
  8
0
100
AcDbLine
 10
53.0
 20
64.81077500000001
 30
0.0
 11
53.0
 21
64.21077499999999
 31
0.0
  0
ENDSEC
  0
SECTION
  2
OBJECTS
  0
DICTIONARY
  5
C
330
0
100
AcDbDictionary
  3
ACAD_GROUP
350
D
  3
ACAD_LAYOUT
350
19
  3
ACAD_MLINESTYLE
350
16
  3
ACAD_PLOTSETTINGS
350
18
  3
ACAD_PLOTSTYLENAME
350
E
  3
ACDBHEADERROUNDTRIPXREC
350
1AE
  3
ACDBVARIABLEDICTIONARY
350
1AB
  0
DICTIONARY
  5
1D0
330
1E
100
AcDbDictionary
280
     1
  3
ACAD_LAYOUTSELFREF
360
1D1
  0
DICTIONARY
  5
1CE
330
1A
100
AcDbDictionary
280
     1
  3
ACAD_LAYOUTSELFREF
360
1CF
  0
DICTIONARY
  5
D
102
{ACAD_REACTORS
330
C
102
}
330
C
100
AcDbDictionary
  0
DICTIONARY
  5
19
102
{ACAD_REACTORS
330
C
102
}
330
C
100
AcDbDictionary
  0
DICTIONARY
  5
16
102
{ACAD_REACTORS
330
C
102
}
330
C
100
AcDbDictionary
  3
STANDARD
350
17
  0
DICTIONARY
  5
18
102
{ACAD_REACTORS
330
C
102
}
330
C
100
AcDbDictionary
  0
ACDBDICTIONARYWDFLT
  5
E
102
{ACAD_REACTORS
330
C
102
}
330
C
100
AcDbDictionary
281
     1
  3
Normal
350
F
100
AcDbDictionaryWithDefault
340
F
  0
DICTIONARY
  5
1AE
102
{ACAD_REACTORS
330
C
102
}
330
C
100
AcDbDictionary
  3
CEPSNTYPE
350
1B8
  3
FINGERPRINTGUID
350
1B9
  3
HYPERLINKBASE
350
1B1
  3
INSUNITS
350
1B7
  3
LAYOUTDICT
350
1B3
  3
LWETCUNION
350
1B6
  3
PLOTSETDICT
350
1B4
  3
PLOTSTYLNAMDICT
350
1B5
  3
PSVPSCALE
350
1BB
  3
PUCSBASE
350
1BE
  3
PUCSORGBACK
350
1C4
  3
PUCSORGBOTTOM
350
1C0
  3
PUCSORGFRONT
350
1C3
  3
PUCSORGLEFT
350
1C1
  3
PUCSORGRIGHT
350
1C2
  3
PUCSORGTOP
350
1BF
  3
PUCSORTHOREF
350
1BC
  3
PUCSORTHOVIEW
350
1BD
  3
STYLESHEET
350
1B2
  3
TSTACKALIGN
350
1AF
  3
TSTACKSIZE
350
1B0
  3
UCSBASE
350
1C7
  3
UCSORGBACK
350
1CD
  3
UCSORGBOTTOM
350
1C9
  3
UCSORGFRONT
350
1CC
  3
UCSORGLEFT
350
1CA
  3
UCSORGRIGHT
350
1CB
  3
UCSORGTOP
350
1C8
  3
UCSORTHOREF
350
1C5
  3
UCSORTHOVIEW
350
1C6
  3
VERSIONGUID
350
1BA
  0
DICTIONARY
  5
1AB
102
{ACAD_REACTORS
330
C
102
}
330
C
100
AcDbDictionary
  3
DIMASSOC
350
1AC
  0
XRECORD
  5
1D1
102
{ACAD_REACTORS
330
1D0
102
}
330
1D0
100
AcDbXrecord
340
1E
  0
XRECORD
  5
1CF
102
{ACAD_REACTORS
330
1CE
102
}
330
1CE
100
AcDbXrecord
340
1A
  0
MLINESTYLE
  5
17
102
{ACAD_REACTORS
330
16
102
}
330
16
100
AcDbMlineStyle
  2
STANDARD
 70
     0
  3

 62
   256
 51
90.0
 52
90.0
 71
     2
 49
0.5
 62
   256
  6
BYLAYER
 49
-0.5
 62
   256
  6
BYLAYER
  0
ACDBPLACEHOLDER
  5
F
102
{ACAD_REACTORS
330
E
102
}
330
E
100
AcDbPlaceHolder
280
     0
  0
XRECORD
  5
1B8
102
{ACAD_REACTORS
330
1AE
102
}
330
1AE
100
AcDbXrecord
 90
        0
  0
XRECORD
  5
1B9
102
{ACAD_REACTORS
330
1AE
102
}
330
1AE
100
AcDbXrecord
  1
{0DE9DE49-94BA-446D-8684-48A4C7E0415C}
  0
XRECORD
  5
1B1
102
{ACAD_REACTORS
330
1AE
102
}
330
1AE
100
AcDbXrecord
  1

  0
XRECORD
  5
1B7
102
{ACAD_REACTORS
330
1AE
102
}
330
1AE
100
AcDbXrecord
 90
        0
  0
XRECORD
  5
1B3
102
{ACAD_REACTORS
330
1AE
102
}
330
1AE
100
AcDbXrecord
340
19
  0
XRECORD
  5
1B6
102
{ACAD_REACTORS
330
1AE
102
}
330
1AE
100
AcDbXrecord
 90
    10781
  0
XRECORD
  5
1B4
102
{ACAD_REACTORS
330
1AE
102
}
330
1AE
100
AcDbXrecord
340
18
  0
XRECORD
  5
1B5
102
{ACAD_REACTORS
330
1AE
102
}
330
1AE
100
AcDbXrecord
340
E
  0
XRECORD
  5
1BB
102
{ACAD_REACTORS
330
1AE
102
}
330
1AE
100
AcDbXrecord
 40
0.0
  0
XRECORD
  5
1BE
102
{ACAD_REACTORS
330
1AE
102
}
330
1AE
100
AcDbXrecord
340
0
  0
XRECORD
  5
1C4
102
{ACAD_REACTORS
330
1AE
102
}
330
1AE
100
AcDbXrecord
 10
0.0
 20
0.0
 30
0.0
  0
XRECORD
  5
1C0
102
{ACAD_REACTORS
330
1AE
102
}
330
1AE
100
AcDbXrecord
 10
0.0
 20
0.0
 30
0.0
  0
XRECORD
  5
1C3
102
{ACAD_REACTORS
330
1AE
102
}
330
1AE
100
AcDbXrecord
 10
0.0
 20
0.0
 30
0.0
  0
XRECORD
  5
1C1
102
{ACAD_REACTORS
330
1AE
102
}
330
1AE
100
AcDbXrecord
 10
0.0
 20
0.0
 30
0.0
  0
XRECORD
  5
1C2
102
{ACAD_REACTORS
330
1AE
102
}
330
1AE
100
AcDbXrecord
 10
0.0
 20
0.0
 30
0.0
  0
XRECORD
  5
1BF
102
{ACAD_REACTORS
330
1AE
102
}
330
1AE
100
AcDbXrecord
 10
0.0
 20
0.0
 30
0.0
  0
XRECORD
  5
1BC
102
{ACAD_REACTORS
330
1AE
102
}
330
1AE
100
AcDbXrecord
340
0
  0
XRECORD
  5
1BD
102
{ACAD_REACTORS
330
1AE
102
}
330
1AE
100
AcDbXrecord
 70
     0
  0
XRECORD
  5
1B2
102
{ACAD_REACTORS
330
1AE
102
}
330
1AE
100
AcDbXrecord
  1

  0
XRECORD
  5
1AF
102
{ACAD_REACTORS
330
1AE
102
}
330
1AE
100
AcDbXrecord
 90
        1
  0
XRECORD
  5
1B0
102
{ACAD_REACTORS
330
1AE
102
}
330
1AE
100
AcDbXrecord
 90
       70
  0
XRECORD
  5
1C7
102
{ACAD_REACTORS
330
1AE
102
}
330
1AE
100
AcDbXrecord
340
0
  0
XRECORD
  5
1CD
102
{ACAD_REACTORS
330
1AE
102
}
330
1AE
100
AcDbXrecord
 10
0.0
 20
0.0
 30
0.0
  0
XRECORD
  5
1C9
102
{ACAD_REACTORS
330
1AE
102
}
330
1AE
100
AcDbXrecord
 10
0.0
 20
0.0
 30
0.0
  0
XRECORD
  5
1CC
102
{ACAD_REACTORS
330
1AE
102
}
330
1AE
100
AcDbXrecord
 10
0.0
 20
0.0
 30
0.0
  0
XRECORD
  5
1CA
102
{ACAD_REACTORS
330
1AE
102
}
330
1AE
100
AcDbXrecord
 10
0.0
 20
0.0
 30
0.0
  0
XRECORD
  5
1CB
102
{ACAD_REACTORS
330
1AE
102
}
330
1AE
100
AcDbXrecord
 10
0.0
 20
0.0
 30
0.0
  0
XRECORD
  5
1C8
102
{ACAD_REACTORS
330
1AE
102
}
330
1AE
100
AcDbXrecord
 10
0.0
 20
0.0
 30
0.0
  0
XRECORD
  5
1C5
102
{ACAD_REACTORS
330
1AE
102
}
330
1AE
100
AcDbXrecord
340
0
  0
XRECORD
  5
1C6
102
{ACAD_REACTORS
330
1AE
102
}
330
1AE
100
AcDbXrecord
 70
     1
  0
XRECORD
  5
1BA
102
{ACAD_REACTORS
330
1AE
102
}
330
1AE
100
AcDbXrecord
  1
{718B4DFF-A0AD-40AD-825A-91C3ED997756}
  0
DICTIONARYVAR
  5
1AC
102
{ACAD_REACTORS
330
1AB
102
}
330
1AB
100
DictionaryVariables
280
     0
  1
1
  0
ENDSEC
  0
EOF
