  0
SECTION
  2
HEADER
  9
$ACADVER
  1
AC1014
  9
$ACADMAINTVER
 70
     9
  9
$DWGCODEPAGE
  3
ANSI_1252
  9
$INSBASE
 10
0.0
 20
0.0
 30
0.0
  9
$EXTMIN
 10
-0.0000000000000048
 20
-0.210775000000002
 30
0.0
  9
$EXTMAX
 10
150.0
 20
155.210775
 30
0.0
  9
$LIMMIN
 10
0.0
 20
0.0
  9
$LIMMAX
 10
12.0
 20
9.0
  9
$ORTHOMODE
 70
     0
  9
$REGENMODE
 70
     1
  9
$FILLMODE
 70
     1
  9
$QTEXTMODE
 70
     0
  9
$MIRRTEXT
 70
     1
  9
$DRAGMODE
 70
     2
  9
$LTSCALE
 40
1.0
  9
$OSMODE
 70
    37
  9
$ATTMODE
 70
     1
  9
$TEXTSIZE
 40
0.2
  9
$TRACEWID
 40
0.05
  9
$TEXTSTYLE
  7
STANDARD
  9
$CLAYER
  8
0
  9
$CELTYPE
  6
CONTINUOUS
  9
$CECOLOR
 62
   256
  9
$CELTSCALE
 40
1.0
  9
$DELOBJ
 70
     1
  9
$DISPSILH
 70
     0
  9
$DIMSCALE
 40
1.0
  9
$DIMASZ
 40
0.18
  9
$DIMEXO
 40
0.0625
  9
$DIMDLI
 40
0.38
  9
$DIMRND
 40
0.0
  9
$DIMDLE
 40
0.0
  9
$DIMEXE
 40
0.18
  9
$DIMTP
 40
0.0
  9
$DIMTM
 40
0.0
  9
$DIMTXT
 40
0.18
  9
$DIMCEN
 40
0.09
  9
$DIMTSZ
 40
0.0
  9
$DIMTOL
 70
     0
  9
$DIMLIM
 70
     0
  9
$DIMTIH
 70
     1
  9
$DIMTOH
 70
     1
  9
$DIMSE1
 70
     0
  9
$DIMSE2
 70
     0
  9
$DIMTAD
 70
     0
  9
$DIMZIN
 70
     0
  9
$DIMBLK
  1

  9
$DIMASO
 70
     1
  9
$DIMSHO
 70
     1
  9
$DIMPOST
  1

  9
$DIMAPOST
  1

  9
$DIMALT
 70
     0
  9
$DIMALTD
 70
     2
  9
$DIMALTF
 40
25.4
  9
$DIMLFAC
 40
1.0
  9
$DIMTOFL
 70
     0
  9
$DIMTVP
 40
0.0
  9
$DIMTIX
 70
     0
  9
$DIMSOXD
 70
     0
  9
$DIMSAH
 70
     0
  9
$DIMBLK1
  1

  9
$DIMBLK2
  1

  9
$DIMSTYLE
  2
STANDARD
  9
$DIMCLRD
 70
     0
  9
$DIMCLRE
 70
     0
  9
$DIMCLRT
 70
     0
  9
$DIMTFAC
 40
1.0
  9
$DIMGAP
 40
0.09
  9
$DIMJUST
 70
     0
  9
$DIMSD1
 70
     0
  9
$DIMSD2
 70
     0
  9
$DIMTOLJ
 70
     1
  9
$DIMTZIN
 70
     0
  9
$DIMALTZ
 70
     0
  9
$DIMALTTZ
 70
     0
  9
$DIMFIT
 70
     3
  9
$DIMUPT
 70
     0
  9
$DIMUNIT
 70
     2
  9
$DIMDEC
 70
     4
  9
$DIMTDEC
 70
     4
  9
$DIMALTU
 70
     2
  9
$DIMALTTD
 70
     2
  9
$DIMTXSTY
  7
STANDARD
  9
$DIMAUNIT
 70
     0
  9
$LUNITS
 70
     2
  9
$LUPREC
 70
     4
  9
$SKETCHINC
 40
0.1
  9
$FILLETRAD
 40
0.0
  9
$AUNITS
 70
     0
  9
$AUPREC
 70
     0
  9
$MENU
  1
.
  9
$ELEVATION
 40
0.0
  9
$PELEVATION
 40
0.0
  9
$THICKNESS
 40
0.0
  9
$LIMCHECK
 70
     0
  9
$BLIPMODE
 70
     0
  9
$CHAMFERA
 40
0.0
  9
$CHAMFERB
 40
0.0
  9
$CHAMFERC
 40
0.0
  9
$CHAMFERD
 40
0.0
  9
$SKPOLY
 70
     0
  9
$TDCREATE
 40
2454698.393857592
  9
$TDUPDATE
 40
2454698.394809560
  9
$TDINDWG
 40
0.0009521528
  9
$TDUSRTIMER
 40
0.0009521528
  9
$USRTIMER
 70
     1
  9
$ANGBASE
 50
0.0
  9
$ANGDIR
 70
     0
  9
$PDMODE
 70
     0
  9
$PDSIZE
 40
0.0
  9
$PLINEWID
 40
0.0
  9
$COORDS
 70
     1
  9
$SPLFRAME
 70
     0
  9
$SPLINETYPE
 70
     6
  9
$SPLINESEGS
 70
     8
  9
$ATTDIA
 70
     0
  9
$ATTREQ
 70
     1
  9
$HANDLING
 70
 22529
  9
$HANDSEED
  5
191
  9
$SURFTAB1
 70
     6
  9
$SURFTAB2
 70
     6
  9
$SURFTYPE
 70
     6
  9
$SURFU
 70
     6
  9
$SURFV
 70
     6
  9
$UCSNAME
  2

  9
$UCSORG
 10
0.0
 20
0.0
 30
0.0
  9
$UCSXDIR
 10
1.0
 20
0.0
 30
0.0
  9
$UCSYDIR
 10
0.0
 20
1.0
 30
0.0
  9
$PUCSNAME
  2

  9
$PUCSORG
 10
0.0
 20
0.0
 30
0.0
  9
$PUCSXDIR
 10
1.0
 20
0.0
 30
0.0
  9
$PUCSYDIR
 10
0.0
 20
1.0
 30
0.0
  9
$USERI1
 70
     0
  9
$USERI2
 70
     0
  9
$USERI3
 70
     0
  9
$USERI4
 70
     0
  9
$USERI5
 70
     0
  9
$USERR1
 40
0.0
  9
$USERR2
 40
0.0
  9
$USERR3
 40
0.0
  9
$USERR4
 40
0.0
  9
$USERR5
 40
0.0
  9
$WORLDVIEW
 70
     1
  9
$SHADEDGE
 70
     3
  9
$SHADEDIF
 70
    70
  9
$TILEMODE
 70
     1
  9
$MAXACTVP
 70
    64
  9
$PINSBASE
 10
0.0
 20
0.0
 30
0.0
  9
$PLIMCHECK
 70
     0
  9
$PEXTMIN
 10
1.000000000000000E+20
 20
1.000000000000000E+20
 30
1.000000000000000E+20
  9
$PEXTMAX
 10
-1.000000000000000E+20
 20
-1.000000000000000E+20
 30
-1.000000000000000E+20
  9
$PLIMMIN
 10
0.0
 20
0.0
  9
$PLIMMAX
 10
12.0
 20
9.0
  9
$UNITMODE
 70
     0
  9
$VISRETAIN
 70
     1
  9
$PLINEGEN
 70
     0
  9
$PSLTSCALE
 70
     1
  9
$TREEDEPTH
 70
  3020
  9
$PICKSTYLE
 70
     1
  9
$CMLSTYLE
  2
STANDARD
  9
$CMLJUST
 70
     0
  9
$CMLSCALE
 40
1.0
  9
$PROXYGRAPHICS
 70
     1
  9
$MEASUREMENT
 70
     0
  0
ENDSEC
  0
SECTION
  2
CLASSES
  0
CLASS
  1
ACDBDICTIONARYWDFLT
  2
AcDbDictionaryWithDefault
  3
AutoCAD 2000
 90
        0
280
     0
281
     0
  0
CLASS
  1
ACDBPLACEHOLDER
  2
AcDbPlaceHolder
  3
AutoCAD 2000
 90
        0
280
     0
281
     0
  0
CLASS
  1
LAYOUT
  2
AcDbLayout
  3
AutoCAD 2000
 90
        0
280
     0
281
     0
  0
CLASS
  1
DICTIONARYVAR
  2
AcDbDictionaryVar
  3
AutoCAD 2000
 90
        0
280
     0
281
     0
  0
CLASS
  1
LONG_TRANSACTION
  2
AcDbLongTransaction
  3
AutoCAD 2000
 90
        0
280
     0
281
     0
  0
CLASS
  1
LWPOLYLINE
  2
AcDbPolyline
  3
AutoCAD 2000
 90
        0
280
     0
281
     1
  0
CLASS
  1
HATCH
  2
AcDbHatch
  3
AutoCAD 2000
 90
        0
280
     0
281
     1
  0
CLASS
  1
XRECORD
  2
AcDbXrecord
  3
AutoCAD 2000
 90
        0
280
     0
281
     0
  0
ENDSEC
  0
SECTION
  2
TABLES
  0
TABLE
  2
VPORT
  5
8
330
0
100
AcDbSymbolTable
 70
     2
  0
VPORT
  5
16C
330
8
100
AcDbSymbolTableRecord
100
AcDbViewportTableRecord
  2
*ACTIVE
 70
     0
 10
0.0
 20
0.0
 11
1.0
 21
1.0
 12
75.0
 22
77.50000000000001
 13
0.0
 23
0.0
 14
1.0
 24
1.0
 15
0.0
 25
0.0
 16
0.0
 26
0.0
 36
1.0
 17
0.0
 27
0.0
 37
0.0
 40
156.6140427109974
 41
2.078104993597951
 42
50.0
 43
0.0
 44
0.0
 50
0.0
 51
0.0
 71
     0
 72
   100
 73
     1
 74
     3
 75
     0
 76
     0
 77
     0
 78
     0
  0
ENDTAB
  0
TABLE
  2
LTYPE
  5
5
330
0
100
AcDbSymbolTable
 70
     1
  0
LTYPE
  5
13
330
5
100
AcDbSymbolTableRecord
100
AcDbLinetypeTableRecord
  2
BYBLOCK
 70
     0
  3

 72
    65
 73
     0
 40
0.0
  0
LTYPE
  5
14
330
5
100
AcDbSymbolTableRecord
100
AcDbLinetypeTableRecord
  2
BYLAYER
 70
     0
  3

 72
    65
 73
     0
 40
0.0
  0
LTYPE
  5
15
330
5
100
AcDbSymbolTableRecord
100
AcDbLinetypeTableRecord
  2
CONTINUOUS
 70
     0
  3
Solid line
 72
    65
 73
     0
 40
0.0
  0
ENDTAB
  0
TABLE
  2
LAYER
  5
2
330
0
100
AcDbSymbolTable
 70
     1
  0
LAYER
  5
10
330
2
100
AcDbSymbolTableRecord
100
AcDbLayerTableRecord
  2
0
 70
     0
 62
     7
  6
CONTINUOUS
  0
ENDTAB
  0
TABLE
  2
STYLE
  5
3
330
0
100
AcDbSymbolTable
 70
     1
  0
STYLE
  5
11
330
3
100
AcDbSymbolTableRecord
100
AcDbTextStyleTableRecord
  2
STANDARD
 70
     0
 40
0.0
 41
1.0
 50
0.0
 71
     0
 42
0.2
  3
txt
  4

  0
ENDTAB
  0
TABLE
  2
VIEW
  5
6
330
0
100
AcDbSymbolTable
 70
     0
  0
ENDTAB
  0
TABLE
  2
UCS
  5
7
330
0
100
AcDbSymbolTable
 70
     0
  0
ENDTAB
  0
TABLE
  2
APPID
  5
9
330
0
100
AcDbSymbolTable
 70
     1
  0
APPID
  5
12
330
9
100
AcDbSymbolTableRecord
100
AcDbRegAppTableRecord
  2
ACAD
 70
     0
  0
ENDTAB
  0
TABLE
  2
DIMSTYLE
  5
A
330
0
100
AcDbSymbolTable
 70
     1
  0
DIMSTYLE
105
156
330
A
100
AcDbSymbolTableRecord
100
AcDbDimStyleTableRecord
  2
STANDARD
 70
     0
  3

  4

  5

  6

  7

 40
1.0
 41
0.18
 42
0.0625
 43
0.38
 44
0.18
 45
0.0
 46
0.0
 47
0.0
 48
0.0
140
0.18
141
0.09
142
0.0
143
25.4
144
1.0
145
0.0
146
1.0
147
0.09
 71
     0
 72
     0
 73
     1
 74
     1
 75
     0
 76
     0
 77
     0
 78
     0
170
     0
171
     2
172
     0
173
     0
174
     0
175
     0
176
     0
177
     0
178
     0
270
     2
271
     4
272
     4
273
     2
274
     2
340
11
275
     0
280
     0
281
     0
282
     0
283
     1
284
     0
285
     0
286
     0
287
     3
288
     0
  0
ENDTAB
  0
TABLE
  2
BLOCK_RECORD
  5
1
330
0
100
AcDbSymbolTable
 70
     0
  0
BLOCK_RECORD
  5
1E
102
{ACAD_XDICTIONARY
360
18F
102
}
330
1
100
AcDbSymbolTableRecord
100
AcDbBlockTableRecord
  2
*MODEL_SPACE
  0
BLOCK_RECORD
  5
1A
102
{ACAD_XDICTIONARY
360
18D
102
}
330
1
100
AcDbSymbolTableRecord
100
AcDbBlockTableRecord
  2
*PAPER_SPACE
  0
ENDTAB
  0
ENDSEC
  0
SECTION
  2
BLOCKS
  0
BLOCK
  5
1F
330
1E
100
AcDbEntity
  8
0
100
AcDbBlockBegin
  2
*MODEL_SPACE
 70
     0
 10
0.0
 20
0.0
 30
0.0
  3
*MODEL_SPACE
  1

  0
ENDBLK
  5
20
330
1E
100
AcDbEntity
  8
0
100
AcDbBlockEnd
  0
BLOCK
  5
1B
330
1A
100
AcDbEntity
 67
     1
  8
0
100
AcDbBlockBegin
  2
*PAPER_SPACE
 70
     0
 10
0.0
 20
0.0
 30
0.0
  3
*PAPER_SPACE
  1

  0
ENDBLK
  5
1C
330
1A
100
AcDbEntity
 67
     1
  8
0
100
AcDbBlockEnd
  0
ENDSEC
  0
SECTION
  2
ENTITIES
  0
LINE
  5
22
330
1E
100
AcDbEntity
  8
0
100
AcDbLine
 10
46.3235
 20
11.03430499999999
 30
0.0
 11
55.6765
 21
7.94606499999999
 31
0.0
  0
LINE
  5
23
330
1E
100
AcDbEntity
  8
0
100
AcDbLine
 10
29.3824
 20
20.828375
 30
0.0
 11
37.67649999999999
 21
15.26957499999999
 31
0.0
  0
LINE
  5
24
330
1E
100
AcDbEntity
  8
0
100
AcDbLine
 10
2.735289999999999
 20
60.887275
 30
0.0
 11
5.82352999999999
 21
51.534275
 31
0.0
  0
LINE
  5
25
330
1E
100
AcDbEntity
  8
0
100
AcDbLine
 10
15.6176
 20
34.593175
 30
0.0
 11
22.0588
 21
27.269575
 31
0.0
  0
LINE
  5
26
330
1E
100
AcDbEntity
  8
0
100
AcDbLine
 10
15.6176
 20
34.593175
 30
0.0
 11
22.0588
 21
27.269575
 31
0.0
  0
LINE
  5
27
330
1E
100
AcDbEntity
  8
0
100
AcDbLine
 10
10.0588
 20
42.887275
 30
0.0
 11
15.6176
 21
34.593175
 31
0.0
  0
LINE
  5
28
330
1E
100
AcDbEntity
  8
0
100
AcDbLine
 10
5.82352999999999
 20
51.534275
 30
0.0
 11
10.0588
 21
42.887275
 31
0.0
  0
LINE
  5
29
330
1E
100
AcDbEntity
  8
0
100
AcDbLine
 10
0.7941179999999949
 20
70.41667499999999
 30
0.0
 11
2.735289999999999
 21
60.887275
 31
0.0
  0
LINE
  5
2A
330
1E
100
AcDbEntity
  8
0
100
AcDbLine
 10
-0.0000000000000048
 20
80.210775
 30
0.0
 11
0.7941179999999949
 21
70.41667499999999
 31
0.0
  0
LINE
  5
2B
330
1E
100
AcDbEntity
  8
0
100
AcDbLine
 10
22.0588
 20
27.269575
 30
0.0
 11
29.3824
 21
20.828375
 31
0.0
  0
LINE
  5
2C
330
1E
100
AcDbEntity
  8
0
100
AcDbLine
 10
59.4
 20
71.310775
 30
0.0
 11
62.3
 21
67.510775
 31
0.0
  0
LINE
  5
2D
330
1E
100
AcDbEntity
  8
0
100
AcDbLine
 10
58.6
 20
75.81077500000001
 30
0.0
 11
60.3
 21
71.71077499999999
 31
0.0
  0
LINE
  5
2E
330
1E
100
AcDbEntity
  8
0
100
AcDbLine
 10
58.1
 20
75.710775
 30
0.0
 11
59.8
 21
71.51077499999999
 31
0.0
  0
LINE
  5
2F
330
1E
100
AcDbEntity
  8
0
100
AcDbLine
 10
57.7
 20
75.610775
 30
0.0
 11
59.4
 21
71.310775
 31
0.0
  0
LINE
  5
30
330
1E
100
AcDbEntity
  8
0
100
AcDbLine
 10
62.3
 20
67.510775
 30
0.0
 11
66.09999999999999
 21
64.610775
 31
0.0
  0
LINE
  5
31
330
1E
100
AcDbEntity
  8
0
100
AcDbLine
 10
62.3
 20
67.510775
 30
0.0
 11
66.09999999999999
 21
64.610775
 31
0.0
  0
LINE
  5
32
330
1E
100
AcDbEntity
  8
0
100
AcDbLine
 10
60.1
 20
76.210775
 30
0.0
 11
61.6
 21
72.510775
 31
0.0
  0
LINE
  5
33
330
1E
100
AcDbEntity
  8
0
100
AcDbLine
 10
61.6
 20
72.510775
 30
0.0
 11
64.1
 21
69.310775
 31
0.0
  0
LINE
  5
34
330
1E
100
AcDbEntity
  8
0
100
AcDbLine
 10
60.3
 20
71.71077499999999
 30
0.0
 11
63.0
 21
68.210775
 31
0.0
  0
LINE
  5
35
330
1E
100
AcDbEntity
  8
0
100
AcDbLine
 10
59.8
 20
71.51077499999999
 30
0.0
 11
62.6
 21
67.81077500000001
 31
0.0
  0
LINE
  5
36
330
1E
100
AcDbEntity
  8
0
100
AcDbLine
 10
59.5
 20
80.210775
 30
0.0
 11
60.1
 21
84.210775
 31
0.0
  0
LINE
  5
37
330
1E
100
AcDbEntity
  8
0
100
AcDbLine
 10
59.5
 20
80.210775
 30
0.0
 11
60.1
 21
76.210775
 31
0.0
  0
LINE
  5
38
330
1E
100
AcDbEntity
  8
0
100
AcDbLine
 10
58.0
 20
80.210775
 30
0.0
 11
58.6
 21
84.610775
 31
0.0
  0
LINE
  5
39
330
1E
100
AcDbEntity
  8
0
100
AcDbLine
 10
58.0
 20
80.210775
 30
0.0
 11
58.6
 21
75.81077500000001
 31
0.0
  0
LINE
  5
3A
330
1E
100
AcDbEntity
  8
0
100
AcDbLine
 10
57.5
 20
80.210775
 30
0.0
 11
58.1
 21
84.71077499999999
 31
0.0
  0
LINE
  5
3B
330
1E
100
AcDbEntity
  8
0
100
AcDbLine
 10
57.5
 20
80.210775
 30
0.0
 11
58.1
 21
75.710775
 31
0.0
  0
LINE
  5
3C
330
1E
100
AcDbEntity
  8
0
100
AcDbLine
 10
0.7941179999999949
 20
90.004875
 30
0.0
 11
2.735289999999999
 21
99.534275
 31
0.0
  0
LINE
  5
3D
330
1E
100
AcDbEntity
  8
0
100
AcDbLine
 10
61.6
 20
87.910775
 30
0.0
 11
64.1
 21
91.110775
 31
0.0
  0
LINE
  5
3E
330
1E
100
AcDbEntity
  8
0
100
AcDbLine
 10
60.1
 20
84.210775
 30
0.0
 11
61.6
 21
87.910775
 31
0.0
  0
LINE
  5
3F
330
1E
100
AcDbEntity
  8
0
100
AcDbLine
 10
60.3
 20
88.710775
 30
0.0
 11
63.0
 21
92.21077499999999
 31
0.0
  0
LINE
  5
40
330
1E
100
AcDbEntity
  8
0
100
AcDbLine
 10
58.6
 20
84.610775
 30
0.0
 11
60.3
 21
88.710775
 31
0.0
  0
LINE
  5
41
330
1E
100
AcDbEntity
  8
0
100
AcDbLine
 10
59.8
 20
88.91077499999999
 30
0.0
 11
62.6
 21
92.610775
 31
0.0
  0
LINE
  5
42
330
1E
100
AcDbEntity
  8
0
100
AcDbLine
 10
58.1
 20
84.71077499999999
 30
0.0
 11
59.8
 21
88.91077499999999
 31
0.0
  0
LINE
  5
43
330
1E
100
AcDbEntity
  8
0
100
AcDbLine
 10
59.4
 20
89.11077500000001
 30
0.0
 11
62.3
 21
92.910775
 31
0.0
  0
LINE
  5
44
330
1E
100
AcDbEntity
  8
0
100
AcDbLine
 10
57.7
 20
84.81077500000001
 30
0.0
 11
59.4
 21
89.11077500000001
 31
0.0
  0
LINE
  5
45
330
1E
100
AcDbEntity
  8
0
100
AcDbLine
 10
57.0
 20
80.210775
 30
0.0
 11
57.7
 21
84.81077500000001
 31
0.0
  0
LINE
  5
46
330
1E
100
AcDbEntity
  8
0
100
AcDbLine
 10
57.0
 20
80.210775
 30
0.0
 11
57.7
 21
75.610775
 31
0.0
  0
LINE
  5
47
330
1E
100
AcDbEntity
  8
0
100
AcDbLine
 10
62.6
 20
67.81077500000001
 30
0.0
 11
66.29999999999999
 21
65.010775
 31
0.0
  0
LINE
  5
48
330
1E
100
AcDbEntity
  8
0
100
AcDbLine
 10
64.1
 20
69.310775
 30
0.0
 11
67.3
 21
66.810775
 31
0.0
  0
LINE
  5
49
330
1E
100
AcDbEntity
  8
0
100
AcDbLine
 10
63.0
 20
68.210775
 30
0.0
 11
66.5
 21
65.51077499999999
 31
0.0
  0
LINE
  5
4A
330
1E
100
AcDbEntity
  8
0
100
AcDbLine
 10
65.2059
 20
6.00489299999999
 30
0.0
 11
71.14870330743109
 21
5.52304300082799
 31
0.0
  0
LINE
  5
4B
330
1E
100
AcDbEntity
  8
0
100
AcDbLine
 10
70.0
 20
0.8969249999999979
 30
0.0
 11
70.25
 21
0.250724999999998
 31
0.0
  0
LINE
  5
4C
330
1E
100
AcDbEntity
  8
0
100
AcDbLine
 10
70.0
 20
0.8969249999999979
 30
0.0
 11
70.16670000000001
 21
0.8969249999999979
 31
0.0
  0
LINE
  5
4D
330
1E
100
AcDbEntity
  8
0
100
AcDbLine
 10
70.0
 20
0.8969249999999979
 30
0.0
 11
70.25
 21
1.543025
 31
0.0
  0
LINE
  5
4E
330
1E
100
AcDbEntity
  8
0
100
AcDbLine
 10
70.0
 20
0.8969249999999979
 30
0.0
 11
70.25
 21
0.250724999999998
 31
0.0
  0
LINE
  5
4F
330
1E
100
AcDbEntity
  8
0
100
AcDbLine
 10
70.25
 20
1.543025
 30
0.0
 11
70.4167
 21
1.543025
 31
0.0
  0
LINE
  5
50
330
1E
100
AcDbEntity
  8
0
100
AcDbLine
 10
70.25
 20
1.543025
 30
0.0
 11
70.8333
 21
1.820025
 31
0.0
  0
LINE
  5
51
330
1E
100
AcDbEntity
  8
0
100
AcDbLine
 10
70.16670000000001
 20
0.8969249999999979
 30
0.0
 11
70.66670000000001
 21
0.8969249999999979
 31
0.0
  0
LINE
  5
52
330
1E
100
AcDbEntity
  8
0
100
AcDbLine
 10
70.25
 20
0.250724999999998
 30
0.0
 11
70.4167
 21
0.250724999999998
 31
0.0
  0
LINE
  5
53
330
1E
100
AcDbEntity
  8
0
100
AcDbLine
 10
70.25
 20
0.250724999999998
 30
0.0
 11
70.8333
 21
-0.0261750000000025
 31
0.0
  0
LINE
  5
54
330
1E
100
AcDbEntity
  8
0
100
AcDbLine
 10
70.25
 20
0.250724999999998
 30
0.0
 11
70.8333
 21
-0.0261750000000025
 31
0.0
  0
LINE
  5
55
330
1E
100
AcDbEntity
  8
0
100
AcDbLine
 10
70.16670000000001
 20
58.681575
 30
0.0
 11
70.66670000000001
 21
58.681575
 31
0.0
  0
LINE
  5
56
330
1E
100
AcDbEntity
  8
0
100
AcDbLine
 10
70.25
 20
58.035375
 30
0.0
 11
70.8333
 21
57.758375
 31
0.0
  0
LINE
  5
57
330
1E
100
AcDbEntity
  8
0
100
AcDbLine
 10
70.25
 20
58.035375
 30
0.0
 11
70.4167
 21
58.035375
 31
0.0
  0
LINE
  5
58
330
1E
100
AcDbEntity
  8
0
100
AcDbLine
 10
70.0
 20
58.681575
 30
0.0
 11
70.25
 21
59.327775
 31
0.0
  0
LINE
  5
59
330
1E
100
AcDbEntity
  8
0
100
AcDbLine
 10
70.0
 20
58.681575
 30
0.0
 11
70.25
 21
58.035375
 31
0.0
  0
LINE
  5
5A
330
1E
100
AcDbEntity
  8
0
100
AcDbLine
 10
70.0
 20
58.681575
 30
0.0
 11
70.16670000000001
 21
58.681575
 31
0.0
  0
LINE
  5
5B
330
1E
100
AcDbEntity
  8
0
100
AcDbLine
 10
70.25
 20
59.327775
 30
0.0
 11
70.8333
 21
59.604675
 31
0.0
  0
LINE
  5
5C
330
1E
100
AcDbEntity
  8
0
100
AcDbLine
 10
70.25
 20
59.327775
 30
0.0
 11
70.4167
 21
59.327775
 31
0.0
  0
LINE
  5
5D
330
1E
100
AcDbEntity
  8
0
100
AcDbLine
 10
70.4
 20
62.910775
 30
0.0
 11
71.5
 21
62.7433836956522
 31
0.0
  0
LINE
  5
5E
330
1E
100
AcDbEntity
  8
0
100
AcDbLine
 10
66.09999999999999
 20
64.610775
 30
0.0
 11
70.4
 21
62.910775
 31
0.0
  0
LINE
  5
5F
330
1E
100
AcDbEntity
  8
0
100
AcDbLine
 10
67.3
 20
66.810775
 30
0.0
 11
71.0
 21
65.31077500000001
 31
0.0
  0
LINE
  5
60
330
1E
100
AcDbEntity
  8
0
100
AcDbLine
 10
66.5
 20
65.51077499999999
 30
0.0
 11
70.59999999999999
 21
63.81077499999999
 31
0.0
  0
LINE
  5
61
330
1E
100
AcDbEntity
  8
0
100
AcDbLine
 10
66.29999999999999
 20
65.010775
 30
0.0
 11
70.5
 21
63.310775
 31
0.0
  0
LINE
  5
62
330
1E
100
AcDbEntity
  8
0
100
AcDbLine
 10
66.09999999999999
 20
64.610775
 30
0.0
 11
70.4
 21
62.910775
 31
0.0
  0
LINE
  5
63
330
1E
100
AcDbEntity
  8
0
100
AcDbLine
 10
70.4
 20
62.910775
 30
0.0
 11
75.0
 21
62.21077499999999
 31
0.0
  0
LINE
  5
64
330
1E
100
AcDbEntity
  8
0
100
AcDbLine
 10
64.1
 20
91.110775
 30
0.0
 11
67.3
 21
93.610775
 31
0.0
  0
LINE
  5
65
330
1E
100
AcDbEntity
  8
0
100
AcDbLine
 10
67.3
 20
93.610775
 30
0.0
 11
71.0
 21
95.110775
 31
0.0
  0
LINE
  5
66
330
1E
100
AcDbEntity
  8
0
100
AcDbLine
 10
63.0
 20
92.21077499999999
 30
0.0
 11
66.5
 21
94.91077500000001
 31
0.0
  0
LINE
  5
67
330
1E
100
AcDbEntity
  8
0
100
AcDbLine
 10
62.6
 20
92.610775
 30
0.0
 11
66.29999999999999
 21
95.410775
 31
0.0
  0
LINE
  5
68
330
1E
100
AcDbEntity
  8
0
100
AcDbLine
 10
66.5
 20
94.91077500000001
 30
0.0
 11
70.59999999999999
 21
96.61077500000001
 31
0.0
  0
LINE
  5
69
330
1E
100
AcDbEntity
  8
0
100
AcDbLine
 10
66.29999999999999
 20
95.410775
 30
0.0
 11
70.5
 21
97.11077500000001
 31
0.0
  0
LINE
  5
6A
330
1E
100
AcDbEntity
  8
0
100
AcDbLine
 10
64.4152103559873
 20
94.52501448220079
 30
0.0
 11
66.09999999999999
 21
95.86557500000001
 31
0.0
  0
LINE
  5
6B
330
1E
100
AcDbEntity
  8
0
100
AcDbLine
 10
62.3
 20
92.910775
 30
0.0
 11
66.09999999999999
 21
95.81077500000001
 31
0.0
  0
LINE
  5
6C
330
1E
100
AcDbEntity
  8
0
100
AcDbLine
 10
15.6176
 20
125.828775
 30
0.0
 11
22.0588
 21
133.1517749999999
 31
0.0
  0
LINE
  5
6D
330
1E
100
AcDbEntity
  8
0
100
AcDbLine
 10
10.0588
 20
117.534775
 30
0.0
 11
15.6176
 21
125.828775
 31
0.0
  0
LINE
  5
6E
330
1E
100
AcDbEntity
  8
0
100
AcDbLine
 10
5.82352999999999
 20
108.886775
 30
0.0
 11
10.0588
 21
117.534775
 31
0.0
  0
LINE
  5
6F
330
1E
100
AcDbEntity
  8
0
100
AcDbLine
 10
22.0588
 20
133.1517749999999
 30
0.0
 11
29.3824
 21
139.592775
 31
0.0
  0
LINE
  5
70
330
1E
100
AcDbEntity
  8
0
100
AcDbLine
 10
37.67649999999999
 20
145.1517749999999
 30
0.0
 11
46.3235
 21
149.3867749999999
 31
0.0
  0
LINE
  5
71
330
1E
100
AcDbEntity
  8
0
100
AcDbLine
 10
29.3824
 20
139.592775
 30
0.0
 11
37.67649999999999
 21
145.1517749999999
 31
0.0
  0
LINE
  5
72
330
1E
100
AcDbEntity
  8
0
100
AcDbLine
 10
46.3235
 20
149.3867749999999
 30
0.0
 11
55.6765
 21
152.475775
 31
0.0
  0
LINE
  5
73
330
1E
100
AcDbEntity
  8
0
100
AcDbLine
 10
66.09999999999999
 20
95.86557500000001
 30
0.0
 11
68.1278829604128
 21
96.6124961703958
 31
0.0
  0
LINE
  5
74
330
1E
100
AcDbEntity
  8
0
100
AcDbLine
 10
66.09999999999999
 20
95.81077500000001
 30
0.0
 11
70.4
 21
97.510775
 31
0.0
  0
LINE
  5
75
330
1E
100
AcDbEntity
  8
0
100
AcDbLine
 10
70.4167
 20
1.543025
 30
0.0
 11
70.9167
 21
1.543025
 31
0.0
  0
LINE
  5
76
330
1E
100
AcDbEntity
  8
0
100
AcDbLine
 10
70.4167
 20
0.250724999999998
 30
0.0
 11
70.9167
 21
0.250724999999998
 31
0.0
  0
LINE
  5
77
330
1E
100
AcDbEntity
  8
0
100
AcDbLine
 10
70.4167
 20
58.035375
 30
0.0
 11
70.9167
 21
58.035375
 31
0.0
  0
LINE
  5
78
330
1E
100
AcDbEntity
  8
0
100
AcDbLine
 10
70.4167
 20
59.327775
 30
0.0
 11
70.9167
 21
59.327775
 31
0.0
  0
LINE
  5
79
330
1E
100
AcDbEntity
  8
0
100
AcDbLine
 10
70.59999999999999
 20
63.81077499999999
 30
0.0
 11
75.0
 21
63.210775
 31
0.0
  0
LINE
  5
7A
330
1E
100
AcDbEntity
  8
0
100
AcDbLine
 10
70.5
 20
63.310775
 30
0.0
 11
75.0
 21
62.710775
 31
0.0
  0
LINE
  5
7B
330
1E
100
AcDbEntity
  8
0
100
AcDbLine
 10
71.0
 20
-0.0261750000000026
 30
0.0
 11
71.41670000000001
 21
-0.0261750000000026
 31
0.0
  0
LINE
  5
7C
330
1E
100
AcDbEntity
  8
0
100
AcDbLine
 10
70.8333
 20
-0.0261750000000025
 30
0.0
 11
71.0
 21
-0.0261750000000026
 31
0.0
  0
LINE
  5
7D
330
1E
100
AcDbEntity
  8
0
100
AcDbLine
 10
70.8333
 20
1.820025
 30
0.0
 11
71.0
 21
1.820025
 31
0.0
  0
LINE
  5
7E
330
1E
100
AcDbEntity
  8
0
100
AcDbLine
 10
70.8333
 20
1.820025
 30
0.0
 11
71.25
 21
6.712324999999999
 31
0.0
  0
LINE
  5
7F
330
1E
100
AcDbEntity
  8
0
100
AcDbLine
 10
70.9167
 20
1.543025
 30
0.0
 11
71.6667
 21
1.543025
 31
0.0
  0
LINE
  5
80
330
1E
100
AcDbEntity
  8
0
100
AcDbLine
 10
70.66670000000001
 20
0.8969249999999979
 30
0.0
 11
71.5
 21
0.8969249999999979
 31
0.0
  0
LINE
  5
81
330
1E
100
AcDbEntity
  8
0
100
AcDbLine
 10
71.0
 20
1.820025
 30
0.0
 11
71.41670000000001
 21
1.820025
 31
0.0
  0
LINE
  5
82
330
1E
100
AcDbEntity
  8
0
100
AcDbLine
 10
70.9167
 20
0.250724999999998
 30
0.0
 11
71.6667
 21
0.250724999999998
 31
0.0
  0
LINE
  5
83
330
1E
100
AcDbEntity
  8
0
100
AcDbLine
 10
71.0
 20
-0.0261750000000024
 30
0.0
 11
71.41670000000001
 21
-0.0261750000000024
 31
0.0
  0
LINE
  5
84
330
1E
100
AcDbEntity
  8
0
100
AcDbLine
 10
71.0
 20
57.758375
 30
0.0
 11
71.41670000000001
 21
57.758375
 31
0.0
  0
LINE
  5
85
330
1E
100
AcDbEntity
  8
0
100
AcDbLine
 10
70.66670000000001
 20
58.681575
 30
0.0
 11
71.5
 21
58.681575
 31
0.0
  0
LINE
  5
86
330
1E
100
AcDbEntity
  8
0
100
AcDbLine
 10
70.9167
 20
58.035375
 30
0.0
 11
71.6667
 21
58.035375
 31
0.0
  0
LINE
  5
87
330
1E
100
AcDbEntity
  8
0
100
AcDbLine
 10
70.9167
 20
59.327775
 30
0.0
 11
71.6667
 21
59.327775
 31
0.0
  0
LINE
  5
88
330
1E
100
AcDbEntity
  8
0
100
AcDbLine
 10
71.0
 20
59.604675
 30
0.0
 11
71.41670000000001
 21
59.604675
 31
0.0
  0
LINE
  5
89
330
1E
100
AcDbEntity
  8
0
100
AcDbLine
 10
70.8333
 20
59.604675
 30
0.0
 11
71.0
 21
59.604675
 31
0.0
  0
LINE
  5
8A
330
1E
100
AcDbEntity
  8
0
100
AcDbLine
 10
70.8333
 20
57.758375
 30
0.0
 11
71.25
 21
52.866075
 31
0.0
  0
LINE
  5
8B
330
1E
100
AcDbEntity
  8
0
100
AcDbLine
 10
70.8333
 20
57.758375
 30
0.0
 11
71.0
 21
57.758375
 31
0.0
  0
LINE
  5
8C
330
1E
100
AcDbEntity
  8
0
100
AcDbLine
 10
71.25
 20
6.712324999999999
 30
0.0
 11
71.6667
 21
15.020025
 31
0.0
  0
LINE
  5
8D
330
1E
100
AcDbEntity
  8
0
100
AcDbLine
 10
71.25
 20
-0.0261750000000025
 30
0.0
 11
71.41670000000001
 21
-0.0261750000000024
 31
0.0
  0
LINE
  5
8E
330
1E
100
AcDbEntity
  8
0
100
AcDbLine
 10
71.41670000000001
 20
-0.0261750000000026
 30
0.0
 11
72.0833
 21
-0.0261750000000027
 31
0.0
  0
LINE
  5
8F
330
1E
100
AcDbEntity
  8
0
100
AcDbLine
 10
72.0833
 20
-0.0261750000000027
 30
0.0
 11
72.77776666666669
 21
-0.0261750000000027
 31
0.0
  0
LINE
  5
90
330
1E
100
AcDbEntity
  8
0
100
AcDbLine
 10
72.33329999999999
 20
-0.0261750000000023
 30
0.0
 11
73.16670000000001
 21
-0.0261750000000023
 31
0.0
  0
LINE
  5
91
330
1E
100
AcDbEntity
  8
0
100
AcDbLine
 10
71.75
 20
-0.0261750000000024
 30
0.0
 11
72.33329999999999
 21
-0.0261750000000023
 31
0.0
  0
LINE
  5
92
330
1E
100
AcDbEntity
  8
0
100
AcDbLine
 10
72.77776666666669
 20
-0.0261750000000023
 30
0.0
 11
73.3333
 21
-0.118475000000002
 31
0.0
  0
LINE
  5
93
330
1E
100
AcDbEntity
  8
0
100
AcDbLine
 10
71.6667
 20
15.020025
 30
0.0
 11
71.6667
 21
29.789275
 31
0.0
  0
LINE
  5
94
330
1E
100
AcDbEntity
  8
0
100
AcDbLine
 10
72.0833
 20
1.820025
 30
0.0
 11
72.9167
 21
1.820025
 31
0.0
  0
LINE
  5
95
330
1E
100
AcDbEntity
  8
0
100
AcDbLine
 10
71.6667
 20
1.543025
 30
0.0
 11
72.66670000000001
 21
1.543025
 31
0.0
  0
LINE
  5
96
330
1E
100
AcDbEntity
  8
0
100
AcDbLine
 10
71.5
 20
0.8969249999999979
 30
0.0
 11
72.5
 21
0.8969249999999979
 31
0.0
  0
LINE
  5
97
330
1E
100
AcDbEntity
  8
0
100
AcDbLine
 10
72.66670000000001
 20
1.543025
 30
0.0
 11
73.75
 21
1.543025
 31
0.0
  0
LINE
  5
98
330
1E
100
AcDbEntity
  8
0
100
AcDbLine
 10
72.5
 20
0.8969249999999979
 30
0.0
 11
73.75
 21
0.8969249999999989
 31
0.0
  0
LINE
  5
99
330
1E
100
AcDbEntity
  8
0
100
AcDbLine
 10
71.6667
 20
0.250724999999998
 30
0.0
 11
72.66670000000001
 21
0.250724999999998
 31
0.0
  0
LINE
  5
9A
330
1E
100
AcDbEntity
  8
0
100
AcDbLine
 10
72.9167
 20
1.820025
 30
0.0
 11
73.91670000000001
 21
1.820025
 31
0.0
  0
LINE
  5
9B
330
1E
100
AcDbEntity
  8
0
100
AcDbLine
 10
72.66670000000001
 20
0.250724999999998
 30
0.0
 11
73.75
 21
0.250724999999998
 31
0.0
  0
LINE
  5
9C
330
1E
100
AcDbEntity
  8
0
100
AcDbLine
 10
73.16670000000001
 20
-0.0261750000000023
 30
0.0
 11
74.0
 21
-0.0261750000000023
 31
0.0
  0
LINE
  5
9D
330
1E
100
AcDbEntity
  8
0
100
AcDbLine
 10
71.41670000000001
 20
1.820025
 30
0.0
 11
72.0833
 21
1.820025
 31
0.0
  0
LINE
  5
9E
330
1E
100
AcDbEntity
  8
0
100
AcDbLine
 10
72.77776666666669
 20
-0.0261750000000023
 30
0.0
 11
73.3333
 21
-0.118475000000002
 31
0.0
  0
LINE
  5
9F
330
1E
100
AcDbEntity
  8
0
100
AcDbLine
 10
76.6667
 20
-0.118475000000002
 30
0.0
 11
77.22223333333331
 21
-0.0261750000000023
 31
0.0
  0
LINE
  5
A0
330
1E
100
AcDbEntity
  8
0
100
AcDbLine
 10
77.22223333333331
 20
-0.0261750000000027
 30
0.0
 11
77.66670000000001
 21
-0.0261750000000027
 31
0.0
  0
LINE
  5
A1
330
1E
100
AcDbEntity
  8
0
100
AcDbLine
 10
77.9167
 20
-0.0261750000000027
 30
0.0
 11
78.58329999999999
 21
-0.0261750000000026
 31
0.0
  0
LINE
  5
A2
330
1E
100
AcDbEntity
  8
0
100
AcDbLine
 10
78.58329999999999
 20
-0.0261750000000026
 30
0.0
 11
79.0
 21
-0.0261750000000026
 31
0.0
  0
LINE
  5
A3
330
1E
100
AcDbEntity
  8
0
100
AcDbLine
 10
78.58329999999999
 20
-0.0261750000000026
 30
0.0
 11
78.75
 21
-0.0261750000000025
 31
0.0
  0
LINE
  5
A4
330
1E
100
AcDbEntity
  8
0
100
AcDbLine
 10
77.0833
 20
-0.0261750000000023
 30
0.0
 11
77.9167
 21
-0.0261750000000023
 31
0.0
  0
LINE
  5
A5
330
1E
100
AcDbEntity
  8
0
100
AcDbLine
 10
76.0
 20
-0.0261750000000023
 30
0.0
 11
77.0833
 21
-0.0261750000000023
 31
0.0
  0
LINE
  5
A6
330
1E
100
AcDbEntity
  8
0
100
AcDbLine
 10
77.9167
 20
-0.0261750000000023
 30
0.0
 11
78.58329999999999
 21
-0.0261750000000024
 31
0.0
  0
LINE
  5
A7
330
1E
100
AcDbEntity
  8
0
100
AcDbLine
 10
78.25
 20
-0.0261750000000024
 30
0.0
 11
78.58329999999999
 21
-0.0261750000000024
 31
0.0
  0
LINE
  5
A8
330
1E
100
AcDbEntity
  8
0
100
AcDbLine
 10
79.1667
 20
-0.0261750000000025
 30
0.0
 11
79.75
 21
0.250724999999998
 31
0.0
  0
LINE
  5
A9
330
1E
100
AcDbEntity
  8
0
100
AcDbLine
 10
79.1667
 20
-0.0261750000000025
 30
0.0
 11
79.75
 21
0.250724999999998
 31
0.0
  0
LINE
  5
AA
330
1E
100
AcDbEntity
  8
0
100
AcDbLine
 10
79.0
 20
-0.0261750000000024
 30
0.0
 11
79.1667
 21
-0.0261750000000025
 31
0.0
  0
LINE
  5
AB
330
1E
100
AcDbEntity
  8
0
100
AcDbLine
 10
76.6667
 20
-0.118475000000002
 30
0.0
 11
77.22223333333331
 21
-0.0261750000000023
 31
0.0
  0
LINE
  5
AC
330
1E
100
AcDbEntity
  8
0
100
AcDbLine
 10
75.0
 20
-0.210775000000002
 30
0.0
 11
76.6667
 21
-0.118475000000002
 31
0.0
  0
LINE
  5
AD
330
1E
100
AcDbEntity
  8
0
100
AcDbLine
 10
73.75
 20
1.543025
 30
0.0
 11
75.0
 21
1.543025
 31
0.0
  0
LINE
  5
AE
330
1E
100
AcDbEntity
  8
0
100
AcDbLine
 10
73.75
 20
0.8969249999999989
 30
0.0
 11
75.0
 21
0.8969249999999989
 31
0.0
  0
LINE
  5
AF
330
1E
100
AcDbEntity
  8
0
100
AcDbLine
 10
75.0
 20
-0.0261750000000023
 30
0.0
 11
76.0
 21
-0.0261750000000023
 31
0.0
  0
LINE
  5
B0
330
1E
100
AcDbEntity
  8
0
100
AcDbLine
 10
79.75
 20
0.250724999999998
 30
0.0
 11
80.0
 21
0.8969249999999979
 31
0.0
  0
LINE
  5
B1
330
1E
100
AcDbEntity
  8
0
100
AcDbLine
 10
79.75
 20
0.250724999999998
 30
0.0
 11
80.0
 21
0.8969249999999979
 31
0.0
  0
LINE
  5
B2
330
1E
100
AcDbEntity
  8
0
100
AcDbLine
 10
75.0
 20
1.543025
 30
0.0
 11
76.25
 21
1.543025
 31
0.0
  0
LINE
  5
B3
330
1E
100
AcDbEntity
  8
0
100
AcDbLine
 10
75.0
 20
0.8969249999999989
 30
0.0
 11
76.25
 21
0.8969249999999989
 31
0.0
  0
LINE
  5
B4
330
1E
100
AcDbEntity
  8
0
100
AcDbLine
 10
77.33329999999999
 20
0.250724999999998
 30
0.0
 11
78.3333
 21
0.250724999999998
 31
0.0
  0
LINE
  5
B5
330
1E
100
AcDbEntity
  8
0
100
AcDbLine
 10
76.25
 20
1.543025
 30
0.0
 11
77.33329999999999
 21
1.543025
 31
0.0
  0
LINE
  5
B6
330
1E
100
AcDbEntity
  8
0
100
AcDbLine
 10
77.33329999999999
 20
1.543025
 30
0.0
 11
78.3333
 21
1.543025
 31
0.0
  0
LINE
  5
B7
330
1E
100
AcDbEntity
  8
0
100
AcDbLine
 10
77.5
 20
0.8969249999999979
 30
0.0
 11
78.5
 21
0.8969249999999979
 31
0.0
  0
LINE
  5
B8
330
1E
100
AcDbEntity
  8
0
100
AcDbLine
 10
76.25
 20
0.8969249999999989
 30
0.0
 11
77.5
 21
0.8969249999999979
 31
0.0
  0
LINE
  5
B9
330
1E
100
AcDbEntity
  8
0
100
AcDbLine
 10
76.25
 20
0.250724999999998
 30
0.0
 11
77.33329999999999
 21
0.250724999999998
 31
0.0
  0
LINE
  5
BA
330
1E
100
AcDbEntity
  8
0
100
AcDbLine
 10
75.0
 20
0.250724999999998
 30
0.0
 11
76.25
 21
0.250724999999998
 31
0.0
  0
LINE
  5
BB
330
1E
100
AcDbEntity
  8
0
100
AcDbLine
 10
77.0833
 20
1.820025
 30
0.0
 11
77.9167
 21
1.820025
 31
0.0
  0
LINE
  5
BC
330
1E
100
AcDbEntity
  8
0
100
AcDbLine
 10
76.08329999999999
 20
1.820025
 30
0.0
 11
77.0833
 21
1.820025
 31
0.0
  0
LINE
  5
BD
330
1E
100
AcDbEntity
  8
0
100
AcDbLine
 10
75.0
 20
1.820025
 30
0.0
 11
76.08329999999999
 21
1.820025
 31
0.0
  0
LINE
  5
BE
330
1E
100
AcDbEntity
  8
0
100
AcDbLine
 10
77.9167
 20
1.820025
 30
0.0
 11
78.58329999999999
 21
1.820025
 31
0.0
  0
LINE
  5
BF
330
1E
100
AcDbEntity
  8
0
100
AcDbLine
 10
78.3333
 20
1.543025
 30
0.0
 11
79.08329999999999
 21
1.543025
 31
0.0
  0
LINE
  5
C0
330
1E
100
AcDbEntity
  8
0
100
AcDbLine
 10
78.58329999999999
 20
1.820025
 30
0.0
 11
79.0
 21
1.820025
 31
0.0
  0
LINE
  5
C1
330
1E
100
AcDbEntity
  8
0
100
AcDbLine
 10
79.0
 20
1.820025
 30
0.0
 11
79.1667
 21
1.820025
 31
0.0
  0
LINE
  5
C2
330
1E
100
AcDbEntity
  8
0
100
AcDbLine
 10
79.08329999999999
 20
1.543025
 30
0.0
 11
79.5833
 21
1.543025
 31
0.0
  0
LINE
  5
C3
330
1E
100
AcDbEntity
  8
0
100
AcDbLine
 10
78.5
 20
0.8969249999999979
 30
0.0
 11
79.33329999999999
 21
0.8969249999999979
 31
0.0
  0
LINE
  5
C4
330
1E
100
AcDbEntity
  8
0
100
AcDbLine
 10
78.3333
 20
0.250724999999998
 30
0.0
 11
79.08329999999999
 21
0.250724999999998
 31
0.0
  0
LINE
  5
C5
330
1E
100
AcDbEntity
  8
0
100
AcDbLine
 10
79.1667
 20
1.820025
 30
0.0
 11
79.75
 21
1.543025
 31
0.0
  0
LINE
  5
C6
330
1E
100
AcDbEntity
  8
0
100
AcDbLine
 10
79.5833
 20
1.543025
 30
0.0
 11
79.75
 21
1.543025
 31
0.0
  0
LINE
  5
C7
330
1E
100
AcDbEntity
  8
0
100
AcDbLine
 10
79.75
 20
1.543025
 30
0.0
 11
80.0
 21
0.8969249999999979
 31
0.0
  0
LINE
  5
C8
330
1E
100
AcDbEntity
  8
0
100
AcDbLine
 10
79.33329999999999
 20
0.8969249999999979
 30
0.0
 11
79.83329999999999
 21
0.8969249999999979
 31
0.0
  0
LINE
  5
C9
330
1E
100
AcDbEntity
  8
0
100
AcDbLine
 10
79.83329999999999
 20
0.8969249999999979
 30
0.0
 11
80.0
 21
0.8969249999999979
 31
0.0
  0
LINE
  5
CA
330
1E
100
AcDbEntity
  8
0
100
AcDbLine
 10
79.08329999999999
 20
0.250724999999998
 30
0.0
 11
79.5833
 21
0.250724999999998
 31
0.0
  0
LINE
  5
CB
330
1E
100
AcDbEntity
  8
0
100
AcDbLine
 10
79.5833
 20
0.250724999999998
 30
0.0
 11
79.75
 21
0.250724999999998
 31
0.0
  0
LINE
  5
CC
330
1E
100
AcDbEntity
  8
0
100
AcDbLine
 10
78.3333
 20
15.020025
 30
0.0
 11
78.75
 21
6.712324999999999
 31
0.0
  0
LINE
  5
CD
330
1E
100
AcDbEntity
  8
0
100
AcDbLine
 10
78.3333
 20
15.020025
 30
0.0
 11
78.3333
 21
29.789275
 31
0.0
  0
LINE
  5
CE
330
1E
100
AcDbEntity
  8
0
100
AcDbLine
 10
78.8512966925689
 20
5.52304300082799
 30
0.0
 11
84.79409999999999
 21
6.00489299999999
 31
0.0
  0
LINE
  5
CF
330
1E
100
AcDbEntity
  8
0
100
AcDbLine
 10
78.75
 20
6.712324999999999
 30
0.0
 11
79.1667
 21
1.820025
 31
0.0
  0
LINE
  5
D0
330
1E
100
AcDbEntity
  8
0
100
AcDbLine
 10
78.3333
 20
29.789275
 30
0.0
 11
78.3333
 21
44.55847499999999
 31
0.0
  0
LINE
  5
D1
330
1E
100
AcDbEntity
  8
0
100
AcDbLine
 10
78.3333
 20
29.789275
 30
0.0
 11
78.3333
 21
15.020025
 31
0.0
  0
LINE
  5
D2
330
1E
100
AcDbEntity
  8
0
100
AcDbLine
 10
73.91670000000001
 20
1.820025
 30
0.0
 11
75.0
 21
1.820025
 31
0.0
  0
LINE
  5
D3
330
1E
100
AcDbEntity
  8
0
100
AcDbLine
 10
73.75
 20
0.250724999999998
 30
0.0
 11
75.0
 21
0.250724999999998
 31
0.0
  0
LINE
  5
D4
330
1E
100
AcDbEntity
  8
0
100
AcDbLine
 10
74.0
 20
-0.0261750000000023
 30
0.0
 11
75.0
 21
-0.0261750000000023
 31
0.0
  0
LINE
  5
D5
330
1E
100
AcDbEntity
  8
0
100
AcDbLine
 10
73.3333
 20
-0.118475000000002
 30
0.0
 11
75.0
 21
-0.210775000000002
 31
0.0
  0
LINE
  5
D6
330
1E
100
AcDbEntity
  8
0
100
AcDbLine
 10
71.41670000000001
 20
57.758375
 30
0.0
 11
72.0833
 21
57.758375
 31
0.0
  0
LINE
  5
D7
330
1E
100
AcDbEntity
  8
0
100
AcDbLine
 10
71.6667
 20
44.55847499999999
 30
0.0
 11
71.6667
 21
29.789275
 31
0.0
  0
LINE
  5
D8
330
1E
100
AcDbEntity
  8
0
100
AcDbLine
 10
72.0833
 20
57.758375
 30
0.0
 11
72.9167
 21
57.758375
 31
0.0
  0
LINE
  5
D9
330
1E
100
AcDbEntity
  8
0
100
AcDbLine
 10
71.6667
 20
58.035375
 30
0.0
 11
72.66670000000001
 21
58.035375
 31
0.0
  0
LINE
  5
DA
330
1E
100
AcDbEntity
  8
0
100
AcDbLine
 10
71.5
 20
58.681575
 30
0.0
 11
72.5
 21
58.681575
 31
0.0
  0
LINE
  5
DB
330
1E
100
AcDbEntity
  8
0
100
AcDbLine
 10
71.5
 20
59.604675
 30
0.0
 11
71.5
 21
62.7433836956522
 31
0.0
  0
LINE
  5
DC
330
1E
100
AcDbEntity
  8
0
100
AcDbLine
 10
71.41670000000001
 20
59.604675
 30
0.0
 11
72.0833
 21
59.604675
 31
0.0
  0
LINE
  5
DD
330
1E
100
AcDbEntity
  8
0
100
AcDbLine
 10
71.6667
 20
59.327775
 30
0.0
 11
72.66670000000001
 21
59.327775
 31
0.0
  0
LINE
  5
DE
330
1E
100
AcDbEntity
  8
0
100
AcDbLine
 10
72.66670000000001
 20
58.035375
 30
0.0
 11
73.75
 21
58.035375
 31
0.0
  0
LINE
  5
DF
330
1E
100
AcDbEntity
  8
0
100
AcDbLine
 10
72.5
 20
58.681575
 30
0.0
 11
73.75
 21
58.681575
 31
0.0
  0
LINE
  5
E0
330
1E
100
AcDbEntity
  8
0
100
AcDbLine
 10
72.9167
 20
57.758375
 30
0.0
 11
73.91670000000001
 21
57.758375
 31
0.0
  0
LINE
  5
E1
330
1E
100
AcDbEntity
  8
0
100
AcDbLine
 10
78.3333
 20
44.55847499999999
 30
0.0
 11
78.75
 21
52.866075
 31
0.0
  0
LINE
  5
E2
330
1E
100
AcDbEntity
  8
0
100
AcDbLine
 10
78.3333
 20
44.55847499999999
 30
0.0
 11
78.3333
 21
29.789275
 31
0.0
  0
LINE
  5
E3
330
1E
100
AcDbEntity
  8
0
100
AcDbLine
 10
77.9167
 20
57.758375
 30
0.0
 11
78.58329999999999
 21
57.758375
 31
0.0
  0
LINE
  5
E4
330
1E
100
AcDbEntity
  8
0
100
AcDbLine
 10
78.58329999999999
 20
57.758375
 30
0.0
 11
79.0
 21
57.758375
 31
0.0
  0
LINE
  5
E5
330
1E
100
AcDbEntity
  8
0
100
AcDbLine
 10
79.0
 20
57.758375
 30
0.0
 11
79.1667
 21
57.758375
 31
0.0
  0
LINE
  5
E6
330
1E
100
AcDbEntity
  8
0
100
AcDbLine
 10
77.0833
 20
57.758375
 30
0.0
 11
77.9167
 21
57.758375
 31
0.0
  0
LINE
  5
E7
330
1E
100
AcDbEntity
  8
0
100
AcDbLine
 10
76.08329999999999
 20
57.758375
 30
0.0
 11
77.0833
 21
57.758375
 31
0.0
  0
LINE
  5
E8
330
1E
100
AcDbEntity
  8
0
100
AcDbLine
 10
75.0
 20
57.758375
 30
0.0
 11
76.08329999999999
 21
57.758375
 31
0.0
  0
LINE
  5
E9
330
1E
100
AcDbEntity
  8
0
100
AcDbLine
 10
78.75
 20
52.866075
 30
0.0
 11
79.1667
 21
57.758375
 31
0.0
  0
LINE
  5
EA
330
1E
100
AcDbEntity
  8
0
100
AcDbLine
 10
79.1667
 20
57.758375
 30
0.0
 11
79.75
 21
58.035375
 31
0.0
  0
LINE
  5
EB
330
1E
100
AcDbEntity
  8
0
100
AcDbLine
 10
76.25
 20
58.035375
 30
0.0
 11
77.33329999999999
 21
58.035375
 31
0.0
  0
LINE
  5
EC
330
1E
100
AcDbEntity
  8
0
100
AcDbLine
 10
75.0
 20
58.035375
 30
0.0
 11
76.25
 21
58.035375
 31
0.0
  0
LINE
  5
ED
330
1E
100
AcDbEntity
  8
0
100
AcDbLine
 10
78.3333
 20
58.035375
 30
0.0
 11
79.08329999999999
 21
58.035375
 31
0.0
  0
LINE
  5
EE
330
1E
100
AcDbEntity
  8
0
100
AcDbLine
 10
79.08329999999999
 20
58.035375
 30
0.0
 11
79.5833
 21
58.035375
 31
0.0
  0
LINE
  5
EF
330
1E
100
AcDbEntity
  8
0
100
AcDbLine
 10
79.5833
 20
58.035375
 30
0.0
 11
79.75
 21
58.035375
 31
0.0
  0
LINE
  5
F0
330
1E
100
AcDbEntity
  8
0
100
AcDbLine
 10
78.5
 20
58.681575
 30
0.0
 11
79.33329999999999
 21
58.681575
 31
0.0
  0
LINE
  5
F1
330
1E
100
AcDbEntity
  8
0
100
AcDbLine
 10
79.33329999999999
 20
58.681575
 30
0.0
 11
79.83329999999999
 21
58.681575
 31
0.0
  0
LINE
  5
F2
330
1E
100
AcDbEntity
  8
0
100
AcDbLine
 10
77.33329999999999
 20
58.035375
 30
0.0
 11
78.3333
 21
58.035375
 31
0.0
  0
LINE
  5
F3
330
1E
100
AcDbEntity
  8
0
100
AcDbLine
 10
77.5
 20
58.681575
 30
0.0
 11
78.5
 21
58.681575
 31
0.0
  0
LINE
  5
F4
330
1E
100
AcDbEntity
  8
0
100
AcDbLine
 10
76.25
 20
58.681575
 30
0.0
 11
77.5
 21
58.681575
 31
0.0
  0
LINE
  5
F5
330
1E
100
AcDbEntity
  8
0
100
AcDbLine
 10
75.0
 20
58.681575
 30
0.0
 11
76.25
 21
58.681575
 31
0.0
  0
LINE
  5
F6
330
1E
100
AcDbEntity
  8
0
100
AcDbLine
 10
79.83329999999999
 20
58.681575
 30
0.0
 11
80.0
 21
58.681575
 31
0.0
  0
LINE
  5
F7
330
1E
100
AcDbEntity
  8
0
100
AcDbLine
 10
79.75
 20
58.035375
 30
0.0
 11
80.0
 21
58.681575
 31
0.0
  0
LINE
  5
F8
330
1E
100
AcDbEntity
  8
0
100
AcDbLine
 10
73.91670000000001
 20
57.758375
 30
0.0
 11
75.0
 21
57.758375
 31
0.0
  0
LINE
  5
F9
330
1E
100
AcDbEntity
  8
0
100
AcDbLine
 10
73.75
 20
58.035375
 30
0.0
 11
75.0
 21
58.035375
 31
0.0
  0
LINE
  5
FA
330
1E
100
AcDbEntity
  8
0
100
AcDbLine
 10
78.3333
 20
59.327775
 30
0.0
 11
79.08329999999999
 21
59.327775
 31
0.0
  0
LINE
  5
FB
330
1E
100
AcDbEntity
  8
0
100
AcDbLine
 10
79.08329999999999
 20
59.327775
 30
0.0
 11
79.5833
 21
59.327775
 31
0.0
  0
LINE
  5
FC
330
1E
100
AcDbEntity
  8
0
100
AcDbLine
 10
79.5833
 20
59.327775
 30
0.0
 11
79.75
 21
59.327775
 31
0.0
  0
LINE
  5
FD
330
1E
100
AcDbEntity
  8
0
100
AcDbLine
 10
77.33329999999999
 20
59.327775
 30
0.0
 11
78.3333
 21
59.327775
 31
0.0
  0
LINE
  5
FE
330
1E
100
AcDbEntity
  8
0
100
AcDbLine
 10
76.25
 20
59.327775
 30
0.0
 11
77.33329999999999
 21
59.327775
 31
0.0
  0
LINE
  5
FF
330
1E
100
AcDbEntity
  8
0
100
AcDbLine
 10
75.0
 20
59.327775
 30
0.0
 11
76.25
 21
59.327775
 31
0.0
  0
LINE
  5
100
330
1E
100
AcDbEntity
  8
0
100
AcDbLine
 10
79.75
 20
59.327775
 30
0.0
 11
80.0
 21
58.681575
 31
0.0
  0
LINE
  5
101
330
1E
100
AcDbEntity
  8
0
100
AcDbLine
 10
73.75
 20
58.681575
 30
0.0
 11
75.0
 21
58.681575
 31
0.0
  0
LINE
  5
102
330
1E
100
AcDbEntity
  8
0
100
AcDbLine
 10
72.66670000000001
 20
59.327775
 30
0.0
 11
73.75
 21
59.327775
 31
0.0
  0
LINE
  5
103
330
1E
100
AcDbEntity
  8
0
100
AcDbLine
 10
78.5
 20
59.604675
 30
0.0
 11
78.5
 21
62.7433836956522
 31
0.0
  0
LINE
  5
105
330
1E
100
AcDbEntity
  8
0
100
AcDbLine
 10
76.08329999999999
 20
59.604675
 30
0.0
 11
79.1667
 21
59.604675
 31
0.0
  0
LINE
  5
106
330
1E
100
AcDbEntity
  8
0
100
AcDbLine
 10
72.9167
 20
59.604675
 30
0.0
 11
76.08329999999999
 21
59.604675
 31
0.0
  0
LINE
  5
107
330
1E
100
AcDbEntity
  8
0
100
AcDbLine
 10
79.1667
 20
59.604675
 30
0.0
 11
79.75
 21
59.327775
 31
0.0
  0
LINE
  5
108
330
1E
100
AcDbEntity
  8
0
100
AcDbLine
 10
73.75
 20
59.327775
 30
0.0
 11
75.0
 21
59.327775
 31
0.0
  0
LINE
  5
109
330
1E
100
AcDbEntity
  8
0
100
AcDbLine
 10
72.0833
 20
59.604675
 30
0.0
 11
72.9167
 21
59.604675
 31
0.0
  0
LINE
  5
10A
330
1E
100
AcDbEntity
  8
0
100
AcDbLine
 10
71.6667
 20
29.789275
 30
0.0
 11
71.6667
 21
44.55847499999999
 31
0.0
  0
LINE
  5
10B
330
1E
100
AcDbEntity
  8
0
100
AcDbLine
 10
71.6667
 20
29.789275
 30
0.0
 11
71.6667
 21
15.020025
 31
0.0
  0
LINE
  5
10C
330
1E
100
AcDbEntity
  8
0
100
AcDbLine
 10
71.25
 20
52.866075
 30
0.0
 11
71.6667
 21
44.55847499999999
 31
0.0
  0
LINE
  5
10D
330
1E
100
AcDbEntity
  8
0
100
AcDbLine
 10
75.0
 20
62.710775
 30
0.0
 11
79.5
 21
63.310775
 31
0.0
  0
LINE
  5
10E
330
1E
100
AcDbEntity
  8
0
100
AcDbLine
 10
71.5
 20
62.7433836956522
 30
0.0
 11
71.5
 21
59.604675
 31
0.0
  0
LINE
  5
10F
330
1E
100
AcDbEntity
  8
0
100
AcDbLine
 10
78.5
 20
62.7433836956522
 30
0.0
 11
78.5
 21
59.604675
 31
0.0
  0
LINE
  5
110
330
1E
100
AcDbEntity
  8
0
100
AcDbLine
 10
75.0
 20
63.210775
 30
0.0
 11
79.40000000000001
 21
63.81077499999999
 31
0.0
  0
LINE
  5
111
330
1E
100
AcDbEntity
  8
0
100
AcDbLine
 10
79.0
 20
65.31077500000001
 30
0.0
 11
82.70000000000001
 21
66.810775
 31
0.0
  0
LINE
  5
112
330
1E
100
AcDbEntity
  8
0
100
AcDbLine
 10
75.0
 20
64.71077499999999
 30
0.0
 11
79.0
 21
65.31077500000001
 31
0.0
  0
LINE
  5
113
330
1E
100
AcDbEntity
  8
0
100
AcDbLine
 10
79.40000000000001
 20
63.81077499999999
 30
0.0
 11
83.49999999999999
 21
65.51077499999999
 31
0.0
  0
LINE
  5
114
330
1E
100
AcDbEntity
  8
0
100
AcDbLine
 10
79.5
 20
63.310775
 30
0.0
 11
83.7
 21
65.010775
 31
0.0
  0
LINE
  5
115
330
1E
100
AcDbEntity
  8
0
100
AcDbLine
 10
79.59999999999999
 20
62.910775
 30
0.0
 11
83.9
 21
64.610775
 31
0.0
  0
LINE
  5
116
330
1E
100
AcDbEntity
  8
0
100
AcDbLine
 10
78.5
 20
62.7433836956522
 30
0.0
 11
79.59999999999999
 21
62.910775
 31
0.0
  0
LINE
  5
117
330
1E
100
AcDbEntity
  8
0
100
AcDbLine
 10
82.70000000000001
 20
66.810775
 30
0.0
 11
85.90000000000001
 21
69.310775
 31
0.0
  0
LINE
  5
118
330
1E
100
AcDbEntity
  8
0
100
AcDbLine
 10
79.59999999999999
 20
62.910775
 30
0.0
 11
83.9
 21
64.610775
 31
0.0
  0
LINE
  5
119
330
1E
100
AcDbEntity
  8
0
100
AcDbLine
 10
75.0
 20
62.21077499999999
 30
0.0
 11
79.59999999999999
 21
62.910775
 31
0.0
  0
LINE
  5
11A
330
1E
100
AcDbEntity
  8
0
100
AcDbLine
 10
83.9
 20
64.610775
 30
0.0
 11
87.70000000000001
 21
67.510775
 31
0.0
  0
LINE
  5
11B
330
1E
100
AcDbEntity
  8
0
100
AcDbLine
 10
83.49999999999999
 20
65.51077499999999
 30
0.0
 11
87.0
 21
68.210775
 31
0.0
  0
LINE
  5
11C
330
1E
100
AcDbEntity
  8
0
100
AcDbLine
 10
85.90000000000001
 20
69.310775
 30
0.0
 11
88.40000000000001
 21
72.510775
 31
0.0
  0
LINE
  5
11D
330
1E
100
AcDbEntity
  8
0
100
AcDbLine
 10
87.0
 20
68.210775
 30
0.0
 11
89.7
 21
71.71077499999999
 31
0.0
  0
LINE
  5
11E
330
1E
100
AcDbEntity
  8
0
100
AcDbLine
 10
88.40000000000001
 20
72.510775
 30
0.0
 11
89.9
 21
76.210775
 31
0.0
  0
LINE
  5
11F
330
1E
100
AcDbEntity
  8
0
100
AcDbLine
 10
89.9
 20
76.210775
 30
0.0
 11
90.5
 21
80.210775
 31
0.0
  0
LINE
  5
120
330
1E
100
AcDbEntity
  8
0
100
AcDbLine
 10
89.7
 20
71.71077499999999
 30
0.0
 11
91.4
 21
75.81077500000001
 31
0.0
  0
LINE
  5
121
330
1E
100
AcDbEntity
  8
0
100
AcDbLine
 10
87.4
 20
67.81077500000001
 30
0.0
 11
90.20000000000001
 21
71.51077499999999
 31
0.0
  0
LINE
  5
122
330
1E
100
AcDbEntity
  8
0
100
AcDbLine
 10
87.70000000000001
 20
67.510775
 30
0.0
 11
90.6
 21
71.310775
 31
0.0
  0
LINE
  5
123
330
1E
100
AcDbEntity
  8
0
100
AcDbLine
 10
83.7
 20
65.010775
 30
0.0
 11
87.4
 21
67.81077500000001
 31
0.0
  0
LINE
  5
124
330
1E
100
AcDbEntity
  8
0
100
AcDbLine
 10
83.9
 20
64.610775
 30
0.0
 11
87.70000000000001
 21
67.510775
 31
0.0
  0
LINE
  5
125
330
1E
100
AcDbEntity
  8
0
100
AcDbLine
 10
91.4
 20
75.81077500000001
 30
0.0
 11
92.0
 21
80.210775
 31
0.0
  0
LINE
  5
126
330
1E
100
AcDbEntity
  8
0
100
AcDbLine
 10
90.20000000000001
 20
71.51077499999999
 30
0.0
 11
91.90000000000001
 21
75.710775
 31
0.0
  0
LINE
  5
127
330
1E
100
AcDbEntity
  8
0
100
AcDbLine
 10
91.90000000000001
 20
75.710775
 30
0.0
 11
92.5
 21
80.210775
 31
0.0
  0
LINE
  5
128
330
1E
100
AcDbEntity
  8
0
100
AcDbLine
 10
90.6
 20
71.310775
 30
0.0
 11
92.3
 21
75.610775
 31
0.0
  0
LINE
  5
129
330
1E
100
AcDbEntity
  8
0
100
AcDbLine
 10
89.9
 20
84.210775
 30
0.0
 11
90.5
 21
80.210775
 31
0.0
  0
LINE
  5
12A
330
1E
100
AcDbEntity
  8
0
100
AcDbLine
 10
91.4
 20
84.610775
 30
0.0
 11
92.0
 21
80.210775
 31
0.0
  0
LINE
  5
12B
330
1E
100
AcDbEntity
  8
0
100
AcDbLine
 10
112.324
 20
15.26957499999999
 30
0.0
 11
120.618
 21
20.828375
 31
0.0
  0
LINE
  5
12C
330
1E
100
AcDbEntity
  8
0
100
AcDbLine
 10
149.206
 20
70.41667499999999
 30
0.0
 11
150.0
 21
80.210775
 31
0.0
  0
LINE
  5
12D
330
1E
100
AcDbEntity
  8
0
100
AcDbLine
 10
147.2649999999999
 20
60.887275
 30
0.0
 11
149.206
 21
70.41667499999999
 31
0.0
  0
LINE
  5
12E
330
1E
100
AcDbEntity
  8
0
100
AcDbLine
 10
139.941
 20
42.887275
 30
0.0
 11
144.176
 21
51.534275
 31
0.0
  0
LINE
  5
12F
330
1E
100
AcDbEntity
  8
0
100
AcDbLine
 10
134.382
 20
34.593175
 30
0.0
 11
139.941
 21
42.887275
 31
0.0
  0
LINE
  5
130
330
1E
100
AcDbEntity
  8
0
100
AcDbLine
 10
92.3
 20
75.610775
 30
0.0
 11
93.0
 21
80.210775
 31
0.0
  0
LINE
  5
131
330
1E
100
AcDbEntity
  8
0
100
AcDbLine
 10
91.90000000000001
 20
84.71077499999999
 30
0.0
 11
92.5
 21
80.210775
 31
0.0
  0
LINE
  5
132
330
1E
100
AcDbEntity
  8
0
100
AcDbLine
 10
85.90000000000001
 20
91.110775
 30
0.0
 11
88.40000000000001
 21
87.910775
 31
0.0
  0
LINE
  5
133
330
1E
100
AcDbEntity
  8
0
100
AcDbLine
 10
88.40000000000001
 20
87.910775
 30
0.0
 11
89.9
 21
84.210775
 31
0.0
  0
LINE
  5
134
330
1E
100
AcDbEntity
  8
0
100
AcDbLine
 10
87.0
 20
92.21077499999999
 30
0.0
 11
89.7
 21
88.710775
 31
0.0
  0
LINE
  5
135
330
1E
100
AcDbEntity
  8
0
100
AcDbLine
 10
89.7
 20
88.710775
 30
0.0
 11
91.4
 21
84.610775
 31
0.0
  0
LINE
  5
136
330
1E
100
AcDbEntity
  8
0
100
AcDbLine
 10
87.4
 20
92.610775
 30
0.0
 11
90.20000000000001
 21
88.91077499999999
 31
0.0
  0
LINE
  5
137
330
1E
100
AcDbEntity
  8
0
100
AcDbLine
 10
90.20000000000001
 20
88.91077499999999
 30
0.0
 11
91.90000000000001
 21
84.71077499999999
 31
0.0
  0
LINE
  5
138
330
1E
100
AcDbEntity
  8
0
100
AcDbLine
 10
87.70000000000001
 20
92.910775
 30
0.0
 11
90.6
 21
89.11077500000001
 31
0.0
  0
LINE
  5
139
330
1E
100
AcDbEntity
  8
0
100
AcDbLine
 10
149.206
 20
90.004875
 30
0.0
 11
150.0
 21
80.210775
 31
0.0
  0
LINE
  5
13A
330
1E
100
AcDbEntity
  8
0
100
AcDbLine
 10
90.6
 20
89.11077500000001
 30
0.0
 11
92.3
 21
84.81077500000001
 31
0.0
  0
LINE
  5
13B
330
1E
100
AcDbEntity
  8
0
100
AcDbLine
 10
92.3
 20
84.81077500000001
 30
0.0
 11
93.0
 21
80.210775
 31
0.0
  0
LINE
  5
13C
330
1E
100
AcDbEntity
  8
0
100
AcDbLine
 10
82.70000000000001
 20
93.610775
 30
0.0
 11
85.90000000000001
 21
91.110775
 31
0.0
  0
LINE
  5
13D
330
1E
100
AcDbEntity
  8
0
100
AcDbLine
 10
79.0
 20
95.110775
 30
0.0
 11
82.70000000000001
 21
93.610775
 31
0.0
  0
LINE
  5
13E
330
1E
100
AcDbEntity
  8
0
100
AcDbLine
 10
83.49999999999999
 20
94.91077500000001
 30
0.0
 11
87.0
 21
92.21077499999999
 31
0.0
  0
LINE
  5
13F
330
1E
100
AcDbEntity
  8
0
100
AcDbLine
 10
71.0
 20
65.31077500000001
 30
0.0
 11
75.0
 21
64.71077499999999
 31
0.0
  0
LINE
  5
140
330
1E
100
AcDbEntity
  8
0
100
AcDbLine
 10
75.0
 20
95.71077499999999
 30
0.0
 11
79.0
 21
95.110775
 31
0.0
  0
LINE
  5
141
330
1E
100
AcDbEntity
  8
0
100
AcDbLine
 10
83.7
 20
95.410775
 30
0.0
 11
87.4
 21
92.610775
 31
0.0
  0
LINE
  5
142
330
1E
100
AcDbEntity
  8
0
100
AcDbLine
 10
79.40000000000001
 20
96.61077500000001
 30
0.0
 11
83.49999999999999
 21
94.91077500000001
 31
0.0
  0
LINE
  5
143
330
1E
100
AcDbEntity
  8
0
100
AcDbLine
 10
79.5
 20
97.11077500000001
 30
0.0
 11
83.7
 21
95.410775
 31
0.0
  0
LINE
  5
144
330
1E
100
AcDbEntity
  8
0
100
AcDbLine
 10
83.9
 20
95.86557500000001
 30
0.0
 11
85.5847896440127
 21
94.52501448220079
 31
0.0
  0
LINE
  5
145
330
1E
100
AcDbEntity
  8
0
100
AcDbLine
 10
83.9
 20
95.81077500000001
 30
0.0
 11
87.70000000000001
 21
92.910775
 31
0.0
  0
LINE
  5
146
330
1E
100
AcDbEntity
  8
0
100
AcDbLine
 10
71.0
 20
95.110775
 30
0.0
 11
75.0
 21
95.71077499999999
 31
0.0
  0
LINE
  5
147
330
1E
100
AcDbEntity
  8
0
100
AcDbLine
 10
70.59999999999999
 20
96.61077500000001
 30
0.0
 11
75.0
 21
97.21077499999999
 31
0.0
  0
LINE
  5
148
330
1E
100
AcDbEntity
  8
0
100
AcDbLine
 10
75.0
 20
97.21077499999999
 30
0.0
 11
79.40000000000001
 21
96.61077500000001
 31
0.0
  0
LINE
  5
149
330
1E
100
AcDbEntity
  8
0
100
AcDbLine
 10
75.0
 20
155.210775
 30
0.0
 11
84.79409999999999
 21
154.4167749999999
 31
0.0
  0
LINE
  5
14A
330
1E
100
AcDbEntity
  8
0
100
AcDbLine
 10
75.0
 20
97.710775
 30
0.0
 11
79.5
 21
97.11077500000001
 31
0.0
  0
LINE
  5
14B
330
1E
100
AcDbEntity
  8
0
100
AcDbLine
 10
139.941
 20
117.534775
 30
0.0
 11
144.176
 21
108.886775
 31
0.0
  0
LINE
  5
14C
330
1E
100
AcDbEntity
  8
0
100
AcDbLine
 10
94.32349999999999
 20
152.475775
 30
0.0
 11
103.676
 21
149.3867749999999
 31
0.0
  0
LINE
  5
14D
330
1E
100
AcDbEntity
  8
0
100
AcDbLine
 10
84.79409999999999
 20
154.4167749999999
 30
0.0
 11
94.32349999999999
 21
152.475775
 31
0.0
  0
LINE
  5
14E
330
1E
100
AcDbEntity
  8
0
100
AcDbLine
 10
112.324
 20
145.1517749999999
 30
0.0
 11
120.618
 21
139.592775
 31
0.0
  0
LINE
  5
14F
330
1E
100
AcDbEntity
  8
0
100
AcDbLine
 10
134.382
 20
125.828775
 30
0.0
 11
139.941
 21
117.534775
 31
0.0
  0
LINE
  5
150
330
1E
100
AcDbEntity
  8
0
100
AcDbLine
 10
147.2649999999999
 20
99.534275
 30
0.0
 11
149.206
 21
90.0048750000001
 31
0.0
  0
LINE
  5
151
330
1E
100
AcDbEntity
  8
0
100
AcDbLine
 10
147.2649999999999
 20
99.534275
 30
0.0
 11
149.206
 21
90.0048750000001
 31
0.0
  0
LINE
  5
152
330
1E
100
AcDbEntity
  8
0
100
AcDbLine
 10
79.59999999999999
 20
97.510775
 30
0.0
 11
83.9
 21
95.81077500000001
 31
0.0
  0
LINE
  5
153
330
1E
100
AcDbEntity
  8
0
100
AcDbLine
 10
75.0
 20
98.21077500000001
 30
0.0
 11
79.59999999999999
 21
97.510775
 31
0.0
  0
LINE
  5
154
330
1E
100
AcDbEntity
  8
0
100
AcDbLine
 10
70.5
 20
97.11077500000001
 30
0.0
 11
75.0
 21
97.710775
 31
0.0
  0
LINE
  5
155
330
1E
100
AcDbEntity
  8
0
100
AcDbLine
 10
70.4
 20
97.510775
 30
0.0
 11
75.0
 21
98.21077500000001
 31
0.0
  0
LINE
  5
15A
330
1E
100
AcDbEntity
  8
0
100
AcDbLine
 10
75.0
 20
155.210775
 30
0.0
 11
63.87743033101606
 21
153.904421151699
 31
0.0
  0
LINE
  5
15B
330
1E
100
AcDbEntity
  8
0
100
AcDbLine
 10
63.87743033101606
 20
153.904421151699
 30
0.0
 11
55.6765
 21
152.475775
 31
0.0
  0
LINE
  5
15C
330
1E
100
AcDbEntity
  8
0
100
AcDbLine
 10
103.676
 20
149.3867749999999
 30
0.0
 11
112.324
 21
145.1517749999999
 31
0.0
  0
LINE
  5
15D
330
1E
100
AcDbEntity
  8
0
100
AcDbLine
 10
120.618
 20
139.592775
 30
0.0
 11
129.2100032082387
 21
132.0745866932045
 31
0.0
  0
LINE
  5
15E
330
1E
100
AcDbEntity
  8
0
100
AcDbLine
 10
129.2100032082387
 20
132.0745866932045
 30
0.0
 11
134.382
 21
125.828775
 31
0.0
  0
LINE
  5
15F
330
1E
100
AcDbEntity
  8
0
100
AcDbLine
 10
144.176
 20
108.886775
 30
0.0
 11
147.2649999999999
 21
99.534275
 31
0.0
  0
LINE
  5
160
330
1E
100
AcDbEntity
  8
0
100
AcDbLine
 10
5.82352999999999
 20
108.886775
 30
0.0
 11
2.735289999999999
 21
99.534275
 31
0.0
  0
LINE
  5
161
330
1E
100
AcDbEntity
  8
0
100
AcDbLine
 10
0.7941179999999949
 20
90.004875
 30
0.0
 11
-0.0000000000000048
 21
80.210775
 31
0.0
  0
LINE
  5
162
330
1E
100
AcDbEntity
  8
0
100
AcDbLine
 10
120.618
 20
20.828375
 30
0.0
 11
128.8091897707787
 21
27.93225615948489
 31
0.0
  0
LINE
  5
163
330
1E
100
AcDbEntity
  8
0
100
AcDbLine
 10
128.8091897707787
 20
27.93225615948489
 30
0.0
 11
134.382
 21
34.593175
 31
0.0
  0
LINE
  5
164
330
1E
100
AcDbEntity
  8
0
100
AcDbLine
 10
144.176
 20
51.534275
 30
0.0
 11
147.2649999999999
 21
60.887275
 31
0.0
  0
LINE
  5
165
330
1E
100
AcDbEntity
  8
0
100
AcDbLine
 10
46.3235
 20
11.03430499999999
 30
0.0
 11
37.67649999999999
 21
15.26957499999999
 31
0.0
  0
LINE
  5
166
330
1E
100
AcDbEntity
  8
0
100
AcDbLine
 10
65.2059
 20
6.00489299999999
 30
0.0
 11
55.6765
 21
7.94606499999999
 31
0.0
  0
LINE
  5
167
330
1E
100
AcDbEntity
  8
0
100
AcDbLine
 10
84.79409999999999
 20
6.00489299999999
 30
0.0
 11
98.14696976169546
 21
8.90625339219423
 31
0.0
  0
LINE
  5
168
330
1E
100
AcDbEntity
  8
0
100
AcDbLine
 10
98.14696976169546
 20
8.90625339219423
 30
0.0
 11
107.3656765499591
 21
12.71145409151051
 31
0.0
  0
LINE
  5
169
330
1E
100
AcDbEntity
  8
0
100
AcDbLine
 10
107.3656765499591
 20
12.71145409151051
 30
0.0
 11
112.324
 21
15.26957499999999
 31
0.0
  0
ENDSEC
  0
SECTION
  2
OBJECTS
  0
DICTIONARY
  5
C
330
0
100
AcDbDictionary
  3
ACAD_GROUP
350
D
  3
ACAD_LAYOUT
350
19
  3
ACAD_MLINESTYLE
350
16
  3
ACAD_PLOTSETTINGS
350
18
  3
ACAD_PLOTSTYLENAME
350
E
  3
ACDBHEADERROUNDTRIPXREC
350
16D
  3
ACDBVARIABLEDICTIONARY
350
16A
  0
DICTIONARY
  5
18F
330
1E
100
AcDbDictionary
280
     1
  3
ACAD_LAYOUTSELFREF
360
190
  0
DICTIONARY
  5
18D
330
1A
100
AcDbDictionary
280
     1
  3
ACAD_LAYOUTSELFREF
360
18E
  0
DICTIONARY
  5
D
102
{ACAD_REACTORS
330
C
102
}
330
C
100
AcDbDictionary
  0
DICTIONARY
  5
19
102
{ACAD_REACTORS
330
C
102
}
330
C
100
AcDbDictionary
  0
DICTIONARY
  5
16
102
{ACAD_REACTORS
330
C
102
}
330
C
100
AcDbDictionary
  3
STANDARD
350
17
  0
DICTIONARY
  5
18
102
{ACAD_REACTORS
330
C
102
}
330
C
100
AcDbDictionary
  0
ACDBDICTIONARYWDFLT
  5
E
102
{ACAD_REACTORS
330
C
102
}
330
C
100
AcDbDictionary
281
     1
  3
Normal
350
F
100
AcDbDictionaryWithDefault
340
F
  0
DICTIONARY
  5
16D
102
{ACAD_REACTORS
330
C
102
}
330
C
100
AcDbDictionary
  3
CEPSNTYPE
350
177
  3
FINGERPRINTGUID
350
178
  3
HYPERLINKBASE
350
170
  3
INSUNITS
350
176
  3
LAYOUTDICT
350
172
  3
LWETCUNION
350
175
  3
PLOTSETDICT
350
173
  3
PLOTSTYLNAMDICT
350
174
  3
PSVPSCALE
350
17A
  3
PUCSBASE
350
17D
  3
PUCSORGBACK
350
183
  3
PUCSORGBOTTOM
350
17F
  3
PUCSORGFRONT
350
182
  3
PUCSORGLEFT
350
180
  3
PUCSORGRIGHT
350
181
  3
PUCSORGTOP
350
17E
  3
PUCSORTHOREF
350
17B
  3
PUCSORTHOVIEW
350
17C
  3
STYLESHEET
350
171
  3
TSTACKALIGN
350
16E
  3
TSTACKSIZE
350
16F
  3
UCSBASE
350
186
  3
UCSORGBACK
350
18C
  3
UCSORGBOTTOM
350
188
  3
UCSORGFRONT
350
18B
  3
UCSORGLEFT
350
189
  3
UCSORGRIGHT
350
18A
  3
UCSORGTOP
350
187
  3
UCSORTHOREF
350
184
  3
UCSORTHOVIEW
350
185
  3
VERSIONGUID
350
179
  0
DICTIONARY
  5
16A
102
{ACAD_REACTORS
330
C
102
}
330
C
100
AcDbDictionary
  3
DIMASSOC
350
16B
  0
XRECORD
  5
190
102
{ACAD_REACTORS
330
18F
102
}
330
18F
100
AcDbXrecord
340
1E
  0
XRECORD
  5
18E
102
{ACAD_REACTORS
330
18D
102
}
330
18D
100
AcDbXrecord
340
1A
  0
MLINESTYLE
  5
17
102
{ACAD_REACTORS
330
16
102
}
330
16
100
AcDbMlineStyle
  2
STANDARD
 70
     0
  3

 62
   256
 51
90.0
 52
90.0
 71
     2
 49
0.5
 62
   256
  6
BYLAYER
 49
-0.5
 62
   256
  6
BYLAYER
  0
ACDBPLACEHOLDER
  5
F
102
{ACAD_REACTORS
330
E
102
}
330
E
100
AcDbPlaceHolder
280
     0
  0
XRECORD
  5
177
102
{ACAD_REACTORS
330
16D
102
}
330
16D
100
AcDbXrecord
 90
        0
  0
XRECORD
  5
178
102
{ACAD_REACTORS
330
16D
102
}
330
16D
100
AcDbXrecord
  1
{C5CB8955-CAF3-475B-A2FA-24D5B856028E}
  0
XRECORD
  5
170
102
{ACAD_REACTORS
330
16D
102
}
330
16D
100
AcDbXrecord
  1

  0
XRECORD
  5
176
102
{ACAD_REACTORS
330
16D
102
}
330
16D
100
AcDbXrecord
 90
        0
  0
XRECORD
  5
172
102
{ACAD_REACTORS
330
16D
102
}
330
16D
100
AcDbXrecord
340
19
  0
XRECORD
  5
175
102
{ACAD_REACTORS
330
16D
102
}
330
16D
100
AcDbXrecord
 90
    10781
  0
XRECORD
  5
173
102
{ACAD_REACTORS
330
16D
102
}
330
16D
100
AcDbXrecord
340
18
  0
XRECORD
  5
174
102
{ACAD_REACTORS
330
16D
102
}
330
16D
100
AcDbXrecord
340
E
  0
XRECORD
  5
17A
102
{ACAD_REACTORS
330
16D
102
}
330
16D
100
AcDbXrecord
 40
0.0
  0
XRECORD
  5
17D
102
{ACAD_REACTORS
330
16D
102
}
330
16D
100
AcDbXrecord
340
0
  0
XRECORD
  5
183
102
{ACAD_REACTORS
330
16D
102
}
330
16D
100
AcDbXrecord
 10
0.0
 20
0.0
 30
0.0
  0
XRECORD
  5
17F
102
{ACAD_REACTORS
330
16D
102
}
330
16D
100
AcDbXrecord
 10
0.0
 20
0.0
 30
0.0
  0
XRECORD
  5
182
102
{ACAD_REACTORS
330
16D
102
}
330
16D
100
AcDbXrecord
 10
0.0
 20
0.0
 30
0.0
  0
XRECORD
  5
180
102
{ACAD_REACTORS
330
16D
102
}
330
16D
100
AcDbXrecord
 10
0.0
 20
0.0
 30
0.0
  0
XRECORD
  5
181
102
{ACAD_REACTORS
330
16D
102
}
330
16D
100
AcDbXrecord
 10
0.0
 20
0.0
 30
0.0
  0
XRECORD
  5
17E
102
{ACAD_REACTORS
330
16D
102
}
330
16D
100
AcDbXrecord
 10
0.0
 20
0.0
 30
0.0
  0
XRECORD
  5
17B
102
{ACAD_REACTORS
330
16D
102
}
330
16D
100
AcDbXrecord
340
0
  0
XRECORD
  5
17C
102
{ACAD_REACTORS
330
16D
102
}
330
16D
100
AcDbXrecord
 70
     0
  0
XRECORD
  5
171
102
{ACAD_REACTORS
330
16D
102
}
330
16D
100
AcDbXrecord
  1

  0
XRECORD
  5
16E
102
{ACAD_REACTORS
330
16D
102
}
330
16D
100
AcDbXrecord
 90
        1
  0
XRECORD
  5
16F
102
{ACAD_REACTORS
330
16D
102
}
330
16D
100
AcDbXrecord
 90
       70
  0
XRECORD
  5
186
102
{ACAD_REACTORS
330
16D
102
}
330
16D
100
AcDbXrecord
340
0
  0
XRECORD
  5
18C
102
{ACAD_REACTORS
330
16D
102
}
330
16D
100
AcDbXrecord
 10
0.0
 20
0.0
 30
0.0
  0
XRECORD
  5
188
102
{ACAD_REACTORS
330
16D
102
}
330
16D
100
AcDbXrecord
 10
0.0
 20
0.0
 30
0.0
  0
XRECORD
  5
18B
102
{ACAD_REACTORS
330
16D
102
}
330
16D
100
AcDbXrecord
 10
0.0
 20
0.0
 30
0.0
  0
XRECORD
  5
189
102
{ACAD_REACTORS
330
16D
102
}
330
16D
100
AcDbXrecord
 10
0.0
 20
0.0
 30
0.0
  0
XRECORD
  5
18A
102
{ACAD_REACTORS
330
16D
102
}
330
16D
100
AcDbXrecord
 10
0.0
 20
0.0
 30
0.0
  0
XRECORD
  5
187
102
{ACAD_REACTORS
330
16D
102
}
330
16D
100
AcDbXrecord
 10
0.0
 20
0.0
 30
0.0
  0
XRECORD
  5
184
102
{ACAD_REACTORS
330
16D
102
}
330
16D
100
AcDbXrecord
340
0
  0
XRECORD
  5
185
102
{ACAD_REACTORS
330
16D
102
}
330
16D
100
AcDbXrecord
 70
     1
  0
XRECORD
  5
179
102
{ACAD_REACTORS
330
16D
102
}
330
16D
100
AcDbXrecord
  1
{97B57178-CAB9-468D-A80F-D852BE3D109C}
  0
DICTIONARYVAR
  5
16B
102
{ACAD_REACTORS
330
16A
102
}
330
16A
100
DictionaryVariables
280
     0
  1
1
  0
ENDSEC
  0
EOF
