  0
SECTION
  2
HEADER
  9
$ACADVER
  1
AC1014
  9
$ACADMAINTVER
 70
     9
  9
$DWGCODEPAGE
  3
ANSI_1252
  9
$INSBASE
 10
0.0
 20
0.0
 30
0.0
  9
$EXTMIN
 10
-0.0000000000000021
 20
0.0739100000000022
 30
0.0
  9
$EXTMAX
 10
60.0
 20
69.92609
 30
0.0
  9
$LIMMIN
 10
0.0
 20
0.0
  9
$LIMMAX
 10
12.0
 20
9.0
  9
$ORTHOMODE
 70
     0
  9
$REGENMODE
 70
     1
  9
$FILLMODE
 70
     1
  9
$QTEXTMODE
 70
     0
  9
$MIRRTEXT
 70
     1
  9
$DRAGMODE
 70
     2
  9
$LTSCALE
 40
1.0
  9
$OSMODE
 70
    37
  9
$ATTMODE
 70
     1
  9
$TEXTSIZE
 40
0.2
  9
$TRACEWID
 40
0.05
  9
$TEXTSTYLE
  7
STANDARD
  9
$CLAYER
  8
0
  9
$CELTYPE
  6
CONTINUOUS
  9
$CECOLOR
 62
   256
  9
$CELTSCALE
 40
1.0
  9
$DELOBJ
 70
     1
  9
$DISPSILH
 70
     0
  9
$DIMSCALE
 40
1.0
  9
$DIMASZ
 40
0.18
  9
$DIMEXO
 40
0.0625
  9
$DIMDLI
 40
0.38
  9
$DIMRND
 40
0.0
  9
$DIMDLE
 40
0.0
  9
$DIMEXE
 40
0.18
  9
$DIMTP
 40
0.0
  9
$DIMTM
 40
0.0
  9
$DIMTXT
 40
0.18
  9
$DIMCEN
 40
0.09
  9
$DIMTSZ
 40
0.0
  9
$DIMTOL
 70
     0
  9
$DIMLIM
 70
     0
  9
$DIMTIH
 70
     1
  9
$DIMTOH
 70
     1
  9
$DIMSE1
 70
     0
  9
$DIMSE2
 70
     0
  9
$DIMTAD
 70
     0
  9
$DIMZIN
 70
     0
  9
$DIMBLK
  1

  9
$DIMASO
 70
     1
  9
$DIMSHO
 70
     1
  9
$DIMPOST
  1

  9
$DIMAPOST
  1

  9
$DIMALT
 70
     0
  9
$DIMALTD
 70
     2
  9
$DIMALTF
 40
25.4
  9
$DIMLFAC
 40
1.0
  9
$DIMTOFL
 70
     0
  9
$DIMTVP
 40
0.0
  9
$DIMTIX
 70
     0
  9
$DIMSOXD
 70
     0
  9
$DIMSAH
 70
     0
  9
$DIMBLK1
  1

  9
$DIMBLK2
  1

  9
$DIMSTYLE
  2
STANDARD
  9
$DIMCLRD
 70
     0
  9
$DIMCLRE
 70
     0
  9
$DIMCLRT
 70
     0
  9
$DIMTFAC
 40
1.0
  9
$DIMGAP
 40
0.09
  9
$DIMJUST
 70
     0
  9
$DIMSD1
 70
     0
  9
$DIMSD2
 70
     0
  9
$DIMTOLJ
 70
     1
  9
$DIMTZIN
 70
     0
  9
$DIMALTZ
 70
     0
  9
$DIMALTTZ
 70
     0
  9
$DIMFIT
 70
     3
  9
$DIMUPT
 70
     0
  9
$DIMUNIT
 70
     2
  9
$DIMDEC
 70
     4
  9
$DIMTDEC
 70
     4
  9
$DIMALTU
 70
     2
  9
$DIMALTTD
 70
     2
  9
$DIMTXSTY
  7
STANDARD
  9
$DIMAUNIT
 70
     0
  9
$LUNITS
 70
     2
  9
$LUPREC
 70
     4
  9
$SKETCHINC
 40
0.1
  9
$FILLETRAD
 40
0.0
  9
$AUNITS
 70
     0
  9
$AUPREC
 70
     0
  9
$MENU
  1
.
  9
$ELEVATION
 40
0.0
  9
$PELEVATION
 40
0.0
  9
$THICKNESS
 40
0.0
  9
$LIMCHECK
 70
     0
  9
$BLIPMODE
 70
     0
  9
$CHAMFERA
 40
0.0
  9
$CHAMFERB
 40
0.0
  9
$CHAMFERC
 40
0.0
  9
$CHAMFERD
 40
0.0
  9
$SKPOLY
 70
     0
  9
$TDCREATE
 40
2454698.399284028
  9
$TDUPDATE
 40
2454698.399728368
  9
$TDINDWG
 40
0.0004445139
  9
$TDUSRTIMER
 40
0.0004445139
  9
$USRTIMER
 70
     1
  9
$ANGBASE
 50
0.0
  9
$ANGDIR
 70
     0
  9
$PDMODE
 70
     0
  9
$PDSIZE
 40
0.0
  9
$PLINEWID
 40
0.0
  9
$COORDS
 70
     1
  9
$SPLFRAME
 70
     0
  9
$SPLINETYPE
 70
     6
  9
$SPLINESEGS
 70
     8
  9
$ATTDIA
 70
     0
  9
$ATTREQ
 70
     1
  9
$HANDLING
 70
 22529
  9
$HANDSEED
  5
F0
  9
$SURFTAB1
 70
     6
  9
$SURFTAB2
 70
     6
  9
$SURFTYPE
 70
     6
  9
$SURFU
 70
     6
  9
$SURFV
 70
     6
  9
$UCSNAME
  2

  9
$UCSORG
 10
0.0
 20
0.0
 30
0.0
  9
$UCSXDIR
 10
1.0
 20
0.0
 30
0.0
  9
$UCSYDIR
 10
0.0
 20
1.0
 30
0.0
  9
$PUCSNAME
  2

  9
$PUCSORG
 10
0.0
 20
0.0
 30
0.0
  9
$PUCSXDIR
 10
1.0
 20
0.0
 30
0.0
  9
$PUCSYDIR
 10
0.0
 20
1.0
 30
0.0
  9
$USERI1
 70
     0
  9
$USERI2
 70
     0
  9
$USERI3
 70
     0
  9
$USERI4
 70
     0
  9
$USERI5
 70
     0
  9
$USERR1
 40
0.0
  9
$USERR2
 40
0.0
  9
$USERR3
 40
0.0
  9
$USERR4
 40
0.0
  9
$USERR5
 40
0.0
  9
$WORLDVIEW
 70
     1
  9
$SHADEDGE
 70
     3
  9
$SHADEDIF
 70
    70
  9
$TILEMODE
 70
     1
  9
$MAXACTVP
 70
    64
  9
$PINSBASE
 10
0.0
 20
0.0
 30
0.0
  9
$PLIMCHECK
 70
     0
  9
$PEXTMIN
 10
1.000000000000000E+20
 20
1.000000000000000E+20
 30
1.000000000000000E+20
  9
$PEXTMAX
 10
-1.000000000000000E+20
 20
-1.000000000000000E+20
 30
-1.000000000000000E+20
  9
$PLIMMIN
 10
0.0
 20
0.0
  9
$PLIMMAX
 10
12.0
 20
9.0
  9
$UNITMODE
 70
     0
  9
$VISRETAIN
 70
     1
  9
$PLINEGEN
 70
     0
  9
$PSLTSCALE
 70
     1
  9
$TREEDEPTH
 70
  3020
  9
$PICKSTYLE
 70
     1
  9
$CMLSTYLE
  2
STANDARD
  9
$CMLJUST
 70
     0
  9
$CMLSCALE
 40
1.0
  9
$PROXYGRAPHICS
 70
     1
  9
$MEASUREMENT
 70
     0
  0
ENDSEC
  0
SECTION
  2
CLASSES
  0
CLASS
  1
ACDBDICTIONARYWDFLT
  2
AcDbDictionaryWithDefault
  3
AutoCAD 2000
 90
        0
280
     0
281
     0
  0
CLASS
  1
ACDBPLACEHOLDER
  2
AcDbPlaceHolder
  3
AutoCAD 2000
 90
        0
280
     0
281
     0
  0
CLASS
  1
LAYOUT
  2
AcDbLayout
  3
AutoCAD 2000
 90
        0
280
     0
281
     0
  0
CLASS
  1
DICTIONARYVAR
  2
AcDbDictionaryVar
  3
AutoCAD 2000
 90
        0
280
     0
281
     0
  0
CLASS
  1
LONG_TRANSACTION
  2
AcDbLongTransaction
  3
AutoCAD 2000
 90
        0
280
     0
281
     0
  0
CLASS
  1
LWPOLYLINE
  2
AcDbPolyline
  3
AutoCAD 2000
 90
        0
280
     0
281
     1
  0
CLASS
  1
HATCH
  2
AcDbHatch
  3
AutoCAD 2000
 90
        0
280
     0
281
     1
  0
CLASS
  1
XRECORD
  2
AcDbXrecord
  3
AutoCAD 2000
 90
        0
280
     0
281
     0
  0
ENDSEC
  0
SECTION
  2
TABLES
  0
TABLE
  2
VPORT
  5
8
330
0
100
AcDbSymbolTable
 70
     2
  0
VPORT
  5
CB
330
8
100
AcDbSymbolTableRecord
100
AcDbViewportTableRecord
  2
*ACTIVE
 70
     0
 10
0.0
 20
0.0
 11
1.0
 21
1.0
 12
30.0
 22
35.0
 13
0.0
 23
0.0
 14
1.0
 24
1.0
 15
0.0
 25
0.0
 16
0.0
 26
0.0
 36
1.0
 17
0.0
 27
0.0
 37
0.0
 40
70.38813023017903
 41
2.078104993597951
 42
50.0
 43
0.0
 44
0.0
 50
0.0
 51
0.0
 71
     0
 72
   100
 73
     1
 74
     3
 75
     0
 76
     0
 77
     0
 78
     0
  0
ENDTAB
  0
TABLE
  2
LTYPE
  5
5
330
0
100
AcDbSymbolTable
 70
     1
  0
LTYPE
  5
13
330
5
100
AcDbSymbolTableRecord
100
AcDbLinetypeTableRecord
  2
BYBLOCK
 70
     0
  3

 72
    65
 73
     0
 40
0.0
  0
LTYPE
  5
14
330
5
100
AcDbSymbolTableRecord
100
AcDbLinetypeTableRecord
  2
BYLAYER
 70
     0
  3

 72
    65
 73
     0
 40
0.0
  0
LTYPE
  5
15
330
5
100
AcDbSymbolTableRecord
100
AcDbLinetypeTableRecord
  2
CONTINUOUS
 70
     0
  3
Solid line
 72
    65
 73
     0
 40
0.0
  0
ENDTAB
  0
TABLE
  2
LAYER
  5
2
330
0
100
AcDbSymbolTable
 70
     1
  0
LAYER
  5
10
330
2
100
AcDbSymbolTableRecord
100
AcDbLayerTableRecord
  2
0
 70
     0
 62
     7
  6
CONTINUOUS
  0
ENDTAB
  0
TABLE
  2
STYLE
  5
3
330
0
100
AcDbSymbolTable
 70
     1
  0
STYLE
  5
11
330
3
100
AcDbSymbolTableRecord
100
AcDbTextStyleTableRecord
  2
STANDARD
 70
     0
 40
0.0
 41
1.0
 50
0.0
 71
     0
 42
0.2
  3
txt
  4

  0
ENDTAB
  0
TABLE
  2
VIEW
  5
6
330
0
100
AcDbSymbolTable
 70
     0
  0
ENDTAB
  0
TABLE
  2
UCS
  5
7
330
0
100
AcDbSymbolTable
 70
     0
  0
ENDTAB
  0
TABLE
  2
APPID
  5
9
330
0
100
AcDbSymbolTable
 70
     1
  0
APPID
  5
12
330
9
100
AcDbSymbolTableRecord
100
AcDbRegAppTableRecord
  2
ACAD
 70
     0
  0
ENDTAB
  0
TABLE
  2
DIMSTYLE
  5
A
330
0
100
AcDbSymbolTable
 70
     1
  0
DIMSTYLE
105
C5
330
A
100
AcDbSymbolTableRecord
100
AcDbDimStyleTableRecord
  2
STANDARD
 70
     0
  3

  4

  5

  6

  7

 40
1.0
 41
0.18
 42
0.0625
 43
0.38
 44
0.18
 45
0.0
 46
0.0
 47
0.0
 48
0.0
140
0.18
141
0.09
142
0.0
143
25.4
144
1.0
145
0.0
146
1.0
147
0.09
 71
     0
 72
     0
 73
     1
 74
     1
 75
     0
 76
     0
 77
     0
 78
     0
170
     0
171
     2
172
     0
173
     0
174
     0
175
     0
176
     0
177
     0
178
     0
270
     2
271
     4
272
     4
273
     2
274
     2
340
11
275
     0
280
     0
281
     0
282
     0
283
     1
284
     0
285
     0
286
     0
287
     3
288
     0
  0
ENDTAB
  0
TABLE
  2
BLOCK_RECORD
  5
1
330
0
100
AcDbSymbolTable
 70
     0
  0
BLOCK_RECORD
  5
1E
102
{ACAD_XDICTIONARY
360
EE
102
}
330
1
100
AcDbSymbolTableRecord
100
AcDbBlockTableRecord
  2
*MODEL_SPACE
  0
BLOCK_RECORD
  5
1A
102
{ACAD_XDICTIONARY
360
EC
102
}
330
1
100
AcDbSymbolTableRecord
100
AcDbBlockTableRecord
  2
*PAPER_SPACE
  0
ENDTAB
  0
ENDSEC
  0
SECTION
  2
BLOCKS
  0
BLOCK
  5
1F
330
1E
100
AcDbEntity
  8
0
100
AcDbBlockBegin
  2
*MODEL_SPACE
 70
     0
 10
0.0
 20
0.0
 30
0.0
  3
*MODEL_SPACE
  1

  0
ENDBLK
  5
20
330
1E
100
AcDbEntity
  8
0
100
AcDbBlockEnd
  0
BLOCK
  5
1B
330
1A
100
AcDbEntity
 67
     1
  8
0
100
AcDbBlockBegin
  2
*PAPER_SPACE
 70
     0
 10
0.0
 20
0.0
 30
0.0
  3
*PAPER_SPACE
  1

  0
ENDBLK
  5
1C
330
1A
100
AcDbEntity
 67
     1
  8
0
100
AcDbBlockEnd
  0
ENDSEC
  0
SECTION
  2
ENTITIES
  0
LINE
  5
22
330
1E
100
AcDbEntity
  8
0
100
AcDbLine
 10
1.111099999999999
 20
32.25948999999999
 30
0.0
 11
4.0
 21
25.03719
 31
0.0
  0
LINE
  5
23
330
1E
100
AcDbEntity
  8
0
100
AcDbLine
 10
13.65806499999999
 20
7.693969999999999
 30
0.0
 11
15.30323
 21
5.978959999999999
 31
0.0
  0
LINE
  5
24
330
1E
100
AcDbEntity
  8
0
100
AcDbLine
 10
15.30323
 20
5.978959999999999
 30
0.0
 11
15.74194
 21
5.622060000000009
 31
0.0
  0
LINE
  5
25
330
1E
100
AcDbEntity
  8
0
100
AcDbLine
 10
13.0
 20
9.997632000000001
 30
0.0
 11
13.0
 21
9.548038000000008
 31
0.0
  0
LINE
  5
26
330
1E
100
AcDbEntity
  8
0
100
AcDbLine
 10
13.0
 20
9.997632000000001
 30
0.0
 11
13.65806499999999
 21
11.8517
 31
0.0
  0
LINE
  5
27
330
1E
100
AcDbEntity
  8
0
100
AcDbLine
 10
15.30323
 20
13.56672999999999
 30
0.0
 11
18.04515999999999
 21
15.04995
 31
0.0
  0
LINE
  5
28
330
1E
100
AcDbEntity
  8
0
100
AcDbLine
 10
15.30323
 20
13.56672999999999
 30
0.0
 11
15.74194
 21
13.92361
 31
0.0
  0
LINE
  5
29
330
1E
100
AcDbEntity
  8
0
100
AcDbLine
 10
13.65806499999999
 20
11.8517
 30
0.0
 11
15.30323
 21
13.56672999999999
 31
0.0
  0
LINE
  5
2A
330
1E
100
AcDbEntity
  8
0
100
AcDbLine
 10
15.30323
 20
13.11713
 30
0.0
 11
18.04515999999999
 21
14.60035
 31
0.0
  0
LINE
  5
2B
330
1E
100
AcDbEntity
  8
0
100
AcDbLine
 10
13.65806499999999
 20
11.40211
 30
0.0
 11
15.30323
 21
13.11713
 31
0.0
  0
LINE
  5
2C
330
1E
100
AcDbEntity
  8
0
100
AcDbLine
 10
15.74194
 20
13.92361
 30
0.0
 11
15.74194
 21
29.92609
 31
0.0
  0
LINE
  5
2D
330
1E
100
AcDbEntity
  8
0
100
AcDbLine
 10
15.74194
 20
13.92361
 30
0.0
 11
18.37418999999999
 21
15.36051
 31
0.0
  0
LINE
  5
2E
330
1E
100
AcDbEntity
  8
0
100
AcDbLine
 10
13.0
 20
9.548038000000008
 30
0.0
 11
13.65806499999999
 21
7.693969999999999
 31
0.0
  0
LINE
  5
2F
330
1E
100
AcDbEntity
  8
0
100
AcDbLine
 10
13.0
 20
9.548038000000008
 30
0.0
 11
13.0
 21
9.997632000000001
 31
0.0
  0
LINE
  5
30
330
1E
100
AcDbEntity
  8
0
100
AcDbLine
 10
13.0
 20
9.548038000000008
 30
0.0
 11
13.65806499999999
 21
11.40211
 31
0.0
  0
LINE
  5
31
330
1E
100
AcDbEntity
  8
0
100
AcDbLine
 10
19.87199999999999
 20
2.56905000000001
 30
0.0
 11
21.74399999999999
 21
1.534479999999999
 31
0.0
  0
LINE
  5
32
330
1E
100
AcDbEntity
  8
0
100
AcDbLine
 10
19.584
 20
2.780080000000009
 30
0.0
 11
19.87199999999999
 21
2.56905000000001
 31
0.0
  0
LINE
  5
33
330
1E
100
AcDbEntity
  8
0
100
AcDbLine
 10
21.74399999999999
 20
1.534479999999999
 30
0.0
 11
24.192
 21
0.743340000000004
 31
0.0
  0
LINE
  5
34
330
1E
100
AcDbEntity
  8
0
100
AcDbLine
 10
24.192
 20
0.743340000000004
 30
0.0
 11
26.97599999999999
 21
0.256480000000004
 31
0.0
  0
LINE
  5
35
330
1E
100
AcDbEntity
  8
0
100
AcDbLine
 10
26.97599999999999
 20
0.256480000000004
 30
0.0
 11
30.0
 21
0.0739100000000022
 31
0.0
  0
LINE
  5
36
330
1E
100
AcDbEntity
  8
0
100
AcDbLine
 10
40.128
 20
2.56905000000001
 30
0.0
 11
40.41599999999999
 21
2.780080000000009
 31
0.0
  0
LINE
  5
37
330
1E
100
AcDbEntity
  8
0
100
AcDbLine
 10
40.128
 20
2.56905000000001
 30
0.0
 11
41.28
 21
3.745620000000009
 31
0.0
  0
LINE
  5
38
330
1E
100
AcDbEntity
  8
0
100
AcDbLine
 10
38.256
 20
1.534479999999999
 30
0.0
 11
40.128
 21
2.56905000000001
 31
0.0
  0
LINE
  5
39
330
1E
100
AcDbEntity
  8
0
100
AcDbLine
 10
35.80799999999999
 20
0.743340000000004
 30
0.0
 11
38.256
 21
1.534479999999999
 31
0.0
  0
LINE
  5
3A
330
1E
100
AcDbEntity
  8
0
100
AcDbLine
 10
33.024
 20
0.256480000000004
 30
0.0
 11
35.80799999999999
 21
0.743340000000004
 31
0.0
  0
LINE
  5
3B
330
1E
100
AcDbEntity
  8
0
100
AcDbLine
 10
30.0
 20
0.0739100000000022
 30
0.0
 11
33.024
 21
0.256480000000004
 31
0.0
  0
LINE
  5
3C
330
1E
100
AcDbEntity
  8
0
100
AcDbLine
 10
18.71999999999999
 20
3.745620000000009
 30
0.0
 11
19.87199999999999
 21
2.56905000000001
 31
0.0
  0
LINE
  5
3D
330
1E
100
AcDbEntity
  8
0
100
AcDbLine
 10
18.432
 20
3.99723
 30
0.0
 11
19.584
 21
2.780080000000009
 31
0.0
  0
LINE
  5
3E
330
1E
100
AcDbEntity
  8
0
100
AcDbLine
 10
18.288
 20
5.023619999999999
 30
0.0
 11
18.71999999999999
 21
6.301610000000009
 31
0.0
  0
LINE
  5
3F
330
1E
100
AcDbEntity
  8
0
100
AcDbLine
 10
18.288
 20
5.023619999999999
 30
0.0
 11
18.71999999999999
 21
3.745620000000009
 31
0.0
  0
LINE
  5
40
330
1E
100
AcDbEntity
  8
0
100
AcDbLine
 10
18.71999999999999
 20
6.301610000000009
 30
0.0
 11
19.87199999999999
 21
7.478180000000009
 31
0.0
  0
LINE
  5
41
330
1E
100
AcDbEntity
  8
0
100
AcDbLine
 10
18.0
 20
5.295510000000009
 30
0.0
 11
18.432
 21
6.593790000000009
 31
0.0
  0
LINE
  5
42
330
1E
100
AcDbEntity
  8
0
100
AcDbLine
 10
18.0
 20
5.295510000000009
 30
0.0
 11
18.432
 21
3.99723
 31
0.0
  0
LINE
  5
43
330
1E
100
AcDbEntity
  8
0
100
AcDbLine
 10
18.0
 20
5.295510000000009
 30
0.0
 11
18.0
 21
8.648849999999999
 31
0.0
  0
LINE
  5
44
330
1E
100
AcDbEntity
  8
0
100
AcDbLine
 10
18.0
 20
8.648849999999999
 30
0.0
 11
18.0
 21
5.295510000000009
 31
0.0
  0
LINE
  5
45
330
1E
100
AcDbEntity
  8
0
100
AcDbLine
 10
18.432
 20
6.593790000000009
 30
0.0
 11
19.584
 21
7.810930000000009
 31
0.0
  0
LINE
  5
46
330
1E
100
AcDbEntity
  8
0
100
AcDbLine
 10
19.87199999999999
 20
7.478180000000009
 30
0.0
 11
21.74399999999999
 21
8.512750000000009
 31
0.0
  0
LINE
  5
47
330
1E
100
AcDbEntity
  8
0
100
AcDbLine
 10
21.74399999999999
 20
8.512750000000009
 30
0.0
 11
24.192
 21
9.30389400000001
 31
0.0
  0
LINE
  5
48
330
1E
100
AcDbEntity
  8
0
100
AcDbLine
 10
19.584
 20
7.810930000000009
 30
0.0
 11
21.504
 21
8.886070000000009
 31
0.0
  0
LINE
  5
49
330
1E
100
AcDbEntity
  8
0
100
AcDbLine
 10
21.504
 20
8.886070000000009
 30
0.0
 11
24.048
 21
9.697500000000008
 31
0.0
  0
LINE
  5
4A
330
1E
100
AcDbEntity
  8
0
100
AcDbLine
 10
24.192
 20
9.30389400000001
 30
0.0
 11
26.97599999999999
 21
9.790749999999999
 31
0.0
  0
LINE
  5
4B
330
1E
100
AcDbEntity
  8
0
100
AcDbLine
 10
26.97599999999999
 20
9.790749999999999
 30
0.0
 11
30.0
 21
9.973321
 31
0.0
  0
LINE
  5
4C
330
1E
100
AcDbEntity
  8
0
100
AcDbLine
 10
24.048
 20
9.697500000000008
 30
0.0
 11
26.928
 21
10.18435599999999
 31
0.0
  0
LINE
  5
4D
330
1E
100
AcDbEntity
  8
0
100
AcDbLine
 10
26.928
 20
10.18435599999999
 30
0.0
 11
30.0
 21
10.366927
 31
0.0
  0
LINE
  5
4E
330
1E
100
AcDbEntity
  8
0
100
AcDbLine
 10
30.0
 20
9.973321
 30
0.0
 11
33.024
 21
9.790749999999999
 31
0.0
  0
LINE
  5
4F
330
1E
100
AcDbEntity
  8
0
100
AcDbLine
 10
35.80799999999999
 20
9.30389400000001
 30
0.0
 11
38.256
 21
8.512750000000009
 31
0.0
  0
LINE
  5
50
330
1E
100
AcDbEntity
  8
0
100
AcDbLine
 10
33.024
 20
9.790749999999999
 30
0.0
 11
35.80799999999999
 21
9.30389400000001
 31
0.0
  0
LINE
  5
51
330
1E
100
AcDbEntity
  8
0
100
AcDbLine
 10
40.128
 20
7.478180000000009
 30
0.0
 11
41.28
 21
6.301610000000009
 31
0.0
  0
LINE
  5
52
330
1E
100
AcDbEntity
  8
0
100
AcDbLine
 10
38.256
 20
8.512750000000009
 30
0.0
 11
40.128
 21
7.478180000000009
 31
0.0
  0
LINE
  5
53
330
1E
100
AcDbEntity
  8
0
100
AcDbLine
 10
41.28
 20
6.301610000000009
 30
0.0
 11
41.71199999999999
 21
5.023619999999999
 31
0.0
  0
LINE
  5
54
330
1E
100
AcDbEntity
  8
0
100
AcDbLine
 10
41.568
 20
6.593790000000009
 30
0.0
 11
42.0
 21
5.295510000000009
 31
0.0
  0
LINE
  5
55
330
1E
100
AcDbEntity
  8
0
100
AcDbLine
 10
40.41599999999999
 20
7.810930000000009
 30
0.0
 11
41.568
 21
6.593790000000009
 31
0.0
  0
LINE
  5
56
330
1E
100
AcDbEntity
  8
0
100
AcDbLine
 10
38.496
 20
8.886070000000009
 30
0.0
 11
40.41599999999999
 21
7.810930000000009
 31
0.0
  0
LINE
  5
57
330
1E
100
AcDbEntity
  8
0
100
AcDbLine
 10
35.952
 20
9.697500000000008
 30
0.0
 11
38.496
 21
8.886070000000009
 31
0.0
  0
LINE
  5
58
330
1E
100
AcDbEntity
  8
0
100
AcDbLine
 10
33.07199999999999
 20
10.18435599999999
 30
0.0
 11
35.952
 21
9.697500000000008
 31
0.0
  0
LINE
  5
59
330
1E
100
AcDbEntity
  8
0
100
AcDbLine
 10
30.0
 20
10.366927
 30
0.0
 11
33.07199999999999
 21
10.18435599999999
 31
0.0
  0
LINE
  5
5A
330
1E
100
AcDbEntity
  8
0
100
AcDbLine
 10
41.28
 20
3.745620000000009
 30
0.0
 11
41.71199999999999
 21
5.023619999999999
 31
0.0
  0
LINE
  5
5B
330
1E
100
AcDbEntity
  8
0
100
AcDbLine
 10
41.6315838958766
 20
4.18831726930256
 30
0.0
 11
44.2581
 21
5.622060000000009
 31
0.0
  0
LINE
  5
5C
330
1E
100
AcDbEntity
  8
0
100
AcDbLine
 10
41.6315838958766
 20
4.18831726930256
 30
0.0
 11
44.2581
 21
5.622060000000009
 31
0.0
  0
LINE
  5
5D
330
1E
100
AcDbEntity
  8
0
100
AcDbLine
 10
44.2581
 20
5.622060000000009
 30
0.0
 11
44.6968
 21
5.978959999999999
 31
0.0
  0
LINE
  5
5E
330
1E
100
AcDbEntity
  8
0
100
AcDbLine
 10
44.6968
 20
5.978959999999999
 30
0.0
 11
46.3419
 21
7.693969999999999
 31
0.0
  0
LINE
  5
5F
330
1E
100
AcDbEntity
  8
0
100
AcDbLine
 10
46.3419
 20
7.693969999999999
 30
0.0
 11
47.0
 21
9.548038000000008
 31
0.0
  0
LINE
  5
60
330
1E
100
AcDbEntity
  8
0
100
AcDbLine
 10
42.0
 20
5.295510000000009
 30
0.0
 11
42.0
 21
8.648849999999999
 31
0.0
  0
LINE
  5
61
330
1E
100
AcDbEntity
  8
0
100
AcDbLine
 10
47.0
 20
9.548038000000008
 30
0.0
 11
47.0
 21
9.997632000000001
 31
0.0
  0
LINE
  5
62
330
1E
100
AcDbEntity
  8
0
100
AcDbLine
 10
44.46398330018389
 20
13.7561250850932
 30
0.0
 11
44.8889
 21
13.92609
 31
0.0
  0
LINE
  5
63
330
1E
100
AcDbEntity
  8
0
100
AcDbLine
 10
44.2581
 20
13.92361
 30
0.0
 11
44.6968
 21
13.56672999999999
 31
0.0
  0
LINE
  5
64
330
1E
100
AcDbEntity
  8
0
100
AcDbLine
 10
44.2581
 20
13.92361
 30
0.0
 11
44.2581
 21
29.92609
 31
0.0
  0
LINE
  5
65
330
1E
100
AcDbEntity
  8
0
100
AcDbLine
 10
44.6968
 20
13.56672999999999
 30
0.0
 11
46.3419
 21
11.8517
 31
0.0
  0
LINE
  5
66
330
1E
100
AcDbEntity
  8
0
100
AcDbLine
 10
44.8889
 20
13.92609
 30
0.0
 11
51.1111
 21
18.815
 31
0.0
  0
LINE
  5
67
330
1E
100
AcDbEntity
  8
0
100
AcDbLine
 10
46.3419
 20
11.8517
 30
0.0
 11
47.0
 21
9.997632000000001
 31
0.0
  0
LINE
  5
68
330
1E
100
AcDbEntity
  8
0
100
AcDbLine
 10
44.6968
 20
13.11713
 30
0.0
 11
46.3419
 21
11.40211
 31
0.0
  0
LINE
  5
69
330
1E
100
AcDbEntity
  8
0
100
AcDbLine
 10
46.3419
 20
11.40211
 30
0.0
 11
47.0
 21
9.548038000000008
 31
0.0
  0
LINE
  5
6A
330
1E
100
AcDbEntity
  8
0
100
AcDbLine
 10
47.0
 20
9.997632000000001
 30
0.0
 11
47.0
 21
9.548038000000008
 31
0.0
  0
LINE
  5
6B
330
1E
100
AcDbEntity
  8
0
100
AcDbLine
 10
42.0
 20
8.648849999999999
 30
0.0
 11
42.0
 21
5.295510000000009
 31
0.0
  0
LINE
  5
6C
330
1E
100
AcDbEntity
  8
0
100
AcDbLine
 10
41.568
 20
3.99723
 30
0.0
 11
42.0
 21
5.295510000000009
 31
0.0
  0
LINE
  5
6D
330
1E
100
AcDbEntity
  8
0
100
AcDbLine
 10
40.41599999999999
 20
2.780080000000009
 30
0.0
 11
41.568
 21
3.99723
 31
0.0
  0
LINE
  5
6E
330
1E
100
AcDbEntity
  8
0
100
AcDbLine
 10
15.74194
 20
5.622060000000009
 30
0.0
 11
18.3684182993198
 21
4.188310672127389
 31
0.0
  0
LINE
  5
6F
330
1E
100
AcDbEntity
  8
0
100
AcDbLine
 10
4.0
 20
25.03719
 30
0.0
 11
8.88891
 21
18.815
 31
0.0
  0
LINE
  5
70
330
1E
100
AcDbEntity
  8
0
100
AcDbLine
 10
18.37418999999999
 20
15.36051
 30
0.0
 11
21.77418999999999
 21
16.47297
 31
0.0
  0
LINE
  5
71
330
1E
100
AcDbEntity
  8
0
100
AcDbLine
 10
18.04515999999999
 20
15.04995
 30
0.0
 11
21.55483999999999
 21
16.20877
 31
0.0
  0
LINE
  5
72
330
1E
100
AcDbEntity
  8
0
100
AcDbLine
 10
21.55483999999999
 20
16.20877
 30
0.0
 11
25.6129
 21
16.90402
 31
0.0
  0
LINE
  5
73
330
1E
100
AcDbEntity
  8
0
100
AcDbLine
 10
18.04515999999999
 20
14.60035
 30
0.0
 11
21.55483999999999
 21
15.75917
 31
0.0
  0
LINE
  5
74
330
1E
100
AcDbEntity
  8
0
100
AcDbLine
 10
38.4452
 20
16.20877
 30
0.0
 11
41.95479999999999
 21
15.04995
 31
0.0
  0
LINE
  5
75
330
1E
100
AcDbEntity
  8
0
100
AcDbLine
 10
41.6258
 20
15.36051
 30
0.0
 11
44.2581
 21
13.92361
 31
0.0
  0
LINE
  5
76
330
1E
100
AcDbEntity
  8
0
100
AcDbLine
 10
41.95479999999999
 20
15.04995
 30
0.0
 11
44.6968
 21
13.56672999999999
 31
0.0
  0
LINE
  5
77
330
1E
100
AcDbEntity
  8
0
100
AcDbLine
 10
41.95479999999999
 20
14.60035
 30
0.0
 11
44.6968
 21
13.11713
 31
0.0
  0
LINE
  5
78
330
1E
100
AcDbEntity
  8
0
100
AcDbLine
 10
38.4452
 20
15.75917
 30
0.0
 11
41.95479999999999
 21
14.60035
 31
0.0
  0
LINE
  5
79
330
1E
100
AcDbEntity
  8
0
100
AcDbLine
 10
34.38709999999999
 20
16.45442
 30
0.0
 11
38.4452
 21
15.75917
 31
0.0
  0
LINE
  5
7A
330
1E
100
AcDbEntity
  8
0
100
AcDbLine
 10
21.55483999999999
 20
15.75917
 30
0.0
 11
25.6129
 21
16.45442
 31
0.0
  0
LINE
  5
7B
330
1E
100
AcDbEntity
  8
0
100
AcDbLine
 10
15.74194
 20
39.75499
 30
0.0
 11
15.74194
 21
39.24459
 31
0.0
  0
LINE
  5
7C
330
1E
100
AcDbEntity
  8
0
100
AcDbLine
 10
15.74194
 20
39.75499
 30
0.0
 11
15.74194
 21
39.92609
 31
0.0
  0
LINE
  5
7D
330
1E
100
AcDbEntity
  8
0
100
AcDbLine
 10
15.74194
 20
39.24459
 30
0.0
 11
15.74194
 21
38.40369
 31
0.0
  0
LINE
  5
7E
330
1E
100
AcDbEntity
  8
0
100
AcDbLine
 10
15.74194
 20
39.24459
 30
0.0
 11
15.74194
 21
39.75499
 31
0.0
  0
LINE
  5
7F
330
1E
100
AcDbEntity
  8
0
100
AcDbLine
 10
15.74194
 20
38.40369
 30
0.0
 11
15.74194
 21
37.24659
 31
0.0
  0
LINE
  5
80
330
1E
100
AcDbEntity
  8
0
100
AcDbLine
 10
15.74194
 20
38.40369
 30
0.0
 11
15.74194
 21
39.24459
 31
0.0
  0
LINE
  5
81
330
1E
100
AcDbEntity
  8
0
100
AcDbLine
 10
15.74194
 20
37.24659
 30
0.0
 11
15.74194
 21
35.79319
 31
0.0
  0
LINE
  5
82
330
1E
100
AcDbEntity
  8
0
100
AcDbLine
 10
15.74194
 20
37.24659
 30
0.0
 11
15.74194
 21
38.40369
 31
0.0
  0
LINE
  5
83
330
1E
100
AcDbEntity
  8
0
100
AcDbLine
 10
15.74194
 20
35.79319
 30
0.0
 11
15.74194
 21
34.06819
 31
0.0
  0
LINE
  5
84
330
1E
100
AcDbEntity
  8
0
100
AcDbLine
 10
15.74194
 20
35.79319
 30
0.0
 11
15.74194
 21
37.24659
 31
0.0
  0
LINE
  5
85
330
1E
100
AcDbEntity
  8
0
100
AcDbLine
 10
15.74194
 20
34.06819
 30
0.0
 11
15.74194
 21
32.10129
 31
0.0
  0
LINE
  5
86
330
1E
100
AcDbEntity
  8
0
100
AcDbLine
 10
15.74194
 20
34.06819
 30
0.0
 11
15.74194
 21
35.79319
 31
0.0
  0
LINE
  5
87
330
1E
100
AcDbEntity
  8
0
100
AcDbLine
 10
15.74194
 20
39.92609
 30
0.0
 11
16.29032
 21
43.54539
 31
0.0
  0
LINE
  5
88
330
1E
100
AcDbEntity
  8
0
100
AcDbLine
 10
15.74194
 20
39.92609
 30
0.0
 11
15.74194
 21
39.75499
 31
0.0
  0
LINE
  5
89
330
1E
100
AcDbEntity
  8
0
100
AcDbLine
 10
15.74194
 20
32.10129
 30
0.0
 11
15.74194
 21
29.92609
 31
0.0
  0
LINE
  5
8A
330
1E
100
AcDbEntity
  8
0
100
AcDbLine
 10
15.74194
 20
32.10129
 30
0.0
 11
15.74194
 21
34.06819
 31
0.0
  0
LINE
  5
8B
330
1E
100
AcDbEntity
  8
0
100
AcDbLine
 10
17.60645
 20
47.05509
 30
0.0
 11
19.90967999999999
 21
50.01639
 31
0.0
  0
LINE
  5
8C
330
1E
100
AcDbEntity
  8
0
100
AcDbLine
 10
16.29032
 20
43.54539
 30
0.0
 11
17.60645
 21
47.05509
 31
0.0
  0
LINE
  5
8D
330
1E
100
AcDbEntity
  8
0
100
AcDbLine
 10
19.90967999999999
 20
50.01639
 30
0.0
 11
22.87097
 21
52.31959
 31
0.0
  0
LINE
  5
8E
330
1E
100
AcDbEntity
  8
0
100
AcDbLine
 10
22.87097
 20
52.31959
 30
0.0
 11
26.3806
 21
53.63579
 31
0.0
  0
LINE
  5
8F
330
1E
100
AcDbEntity
  8
0
100
AcDbLine
 10
15.74194
 20
29.92609
 30
0.0
 11
15.74194
 21
13.92361
 31
0.0
  0
LINE
  5
90
330
1E
100
AcDbEntity
  8
0
100
AcDbLine
 10
15.74194
 20
29.92609
 30
0.0
 11
15.74194
 21
32.10129
 31
0.0
  0
LINE
  5
91
330
1E
100
AcDbEntity
  8
0
100
AcDbLine
 10
21.77418999999999
 20
16.47297
 30
0.0
 11
25.72259999999999
 21
17.16822
 31
0.0
  0
LINE
  5
92
330
1E
100
AcDbEntity
  8
0
100
AcDbLine
 10
38.2258
 20
16.47297
 30
0.0
 11
41.6258
 21
15.36051
 31
0.0
  0
LINE
  5
93
330
1E
100
AcDbEntity
  8
0
100
AcDbLine
 10
34.2774
 20
17.16822
 30
0.0
 11
38.2258
 21
16.47297
 31
0.0
  0
LINE
  5
94
330
1E
100
AcDbEntity
  8
0
100
AcDbLine
 10
34.38709999999999
 20
16.90402
 30
0.0
 11
38.4452
 21
16.20877
 31
0.0
  0
LINE
  5
95
330
1E
100
AcDbEntity
  8
0
100
AcDbLine
 10
30.0
 20
16.73255
 30
0.0
 11
34.38709999999999
 21
16.45442
 31
0.0
  0
LINE
  5
96
330
1E
100
AcDbEntity
  8
0
100
AcDbLine
 10
30.0
 20
17.39997999999999
 30
0.0
 11
34.2774
 21
17.16822
 31
0.0
  0
LINE
  5
97
330
1E
100
AcDbEntity
  8
0
100
AcDbLine
 10
30.0
 20
17.18214
 30
0.0
 11
34.38709999999999
 21
16.90402
 31
0.0
  0
LINE
  5
98
330
1E
100
AcDbEntity
  8
0
100
AcDbLine
 10
40.0903
 20
50.01639
 30
0.0
 11
42.3936
 21
47.05509
 31
0.0
  0
LINE
  5
99
330
1E
100
AcDbEntity
  8
0
100
AcDbLine
 10
42.3936
 20
47.05509
 30
0.0
 11
43.70969999999999
 21
43.54539
 31
0.0
  0
LINE
  5
9A
330
1E
100
AcDbEntity
  8
0
100
AcDbLine
 10
51.1111
 20
18.815
 30
0.0
 11
56.0
 21
25.03719
 31
0.0
  0
LINE
  5
9B
330
1E
100
AcDbEntity
  8
0
100
AcDbLine
 10
56.0
 20
25.03719
 30
0.0
 11
58.88889999999999
 21
32.25948999999999
 31
0.0
  0
LINE
  5
9C
330
1E
100
AcDbEntity
  8
0
100
AcDbLine
 10
44.2581
 20
32.10129
 30
0.0
 11
44.2581
 21
29.92609
 31
0.0
  0
LINE
  5
9D
330
1E
100
AcDbEntity
  8
0
100
AcDbLine
 10
44.2581
 20
32.10129
 30
0.0
 11
44.2581
 21
34.06819
 31
0.0
  0
LINE
  5
9E
330
1E
100
AcDbEntity
  8
0
100
AcDbLine
 10
44.2581
 20
34.06819
 30
0.0
 11
44.2581
 21
35.79319
 31
0.0
  0
LINE
  5
9F
330
1E
100
AcDbEntity
  8
0
100
AcDbLine
 10
44.2581
 20
34.06819
 30
0.0
 11
44.2581
 21
32.10129
 31
0.0
  0
LINE
  5
A0
330
1E
100
AcDbEntity
  8
0
100
AcDbLine
 10
44.2581
 20
35.79319
 30
0.0
 11
44.2581
 21
37.24659
 31
0.0
  0
LINE
  5
A1
330
1E
100
AcDbEntity
  8
0
100
AcDbLine
 10
44.2581
 20
35.79319
 30
0.0
 11
44.2581
 21
34.06819
 31
0.0
  0
LINE
  5
A2
330
1E
100
AcDbEntity
  8
0
100
AcDbLine
 10
44.2581
 20
38.40369
 30
0.0
 11
44.2581
 21
37.24659
 31
0.0
  0
LINE
  5
A3
330
1E
100
AcDbEntity
  8
0
100
AcDbLine
 10
44.2581
 20
38.40369
 30
0.0
 11
44.2581
 21
39.24459
 31
0.0
  0
LINE
  5
A4
330
1E
100
AcDbEntity
  8
0
100
AcDbLine
 10
44.2581
 20
37.24659
 30
0.0
 11
44.2581
 21
35.79319
 31
0.0
  0
LINE
  5
A5
330
1E
100
AcDbEntity
  8
0
100
AcDbLine
 10
44.2581
 20
37.24659
 30
0.0
 11
44.2581
 21
38.40369
 31
0.0
  0
LINE
  5
A6
330
1E
100
AcDbEntity
  8
0
100
AcDbLine
 10
44.2581
 20
39.24459
 30
0.0
 11
44.2581
 21
39.75499
 31
0.0
  0
LINE
  5
A7
330
1E
100
AcDbEntity
  8
0
100
AcDbLine
 10
44.2581
 20
39.24459
 30
0.0
 11
44.2581
 21
38.40369
 31
0.0
  0
LINE
  5
A8
330
1E
100
AcDbEntity
  8
0
100
AcDbLine
 10
44.2581
 20
39.75499
 30
0.0
 11
44.2581
 21
39.92609
 31
0.0
  0
LINE
  5
A9
330
1E
100
AcDbEntity
  8
0
100
AcDbLine
 10
44.2581
 20
39.75499
 30
0.0
 11
44.2581
 21
39.24459
 31
0.0
  0
LINE
  5
AA
330
1E
100
AcDbEntity
  8
0
100
AcDbLine
 10
58.88889999999999
 20
32.25948999999999
 30
0.0
 11
60.0
 21
39.92609
 31
0.0
  0
LINE
  5
AB
330
1E
100
AcDbEntity
  8
0
100
AcDbLine
 10
58.88889999999999
 20
47.59269
 30
0.0
 11
60.0
 21
39.92609
 31
0.0
  0
LINE
  5
AC
330
1E
100
AcDbEntity
  8
0
100
AcDbLine
 10
44.2581
 20
39.92609
 30
0.0
 11
44.2581
 21
39.75499
 31
0.0
  0
LINE
  5
AD
330
1E
100
AcDbEntity
  8
0
100
AcDbLine
 10
44.2581
 20
29.92609
 30
0.0
 11
44.2581
 21
13.92361
 31
0.0
  0
LINE
  5
AE
330
1E
100
AcDbEntity
  8
0
100
AcDbLine
 10
44.2581
 20
29.92609
 30
0.0
 11
44.2581
 21
32.10129
 31
0.0
  0
LINE
  5
AF
330
1E
100
AcDbEntity
  8
0
100
AcDbLine
 10
43.70969999999999
 20
43.54539
 30
0.0
 11
44.2581
 21
39.92609
 31
0.0
  0
LINE
  5
B0
330
1E
100
AcDbEntity
  8
0
100
AcDbLine
 10
37.12899999999999
 20
52.31959
 30
0.0
 11
40.0903
 21
50.01639
 31
0.0
  0
LINE
  5
B1
330
1E
100
AcDbEntity
  8
0
100
AcDbLine
 10
33.6194
 20
53.63579
 30
0.0
 11
37.12899999999999
 21
52.31959
 31
0.0
  0
LINE
  5
B2
330
1E
100
AcDbEntity
  8
0
100
AcDbLine
 10
56.0
 20
54.81499
 30
0.0
 11
58.88889999999999
 21
47.59269
 31
0.0
  0
LINE
  5
B3
330
1E
100
AcDbEntity
  8
0
100
AcDbLine
 10
30.0
 20
54.18419
 30
0.0
 11
33.6194
 21
53.63579
 31
0.0
  0
LINE
  5
B4
330
1E
100
AcDbEntity
  8
0
100
AcDbLine
 10
26.3806
 20
53.63579
 30
0.0
 11
30.0
 21
54.18419
 31
0.0
  0
LINE
  5
B5
330
1E
100
AcDbEntity
  8
0
100
AcDbLine
 10
25.72259999999999
 20
17.16822
 30
0.0
 11
30.0
 21
17.39997999999999
 31
0.0
  0
LINE
  5
B6
330
1E
100
AcDbEntity
  8
0
100
AcDbLine
 10
25.6129
 20
16.90402
 30
0.0
 11
30.0
 21
17.18214
 31
0.0
  0
LINE
  5
B7
330
1E
100
AcDbEntity
  8
0
100
AcDbLine
 10
25.6129
 20
16.45442
 30
0.0
 11
30.0
 21
16.73255
 31
0.0
  0
LINE
  5
B8
330
1E
100
AcDbEntity
  8
0
100
AcDbLine
 10
8.88891
 20
18.815
 30
0.0
 11
15.11109
 21
13.92609
 31
0.0
  0
LINE
  5
B9
330
1E
100
AcDbEntity
  8
0
100
AcDbLine
 10
15.11109
 20
13.92609
 30
0.0
 11
15.53603668438309
 21
13.7561126206894
 31
0.0
  0
LINE
  5
BA
330
1E
100
AcDbEntity
  8
0
100
AcDbLine
 10
1.111099999999999
 20
47.59269
 30
0.0
 11
4.0
 21
54.81499
 31
0.0
  0
LINE
  5
BB
330
1E
100
AcDbEntity
  8
0
100
AcDbLine
 10
15.11109
 20
65.92609
 30
0.0
 11
22.33337
 21
68.81499000000001
 31
0.0
  0
LINE
  5
BC
330
1E
100
AcDbEntity
  8
0
100
AcDbLine
 10
44.8889
 20
65.92609
 30
0.0
 11
51.1111
 21
61.03719
 31
0.0
  0
LINE
  5
BD
330
1E
100
AcDbEntity
  8
0
100
AcDbLine
 10
37.6666
 20
68.81499000000001
 30
0.0
 11
44.8889
 21
65.92609
 31
0.0
  0
LINE
  5
BE
330
1E
100
AcDbEntity
  8
0
100
AcDbLine
 10
51.1111
 20
61.03719
 30
0.0
 11
56.0
 21
54.81499
 31
0.0
  0
LINE
  5
BF
330
1E
100
AcDbEntity
  8
0
100
AcDbLine
 10
22.33337
 20
68.81499000000001
 30
0.0
 11
30.0
 21
69.92609
 31
0.0
  0
LINE
  5
C0
330
1E
100
AcDbEntity
  8
0
100
AcDbLine
 10
30.0
 20
69.92609
 30
0.0
 11
37.6666
 21
68.81499000000001
 31
0.0
  0
LINE
  5
C1
330
1E
100
AcDbEntity
  8
0
100
AcDbLine
 10
8.88891
 20
61.03719
 30
0.0
 11
15.11109
 21
65.92609
 31
0.0
  0
LINE
  5
C2
330
1E
100
AcDbEntity
  8
0
100
AcDbLine
 10
4.0
 20
54.81499
 30
0.0
 11
8.88891
 21
61.03719
 31
0.0
  0
LINE
  5
C3
330
1E
100
AcDbEntity
  8
0
100
AcDbLine
 10
-0.0000000000000021
 20
39.92609
 30
0.0
 11
1.111099999999999
 21
47.59269
 31
0.0
  0
LINE
  5
C4
330
1E
100
AcDbEntity
  8
0
100
AcDbLine
 10
-0.0000000000000021
 20
39.92609
 30
0.0
 11
1.111099999999999
 21
32.25948999999999
 31
0.0
  0
ENDSEC
  0
SECTION
  2
OBJECTS
  0
DICTIONARY
  5
C
330
0
100
AcDbDictionary
  3
ACAD_GROUP
350
D
  3
ACAD_LAYOUT
350
19
  3
ACAD_MLINESTYLE
350
16
  3
ACAD_PLOTSETTINGS
350
18
  3
ACAD_PLOTSTYLENAME
350
E
  3
ACDBHEADERROUNDTRIPXREC
350
CC
  3
ACDBVARIABLEDICTIONARY
350
C9
  0
DICTIONARY
  5
EE
330
1E
100
AcDbDictionary
280
     1
  3
ACAD_LAYOUTSELFREF
360
EF
  0
DICTIONARY
  5
EC
330
1A
100
AcDbDictionary
280
     1
  3
ACAD_LAYOUTSELFREF
360
ED
  0
DICTIONARY
  5
D
102
{ACAD_REACTORS
330
C
102
}
330
C
100
AcDbDictionary
  0
DICTIONARY
  5
19
102
{ACAD_REACTORS
330
C
102
}
330
C
100
AcDbDictionary
  0
DICTIONARY
  5
16
102
{ACAD_REACTORS
330
C
102
}
330
C
100
AcDbDictionary
  3
STANDARD
350
17
  0
DICTIONARY
  5
18
102
{ACAD_REACTORS
330
C
102
}
330
C
100
AcDbDictionary
  0
ACDBDICTIONARYWDFLT
  5
E
102
{ACAD_REACTORS
330
C
102
}
330
C
100
AcDbDictionary
281
     1
  3
Normal
350
F
100
AcDbDictionaryWithDefault
340
F
  0
DICTIONARY
  5
CC
102
{ACAD_REACTORS
330
C
102
}
330
C
100
AcDbDictionary
  3
CEPSNTYPE
350
D6
  3
FINGERPRINTGUID
350
D7
  3
HYPERLINKBASE
350
CF
  3
INSUNITS
350
D5
  3
LAYOUTDICT
350
D1
  3
LWETCUNION
350
D4
  3
PLOTSETDICT
350
D2
  3
PLOTSTYLNAMDICT
350
D3
  3
PSVPSCALE
350
D9
  3
PUCSBASE
350
DC
  3
PUCSORGBACK
350
E2
  3
PUCSORGBOTTOM
350
DE
  3
PUCSORGFRONT
350
E1
  3
PUCSORGLEFT
350
DF
  3
PUCSORGRIGHT
350
E0
  3
PUCSORGTOP
350
DD
  3
PUCSORTHOREF
350
DA
  3
PUCSORTHOVIEW
350
DB
  3
STYLESHEET
350
D0
  3
TSTACKALIGN
350
CD
  3
TSTACKSIZE
350
CE
  3
UCSBASE
350
E5
  3
UCSORGBACK
350
EB
  3
UCSORGBOTTOM
350
E7
  3
UCSORGFRONT
350
EA
  3
UCSORGLEFT
350
E8
  3
UCSORGRIGHT
350
E9
  3
UCSORGTOP
350
E6
  3
UCSORTHOREF
350
E3
  3
UCSORTHOVIEW
350
E4
  3
VERSIONGUID
350
D8
  0
DICTIONARY
  5
C9
102
{ACAD_REACTORS
330
C
102
}
330
C
100
AcDbDictionary
  3
DIMASSOC
350
CA
  0
XRECORD
  5
EF
102
{ACAD_REACTORS
330
EE
102
}
330
EE
100
AcDbXrecord
340
1E
  0
XRECORD
  5
ED
102
{ACAD_REACTORS
330
EC
102
}
330
EC
100
AcDbXrecord
340
1A
  0
MLINESTYLE
  5
17
102
{ACAD_REACTORS
330
16
102
}
330
16
100
AcDbMlineStyle
  2
STANDARD
 70
     0
  3

 62
   256
 51
90.0
 52
90.0
 71
     2
 49
0.5
 62
   256
  6
BYLAYER
 49
-0.5
 62
   256
  6
BYLAYER
  0
ACDBPLACEHOLDER
  5
F
102
{ACAD_REACTORS
330
E
102
}
330
E
100
AcDbPlaceHolder
280
     0
  0
XRECORD
  5
D6
102
{ACAD_REACTORS
330
CC
102
}
330
CC
100
AcDbXrecord
 90
        0
  0
XRECORD
  5
D7
102
{ACAD_REACTORS
330
CC
102
}
330
CC
100
AcDbXrecord
  1
{346E6FE0-1791-4B09-A7ED-1F88B7403ED3}
  0
XRECORD
  5
CF
102
{ACAD_REACTORS
330
CC
102
}
330
CC
100
AcDbXrecord
  1

  0
XRECORD
  5
D5
102
{ACAD_REACTORS
330
CC
102
}
330
CC
100
AcDbXrecord
 90
        0
  0
XRECORD
  5
D1
102
{ACAD_REACTORS
330
CC
102
}
330
CC
100
AcDbXrecord
340
19
  0
XRECORD
  5
D4
102
{ACAD_REACTORS
330
CC
102
}
330
CC
100
AcDbXrecord
 90
    10781
  0
XRECORD
  5
D2
102
{ACAD_REACTORS
330
CC
102
}
330
CC
100
AcDbXrecord
340
18
  0
XRECORD
  5
D3
102
{ACAD_REACTORS
330
CC
102
}
330
CC
100
AcDbXrecord
340
E
  0
XRECORD
  5
D9
102
{ACAD_REACTORS
330
CC
102
}
330
CC
100
AcDbXrecord
 40
0.0
  0
XRECORD
  5
DC
102
{ACAD_REACTORS
330
CC
102
}
330
CC
100
AcDbXrecord
340
0
  0
XRECORD
  5
E2
102
{ACAD_REACTORS
330
CC
102
}
330
CC
100
AcDbXrecord
 10
0.0
 20
0.0
 30
0.0
  0
XRECORD
  5
DE
102
{ACAD_REACTORS
330
CC
102
}
330
CC
100
AcDbXrecord
 10
0.0
 20
0.0
 30
0.0
  0
XRECORD
  5
E1
102
{ACAD_REACTORS
330
CC
102
}
330
CC
100
AcDbXrecord
 10
0.0
 20
0.0
 30
0.0
  0
XRECORD
  5
DF
102
{ACAD_REACTORS
330
CC
102
}
330
CC
100
AcDbXrecord
 10
0.0
 20
0.0
 30
0.0
  0
XRECORD
  5
E0
102
{ACAD_REACTORS
330
CC
102
}
330
CC
100
AcDbXrecord
 10
0.0
 20
0.0
 30
0.0
  0
XRECORD
  5
DD
102
{ACAD_REACTORS
330
CC
102
}
330
CC
100
AcDbXrecord
 10
0.0
 20
0.0
 30
0.0
  0
XRECORD
  5
DA
102
{ACAD_REACTORS
330
CC
102
}
330
CC
100
AcDbXrecord
340
0
  0
XRECORD
  5
DB
102
{ACAD_REACTORS
330
CC
102
}
330
CC
100
AcDbXrecord
 70
     0
  0
XRECORD
  5
D0
102
{ACAD_REACTORS
330
CC
102
}
330
CC
100
AcDbXrecord
  1

  0
XRECORD
  5
CD
102
{ACAD_REACTORS
330
CC
102
}
330
CC
100
AcDbXrecord
 90
        1
  0
XRECORD
  5
CE
102
{ACAD_REACTORS
330
CC
102
}
330
CC
100
AcDbXrecord
 90
       70
  0
XRECORD
  5
E5
102
{ACAD_REACTORS
330
CC
102
}
330
CC
100
AcDbXrecord
340
0
  0
XRECORD
  5
EB
102
{ACAD_REACTORS
330
CC
102
}
330
CC
100
AcDbXrecord
 10
0.0
 20
0.0
 30
0.0
  0
XRECORD
  5
E7
102
{ACAD_REACTORS
330
CC
102
}
330
CC
100
AcDbXrecord
 10
0.0
 20
0.0
 30
0.0
  0
XRECORD
  5
EA
102
{ACAD_REACTORS
330
CC
102
}
330
CC
100
AcDbXrecord
 10
0.0
 20
0.0
 30
0.0
  0
XRECORD
  5
E8
102
{ACAD_REACTORS
330
CC
102
}
330
CC
100
AcDbXrecord
 10
0.0
 20
0.0
 30
0.0
  0
XRECORD
  5
E9
102
{ACAD_REACTORS
330
CC
102
}
330
CC
100
AcDbXrecord
 10
0.0
 20
0.0
 30
0.0
  0
XRECORD
  5
E6
102
{ACAD_REACTORS
330
CC
102
}
330
CC
100
AcDbXrecord
 10
0.0
 20
0.0
 30
0.0
  0
XRECORD
  5
E3
102
{ACAD_REACTORS
330
CC
102
}
330
CC
100
AcDbXrecord
340
0
  0
XRECORD
  5
E4
102
{ACAD_REACTORS
330
CC
102
}
330
CC
100
AcDbXrecord
 70
     1
  0
XRECORD
  5
D8
102
{ACAD_REACTORS
330
CC
102
}
330
CC
100
AcDbXrecord
  1
{329B74C6-BFD1-43A8-9722-231715FAC2B5}
  0
DICTIONARYVAR
  5
CA
102
{ACAD_REACTORS
330
C9
102
}
330
C9
100
DictionaryVariables
280
     0
  1
1
  0
ENDSEC
  0
EOF
