  0
SECTION
  2
HEADER
  9
$ACADVER
  1
AC1014
  9
$ACADMAINTVER
 70
     9
  9
$DWGCODEPAGE
  3
ANSI_1252
  9
$INSBASE
 10
0.0
 20
0.0
 30
0.0
  9
$EXTMIN
 10
-0.0000000000000066
 20
-0.210799999999995
 30
0.0
  9
$EXTMAX
 10
66.0
 20
192.2108
 30
0.0
  9
$LIMMIN
 10
0.0
 20
0.0
  9
$LIMMAX
 10
12.0
 20
9.0
  9
$ORTHOMODE
 70
     0
  9
$REGENMODE
 70
     1
  9
$FILLMODE
 70
     1
  9
$QTEXTMODE
 70
     0
  9
$MIRRTEXT
 70
     1
  9
$DRAGMODE
 70
     2
  9
$LTSCALE
 40
1.0
  9
$OSMODE
 70
    37
  9
$ATTMODE
 70
     1
  9
$TEXTSIZE
 40
0.2
  9
$TRACEWID
 40
0.05
  9
$TEXTSTYLE
  7
STANDARD
  9
$CLAYER
  8
0
  9
$CELTYPE
  6
CONTINUOUS
  9
$CECOLOR
 62
   256
  9
$CELTSCALE
 40
1.0
  9
$DELOBJ
 70
     1
  9
$DISPSILH
 70
     0
  9
$DIMSCALE
 40
1.0
  9
$DIMASZ
 40
0.18
  9
$DIMEXO
 40
0.0625
  9
$DIMDLI
 40
0.38
  9
$DIMRND
 40
0.0
  9
$DIMDLE
 40
0.0
  9
$DIMEXE
 40
0.18
  9
$DIMTP
 40
0.0
  9
$DIMTM
 40
0.0
  9
$DIMTXT
 40
0.18
  9
$DIMCEN
 40
0.09
  9
$DIMTSZ
 40
0.0
  9
$DIMTOL
 70
     0
  9
$DIMLIM
 70
     0
  9
$DIMTIH
 70
     1
  9
$DIMTOH
 70
     1
  9
$DIMSE1
 70
     0
  9
$DIMSE2
 70
     0
  9
$DIMTAD
 70
     0
  9
$DIMZIN
 70
     0
  9
$DIMBLK
  1

  9
$DIMASO
 70
     1
  9
$DIMSHO
 70
     1
  9
$DIMPOST
  1

  9
$DIMAPOST
  1

  9
$DIMALT
 70
     0
  9
$DIMALTD
 70
     2
  9
$DIMALTF
 40
25.4
  9
$DIMLFAC
 40
1.0
  9
$DIMTOFL
 70
     0
  9
$DIMTVP
 40
0.0
  9
$DIMTIX
 70
     0
  9
$DIMSOXD
 70
     0
  9
$DIMSAH
 70
     0
  9
$DIMBLK1
  1

  9
$DIMBLK2
  1

  9
$DIMSTYLE
  2
STANDARD
  9
$DIMCLRD
 70
     0
  9
$DIMCLRE
 70
     0
  9
$DIMCLRT
 70
     0
  9
$DIMTFAC
 40
1.0
  9
$DIMGAP
 40
0.09
  9
$DIMJUST
 70
     0
  9
$DIMSD1
 70
     0
  9
$DIMSD2
 70
     0
  9
$DIMTOLJ
 70
     1
  9
$DIMTZIN
 70
     0
  9
$DIMALTZ
 70
     0
  9
$DIMALTTZ
 70
     0
  9
$DIMFIT
 70
     3
  9
$DIMUPT
 70
     0
  9
$DIMUNIT
 70
     2
  9
$DIMDEC
 70
     4
  9
$DIMTDEC
 70
     4
  9
$DIMALTU
 70
     2
  9
$DIMALTTD
 70
     2
  9
$DIMTXSTY
  7
STANDARD
  9
$DIMAUNIT
 70
     0
  9
$LUNITS
 70
     2
  9
$LUPREC
 70
     4
  9
$SKETCHINC
 40
0.1
  9
$FILLETRAD
 40
0.0
  9
$AUNITS
 70
     0
  9
$AUPREC
 70
     0
  9
$MENU
  1
.
  9
$ELEVATION
 40
0.0
  9
$PELEVATION
 40
0.0
  9
$THICKNESS
 40
0.0
  9
$LIMCHECK
 70
     0
  9
$BLIPMODE
 70
     0
  9
$CHAMFERA
 40
0.0
  9
$CHAMFERB
 40
0.0
  9
$CHAMFERC
 40
0.0
  9
$CHAMFERD
 40
0.0
  9
$SKPOLY
 70
     0
  9
$TDCREATE
 40
2454698.399899444
  9
$TDUPDATE
 40
2454698.400341793
  9
$TDINDWG
 40
0.0004425231
  9
$TDUSRTIMER
 40
0.0004425231
  9
$USRTIMER
 70
     1
  9
$ANGBASE
 50
0.0
  9
$ANGDIR
 70
     0
  9
$PDMODE
 70
     0
  9
$PDSIZE
 40
0.0
  9
$PLINEWID
 40
0.0
  9
$COORDS
 70
     1
  9
$SPLFRAME
 70
     0
  9
$SPLINETYPE
 70
     6
  9
$SPLINESEGS
 70
     8
  9
$ATTDIA
 70
     0
  9
$ATTREQ
 70
     1
  9
$HANDLING
 70
 22529
  9
$HANDSEED
  5
25D
  9
$SURFTAB1
 70
     6
  9
$SURFTAB2
 70
     6
  9
$SURFTYPE
 70
     6
  9
$SURFU
 70
     6
  9
$SURFV
 70
     6
  9
$UCSNAME
  2

  9
$UCSORG
 10
0.0
 20
0.0
 30
0.0
  9
$UCSXDIR
 10
1.0
 20
0.0
 30
0.0
  9
$UCSYDIR
 10
0.0
 20
1.0
 30
0.0
  9
$PUCSNAME
  2

  9
$PUCSORG
 10
0.0
 20
0.0
 30
0.0
  9
$PUCSXDIR
 10
1.0
 20
0.0
 30
0.0
  9
$PUCSYDIR
 10
0.0
 20
1.0
 30
0.0
  9
$USERI1
 70
     0
  9
$USERI2
 70
     0
  9
$USERI3
 70
     0
  9
$USERI4
 70
     0
  9
$USERI5
 70
     0
  9
$USERR1
 40
0.0
  9
$USERR2
 40
0.0
  9
$USERR3
 40
0.0
  9
$USERR4
 40
0.0
  9
$USERR5
 40
0.0
  9
$WORLDVIEW
 70
     1
  9
$SHADEDGE
 70
     3
  9
$SHADEDIF
 70
    70
  9
$TILEMODE
 70
     1
  9
$MAXACTVP
 70
    64
  9
$PINSBASE
 10
0.0
 20
0.0
 30
0.0
  9
$PLIMCHECK
 70
     0
  9
$PEXTMIN
 10
1.000000000000000E+20
 20
1.000000000000000E+20
 30
1.000000000000000E+20
  9
$PEXTMAX
 10
-1.000000000000000E+20
 20
-1.000000000000000E+20
 30
-1.000000000000000E+20
  9
$PLIMMIN
 10
0.0
 20
0.0
  9
$PLIMMAX
 10
12.0
 20
9.0
  9
$UNITMODE
 70
     0
  9
$VISRETAIN
 70
     1
  9
$PLINEGEN
 70
     0
  9
$PSLTSCALE
 70
     1
  9
$TREEDEPTH
 70
  3020
  9
$PICKSTYLE
 70
     1
  9
$CMLSTYLE
  2
STANDARD
  9
$CMLJUST
 70
     0
  9
$CMLSCALE
 40
1.0
  9
$PROXYGRAPHICS
 70
     1
  9
$MEASUREMENT
 70
     0
  0
ENDSEC
  0
SECTION
  2
CLASSES
  0
CLASS
  1
ACDBDICTIONARYWDFLT
  2
AcDbDictionaryWithDefault
  3
AutoCAD 2000
 90
        0
280
     0
281
     0
  0
CLASS
  1
ACDBPLACEHOLDER
  2
AcDbPlaceHolder
  3
AutoCAD 2000
 90
        0
280
     0
281
     0
  0
CLASS
  1
LAYOUT
  2
AcDbLayout
  3
AutoCAD 2000
 90
        0
280
     0
281
     0
  0
CLASS
  1
DICTIONARYVAR
  2
AcDbDictionaryVar
  3
AutoCAD 2000
 90
        0
280
     0
281
     0
  0
CLASS
  1
LONG_TRANSACTION
  2
AcDbLongTransaction
  3
AutoCAD 2000
 90
        0
280
     0
281
     0
  0
CLASS
  1
LWPOLYLINE
  2
AcDbPolyline
  3
AutoCAD 2000
 90
        0
280
     0
281
     1
  0
CLASS
  1
HATCH
  2
AcDbHatch
  3
AutoCAD 2000
 90
        0
280
     0
281
     1
  0
CLASS
  1
XRECORD
  2
AcDbXrecord
  3
AutoCAD 2000
 90
        0
280
     0
281
     0
  0
ENDSEC
  0
SECTION
  2
TABLES
  0
TABLE
  2
VPORT
  5
8
330
0
100
AcDbSymbolTable
 70
     2
  0
VPORT
  5
238
330
8
100
AcDbSymbolTableRecord
100
AcDbViewportTableRecord
  2
*ACTIVE
 70
     0
 10
0.0
 20
0.0
 11
1.0
 21
1.0
 12
32.99999999999999
 22
96.00000000000001
 13
0.0
 23
0.0
 14
1.0
 24
1.0
 15
0.0
 25
0.0
 16
0.0
 26
0.0
 36
1.0
 17
0.0
 27
0.0
 37
0.0
 40
193.8979805626598
 41
2.078104993597951
 42
50.0
 43
0.0
 44
0.0
 50
0.0
 51
0.0
 71
     0
 72
   100
 73
     1
 74
     3
 75
     0
 76
     0
 77
     0
 78
     0
  0
ENDTAB
  0
TABLE
  2
LTYPE
  5
5
330
0
100
AcDbSymbolTable
 70
     1
  0
LTYPE
  5
13
330
5
100
AcDbSymbolTableRecord
100
AcDbLinetypeTableRecord
  2
BYBLOCK
 70
     0
  3

 72
    65
 73
     0
 40
0.0
  0
LTYPE
  5
14
330
5
100
AcDbSymbolTableRecord
100
AcDbLinetypeTableRecord
  2
BYLAYER
 70
     0
  3

 72
    65
 73
     0
 40
0.0
  0
LTYPE
  5
15
330
5
100
AcDbSymbolTableRecord
100
AcDbLinetypeTableRecord
  2
CONTINUOUS
 70
     0
  3
Solid line
 72
    65
 73
     0
 40
0.0
  0
ENDTAB
  0
TABLE
  2
LAYER
  5
2
330
0
100
AcDbSymbolTable
 70
     1
  0
LAYER
  5
10
330
2
100
AcDbSymbolTableRecord
100
AcDbLayerTableRecord
  2
0
 70
     0
 62
     7
  6
CONTINUOUS
  0
ENDTAB
  0
TABLE
  2
STYLE
  5
3
330
0
100
AcDbSymbolTable
 70
     1
  0
STYLE
  5
11
330
3
100
AcDbSymbolTableRecord
100
AcDbTextStyleTableRecord
  2
STANDARD
 70
     0
 40
0.0
 41
1.0
 50
0.0
 71
     0
 42
0.2
  3
txt
  4

  0
ENDTAB
  0
TABLE
  2
VIEW
  5
6
330
0
100
AcDbSymbolTable
 70
     0
  0
ENDTAB
  0
TABLE
  2
UCS
  5
7
330
0
100
AcDbSymbolTable
 70
     0
  0
ENDTAB
  0
TABLE
  2
APPID
  5
9
330
0
100
AcDbSymbolTable
 70
     1
  0
APPID
  5
12
330
9
100
AcDbSymbolTableRecord
100
AcDbRegAppTableRecord
  2
ACAD
 70
     0
  0
ENDTAB
  0
TABLE
  2
DIMSTYLE
  5
A
330
0
100
AcDbSymbolTable
 70
     1
  0
DIMSTYLE
105
232
330
A
100
AcDbSymbolTableRecord
100
AcDbDimStyleTableRecord
  2
STANDARD
 70
     0
  3

  4

  5

  6

  7

 40
1.0
 41
0.18
 42
0.0625
 43
0.38
 44
0.18
 45
0.0
 46
0.0
 47
0.0
 48
0.0
140
0.18
141
0.09
142
0.0
143
25.4
144
1.0
145
0.0
146
1.0
147
0.09
 71
     0
 72
     0
 73
     1
 74
     1
 75
     0
 76
     0
 77
     0
 78
     0
170
     0
171
     2
172
     0
173
     0
174
     0
175
     0
176
     0
177
     0
178
     0
270
     2
271
     4
272
     4
273
     2
274
     2
340
11
275
     0
280
     0
281
     0
282
     0
283
     1
284
     0
285
     0
286
     0
287
     3
288
     0
  0
ENDTAB
  0
TABLE
  2
BLOCK_RECORD
  5
1
330
0
100
AcDbSymbolTable
 70
     0
  0
BLOCK_RECORD
  5
1E
102
{ACAD_XDICTIONARY
360
25B
102
}
330
1
100
AcDbSymbolTableRecord
100
AcDbBlockTableRecord
  2
*MODEL_SPACE
  0
BLOCK_RECORD
  5
1A
102
{ACAD_XDICTIONARY
360
259
102
}
330
1
100
AcDbSymbolTableRecord
100
AcDbBlockTableRecord
  2
*PAPER_SPACE
  0
ENDTAB
  0
ENDSEC
  0
SECTION
  2
BLOCKS
  0
BLOCK
  5
1F
330
1E
100
AcDbEntity
  8
0
100
AcDbBlockBegin
  2
*MODEL_SPACE
 70
     0
 10
0.0
 20
0.0
 30
0.0
  3
*MODEL_SPACE
  1

  0
ENDBLK
  5
20
330
1E
100
AcDbEntity
  8
0
100
AcDbBlockEnd
  0
BLOCK
  5
1B
330
1A
100
AcDbEntity
 67
     1
  8
0
100
AcDbBlockBegin
  2
*PAPER_SPACE
 70
     0
 10
0.0
 20
0.0
 30
0.0
  3
*PAPER_SPACE
  1

  0
ENDBLK
  5
1C
330
1A
100
AcDbEntity
 67
     1
  8
0
100
AcDbBlockEnd
  0
ENDSEC
  0
SECTION
  2
ENTITIES
  0
LINE
  5
22
330
1E
100
AcDbEntity
  8
0
100
AcDbLine
 10
4.46108999999999
 20
0.8969000000000059
 30
0.0
 11
4.96108999999999
 21
0.8969000000000059
 31
0.0
  0
LINE
  5
23
330
1E
100
AcDbEntity
  8
0
100
AcDbLine
 10
4.54441999999999
 20
1.543099999999999
 30
0.0
 11
5.12774999999999
 21
1.82
 31
0.0
  0
LINE
  5
24
330
1E
100
AcDbEntity
  8
0
100
AcDbLine
 10
4.54441999999999
 20
1.543099999999999
 30
0.0
 11
4.71108999999999
 21
1.543099999999999
 31
0.0
  0
LINE
  5
25
330
1E
100
AcDbEntity
  8
0
100
AcDbLine
 10
4.29441999999999
 20
0.8969000000000059
 30
0.0
 11
4.54441999999999
 21
0.2508000000000019
 31
0.0
  0
LINE
  5
26
330
1E
100
AcDbEntity
  8
0
100
AcDbLine
 10
4.29441999999999
 20
0.8969000000000059
 30
0.0
 11
4.54441999999999
 21
1.543099999999999
 31
0.0
  0
LINE
  5
27
330
1E
100
AcDbEntity
  8
0
100
AcDbLine
 10
4.29441999999999
 20
0.8969000000000059
 30
0.0
 11
4.46108999999999
 21
0.8969000000000059
 31
0.0
  0
LINE
  5
28
330
1E
100
AcDbEntity
  8
0
100
AcDbLine
 10
4.29441999999999
 20
0.8969000000000059
 30
0.0
 11
4.54441999999999
 21
0.2508000000000019
 31
0.0
  0
LINE
  5
29
330
1E
100
AcDbEntity
  8
0
100
AcDbLine
 10
4.96108999999999
 20
0.8969000000000059
 30
0.0
 11
5.79441999999999
 21
0.8969000000000059
 31
0.0
  0
LINE
  5
2A
330
1E
100
AcDbEntity
  8
0
100
AcDbLine
 10
4.71108999999999
 20
0.2508000000000019
 30
0.0
 11
5.21108999999999
 21
0.2508000000000019
 31
0.0
  0
LINE
  5
2B
330
1E
100
AcDbEntity
  8
0
100
AcDbLine
 10
5.21108999999999
 20
0.2508000000000019
 30
0.0
 11
5.96108999999999
 21
0.2508000000000019
 31
0.0
  0
LINE
  5
2C
330
1E
100
AcDbEntity
  8
0
100
AcDbLine
 10
5.29441999999999
 20
-0.0261000000000029
 30
0.0
 11
5.71108999999999
 21
-0.0261000000000029
 31
0.0
  0
LINE
  5
2D
330
1E
100
AcDbEntity
  8
0
100
AcDbLine
 10
5.12774999999999
 20
-0.0261000000000029
 30
0.0
 11
5.29441999999999
 21
-0.0261000000000029
 31
0.0
  0
LINE
  5
2E
330
1E
100
AcDbEntity
  8
0
100
AcDbLine
 10
5.21108999999999
 20
1.543099999999999
 30
0.0
 11
5.96108999999999
 21
1.543099999999999
 31
0.0
  0
LINE
  5
2F
330
1E
100
AcDbEntity
  8
0
100
AcDbLine
 10
5.71108999999999
 20
1.82
 30
0.0
 11
6.37774999999999
 21
1.82
 31
0.0
  0
LINE
  5
30
330
1E
100
AcDbEntity
  8
0
100
AcDbLine
 10
5.29441999999999
 20
1.82
 30
0.0
 11
5.71108999999999
 21
1.82
 31
0.0
  0
LINE
  5
31
330
1E
100
AcDbEntity
  8
0
100
AcDbLine
 10
4.71108999999999
 20
1.543099999999999
 30
0.0
 11
5.21108999999999
 21
1.543099999999999
 31
0.0
  0
LINE
  5
32
330
1E
100
AcDbEntity
  8
0
100
AcDbLine
 10
5.96108999999999
 20
1.543099999999999
 30
0.0
 11
6.96108999999999
 21
1.543099999999999
 31
0.0
  0
LINE
  5
33
330
1E
100
AcDbEntity
  8
0
100
AcDbLine
 10
5.79441999999999
 20
0.8969000000000059
 30
0.0
 11
6.79441999999999
 21
0.8969000000000059
 31
0.0
  0
LINE
  5
34
330
1E
100
AcDbEntity
  8
0
100
AcDbLine
 10
5.96108999999999
 20
0.2508000000000019
 30
0.0
 11
6.96108999999999
 21
0.2508000000000019
 31
0.0
  0
LINE
  5
35
330
1E
100
AcDbEntity
  8
0
100
AcDbLine
 10
5.96108999999999
 20
15.0201
 30
0.0
 11
5.96108999999999
 21
29.7893
 31
0.0
  0
LINE
  5
36
330
1E
100
AcDbEntity
  8
0
100
AcDbLine
 10
5.54441999999999
 20
6.712399999999999
 30
0.0
 11
5.96108999999999
 21
15.0201
 31
0.0
  0
LINE
  5
37
330
1E
100
AcDbEntity
  8
0
100
AcDbLine
 10
5.12774999999999
 20
1.82
 30
0.0
 11
5.54441999999999
 21
6.712399999999999
 31
0.0
  0
LINE
  5
38
330
1E
100
AcDbEntity
  8
0
100
AcDbLine
 10
5.12774999999999
 20
1.82
 30
0.0
 11
5.29441999999999
 21
1.82
 31
0.0
  0
LINE
  5
39
330
1E
100
AcDbEntity
  8
0
100
AcDbLine
 10
4.54441999999999
 20
0.2508000000000019
 30
0.0
 11
5.12774999999999
 21
-0.0261000000000029
 31
0.0
  0
LINE
  5
3A
330
1E
100
AcDbEntity
  8
0
100
AcDbLine
 10
4.54441999999999
 20
0.2508000000000019
 30
0.0
 11
4.71108999999999
 21
0.2508000000000019
 31
0.0
  0
LINE
  5
3B
330
1E
100
AcDbEntity
  8
0
100
AcDbLine
 10
5.71108999999999
 20
-0.0261000000000029
 30
0.0
 11
6.04441999999999
 21
-0.0261000000000029
 31
0.0
  0
LINE
  5
3C
330
1E
100
AcDbEntity
  8
0
100
AcDbLine
 10
5.71108999999999
 20
-0.0261000000000029
 30
0.0
 11
6.37774999999999
 21
-0.0261000000000029
 31
0.0
  0
LINE
  5
3D
330
1E
100
AcDbEntity
  8
0
100
AcDbLine
 10
10.9611
 20
-0.118500000000001
 30
0.0
 11
11.5170677978339
 21
-0.0261000000000033
 31
0.0
  0
LINE
  5
3E
330
1E
100
AcDbEntity
  8
0
100
AcDbLine
 10
10.9611
 20
-0.118500000000001
 30
0.0
 11
11.5170677978339
 21
-0.0261000000000033
 31
0.0
  0
LINE
  5
3F
330
1E
100
AcDbEntity
  8
0
100
AcDbLine
 10
9.294419999999989
 20
-0.210799999999995
 30
0.0
 11
10.9611
 21
-0.118500000000001
 31
0.0
  0
LINE
  5
40
330
1E
100
AcDbEntity
  8
0
100
AcDbLine
 10
7.07179554512636
 20
-0.026100000000003
 30
0.0
 11
7.62774999999999
 21
-0.118500000000001
 31
0.0
  0
LINE
  5
41
330
1E
100
AcDbEntity
  8
0
100
AcDbLine
 10
6.37774999999999
 20
-0.0261000000000029
 30
0.0
 11
7.21108999999999
 21
-0.026100000000003
 31
0.0
  0
LINE
  5
42
330
1E
100
AcDbEntity
  8
0
100
AcDbLine
 10
6.37774999999999
 20
1.82
 30
0.0
 11
7.21108999999999
 21
1.82
 31
0.0
  0
LINE
  5
43
330
1E
100
AcDbEntity
  8
0
100
AcDbLine
 10
6.96108999999999
 20
1.543099999999999
 30
0.0
 11
8.044419999999989
 21
1.543099999999999
 31
0.0
  0
LINE
  5
44
330
1E
100
AcDbEntity
  8
0
100
AcDbLine
 10
6.79441999999999
 20
0.8969000000000059
 30
0.0
 11
8.044419999999989
 21
0.8969000000000059
 31
0.0
  0
LINE
  5
45
330
1E
100
AcDbEntity
  8
0
100
AcDbLine
 10
6.96108999999999
 20
0.2508000000000019
 30
0.0
 11
8.044419999999989
 21
0.2508000000000019
 31
0.0
  0
LINE
  5
46
330
1E
100
AcDbEntity
  8
0
100
AcDbLine
 10
6.04441999999999
 20
-0.0261000000000029
 30
0.0
 11
6.62774999999999
 21
-0.026100000000003
 31
0.0
  0
LINE
  5
47
330
1E
100
AcDbEntity
  8
0
100
AcDbLine
 10
11.3778
 20
-0.0261000000000033
 30
0.0
 11
12.2111
 21
-0.0261000000000033
 31
0.0
  0
LINE
  5
48
330
1E
100
AcDbEntity
  8
0
100
AcDbLine
 10
10.3778
 20
-0.0261000000000032
 30
0.0
 11
11.3778
 21
-0.0261000000000033
 31
0.0
  0
LINE
  5
49
330
1E
100
AcDbEntity
  8
0
100
AcDbLine
 10
9.294419999999989
 20
-0.0261000000000031
 30
0.0
 11
10.3778
 21
-0.0261000000000032
 31
0.0
  0
LINE
  5
4A
330
1E
100
AcDbEntity
  8
0
100
AcDbLine
 10
7.21108999999999
 20
1.82
 30
0.0
 11
8.211089999999989
 21
1.82
 31
0.0
  0
LINE
  5
4B
330
1E
100
AcDbEntity
  8
0
100
AcDbLine
 10
11.6278
 20
0.2508000000000019
 30
0.0
 11
12.6278
 21
0.250800000000001
 31
0.0
  0
LINE
  5
4C
330
1E
100
AcDbEntity
  8
0
100
AcDbLine
 10
10.5444
 20
0.2508000000000019
 30
0.0
 11
11.6278
 21
0.2508000000000019
 31
0.0
  0
LINE
  5
4D
330
1E
100
AcDbEntity
  8
0
100
AcDbLine
 10
9.294419999999989
 20
0.2508000000000019
 30
0.0
 11
10.5444
 21
0.2508000000000019
 31
0.0
  0
LINE
  5
4E
330
1E
100
AcDbEntity
  8
0
100
AcDbLine
 10
8.044419999999989
 20
1.543099999999999
 30
0.0
 11
9.294419999999989
 21
1.543099999999999
 31
0.0
  0
LINE
  5
4F
330
1E
100
AcDbEntity
  8
0
100
AcDbLine
 10
9.294419999999989
 20
1.82
 30
0.0
 11
10.3778
 21
1.82
 31
0.0
  0
LINE
  5
50
330
1E
100
AcDbEntity
  8
0
100
AcDbLine
 10
9.294419999999989
 20
1.543099999999999
 30
0.0
 11
10.5444
 21
1.543099999999999
 31
0.0
  0
LINE
  5
51
330
1E
100
AcDbEntity
  8
0
100
AcDbLine
 10
11.7944
 20
0.8969000000000059
 30
0.0
 11
12.7944
 21
0.896900000000005
 31
0.0
  0
LINE
  5
52
330
1E
100
AcDbEntity
  8
0
100
AcDbLine
 10
10.3778
 20
1.82
 30
0.0
 11
11.3778
 21
1.82
 31
0.0
  0
LINE
  5
53
330
1E
100
AcDbEntity
  8
0
100
AcDbLine
 10
11.3778
 20
1.82
 30
0.0
 11
12.2111
 21
1.82
 31
0.0
  0
LINE
  5
54
330
1E
100
AcDbEntity
  8
0
100
AcDbLine
 10
11.6278
 20
1.543099999999999
 30
0.0
 11
12.6278
 21
1.543099999999999
 31
0.0
  0
LINE
  5
55
330
1E
100
AcDbEntity
  8
0
100
AcDbLine
 10
10.5444
 20
1.543099999999999
 30
0.0
 11
11.6278
 21
1.543099999999999
 31
0.0
  0
LINE
  5
56
330
1E
100
AcDbEntity
  8
0
100
AcDbLine
 10
10.5444
 20
0.8969000000000059
 30
0.0
 11
11.7944
 21
0.8969000000000059
 31
0.0
  0
LINE
  5
57
330
1E
100
AcDbEntity
  8
0
100
AcDbLine
 10
9.294419999999989
 20
0.8969000000000059
 30
0.0
 11
10.5444
 21
0.8969000000000059
 31
0.0
  0
LINE
  5
58
330
1E
100
AcDbEntity
  8
0
100
AcDbLine
 10
8.211089999999989
 20
1.82
 30
0.0
 11
9.294419999999989
 21
1.82
 31
0.0
  0
LINE
  5
59
330
1E
100
AcDbEntity
  8
0
100
AcDbLine
 10
8.044419999999989
 20
0.8969000000000059
 30
0.0
 11
9.294419999999989
 21
0.8969000000000059
 31
0.0
  0
LINE
  5
5A
330
1E
100
AcDbEntity
  8
0
100
AcDbLine
 10
8.044419999999989
 20
0.2508000000000019
 30
0.0
 11
9.294419999999989
 21
0.2508000000000019
 31
0.0
  0
LINE
  5
5B
330
1E
100
AcDbEntity
  8
0
100
AcDbLine
 10
7.21108999999999
 20
-0.026100000000003
 30
0.0
 11
8.211089999999989
 21
-0.0261000000000031
 31
0.0
  0
LINE
  5
5C
330
1E
100
AcDbEntity
  8
0
100
AcDbLine
 10
8.211089999999989
 20
-0.0261000000000031
 30
0.0
 11
9.294419999999989
 21
-0.0261000000000031
 31
0.0
  0
LINE
  5
5D
330
1E
100
AcDbEntity
  8
0
100
AcDbLine
 10
12.2111
 20
1.82
 30
0.0
 11
12.8778
 21
1.82
 31
0.0
  0
LINE
  5
5E
330
1E
100
AcDbEntity
  8
0
100
AcDbLine
 10
12.6278
 20
1.543099999999999
 30
0.0
 11
13.3778
 21
1.543099999999999
 31
0.0
  0
LINE
  5
5F
330
1E
100
AcDbEntity
  8
0
100
AcDbLine
 10
12.6278
 20
0.250800000000001
 30
0.0
 11
13.3778
 21
0.250800000000001
 31
0.0
  0
LINE
  5
60
330
1E
100
AcDbEntity
  8
0
100
AcDbLine
 10
12.2111
 20
-0.0261000000000033
 30
0.0
 11
12.8778
 21
-0.0261000000000033
 31
0.0
  0
LINE
  5
61
330
1E
100
AcDbEntity
  8
0
100
AcDbLine
 10
12.6278
 20
15.0201
 30
0.0
 11
13.0444
 21
6.712399999999999
 31
0.0
  0
LINE
  5
62
330
1E
100
AcDbEntity
  8
0
100
AcDbLine
 10
12.6278
 20
15.0201
 30
0.0
 11
12.6278
 21
29.7893
 31
0.0
  0
LINE
  5
63
330
1E
100
AcDbEntity
  8
0
100
AcDbLine
 10
11.9611
 20
-0.0261000000000033
 30
0.0
 11
12.54439999999999
 21
-0.0261000000000033
 31
0.0
  0
LINE
  5
64
330
1E
100
AcDbEntity
  8
0
100
AcDbLine
 10
12.54439999999999
 20
-0.0261000000000033
 30
0.0
 11
12.8778
 21
-0.0261000000000033
 31
0.0
  0
LINE
  5
65
330
1E
100
AcDbEntity
  8
0
100
AcDbLine
 10
7.07179554512636
 20
-0.026100000000003
 30
0.0
 11
7.62774999999999
 21
-0.118500000000001
 31
0.0
  0
LINE
  5
66
330
1E
100
AcDbEntity
  8
0
100
AcDbLine
 10
7.62774999999999
 20
-0.118500000000001
 30
0.0
 11
9.294419999999989
 21
-0.210799999999995
 31
0.0
  0
LINE
  5
67
330
1E
100
AcDbEntity
  8
0
100
AcDbLine
 10
5.96108999999999
 20
29.7893
 30
0.0
 11
5.96108999999999
 21
44.55845
 31
0.0
  0
LINE
  5
68
330
1E
100
AcDbEntity
  8
0
100
AcDbLine
 10
4.46108999999999
 20
58.6816
 30
0.0
 11
4.96108999999999
 21
58.6816
 31
0.0
  0
LINE
  5
69
330
1E
100
AcDbEntity
  8
0
100
AcDbLine
 10
4.54441999999999
 20
58.0355
 30
0.0
 11
5.12774999999999
 21
57.7585
 31
0.0
  0
LINE
  5
6A
330
1E
100
AcDbEntity
  8
0
100
AcDbLine
 10
4.54441999999999
 20
58.0355
 30
0.0
 11
4.71108999999999
 21
58.0355
 31
0.0
  0
LINE
  5
6B
330
1E
100
AcDbEntity
  8
0
100
AcDbLine
 10
4.29441999999999
 20
58.6816
 30
0.0
 11
4.54441999999999
 21
59.32780000000001
 31
0.0
  0
LINE
  5
6C
330
1E
100
AcDbEntity
  8
0
100
AcDbLine
 10
4.29441999999999
 20
58.6816
 30
0.0
 11
4.54441999999999
 21
58.0355
 31
0.0
  0
LINE
  5
6D
330
1E
100
AcDbEntity
  8
0
100
AcDbLine
 10
4.29441999999999
 20
58.6816
 30
0.0
 11
4.46108999999999
 21
58.6816
 31
0.0
  0
LINE
  5
6E
330
1E
100
AcDbEntity
  8
0
100
AcDbLine
 10
5.29441999999999
 20
57.7585
 30
0.0
 11
5.71108999999999
 21
57.7585
 31
0.0
  0
LINE
  5
6F
330
1E
100
AcDbEntity
  8
0
100
AcDbLine
 10
6.37774999999999
 20
57.7585
 30
0.0
 11
7.21108999999999
 21
57.7585
 31
0.0
  0
LINE
  5
70
330
1E
100
AcDbEntity
  8
0
100
AcDbLine
 10
7.21108999999999
 20
57.7585
 30
0.0
 11
8.211089999999989
 21
57.7585
 31
0.0
  0
LINE
  5
71
330
1E
100
AcDbEntity
  8
0
100
AcDbLine
 10
8.211089999999989
 20
57.7585
 30
0.0
 11
9.294419999999989
 21
57.7585
 31
0.0
  0
LINE
  5
72
330
1E
100
AcDbEntity
  8
0
100
AcDbLine
 10
5.71108999999999
 20
57.7585
 30
0.0
 11
6.37774999999999
 21
57.7585
 31
0.0
  0
LINE
  5
73
330
1E
100
AcDbEntity
  8
0
100
AcDbLine
 10
12.2111
 20
57.7585
 30
0.0
 11
12.8778
 21
57.7585
 31
0.0
  0
LINE
  5
74
330
1E
100
AcDbEntity
  8
0
100
AcDbLine
 10
11.3778
 20
57.7585
 30
0.0
 11
12.2111
 21
57.7585
 31
0.0
  0
LINE
  5
75
330
1E
100
AcDbEntity
  8
0
100
AcDbLine
 10
10.3778
 20
57.7585
 30
0.0
 11
11.3778
 21
57.7585
 31
0.0
  0
LINE
  5
76
330
1E
100
AcDbEntity
  8
0
100
AcDbLine
 10
9.294419999999989
 20
57.7585
 30
0.0
 11
10.3778
 21
57.7585
 31
0.0
  0
LINE
  5
77
330
1E
100
AcDbEntity
  8
0
100
AcDbLine
 10
5.54441999999999
 20
52.8662
 30
0.0
 11
5.96108999999999
 21
44.55845
 31
0.0
  0
LINE
  5
78
330
1E
100
AcDbEntity
  8
0
100
AcDbLine
 10
5.96108999999999
 20
58.0355
 30
0.0
 11
6.96108999999999
 21
58.0355
 31
0.0
  0
LINE
  5
79
330
1E
100
AcDbEntity
  8
0
100
AcDbLine
 10
6.96108999999999
 20
58.0355
 30
0.0
 11
8.044419999999989
 21
58.0355
 31
0.0
  0
LINE
  5
7A
330
1E
100
AcDbEntity
  8
0
100
AcDbLine
 10
8.044419999999989
 20
58.0355
 30
0.0
 11
9.294419999999989
 21
58.0355
 31
0.0
  0
LINE
  5
7B
330
1E
100
AcDbEntity
  8
0
100
AcDbLine
 10
5.21108999999999
 20
58.0355
 30
0.0
 11
5.96108999999999
 21
58.0355
 31
0.0
  0
LINE
  5
7C
330
1E
100
AcDbEntity
  8
0
100
AcDbLine
 10
4.71108999999999
 20
58.0355
 30
0.0
 11
5.21108999999999
 21
58.0355
 31
0.0
  0
LINE
  5
7D
330
1E
100
AcDbEntity
  8
0
100
AcDbLine
 10
5.79441999999999
 20
58.6816
 30
0.0
 11
6.79441999999999
 21
58.6816
 31
0.0
  0
LINE
  5
7E
330
1E
100
AcDbEntity
  8
0
100
AcDbLine
 10
6.79441999999999
 20
58.6816
 30
0.0
 11
8.044419999999989
 21
58.6816
 31
0.0
  0
LINE
  5
7F
330
1E
100
AcDbEntity
  8
0
100
AcDbLine
 10
5.96108999999999
 20
59.32780000000001
 30
0.0
 11
6.96108999999999
 21
59.32780000000001
 31
0.0
  0
LINE
  5
80
330
1E
100
AcDbEntity
  8
0
100
AcDbLine
 10
8.044419999999989
 20
58.6816
 30
0.0
 11
9.294419999999989
 21
58.6816
 31
0.0
  0
LINE
  5
81
330
1E
100
AcDbEntity
  8
0
100
AcDbLine
 10
6.96108999999999
 20
59.32780000000001
 30
0.0
 11
8.044419999999989
 21
59.32780000000001
 31
0.0
  0
LINE
  5
82
330
1E
100
AcDbEntity
  8
0
100
AcDbLine
 10
8.044419999999989
 20
59.32780000000001
 30
0.0
 11
9.294419999999989
 21
59.32780000000001
 31
0.0
  0
LINE
  5
83
330
1E
100
AcDbEntity
  8
0
100
AcDbLine
 10
4.96108999999999
 20
58.6816
 30
0.0
 11
5.79441999999999
 21
58.6816
 31
0.0
  0
LINE
  5
84
330
1E
100
AcDbEntity
  8
0
100
AcDbLine
 10
5.21108999999999
 20
59.32780000000001
 30
0.0
 11
5.96108999999999
 21
59.32780000000001
 31
0.0
  0
LINE
  5
85
330
1E
100
AcDbEntity
  8
0
100
AcDbLine
 10
4.71108999999999
 20
59.32780000000001
 30
0.0
 11
5.21108999999999
 21
59.32780000000001
 31
0.0
  0
LINE
  5
86
330
1E
100
AcDbEntity
  8
0
100
AcDbLine
 10
9.294419999999989
 20
58.0355
 30
0.0
 11
10.5444
 21
58.0355
 31
0.0
  0
LINE
  5
87
330
1E
100
AcDbEntity
  8
0
100
AcDbLine
 10
9.294419999999989
 20
58.6816
 30
0.0
 11
10.5444
 21
58.6816
 31
0.0
  0
LINE
  5
88
330
1E
100
AcDbEntity
  8
0
100
AcDbLine
 10
5.79441999999999
 20
59.6047
 30
0.0
 11
5.79441999999999
 21
62.2108
 31
0.0
  0
LINE
  5
89
330
1E
100
AcDbEntity
  8
0
100
AcDbLine
 10
6.37774999999999
 20
59.6047
 30
0.0
 11
7.21108999999999
 21
59.6047
 31
0.0
  0
LINE
  5
8A
330
1E
100
AcDbEntity
  8
0
100
AcDbLine
 10
7.21108999999999
 20
59.6047
 30
0.0
 11
8.211089999999989
 21
59.6047
 31
0.0
  0
LINE
  5
8B
330
1E
100
AcDbEntity
  8
0
100
AcDbLine
 10
8.211089999999989
 20
59.6047
 30
0.0
 11
9.294419999999989
 21
59.6047
 31
0.0
  0
LINE
  5
8C
330
1E
100
AcDbEntity
  8
0
100
AcDbLine
 10
5.71108999999999
 20
59.6047
 30
0.0
 11
6.37774999999999
 21
59.6047
 31
0.0
  0
LINE
  5
8D
330
1E
100
AcDbEntity
  8
0
100
AcDbLine
 10
5.29441999999999
 20
59.6047
 30
0.0
 11
5.71108999999999
 21
59.6047
 31
0.0
  0
LINE
  5
8E
330
1E
100
AcDbEntity
  8
0
100
AcDbLine
 10
5.12774999999999
 20
59.6047
 30
0.0
 11
5.29441999999999
 21
59.6047
 31
0.0
  0
LINE
  5
8F
330
1E
100
AcDbEntity
  8
0
100
AcDbLine
 10
9.294419999999989
 20
59.32780000000001
 30
0.0
 11
10.5444
 21
59.32780000000001
 31
0.0
  0
LINE
  5
90
330
1E
100
AcDbEntity
  8
0
100
AcDbLine
 10
10.5444
 20
58.0355
 30
0.0
 11
11.6278
 21
58.0355
 31
0.0
  0
LINE
  5
91
330
1E
100
AcDbEntity
  8
0
100
AcDbLine
 10
10.5444
 20
58.6816
 30
0.0
 11
11.7944
 21
58.6816
 31
0.0
  0
LINE
  5
92
330
1E
100
AcDbEntity
  8
0
100
AcDbLine
 10
10.5444
 20
59.32780000000001
 30
0.0
 11
11.6278
 21
59.32780000000001
 31
0.0
  0
LINE
  5
93
330
1E
100
AcDbEntity
  8
0
100
AcDbLine
 10
11.6278
 20
58.0355
 30
0.0
 11
12.6278
 21
58.0355
 31
0.0
  0
LINE
  5
94
330
1E
100
AcDbEntity
  8
0
100
AcDbLine
 10
12.6278
 20
58.0355
 30
0.0
 11
13.3778
 21
58.0355
 31
0.0
  0
LINE
  5
95
330
1E
100
AcDbEntity
  8
0
100
AcDbLine
 10
12.6278
 20
59.32780000000001
 30
0.0
 11
13.3778
 21
59.32780000000001
 31
0.0
  0
LINE
  5
96
330
1E
100
AcDbEntity
  8
0
100
AcDbLine
 10
11.7944
 20
58.6816
 30
0.0
 11
12.7944
 21
58.6816
 31
0.0
  0
LINE
  5
97
330
1E
100
AcDbEntity
  8
0
100
AcDbLine
 10
12.2111
 20
59.6047
 30
0.0
 11
12.8778
 21
59.6047
 31
0.0
  0
LINE
  5
98
330
1E
100
AcDbEntity
  8
0
100
AcDbLine
 10
11.6278
 20
59.32780000000001
 30
0.0
 11
12.6278
 21
59.32780000000001
 31
0.0
  0
LINE
  5
99
330
1E
100
AcDbEntity
  8
0
100
AcDbLine
 10
11.3778
 20
59.6047
 30
0.0
 11
12.2111
 21
59.6047
 31
0.0
  0
LINE
  5
9A
330
1E
100
AcDbEntity
  8
0
100
AcDbLine
 10
10.3778
 20
59.6047
 30
0.0
 11
11.3778
 21
59.6047
 31
0.0
  0
LINE
  5
9B
330
1E
100
AcDbEntity
  8
0
100
AcDbLine
 10
9.294419999999989
 20
59.6047
 30
0.0
 11
10.3778
 21
59.6047
 31
0.0
  0
LINE
  5
9C
330
1E
100
AcDbEntity
  8
0
100
AcDbLine
 10
5.12774999999999
 20
57.7585
 30
0.0
 11
5.54441999999999
 21
52.8662
 31
0.0
  0
LINE
  5
9D
330
1E
100
AcDbEntity
  8
0
100
AcDbLine
 10
5.12774999999999
 20
57.7585
 30
0.0
 11
5.29441999999999
 21
57.7585
 31
0.0
  0
LINE
  5
9E
330
1E
100
AcDbEntity
  8
0
100
AcDbLine
 10
4.54441999999999
 20
59.32780000000001
 30
0.0
 11
5.12774999999999
 21
59.6047
 31
0.0
  0
LINE
  5
9F
330
1E
100
AcDbEntity
  8
0
100
AcDbLine
 10
4.54441999999999
 20
59.32780000000001
 30
0.0
 11
4.71108999999999
 21
59.32780000000001
 31
0.0
  0
LINE
  5
A0
330
1E
100
AcDbEntity
  8
0
100
AcDbLine
 10
12.6278
 20
29.7893
 30
0.0
 11
12.6278
 21
44.55845
 31
0.0
  0
LINE
  5
A1
330
1E
100
AcDbEntity
  8
0
100
AcDbLine
 10
12.6278
 20
29.7893
 30
0.0
 11
12.6278
 21
15.0201
 31
0.0
  0
LINE
  5
A2
330
1E
100
AcDbEntity
  8
0
100
AcDbLine
 10
12.7944
 20
0.896900000000005
 30
0.0
 11
13.6278
 21
0.896900000000005
 31
0.0
  0
LINE
  5
A3
330
1E
100
AcDbEntity
  8
0
100
AcDbLine
 10
12.7944
 20
59.6047
 30
0.0
 11
12.7944
 21
62.2108
 31
0.0
  0
LINE
  5
A4
330
1E
100
AcDbEntity
  8
0
100
AcDbLine
 10
12.7944
 20
58.6816
 30
0.0
 11
13.6278
 21
58.6816
 31
0.0
  0
LINE
  5
A5
330
1E
100
AcDbEntity
  8
0
100
AcDbLine
 10
12.6278
 20
44.55845
 30
0.0
 11
13.0444
 21
52.8662
 31
0.0
  0
LINE
  5
A6
330
1E
100
AcDbEntity
  8
0
100
AcDbLine
 10
2.49999999999999
 20
62.2108
 30
0.0
 11
12.7944
 21
62.2108
 31
0.0
  0
LINE
  5
A7
330
1E
100
AcDbEntity
  8
0
100
AcDbLine
 10
2.49999999999999
 20
62.2108
 30
0.0
 11
2.49999999999999
 21
62.9108
 31
0.0
  0
LINE
  5
A8
330
1E
100
AcDbEntity
  8
0
100
AcDbLine
 10
12.8778
 20
1.82
 30
0.0
 11
13.29439999999999
 21
1.82
 31
0.0
  0
LINE
  5
A9
330
1E
100
AcDbEntity
  8
0
100
AcDbLine
 10
13.29439999999999
 20
1.82
 30
0.0
 11
13.4611
 21
1.82
 31
0.0
  0
LINE
  5
AA
330
1E
100
AcDbEntity
  8
0
100
AcDbLine
 10
12.8778
 20
-0.0261000000000033
 30
0.0
 11
13.29439999999999
 21
-0.0261000000000034
 31
0.0
  0
LINE
  5
AB
330
1E
100
AcDbEntity
  8
0
100
AcDbLine
 10
13.3778
 20
1.543099999999999
 30
0.0
 11
13.8778
 21
1.543099999999999
 31
0.0
  0
LINE
  5
AC
330
1E
100
AcDbEntity
  8
0
100
AcDbLine
 10
13.3778
 20
0.250800000000001
 30
0.0
 11
13.8778
 21
0.250800000000001
 31
0.0
  0
LINE
  5
AD
330
1E
100
AcDbEntity
  8
0
100
AcDbLine
 10
13.4611
 20
-0.0261000000000034
 30
0.0
 11
14.0444
 21
0.250800000000001
 31
0.0
  0
LINE
  5
AE
330
1E
100
AcDbEntity
  8
0
100
AcDbLine
 10
13.29439999999999
 20
-0.0261000000000034
 30
0.0
 11
13.4611
 21
-0.0261000000000034
 31
0.0
  0
LINE
  5
AF
330
1E
100
AcDbEntity
  8
0
100
AcDbLine
 10
13.0444
 20
6.712399999999999
 30
0.0
 11
13.4611
 21
1.82
 31
0.0
  0
LINE
  5
B0
330
1E
100
AcDbEntity
  8
0
100
AcDbLine
 10
13.4611
 20
1.82
 30
0.0
 11
14.0444
 21
1.543099999999999
 31
0.0
  0
LINE
  5
B1
330
1E
100
AcDbEntity
  8
0
100
AcDbLine
 10
13.4611
 20
-0.0261000000000034
 30
0.0
 11
14.0444
 21
0.250800000000001
 31
0.0
  0
LINE
  5
B2
330
1E
100
AcDbEntity
  8
0
100
AcDbLine
 10
12.8778
 20
57.7585
 30
0.0
 11
13.29439999999999
 21
57.7585
 31
0.0
  0
LINE
  5
B3
330
1E
100
AcDbEntity
  8
0
100
AcDbLine
 10
13.29439999999999
 20
57.7585
 30
0.0
 11
13.4611
 21
57.7585
 31
0.0
  0
LINE
  5
B4
330
1E
100
AcDbEntity
  8
0
100
AcDbLine
 10
13.3778
 20
58.0355
 30
0.0
 11
13.8778
 21
58.0355
 31
0.0
  0
LINE
  5
B5
330
1E
100
AcDbEntity
  8
0
100
AcDbLine
 10
13.0444
 20
52.8662
 30
0.0
 11
13.4611
 21
57.7585
 31
0.0
  0
LINE
  5
B6
330
1E
100
AcDbEntity
  8
0
100
AcDbLine
 10
13.8778
 20
1.543099999999999
 30
0.0
 11
14.0444
 21
1.543099999999999
 31
0.0
  0
LINE
  5
B7
330
1E
100
AcDbEntity
  8
0
100
AcDbLine
 10
13.6278
 20
0.896900000000005
 30
0.0
 11
14.1278
 21
0.896900000000005
 31
0.0
  0
LINE
  5
B8
330
1E
100
AcDbEntity
  8
0
100
AcDbLine
 10
14.0444
 20
0.250800000000001
 30
0.0
 11
14.2944
 21
0.896900000000005
 31
0.0
  0
LINE
  5
B9
330
1E
100
AcDbEntity
  8
0
100
AcDbLine
 10
13.8778
 20
0.250800000000001
 30
0.0
 11
14.0444
 21
0.250800000000001
 31
0.0
  0
LINE
  5
BA
330
1E
100
AcDbEntity
  8
0
100
AcDbLine
 10
13.8778
 20
58.0355
 30
0.0
 11
14.0444
 21
58.0355
 31
0.0
  0
LINE
  5
BB
330
1E
100
AcDbEntity
  8
0
100
AcDbLine
 10
14.0444
 20
1.543099999999999
 30
0.0
 11
14.2944
 21
0.896900000000005
 31
0.0
  0
LINE
  5
BC
330
1E
100
AcDbEntity
  8
0
100
AcDbLine
 10
14.0444
 20
0.250800000000001
 30
0.0
 11
14.2944
 21
0.896900000000005
 31
0.0
  0
LINE
  5
BD
330
1E
100
AcDbEntity
  8
0
100
AcDbLine
 10
13.4611
 20
57.7585
 30
0.0
 11
14.0444
 21
58.0355
 31
0.0
  0
LINE
  5
BE
330
1E
100
AcDbEntity
  8
0
100
AcDbLine
 10
12.8778
 20
59.6047
 30
0.0
 11
13.29439999999999
 21
59.6047
 31
0.0
  0
LINE
  5
BF
330
1E
100
AcDbEntity
  8
0
100
AcDbLine
 10
13.6278
 20
58.6816
 30
0.0
 11
14.1278
 21
58.6816
 31
0.0
  0
LINE
  5
C0
330
1E
100
AcDbEntity
  8
0
100
AcDbLine
 10
13.3778
 20
59.32780000000001
 30
0.0
 11
13.8778
 21
59.32780000000001
 31
0.0
  0
LINE
  5
C1
330
1E
100
AcDbEntity
  8
0
100
AcDbLine
 10
13.8778
 20
59.32780000000001
 30
0.0
 11
14.0444
 21
59.32780000000001
 31
0.0
  0
LINE
  5
C2
330
1E
100
AcDbEntity
  8
0
100
AcDbLine
 10
13.29439999999999
 20
59.6047
 30
0.0
 11
13.4611
 21
59.6047
 31
0.0
  0
LINE
  5
C3
330
1E
100
AcDbEntity
  8
0
100
AcDbLine
 10
14.0444
 20
58.0355
 30
0.0
 11
14.2944
 21
58.6816
 31
0.0
  0
LINE
  5
C4
330
1E
100
AcDbEntity
  8
0
100
AcDbLine
 10
14.1278
 20
0.896900000000005
 30
0.0
 11
14.2944
 21
0.896900000000005
 31
0.0
  0
LINE
  5
C5
330
1E
100
AcDbEntity
  8
0
100
AcDbLine
 10
14.1278
 20
58.6816
 30
0.0
 11
14.2944
 21
58.6816
 31
0.0
  0
LINE
  5
C6
330
1E
100
AcDbEntity
  8
0
100
AcDbLine
 10
14.0444
 20
59.32780000000001
 30
0.0
 11
14.2944
 21
58.6816
 31
0.0
  0
LINE
  5
D7
330
1E
100
AcDbEntity
  8
0
100
AcDbLine
 10
13.4611
 20
59.6047
 30
0.0
 11
14.0444
 21
59.32780000000001
 31
0.0
  0
LINE
  5
D8
330
1E
100
AcDbEntity
  8
0
100
AcDbLine
 10
12.7944
 20
62.2108
 30
0.0
 11
30.8926
 21
62.2108
 31
0.0
  0
LINE
  5
D9
330
1E
100
AcDbEntity
  8
0
100
AcDbLine
 10
1.499999999999989
 20
63.7108
 30
0.0
 11
1.999999999999989
 21
63.2108
 31
0.0
  0
LINE
  5
DB
330
1E
100
AcDbEntity
  8
0
100
AcDbLine
 10
1.999999999999989
 20
63.3108
 30
0.0
 11
1.999999999999989
 21
65.0108
 31
0.0
  0
LINE
  5
DC
330
1E
100
AcDbEntity
  8
0
100
AcDbLine
 10
1.999999999999989
 20
63.3108
 30
0.0
 11
1.999999999999989
 21
63.8108
 31
0.0
  0
LINE
  5
DD
330
1E
100
AcDbEntity
  8
0
100
AcDbLine
 10
1.999999999999989
 20
63.8108
 30
0.0
 11
1.999999999999989
 21
63.3108
 31
0.0
  0
LINE
  5
DE
330
1E
100
AcDbEntity
  8
0
100
AcDbLine
 10
1.999999999999989
 20
63.8108
 30
0.0
 11
1.999999999999989
 21
65.5108
 31
0.0
  0
LINE
  5
DF
330
1E
100
AcDbEntity
  8
0
100
AcDbLine
 10
2.49999999999999
 20
62.9108
 30
0.0
 11
2.49999999999999
 21
62.2108
 31
0.0
  0
LINE
  5
E0
330
1E
100
AcDbEntity
  8
0
100
AcDbLine
 10
2.49999999999999
 20
62.9108
 30
0.0
 11
2.49999999999999
 21
64.61079999999999
 31
0.0
  0
LINE
  5
E1
330
1E
100
AcDbEntity
  8
0
100
AcDbLine
 10
1.999999999999989
 20
62.7108
 30
0.0
 11
1.999999999999989
 21
63.2108
 31
0.0
  0
LINE
  5
E2
330
1E
100
AcDbEntity
  8
0
100
AcDbLine
 10
1.999999999999989
 20
62.7108
 30
0.0
 11
2.49999999999999
 21
62.2108
 31
0.0
  0
LINE
  5
E3
330
1E
100
AcDbEntity
  8
0
100
AcDbLine
 10
1.999999999999989
 20
62.7108
 30
0.0
 11
1.999999999999989
 21
63.3108
 31
0.0
  0
LINE
  5
E4
330
1E
100
AcDbEntity
  8
0
100
AcDbLine
 10
2.49999999999999
 20
62.2108
 30
0.0
 11
12.7944
 21
62.2108
 31
0.0
  0
LINE
  5
E5
330
1E
100
AcDbEntity
  8
0
100
AcDbLine
 10
53.0
 20
47.50492
 30
0.0
 11
53.0
 21
50.50492
 31
0.0
  0
LINE
  5
E6
330
1E
100
AcDbEntity
  8
0
100
AcDbLine
 10
53.0
 20
47.50492
 30
0.0
 11
53.0
 21
45.56374
 31
0.0
  0
LINE
  5
E7
330
1E
100
AcDbEntity
  8
0
100
AcDbLine
 10
53.0
 20
50.50492
 30
0.0
 11
53.0
 21
47.50492
 31
0.0
  0
LINE
  5
E8
330
1E
100
AcDbEntity
  8
0
100
AcDbLine
 10
53.0
 20
50.50492
 30
0.0
 11
53.0
 21
54.56369999999999
 31
0.0
  0
LINE
  5
E9
330
1E
100
AcDbEntity
  8
0
100
AcDbLine
 10
53.0
 20
45.56374
 30
0.0
 11
53.0
 21
47.50492
 31
0.0
  0
LINE
  5
EA
330
1E
100
AcDbEntity
  8
0
100
AcDbLine
 10
53.0
 20
45.56374
 30
0.0
 11
53.0
 21
44.85786
 31
0.0
  0
LINE
  5
EB
330
1E
100
AcDbEntity
  8
0
100
AcDbLine
 10
53.0
 20
44.85786
 30
0.0
 11
53.0
 21
45.56374
 31
0.0
  0
LINE
  5
EC
330
1E
100
AcDbEntity
  8
0
100
AcDbLine
 10
53.0
 20
44.85786
 30
0.0
 11
53.5
 21
43.62256
 31
0.0
  0
LINE
  5
ED
330
1E
100
AcDbEntity
  8
0
100
AcDbLine
 10
53.0
 20
54.56369999999999
 30
0.0
 11
53.0
 21
59.8579
 31
0.0
  0
LINE
  5
EE
330
1E
100
AcDbEntity
  8
0
100
AcDbLine
 10
53.0
 20
54.56369999999999
 30
0.0
 11
53.0
 21
50.50492
 31
0.0
  0
LINE
  5
EF
330
1E
100
AcDbEntity
  8
0
100
AcDbLine
 10
53.0
 20
59.8579
 30
0.0
 11
53.0
 21
54.56369999999999
 31
0.0
  0
LINE
  5
F0
330
1E
100
AcDbEntity
  8
0
100
AcDbLine
 10
53.0
 20
59.8579
 30
0.0
 11
53.0
 21
66.1226
 31
0.0
  0
LINE
  5
F1
330
1E
100
AcDbEntity
  8
0
100
AcDbLine
 10
37.0
 20
62.9108
 30
0.0
 11
37.0
 21
64.61079999999999
 31
0.0
  0
LINE
  5
F2
330
1E
100
AcDbEntity
  8
0
100
AcDbLine
 10
37.0
 20
62.2108
 30
0.0
 11
37.0
 21
62.9108
 31
0.0
  0
LINE
  5
F3
330
1E
100
AcDbEntity
  8
0
100
AcDbLine
 10
30.8926
 20
62.2108
 30
0.0
 11
37.0
 21
62.2108
 31
0.0
  0
LINE
  5
F4
330
1E
100
AcDbEntity
  8
0
100
AcDbLine
 10
0.499999999999993
 20
64.2108
 30
0.0
 11
1.499999999999989
 21
63.7108
 31
0.0
  0
LINE
  5
F5
330
1E
100
AcDbEntity
  8
0
100
AcDbLine
 10
1.999999999999989
 20
65.0108
 30
0.0
 11
1.999999999999989
 21
63.3108
 31
0.0
  0
LINE
  5
F6
330
1E
100
AcDbEntity
  8
0
100
AcDbLine
 10
1.999999999999989
 20
65.0108
 30
0.0
 11
1.999999999999989
 21
67.8108
 31
0.0
  0
LINE
  5
F7
330
1E
100
AcDbEntity
  8
0
100
AcDbLine
 10
-0.0000000000000065
 20
66.8108
 30
0.0
 11
-0.0000000000000064
 21
69.3108
 31
0.0
  0
LINE
  5
F8
330
1E
100
AcDbEntity
  8
0
100
AcDbLine
 10
-0.0000000000000066
 20
65.3108
 30
0.0
 11
-0.0000000000000065
 21
66.8108
 31
0.0
  0
LINE
  5
F9
330
1E
100
AcDbEntity
  8
0
100
AcDbLine
 10
-0.0000000000000066
 20
64.7108
 30
0.0
 11
0.499999999999993
 21
64.2108
 31
0.0
  0
LINE
  5
FA
330
1E
100
AcDbEntity
  8
0
100
AcDbLine
 10
-0.0000000000000066
 20
64.7108
 30
0.0
 11
-0.0000000000000066
 21
65.3108
 31
0.0
  0
LINE
  5
FB
330
1E
100
AcDbEntity
  8
0
100
AcDbLine
 10
-0.0000000000000066
 20
64.7108
 30
0.0
 11
0.499999999999993
 21
64.2108
 31
0.0
  0
LINE
  5
FC
330
1E
100
AcDbEntity
  8
0
100
AcDbLine
 10
0.499999999999993
 20
64.2108
 30
0.0
 11
1.499999999999989
 21
63.7108
 31
0.0
  0
LINE
  5
FD
330
1E
100
AcDbEntity
  8
0
100
AcDbLine
 10
37.0
 20
64.61079999999999
 30
0.0
 11
37.0
 21
67.5108
 31
0.0
  0
LINE
  5
FE
330
1E
100
AcDbEntity
  8
0
100
AcDbLine
 10
2.49999999999999
 20
67.5108
 30
0.0
 11
2.49999999999999
 21
71.3108
 31
0.0
  0
LINE
  5
FF
330
1E
100
AcDbEntity
  8
0
100
AcDbLine
 10
37.0
 20
67.5108
 30
0.0
 11
37.0
 21
71.3108
 31
0.0
  0
LINE
  5
100
330
1E
100
AcDbEntity
  8
0
100
AcDbLine
 10
2.49999999999999
 20
64.61079999999999
 30
0.0
 11
2.49999999999999
 21
62.9108
 31
0.0
  0
LINE
  5
101
330
1E
100
AcDbEntity
  8
0
100
AcDbLine
 10
2.49999999999999
 20
64.61079999999999
 30
0.0
 11
2.49999999999999
 21
67.5108
 31
0.0
  0
LINE
  5
102
330
1E
100
AcDbEntity
  8
0
100
AcDbLine
 10
1.999999999999989
 20
65.5108
 30
0.0
 11
1.999999999999989
 21
68.21080000000001
 31
0.0
  0
LINE
  5
103
330
1E
100
AcDbEntity
  8
0
100
AcDbLine
 10
1.999999999999989
 20
65.5108
 30
0.0
 11
1.999999999999989
 21
63.8108
 31
0.0
  0
LINE
  5
104
330
1E
100
AcDbEntity
  8
0
100
AcDbLine
 10
1.999999999999989
 20
68.21080000000001
 30
0.0
 11
1.999999999999989
 21
71.7108
 31
0.0
  0
LINE
  5
105
330
1E
100
AcDbEntity
  8
0
100
AcDbLine
 10
1.999999999999989
 20
67.8108
 30
0.0
 11
1.999999999999989
 21
71.5108
 31
0.0
  0
LINE
  5
106
330
1E
100
AcDbEntity
  8
0
100
AcDbLine
 10
53.0
 20
66.1226
 30
0.0
 11
53.0
 21
73.26959999999999
 31
0.0
  0
LINE
  5
107
330
1E
100
AcDbEntity
  8
0
100
AcDbLine
 10
53.0
 20
66.1226
 30
0.0
 11
53.0
 21
59.8579
 31
0.0
  0
LINE
  5
108
330
1E
100
AcDbEntity
  8
0
100
AcDbLine
 10
37.0
 20
64.4965142857143
 30
0.0
 11
39.0
 21
64.2108
 31
0.0
  0
LINE
  5
109
330
1E
100
AcDbEntity
  8
0
100
AcDbLine
 10
-0.0000000000000062
 20
72.5108
 30
0.0
 11
-0.0000000000000059
 21
76.2108
 31
0.0
  0
LINE
  5
10A
330
1E
100
AcDbEntity
  8
0
100
AcDbLine
 10
1.999999999999989
 20
71.5108
 30
0.0
 11
1.999999999999989
 21
75.71080000000001
 31
0.0
  0
LINE
  5
10B
330
1E
100
AcDbEntity
  8
0
100
AcDbLine
 10
-0.0000000000000064
 20
69.3108
 30
0.0
 11
-0.0000000000000062
 21
72.5108
 31
0.0
  0
LINE
  5
10C
330
1E
100
AcDbEntity
  8
0
100
AcDbLine
 10
37.0
 20
71.3108
 30
0.0
 11
37.0
 21
75.6108
 31
0.0
  0
LINE
  5
10D
330
1E
100
AcDbEntity
  8
0
100
AcDbLine
 10
2.49999999999999
 20
71.3108
 30
0.0
 11
2.49999999999999
 21
75.6108
 31
0.0
  0
LINE
  5
10E
330
1E
100
AcDbEntity
  8
0
100
AcDbLine
 10
2.49999999999999
 20
71.3108
 30
0.0
 11
2.49999999999999
 21
67.5108
 31
0.0
  0
LINE
  5
10F
330
1E
100
AcDbEntity
  8
0
100
AcDbLine
 10
53.0
 20
73.26959999999999
 30
0.0
 11
53.0
 21
66.1226
 31
0.0
  0
LINE
  5
110
330
1E
100
AcDbEntity
  8
0
100
AcDbLine
 10
37.0
 20
75.6108
 30
0.0
 11
37.0
 21
80.21080000000001
 31
0.0
  0
LINE
  5
111
330
1E
100
AcDbEntity
  8
0
100
AcDbLine
 10
2.49999999999999
 20
75.6108
 30
0.0
 11
2.49999999999999
 21
80.21080000000001
 31
0.0
  0
LINE
  5
112
330
1E
100
AcDbEntity
  8
0
100
AcDbLine
 10
1.999999999999989
 20
71.7108
 30
0.0
 11
1.999999999999989
 21
75.8108
 31
0.0
  0
LINE
  5
113
330
1E
100
AcDbEntity
  8
0
100
AcDbLine
 10
1.999999999999989
 20
75.8108
 30
0.0
 11
1.999999999999989
 21
80.21080000000001
 31
0.0
  0
LINE
  5
114
330
1E
100
AcDbEntity
  8
0
100
AcDbLine
 10
1.999999999999989
 20
75.71080000000001
 30
0.0
 11
1.999999999999989
 21
80.21080000000001
 31
0.0
  0
LINE
  5
115
330
1E
100
AcDbEntity
  8
0
100
AcDbLine
 10
53.0
 20
72.2108
 30
0.0
 11
53.0
 21
68.91079999999999
 31
0.0
  0
LINE
  5
116
330
1E
100
AcDbEntity
  8
0
100
AcDbLine
 10
-0.0000000000000057
 20
80.21080000000001
 30
0.0
 11
-0.0000000000000054
 21
84.21080000000001
 31
0.0
  0
LINE
  5
117
330
1E
100
AcDbEntity
  8
0
100
AcDbLine
 10
-0.0000000000000059
 20
76.2108
 30
0.0
 11
-0.0000000000000057
 21
80.21080000000001
 31
0.0
  0
LINE
  5
118
330
1E
100
AcDbEntity
  8
0
100
AcDbLine
 10
-0.000000000000005
 20
91.11079999999999
 30
0.0
 11
-0.0000000000000049
 21
93.61079999999999
 31
0.0
  0
LINE
  5
119
330
1E
100
AcDbEntity
  8
0
100
AcDbLine
 10
-0.0000000000000052
 20
87.91079999999999
 30
0.0
 11
-0.000000000000005
 21
91.11079999999999
 31
0.0
  0
LINE
  5
11A
330
1E
100
AcDbEntity
  8
0
100
AcDbLine
 10
-0.0000000000000054
 20
84.21080000000001
 30
0.0
 11
-0.0000000000000052
 21
87.91079999999999
 31
0.0
  0
LINE
  5
11B
330
1E
100
AcDbEntity
  8
0
100
AcDbLine
 10
-0.0000000000000049
 20
93.61079999999999
 30
0.0
 11
-0.0000000000000048
 21
95.11079999999999
 31
0.0
  0
LINE
  5
11C
330
1E
100
AcDbEntity
  8
0
100
AcDbLine
 10
-0.0000000000000048
 20
95.7108
 30
0.0
 11
0.4999999999999951
 21
96.2108
 31
0.0
  0
LINE
  5
11D
330
1E
100
AcDbEntity
  8
0
100
AcDbLine
 10
-0.0000000000000048
 20
95.11079999999999
 30
0.0
 11
-0.0000000000000047
 21
95.7108
 31
0.0
  0
LINE
  5
11E
330
1E
100
AcDbEntity
  8
0
100
AcDbLine
 10
-0.0000000000000047
 20
95.7108
 30
0.0
 11
0.4999999999999951
 21
96.2108
 31
0.0
  0
LINE
  5
11F
330
1E
100
AcDbEntity
  8
0
100
AcDbLine
 10
1.999999999999989
 20
88.9108
 30
0.0
 11
2.0
 21
92.61079999999999
 31
0.0
  0
LINE
  5
120
330
1E
100
AcDbEntity
  8
0
100
AcDbLine
 10
1.999999999999989
 20
84.7108
 30
0.0
 11
1.999999999999989
 21
88.9108
 31
0.0
  0
LINE
  5
121
330
1E
100
AcDbEntity
  8
0
100
AcDbLine
 10
1.999999999999989
 20
80.21080000000001
 30
0.0
 11
1.999999999999989
 21
84.7108
 31
0.0
  0
LINE
  5
122
330
1E
100
AcDbEntity
  8
0
100
AcDbLine
 10
2.0
 20
92.61079999999999
 30
0.0
 11
2.0
 21
95.41079999999999
 31
0.0
  0
LINE
  5
123
330
1E
100
AcDbEntity
  8
0
100
AcDbLine
 10
2.0
 20
95.41079999999999
 30
0.0
 11
2.0
 21
97.1108
 31
0.0
  0
LINE
  5
124
330
1E
100
AcDbEntity
  8
0
100
AcDbLine
 10
0.4999999999999951
 20
96.2108
 30
0.0
 11
1.5
 21
96.71080000000001
 31
0.0
  0
LINE
  5
125
330
1E
100
AcDbEntity
  8
0
100
AcDbLine
 10
2.0
 20
97.1108
 30
0.0
 11
2.0
 21
97.71080000000001
 31
0.0
  0
LINE
  5
126
330
1E
100
AcDbEntity
  8
0
100
AcDbLine
 10
2.0
 20
97.1108
 30
0.0
 11
2.0
 21
97.2108
 31
0.0
  0
LINE
  5
127
330
1E
100
AcDbEntity
  8
0
100
AcDbLine
 10
1.5
 20
96.71080000000001
 30
0.0
 11
2.0
 21
97.2108
 31
0.0
  0
LINE
  5
128
330
1E
100
AcDbEntity
  8
0
100
AcDbLine
 10
2.49999999999999
 20
80.21080000000001
 30
0.0
 11
2.49999999999999
 21
84.8108
 31
0.0
  0
LINE
  5
129
330
1E
100
AcDbEntity
  8
0
100
AcDbLine
 10
2.5
 20
89.1108
 30
0.0
 11
2.5
 21
92.91079999999999
 31
0.0
  0
LINE
  5
12A
330
1E
100
AcDbEntity
  8
0
100
AcDbLine
 10
2.49999999999999
 20
84.8108
 30
0.0
 11
2.49999999999999
 21
80.21080000000001
 31
0.0
  0
LINE
  5
12B
330
1E
100
AcDbEntity
  8
0
100
AcDbLine
 10
2.49999999999999
 20
84.8108
 30
0.0
 11
2.5
 21
89.1108
 31
0.0
  0
LINE
  5
12C
330
1E
100
AcDbEntity
  8
0
100
AcDbLine
 10
2.5
 20
95.8108
 30
0.0
 11
2.5
 21
97.51080000000001
 31
0.0
  0
LINE
  5
12D
330
1E
100
AcDbEntity
  8
0
100
AcDbLine
 10
2.5
 20
92.91079999999999
 30
0.0
 11
2.5
 21
95.8108
 31
0.0
  0
LINE
  5
12E
330
1E
100
AcDbEntity
  8
0
100
AcDbLine
 10
2.5
 20
92.91079999999999
 30
0.0
 11
2.5
 21
89.1108
 31
0.0
  0
LINE
  5
12F
330
1E
100
AcDbEntity
  8
0
100
AcDbLine
 10
2.5
 20
97.51080000000001
 30
0.0
 11
2.5
 21
95.8108
 31
0.0
  0
LINE
  5
130
330
1E
100
AcDbEntity
  8
0
100
AcDbLine
 10
2.5
 20
97.51080000000001
 30
0.0
 11
2.5
 21
98.21080000000002
 31
0.0
  0
LINE
  5
131
330
1E
100
AcDbEntity
  8
0
100
AcDbLine
 10
2.0
 20
97.2108
 30
0.0
 11
2.0
 21
97.71080000000001
 31
0.0
  0
LINE
  5
132
330
1E
100
AcDbEntity
  8
0
100
AcDbLine
 10
2.0
 20
97.2108
 30
0.0
 11
2.0
 21
97.1108
 31
0.0
  0
LINE
  5
133
330
1E
100
AcDbEntity
  8
0
100
AcDbLine
 10
2.49999999999999
 20
98.21080000000002
 30
0.0
 11
32.0
 21
98.21080000000002
 31
0.0
  0
LINE
  5
134
330
1E
100
AcDbEntity
  8
0
100
AcDbLine
 10
2.0
 20
97.71080000000001
 30
0.0
 11
2.5
 21
98.21080000000002
 31
0.0
  0
LINE
  5
135
330
1E
100
AcDbEntity
  8
0
100
AcDbLine
 10
2.0
 20
97.71080000000001
 30
0.0
 11
2.0
 21
97.2108
 31
0.0
  0
LINE
  5
136
330
1E
100
AcDbEntity
  8
0
100
AcDbLine
 10
2.0
 20
97.71080000000001
 30
0.0
 11
2.0
 21
97.1108
 31
0.0
  0
LINE
  5
137
330
1E
100
AcDbEntity
  8
0
100
AcDbLine
 10
53.0
 20
84.31079999999999
 30
0.0
 11
53.0
 21
80.21080000000001
 31
0.0
  0
LINE
  5
138
330
1E
100
AcDbEntity
  8
0
100
AcDbLine
 10
53.0
 20
81.2108
 30
0.0
 11
53.0
 21
89.59319999999999
 31
0.0
  0
LINE
  5
139
330
1E
100
AcDbEntity
  8
0
100
AcDbLine
 10
32.8998599584134
 20
94.96790284526101
 30
0.0
 11
35.5
 21
95.7108
 31
0.0
  0
LINE
  5
13A
330
1E
100
AcDbEntity
  8
0
100
AcDbLine
 10
33.4731
 20
92.84200000000002
 30
0.0
 11
34.5283
 21
89.0984
 31
0.0
  0
LINE
  5
13B
330
1E
100
AcDbEntity
  8
0
100
AcDbLine
 10
53.0
 20
91.5108
 30
0.0
 11
53.0
 21
88.2108
 31
0.0
  0
LINE
  5
13C
330
1E
100
AcDbEntity
  8
0
100
AcDbLine
 10
53.0
 20
88.2108
 30
0.0
 11
53.0
 21
84.31079999999999
 31
0.0
  0
LINE
  5
13D
330
1E
100
AcDbEntity
  8
0
100
AcDbLine
 10
35.5
 20
95.7108
 30
0.0
 11
39.0
 21
96.2108
 31
0.0
  0
LINE
  5
13E
330
1E
100
AcDbEntity
  8
0
100
AcDbLine
 10
53.0
 20
94.1108
 30
0.0
 11
53.0
 21
91.5108
 31
0.0
  0
LINE
  5
13F
330
1E
100
AcDbEntity
  8
0
100
AcDbLine
 10
53.0
 20
95.6108
 30
0.0
 11
53.0
 21
94.1108
 31
0.0
  0
LINE
  5
140
330
1E
100
AcDbEntity
  8
0
100
AcDbLine
 10
39.0
 20
96.2108
 30
0.0
 11
53.0
 21
96.2108
 31
0.0
  0
LINE
  5
141
330
1E
100
AcDbEntity
  8
0
100
AcDbLine
 10
53.0
 20
89.59319999999999
 30
0.0
 11
53.0
 21
81.2108
 31
0.0
  0
LINE
  5
142
330
1E
100
AcDbEntity
  8
0
100
AcDbLine
 10
53.0
 20
96.2108
 30
0.0
 11
53.0
 21
98.5049
 31
0.0
  0
LINE
  5
143
330
1E
100
AcDbEntity
  8
0
100
AcDbLine
 10
53.0
 20
96.2108
 30
0.0
 11
53.0
 21
95.6108
 31
0.0
  0
LINE
  5
144
330
1E
100
AcDbEntity
  8
0
100
AcDbLine
 10
34.5283
 20
89.0984
 30
0.0
 11
35.6794
 21
84.77899999999999
 31
0.0
  0
LINE
  5
145
330
1E
100
AcDbEntity
  8
0
100
AcDbLine
 10
35.6794
 20
84.77899999999999
 30
0.0
 11
37.0
 21
80.21080000000001
 31
0.0
  0
LINE
  5
146
330
1E
100
AcDbEntity
  8
0
100
AcDbLine
 10
32.6578
 20
95.8656
 30
0.0
 11
32.8998599584134
 21
94.96790284526101
 31
0.0
  0
LINE
  5
147
330
1E
100
AcDbEntity
  8
0
100
AcDbLine
 10
32.6578
 20
95.8656
 30
0.0
 11
33.4731
 21
92.84200000000002
 31
0.0
  0
LINE
  5
148
330
1E
100
AcDbEntity
  8
0
100
AcDbLine
 10
21.4527
 20
154.2107999999999
 30
0.0
 11
21.4527
 21
151.2648
 31
0.0
  0
LINE
  5
149
330
1E
100
AcDbEntity
  8
0
100
AcDbLine
 10
21.4527
 20
154.2107999999999
 30
0.0
 11
21.4527
 21
157.1568
 31
0.0
  0
LINE
  5
14A
330
1E
100
AcDbEntity
  8
0
100
AcDbLine
 10
21.4527
 20
151.2648
 30
0.0
 11
21.4527
 21
154.2107999999999
 31
0.0
  0
LINE
  5
14B
330
1E
100
AcDbEntity
  8
0
100
AcDbLine
 10
21.4527
 20
151.2648
 30
0.0
 11
21.4527
 21
148.5768
 31
0.0
  0
LINE
  5
14C
330
1E
100
AcDbEntity
  8
0
100
AcDbLine
 10
21.4527
 20
148.5768
 30
0.0
 11
21.4527
 21
151.2648
 31
0.0
  0
LINE
  5
14D
330
1E
100
AcDbEntity
  8
0
100
AcDbLine
 10
21.4527
 20
148.5768
 30
0.0
 11
21.4527
 21
146.2367999999999
 31
0.0
  0
LINE
  5
14E
330
1E
100
AcDbEntity
  8
0
100
AcDbLine
 10
21.4527
 20
146.2367999999999
 30
0.0
 11
21.4527
 21
148.5768
 31
0.0
  0
LINE
  5
14F
330
1E
100
AcDbEntity
  8
0
100
AcDbLine
 10
21.4527
 20
146.2367999999999
 30
0.0
 11
21.4527
 21
144.4167999999999
 31
0.0
  0
LINE
  5
150
330
1E
100
AcDbEntity
  8
0
100
AcDbLine
 10
21.4527
 20
144.4167999999999
 30
0.0
 11
21.4527
 21
146.2367999999999
 31
0.0
  0
LINE
  5
151
330
1E
100
AcDbEntity
  8
0
100
AcDbLine
 10
21.4527
 20
144.4167999999999
 30
0.0
 11
21.4527
 21
143.3768
 31
0.0
  0
LINE
  5
152
330
1E
100
AcDbEntity
  8
0
100
AcDbLine
 10
21.4527
 20
143.3768
 30
0.0
 11
21.4527
 21
144.4167999999999
 31
0.0
  0
LINE
  5
153
330
1E
100
AcDbEntity
  8
0
100
AcDbLine
 10
21.4527
 20
143.3768
 30
0.0
 11
21.4527
 21
142.9447999999999
 31
0.0
  0
LINE
  5
154
330
1E
100
AcDbEntity
  8
0
100
AcDbLine
 10
22.8108
 20
154.2107999999999
 30
0.0
 11
22.8108
 21
150.8308
 31
0.0
  0
LINE
  5
155
330
1E
100
AcDbEntity
  8
0
100
AcDbLine
 10
22.8108
 20
154.2107999999999
 30
0.0
 11
22.8108
 21
157.5908
 31
0.0
  0
LINE
  5
156
330
1E
100
AcDbEntity
  8
0
100
AcDbLine
 10
22.8108
 20
150.8308
 30
0.0
 11
22.8108
 21
154.2107999999999
 31
0.0
  0
LINE
  5
157
330
1E
100
AcDbEntity
  8
0
100
AcDbLine
 10
22.8108
 20
150.8308
 30
0.0
 11
22.8108
 21
147.7108
 31
0.0
  0
LINE
  5
158
330
1E
100
AcDbEntity
  8
0
100
AcDbLine
 10
22.8108
 20
147.7108
 30
0.0
 11
22.8108
 21
150.8308
 31
0.0
  0
LINE
  5
159
330
1E
100
AcDbEntity
  8
0
100
AcDbLine
 10
22.8108
 20
147.7108
 30
0.0
 11
22.8108
 21
145.0248
 31
0.0
  0
LINE
  5
15A
330
1E
100
AcDbEntity
  8
0
100
AcDbLine
 10
22.8108
 20
145.0248
 30
0.0
 11
22.8108
 21
147.7108
 31
0.0
  0
LINE
  5
15B
330
1E
100
AcDbEntity
  8
0
100
AcDbLine
 10
22.8108
 20
145.0248
 30
0.0
 11
22.8108
 21
142.9447999999999
 31
0.0
  0
LINE
  5
15C
330
1E
100
AcDbEntity
  8
0
100
AcDbLine
 10
22.8108
 20
142.9447999999999
 30
0.0
 11
22.8108
 21
145.0248
 31
0.0
  0
LINE
  5
15D
330
1E
100
AcDbEntity
  8
0
100
AcDbLine
 10
22.8108
 20
142.9447999999999
 30
0.0
 11
22.8108
 21
141.6444
 31
0.0
  0
LINE
  5
15E
330
1E
100
AcDbEntity
  8
0
100
AcDbLine
 10
22.8108
 20
141.6444
 30
0.0
 11
22.8108
 21
142.9447999999999
 31
0.0
  0
LINE
  5
15F
330
1E
100
AcDbEntity
  8
0
100
AcDbLine
 10
22.8108
 20
141.6444
 30
0.0
 11
22.8108
 21
141.2108
 31
0.0
  0
LINE
  5
160
330
1E
100
AcDbEntity
  8
0
100
AcDbLine
 10
22.8108
 20
141.2108
 30
0.0
 11
34.5812
 21
141.2108
 31
0.0
  0
LINE
  5
161
330
1E
100
AcDbEntity
  8
0
100
AcDbLine
 10
22.8108
 20
141.2108
 30
0.0
 11
22.8108
 21
141.6444
 31
0.0
  0
LINE
  5
162
330
1E
100
AcDbEntity
  8
0
100
AcDbLine
 10
21.4527
 20
142.9447999999999
 30
0.0
 11
22.8108
 21
141.2108
 31
0.0
  0
LINE
  5
163
330
1E
100
AcDbEntity
  8
0
100
AcDbLine
 10
21.4527
 20
142.9447999999999
 30
0.0
 11
21.4527
 21
143.3768
 31
0.0
  0
LINE
  5
164
330
1E
100
AcDbEntity
  8
0
100
AcDbLine
 10
21.4527
 20
157.1568
 30
0.0
 11
21.4527
 21
159.8447999999999
 31
0.0
  0
LINE
  5
165
330
1E
100
AcDbEntity
  8
0
100
AcDbLine
 10
21.4527
 20
157.1568
 30
0.0
 11
21.4527
 21
154.2107999999999
 31
0.0
  0
LINE
  5
166
330
1E
100
AcDbEntity
  8
0
100
AcDbLine
 10
21.4527
 20
159.8447999999999
 30
0.0
 11
21.4527
 21
162.1847999999999
 31
0.0
  0
LINE
  5
167
330
1E
100
AcDbEntity
  8
0
100
AcDbLine
 10
21.4527
 20
159.8447999999999
 30
0.0
 11
21.4527
 21
157.1568
 31
0.0
  0
LINE
  5
168
330
1E
100
AcDbEntity
  8
0
100
AcDbLine
 10
21.4527
 20
162.1847999999999
 30
0.0
 11
21.4527
 21
164.0047999999999
 31
0.0
  0
LINE
  5
169
330
1E
100
AcDbEntity
  8
0
100
AcDbLine
 10
21.4527
 20
162.1847999999999
 30
0.0
 11
21.4527
 21
159.8447999999999
 31
0.0
  0
LINE
  5
16A
330
1E
100
AcDbEntity
  8
0
100
AcDbLine
 10
21.4527
 20
164.0047999999999
 30
0.0
 11
21.4527
 21
165.0448
 31
0.0
  0
LINE
  5
16B
330
1E
100
AcDbEntity
  8
0
100
AcDbLine
 10
21.4527
 20
164.0047999999999
 30
0.0
 11
21.4527
 21
162.1847999999999
 31
0.0
  0
LINE
  5
16C
330
1E
100
AcDbEntity
  8
0
100
AcDbLine
 10
21.4527
 20
165.0448
 30
0.0
 11
21.4527
 21
165.4767999999999
 31
0.0
  0
LINE
  5
16D
330
1E
100
AcDbEntity
  8
0
100
AcDbLine
 10
21.4527
 20
165.0448
 30
0.0
 11
21.4527
 21
164.0047999999999
 31
0.0
  0
LINE
  5
16E
330
1E
100
AcDbEntity
  8
0
100
AcDbLine
 10
22.8108
 20
157.5908
 30
0.0
 11
22.8108
 21
160.7108
 31
0.0
  0
LINE
  5
16F
330
1E
100
AcDbEntity
  8
0
100
AcDbLine
 10
22.8108
 20
157.5908
 30
0.0
 11
22.8108
 21
154.2107999999999
 31
0.0
  0
LINE
  5
170
330
1E
100
AcDbEntity
  8
0
100
AcDbLine
 10
22.8108
 20
160.7108
 30
0.0
 11
22.8108
 21
163.3968
 31
0.0
  0
LINE
  5
171
330
1E
100
AcDbEntity
  8
0
100
AcDbLine
 10
22.8108
 20
160.7108
 30
0.0
 11
22.8108
 21
157.5908
 31
0.0
  0
LINE
  5
172
330
1E
100
AcDbEntity
  8
0
100
AcDbLine
 10
22.8108
 20
163.3968
 30
0.0
 11
22.8108
 21
165.4767999999999
 31
0.0
  0
LINE
  5
173
330
1E
100
AcDbEntity
  8
0
100
AcDbLine
 10
22.8108
 20
163.3968
 30
0.0
 11
22.8108
 21
160.7108
 31
0.0
  0
LINE
  5
174
330
1E
100
AcDbEntity
  8
0
100
AcDbLine
 10
22.8108
 20
165.4767999999999
 30
0.0
 11
22.8108
 21
166.7768
 31
0.0
  0
LINE
  5
175
330
1E
100
AcDbEntity
  8
0
100
AcDbLine
 10
22.8108
 20
165.4767999999999
 30
0.0
 11
22.8108
 21
163.3968
 31
0.0
  0
LINE
  5
176
330
1E
100
AcDbEntity
  8
0
100
AcDbLine
 10
22.8108
 20
166.7768
 30
0.0
 11
22.8108
 21
167.2108
 31
0.0
  0
LINE
  5
177
330
1E
100
AcDbEntity
  8
0
100
AcDbLine
 10
22.8108
 20
166.7768
 30
0.0
 11
22.8108
 21
165.4767999999999
 31
0.0
  0
LINE
  5
178
330
1E
100
AcDbEntity
  8
0
100
AcDbLine
 10
22.8108
 20
167.2108
 30
0.0
 11
34.5812
 21
167.2108
 31
0.0
  0
LINE
  5
179
330
1E
100
AcDbEntity
  8
0
100
AcDbLine
 10
22.8108
 20
167.2108
 30
0.0
 11
22.8108
 21
166.7768
 31
0.0
  0
LINE
  5
17A
330
1E
100
AcDbEntity
  8
0
100
AcDbLine
 10
21.4527
 20
165.4767999999999
 30
0.0
 11
22.8108
 21
167.2108
 31
0.0
  0
LINE
  5
17B
330
1E
100
AcDbEntity
  8
0
100
AcDbLine
 10
21.4527
 20
165.4767999999999
 30
0.0
 11
21.4527
 21
165.0448
 31
0.0
  0
LINE
  5
17C
330
1E
100
AcDbEntity
  8
0
100
AcDbLine
 10
21.0
 20
154.2107999999999
 30
0.0
 11
21.4527
 21
142.9447999999999
 31
0.0
  0
LINE
  5
17D
330
1E
100
AcDbEntity
  8
0
100
AcDbLine
 10
21.0
 20
154.2107999999999
 30
0.0
 11
21.4527
 21
165.4767999999999
 31
0.0
  0
LINE
  5
17E
330
1E
100
AcDbEntity
  8
0
100
AcDbLine
 10
53.0
 20
107.7695999999999
 30
0.0
 11
53.0
 21
98.5049
 31
0.0
  0
LINE
  5
17F
330
1E
100
AcDbEntity
  8
0
100
AcDbLine
 10
53.0
 20
107.7695999999999
 30
0.0
 11
53.0
 21
117.2108
 31
0.0
  0
LINE
  5
180
330
1E
100
AcDbEntity
  8
0
100
AcDbLine
 10
53.0
 20
98.5049
 30
0.0
 11
53.0
 21
96.2108
 31
0.0
  0
LINE
  5
181
330
1E
100
AcDbEntity
  8
0
100
AcDbLine
 10
53.0
 20
98.5049
 30
0.0
 11
53.0
 21
107.7695999999999
 31
0.0
  0
LINE
  5
182
330
1E
100
AcDbEntity
  8
0
100
AcDbLine
 10
53.0
 20
117.2108
 30
0.0
 11
53.0
 21
126.652
 31
0.0
  0
LINE
  5
183
330
1E
100
AcDbEntity
  8
0
100
AcDbLine
 10
53.0
 20
117.2108
 30
0.0
 11
53.0
 21
107.7695999999999
 31
0.0
  0
LINE
  5
184
330
1E
100
AcDbEntity
  8
0
100
AcDbLine
 10
34.5812
 20
141.6444
 30
0.0
 11
34.5812
 21
142.9447999999999
 31
0.0
  0
LINE
  5
185
330
1E
100
AcDbEntity
  8
0
100
AcDbLine
 10
34.5812
 20
141.6444
 30
0.0
 11
34.5812
 21
141.2108
 31
0.0
  0
LINE
  5
186
330
1E
100
AcDbEntity
  8
0
100
AcDbLine
 10
34.5812
 20
141.2108
 30
0.0
 11
34.5812
 21
141.6444
 31
0.0
  0
LINE
  5
187
330
1E
100
AcDbEntity
  8
0
100
AcDbLine
 10
45.4462
 20
142.7397999999999
 30
0.0
 11
53.0
 21
142.7397999999999
 31
0.0
  0
LINE
  5
188
330
1E
100
AcDbEntity
  8
0
100
AcDbLine
 10
45.4462
 20
142.7397999999999
 30
0.0
 11
45.4462
 21
143.1228
 31
0.0
  0
LINE
  5
189
330
1E
100
AcDbEntity
  8
0
100
AcDbLine
 10
34.5812
 20
142.9447999999999
 30
0.0
 11
34.5812
 21
145.0248
 31
0.0
  0
LINE
  5
18A
330
1E
100
AcDbEntity
  8
0
100
AcDbLine
 10
34.5812
 20
142.9447999999999
 30
0.0
 11
34.5812
 21
141.6444
 31
0.0
  0
LINE
  5
18B
330
1E
100
AcDbEntity
  8
0
100
AcDbLine
 10
44.5408
 20
144.1568
 30
0.0
 11
44.5408
 21
143.8107999999999
 31
0.0
  0
LINE
  5
18C
330
1E
100
AcDbEntity
  8
0
100
AcDbLine
 10
44.5408
 20
144.1568
 30
0.0
 11
44.5408
 21
145.1967999999999
 31
0.0
  0
LINE
  5
18D
330
1E
100
AcDbEntity
  8
0
100
AcDbLine
 10
34.5812
 20
143.8107999999999
 30
0.0
 11
44.5408
 21
143.8107999999999
 31
0.0
  0
LINE
  5
18E
330
1E
100
AcDbEntity
  8
0
100
AcDbLine
 10
53.0
 20
143.1228
 30
0.0
 11
53.0
 21
144.2698
 31
0.0
  0
LINE
  5
18F
330
1E
100
AcDbEntity
  8
0
100
AcDbLine
 10
53.0
 20
144.2698
 30
0.0
 11
53.0
 21
146.1048
 31
0.0
  0
LINE
  5
190
330
1E
100
AcDbEntity
  8
0
100
AcDbLine
 10
45.4462
 20
144.2698
 30
0.0
 11
45.4462
 21
146.1048
 31
0.0
  0
LINE
  5
191
330
1E
100
AcDbEntity
  8
0
100
AcDbLine
 10
45.4462
 20
144.2698
 30
0.0
 11
45.4462
 21
143.1228
 31
0.0
  0
LINE
  5
192
330
1E
100
AcDbEntity
  8
0
100
AcDbLine
 10
45.4462
 20
143.1228
 30
0.0
 11
45.4462
 21
144.2698
 31
0.0
  0
LINE
  5
193
330
1E
100
AcDbEntity
  8
0
100
AcDbLine
 10
45.4462
 20
143.1228
 30
0.0
 11
45.4462
 21
142.7397999999999
 31
0.0
  0
LINE
  5
194
330
1E
100
AcDbEntity
  8
0
100
AcDbLine
 10
44.5408
 20
143.8107999999999
 30
0.0
 11
45.4462
 21
142.7397999999999
 31
0.0
  0
LINE
  5
195
330
1E
100
AcDbEntity
  8
0
100
AcDbLine
 10
44.5408
 20
143.8107999999999
 30
0.0
 11
44.5408
 21
144.1568
 31
0.0
  0
LINE
  5
196
330
1E
100
AcDbEntity
  8
0
100
AcDbLine
 10
34.5812
 20
157.5908
 30
0.0
 11
34.5812
 21
160.7108
 31
0.0
  0
LINE
  5
197
330
1E
100
AcDbEntity
  8
0
100
AcDbLine
 10
34.5812
 20
157.5908
 30
0.0
 11
34.5812
 21
154.2107999999999
 31
0.0
  0
LINE
  5
198
330
1E
100
AcDbEntity
  8
0
100
AcDbLine
 10
34.5812
 20
160.7108
 30
0.0
 11
34.5812
 21
163.3968
 31
0.0
  0
LINE
  5
199
330
1E
100
AcDbEntity
  8
0
100
AcDbLine
 10
34.5812
 20
160.7108
 30
0.0
 11
34.5812
 21
157.5908
 31
0.0
  0
LINE
  5
19A
330
1E
100
AcDbEntity
  8
0
100
AcDbLine
 10
34.5812
 20
163.3968
 30
0.0
 11
34.5812
 21
165.4767999999999
 31
0.0
  0
LINE
  5
19B
330
1E
100
AcDbEntity
  8
0
100
AcDbLine
 10
34.5812
 20
163.3968
 30
0.0
 11
34.5812
 21
160.7108
 31
0.0
  0
LINE
  5
19C
330
1E
100
AcDbEntity
  8
0
100
AcDbLine
 10
34.5812
 20
167.2108
 30
0.0
 11
34.5812
 21
166.7768
 31
0.0
  0
LINE
  5
19D
330
1E
100
AcDbEntity
  8
0
100
AcDbLine
 10
34.5812
 20
165.4767999999999
 30
0.0
 11
34.5812
 21
166.7768
 31
0.0
  0
LINE
  5
19E
330
1E
100
AcDbEntity
  8
0
100
AcDbLine
 10
34.5812
 20
165.4767999999999
 30
0.0
 11
34.5812
 21
163.3968
 31
0.0
  0
LINE
  5
19F
330
1E
100
AcDbEntity
  8
0
100
AcDbLine
 10
34.5812
 20
166.7768
 30
0.0
 11
34.5812
 21
167.2108
 31
0.0
  0
LINE
  5
1A0
330
1E
100
AcDbEntity
  8
0
100
AcDbLine
 10
34.5812
 20
166.7768
 30
0.0
 11
34.5812
 21
165.4767999999999
 31
0.0
  0
LINE
  5
1A1
330
1E
100
AcDbEntity
  8
0
100
AcDbLine
 10
34.5812
 20
154.2107999999999
 30
0.0
 11
34.5812
 21
150.8308
 31
0.0
  0
LINE
  5
1A2
330
1E
100
AcDbEntity
  8
0
100
AcDbLine
 10
34.5812
 20
154.2107999999999
 30
0.0
 11
34.5812
 21
157.5908
 31
0.0
  0
LINE
  5
1A3
330
1E
100
AcDbEntity
  8
0
100
AcDbLine
 10
34.5812
 20
150.8308
 30
0.0
 11
34.5812
 21
154.2107999999999
 31
0.0
  0
LINE
  5
1A4
330
1E
100
AcDbEntity
  8
0
100
AcDbLine
 10
34.5812
 20
150.8308
 30
0.0
 11
34.5812
 21
147.7108
 31
0.0
  0
LINE
  5
1A5
330
1E
100
AcDbEntity
  8
0
100
AcDbLine
 10
34.5812
 20
147.7108
 30
0.0
 11
34.5812
 21
150.8308
 31
0.0
  0
LINE
  5
1A6
330
1E
100
AcDbEntity
  8
0
100
AcDbLine
 10
34.5812
 20
147.7108
 30
0.0
 11
34.5812
 21
145.0248
 31
0.0
  0
LINE
  5
1A7
330
1E
100
AcDbEntity
  8
0
100
AcDbLine
 10
44.5408
 20
156.8968
 30
0.0
 11
44.5408
 21
154.2107999999999
 31
0.0
  0
LINE
  5
1A8
330
1E
100
AcDbEntity
  8
0
100
AcDbLine
 10
44.5408
 20
156.8968
 30
0.0
 11
44.5408
 21
159.4108
 31
0.0
  0
LINE
  5
1A9
330
1E
100
AcDbEntity
  8
0
100
AcDbLine
 10
44.5408
 20
159.4108
 30
0.0
 11
44.5408
 21
156.8968
 31
0.0
  0
LINE
  5
1AA
330
1E
100
AcDbEntity
  8
0
100
AcDbLine
 10
44.5408
 20
159.4108
 30
0.0
 11
44.5408
 21
161.5767999999999
 31
0.0
  0
LINE
  5
1AB
330
1E
100
AcDbEntity
  8
0
100
AcDbLine
 10
44.5408
 20
161.5767999999999
 30
0.0
 11
44.5408
 21
159.4108
 31
0.0
  0
LINE
  5
1AC
330
1E
100
AcDbEntity
  8
0
100
AcDbLine
 10
44.5408
 20
161.5767999999999
 30
0.0
 11
44.5408
 21
163.2247999999999
 31
0.0
  0
LINE
  5
1AD
330
1E
100
AcDbEntity
  8
0
100
AcDbLine
 10
44.5408
 20
163.2247999999999
 30
0.0
 11
44.5408
 21
161.5767999999999
 31
0.0
  0
LINE
  5
1AE
330
1E
100
AcDbEntity
  8
0
100
AcDbLine
 10
44.5408
 20
163.2247999999999
 30
0.0
 11
44.5408
 21
164.2648
 31
0.0
  0
LINE
  5
1AF
330
1E
100
AcDbEntity
  8
0
100
AcDbLine
 10
44.5408
 20
164.2648
 30
0.0
 11
44.5408
 21
163.2247999999999
 31
0.0
  0
LINE
  5
1B0
330
1E
100
AcDbEntity
  8
0
100
AcDbLine
 10
44.5408
 20
164.2648
 30
0.0
 11
44.5408
 21
164.6108
 31
0.0
  0
LINE
  5
1B1
330
1E
100
AcDbEntity
  8
0
100
AcDbLine
 10
44.5408
 20
154.2107999999999
 30
0.0
 11
44.5408
 21
151.5247999999999
 31
0.0
  0
LINE
  5
1B2
330
1E
100
AcDbEntity
  8
0
100
AcDbLine
 10
44.5408
 20
154.2107999999999
 30
0.0
 11
44.5408
 21
156.8968
 31
0.0
  0
LINE
  5
1B3
330
1E
100
AcDbEntity
  8
0
100
AcDbLine
 10
44.5408
 20
151.5247999999999
 30
0.0
 11
44.5408
 21
148.9858
 31
0.0
  0
LINE
  5
1B4
330
1E
100
AcDbEntity
  8
0
100
AcDbLine
 10
44.5408
 20
151.5247999999999
 30
0.0
 11
44.5408
 21
154.2107999999999
 31
0.0
  0
LINE
  5
1B5
330
1E
100
AcDbEntity
  8
0
100
AcDbLine
 10
44.5408
 20
148.9858
 30
0.0
 11
44.5408
 21
146.8447999999999
 31
0.0
  0
LINE
  5
1B6
330
1E
100
AcDbEntity
  8
0
100
AcDbLine
 10
44.5408
 20
148.9858
 30
0.0
 11
44.5408
 21
151.5247999999999
 31
0.0
  0
LINE
  5
1B7
330
1E
100
AcDbEntity
  8
0
100
AcDbLine
 10
44.5408
 20
146.8447999999999
 30
0.0
 11
44.5408
 21
145.1967999999999
 31
0.0
  0
LINE
  5
1B8
330
1E
100
AcDbEntity
  8
0
100
AcDbLine
 10
44.5408
 20
146.8447999999999
 30
0.0
 11
44.5408
 21
148.9858
 31
0.0
  0
LINE
  5
1B9
330
1E
100
AcDbEntity
  8
0
100
AcDbLine
 10
44.5408
 20
145.1967999999999
 30
0.0
 11
44.5408
 21
144.1568
 31
0.0
  0
LINE
  5
1BA
330
1E
100
AcDbEntity
  8
0
100
AcDbLine
 10
44.5408
 20
145.1967999999999
 30
0.0
 11
44.5408
 21
146.8447999999999
 31
0.0
  0
LINE
  5
1BB
330
1E
100
AcDbEntity
  8
0
100
AcDbLine
 10
34.5812
 20
164.6108
 30
0.0
 11
44.5408
 21
164.6108
 31
0.0
  0
LINE
  5
1BC
330
1E
100
AcDbEntity
  8
0
100
AcDbLine
 10
34.5812
 20
145.0248
 30
0.0
 11
34.5812
 21
147.7108
 31
0.0
  0
LINE
  5
1BD
330
1E
100
AcDbEntity
  8
0
100
AcDbLine
 10
45.4462
 20
157.1927999999999
 30
0.0
 11
45.4462
 21
159.9458
 31
0.0
  0
LINE
  5
1BE
330
1E
100
AcDbEntity
  8
0
100
AcDbLine
 10
45.4462
 20
157.1927999999999
 30
0.0
 11
45.4462
 21
154.2107999999999
 31
0.0
  0
LINE
  5
1BF
330
1E
100
AcDbEntity
  8
0
100
AcDbLine
 10
45.4462
 20
154.2107999999999
 30
0.0
 11
45.4462
 21
151.2288
 31
0.0
  0
LINE
  5
1C0
330
1E
100
AcDbEntity
  8
0
100
AcDbLine
 10
45.4462
 20
154.2107999999999
 30
0.0
 11
45.4462
 21
157.1927999999999
 31
0.0
  0
LINE
  5
1C1
330
1E
100
AcDbEntity
  8
0
100
AcDbLine
 10
45.4462
 20
151.2288
 30
0.0
 11
45.4462
 21
154.2107999999999
 31
0.0
  0
LINE
  5
1C2
330
1E
100
AcDbEntity
  8
0
100
AcDbLine
 10
45.4462
 20
151.2288
 30
0.0
 11
45.4462
 21
148.4758
 31
0.0
  0
LINE
  5
1C3
330
1E
100
AcDbEntity
  8
0
100
AcDbLine
 10
45.4462
 20
148.4758
 30
0.0
 11
45.4462
 21
151.2288
 31
0.0
  0
LINE
  5
1C4
330
1E
100
AcDbEntity
  8
0
100
AcDbLine
 10
45.4462
 20
148.4758
 30
0.0
 11
45.4462
 21
146.1048
 31
0.0
  0
LINE
  5
1C5
330
1E
100
AcDbEntity
  8
0
100
AcDbLine
 10
45.4462
 20
159.9458
 30
0.0
 11
45.4462
 21
162.3167999999999
 31
0.0
  0
LINE
  5
1C6
330
1E
100
AcDbEntity
  8
0
100
AcDbLine
 10
45.4462
 20
162.3167999999999
 30
0.0
 11
45.4462
 21
164.1518
 31
0.0
  0
LINE
  5
1C7
330
1E
100
AcDbEntity
  8
0
100
AcDbLine
 10
45.4462
 20
162.3167999999999
 30
0.0
 11
45.4462
 21
159.9458
 31
0.0
  0
LINE
  5
1C8
330
1E
100
AcDbEntity
  8
0
100
AcDbLine
 10
45.4462
 20
164.1518
 30
0.0
 11
45.4462
 21
165.2988
 31
0.0
  0
LINE
  5
1C9
330
1E
100
AcDbEntity
  8
0
100
AcDbLine
 10
45.4462
 20
164.1518
 30
0.0
 11
45.4462
 21
162.3167999999999
 31
0.0
  0
LINE
  5
1CA
330
1E
100
AcDbEntity
  8
0
100
AcDbLine
 10
53.0
 20
154.2107999999999
 30
0.0
 11
53.0
 21
157.1927999999999
 31
0.0
  0
LINE
  5
1CB
330
1E
100
AcDbEntity
  8
0
100
AcDbLine
 10
53.0
 20
157.1927999999999
 30
0.0
 11
53.0
 21
159.9458
 31
0.0
  0
LINE
  5
1CC
330
1E
100
AcDbEntity
  8
0
100
AcDbLine
 10
45.4462
 20
165.2988
 30
0.0
 11
45.4462
 21
165.6818
 31
0.0
  0
LINE
  5
1CD
330
1E
100
AcDbEntity
  8
0
100
AcDbLine
 10
45.4462
 20
165.2988
 30
0.0
 11
45.4462
 21
164.1518
 31
0.0
  0
LINE
  5
1CE
330
1E
100
AcDbEntity
  8
0
100
AcDbLine
 10
53.0
 20
151.2288
 30
0.0
 11
53.0
 21
154.2107999999999
 31
0.0
  0
LINE
  5
1CF
330
1E
100
AcDbEntity
  8
0
100
AcDbLine
 10
53.0
 20
148.4758
 30
0.0
 11
53.0
 21
151.2288
 31
0.0
  0
LINE
  5
1D0
330
1E
100
AcDbEntity
  8
0
100
AcDbLine
 10
53.0
 20
146.1048
 30
0.0
 11
53.0
 21
148.4758
 31
0.0
  0
LINE
  5
1D1
330
1E
100
AcDbEntity
  8
0
100
AcDbLine
 10
45.4462
 20
146.1048
 30
0.0
 11
45.4462
 21
148.4758
 31
0.0
  0
LINE
  5
1D2
330
1E
100
AcDbEntity
  8
0
100
AcDbLine
 10
45.4462
 20
146.1048
 30
0.0
 11
45.4462
 21
144.2698
 31
0.0
  0
LINE
  5
1D3
330
1E
100
AcDbEntity
  8
0
100
AcDbLine
 10
45.4462
 20
165.6818
 30
0.0
 11
53.0
 21
165.6818
 31
0.0
  0
LINE
  5
1D4
330
1E
100
AcDbEntity
  8
0
100
AcDbLine
 10
45.4462
 20
165.6818
 30
0.0
 11
45.4462
 21
165.2988
 31
0.0
  0
LINE
  5
1D5
330
1E
100
AcDbEntity
  8
0
100
AcDbLine
 10
44.5408
 20
164.6108
 30
0.0
 11
45.4462
 21
165.6818
 31
0.0
  0
LINE
  5
1D6
330
1E
100
AcDbEntity
  8
0
100
AcDbLine
 10
44.5408
 20
164.6108
 30
0.0
 11
44.5408
 21
164.2648
 31
0.0
  0
LINE
  5
1D7
330
1E
100
AcDbEntity
  8
0
100
AcDbLine
 10
53.0
 20
144.8287999999999
 30
0.0
 11
53.0
 21
153.2108
 31
0.0
  0
LINE
  5
1D8
330
1E
100
AcDbEntity
  8
0
100
AcDbLine
 10
53.0
 20
153.2108
 30
0.0
 11
53.0
 21
161.1518
 31
0.0
  0
LINE
  5
1D9
330
1E
100
AcDbEntity
  8
0
100
AcDbLine
 10
53.0
 20
153.2108
 30
0.0
 11
53.0
 21
144.8287999999999
 31
0.0
  0
LINE
  5
1DA
330
1E
100
AcDbEntity
  8
0
100
AcDbLine
 10
53.0
 20
142.7397999999999
 30
0.0
 11
53.0
 21
135.9167
 31
0.0
  0
LINE
  5
1DB
330
1E
100
AcDbEntity
  8
0
100
AcDbLine
 10
53.0
 20
142.7397999999999
 30
0.0
 11
53.0
 21
143.1228
 31
0.0
  0
LINE
  5
1DC
330
1E
100
AcDbEntity
  8
0
100
AcDbLine
 10
53.0
 20
135.9167
 30
0.0
 11
53.0
 21
142.7397999999999
 31
0.0
  0
LINE
  5
1DD
330
1E
100
AcDbEntity
  8
0
100
AcDbLine
 10
53.0
 20
135.9167
 30
0.0
 11
53.0
 21
126.652
 31
0.0
  0
LINE
  5
1DE
330
1E
100
AcDbEntity
  8
0
100
AcDbLine
 10
53.0
 20
126.652
 30
0.0
 11
53.0
 21
135.9167
 31
0.0
  0
LINE
  5
1DF
330
1E
100
AcDbEntity
  8
0
100
AcDbLine
 10
53.0
 20
126.652
 30
0.0
 11
53.0
 21
117.2108
 31
0.0
  0
LINE
  5
1E0
330
1E
100
AcDbEntity
  8
0
100
AcDbLine
 10
32.0
 20
98.21080000000002
 30
0.0
 11
32.1781
 21
97.44939999999999
 31
0.0
  0
LINE
  5
1E1
330
1E
100
AcDbEntity
  8
0
100
AcDbLine
 10
32.1781
 20
97.44939999999999
 30
0.0
 11
32.6578
 21
95.8656
 31
0.0
  0
LINE
  5
1E2
330
1E
100
AcDbEntity
  8
0
100
AcDbLine
 10
2.5
 20
98.21080000000002
 30
0.0
 11
32.0
 21
98.21080000000002
 31
0.0
  0
LINE
  5
1E3
330
1E
100
AcDbEntity
  8
0
100
AcDbLine
 10
2.5
 20
98.21080000000002
 30
0.0
 11
2.5
 21
97.51080000000001
 31
0.0
  0
LINE
  5
1E4
330
1E
100
AcDbEntity
  8
0
100
AcDbLine
 10
53.0
 20
76.1108
 30
0.0
 11
53.0
 21
72.2108
 31
0.0
  0
LINE
  5
1E5
330
1E
100
AcDbEntity
  8
0
100
AcDbLine
 10
53.0
 20
80.21080000000001
 30
0.0
 11
53.0
 21
76.1108
 31
0.0
  0
LINE
  5
1E6
330
1E
100
AcDbEntity
  8
0
100
AcDbLine
 10
53.0
 20
68.91079999999999
 30
0.0
 11
53.0
 21
66.3108
 31
0.0
  0
LINE
  5
1E7
330
1E
100
AcDbEntity
  8
0
100
AcDbLine
 10
53.0
 20
66.3108
 30
0.0
 11
53.0
 21
64.8108
 31
0.0
  0
LINE
  5
1E8
330
1E
100
AcDbEntity
  8
0
100
AcDbLine
 10
39.0
 20
64.2108
 30
0.0
 11
53.0
 21
64.2108
 31
0.0
  0
LINE
  5
1E9
330
1E
100
AcDbEntity
  8
0
100
AcDbLine
 10
53.0
 20
162.3167999999999
 30
0.0
 11
53.0
 21
164.1518
 31
0.0
  0
LINE
  5
1EA
330
1E
100
AcDbEntity
  8
0
100
AcDbLine
 10
53.0
 20
164.1518
 30
0.0
 11
53.0
 21
165.2988
 31
0.0
  0
LINE
  5
1EB
330
1E
100
AcDbEntity
  8
0
100
AcDbLine
 10
53.0
 20
165.2988
 30
0.0
 11
53.0
 21
165.6818
 31
0.0
  0
LINE
  5
1EC
330
1E
100
AcDbEntity
  8
0
100
AcDbLine
 10
53.0
 20
168.2987999999999
 30
0.0
 11
53.0
 21
174.5637999999999
 31
0.0
  0
LINE
  5
1ED
330
1E
100
AcDbEntity
  8
0
100
AcDbLine
 10
53.0
 20
168.2987999999999
 30
0.0
 11
53.0
 21
161.1518
 31
0.0
  0
LINE
  5
1EE
330
1E
100
AcDbEntity
  8
0
100
AcDbLine
 10
53.0
 20
161.1518
 30
0.0
 11
53.0
 21
168.2987999999999
 31
0.0
  0
LINE
  5
1EF
330
1E
100
AcDbEntity
  8
0
100
AcDbLine
 10
53.0
 20
161.1518
 30
0.0
 11
53.0
 21
162.3167999999999
 31
0.0
  0
LINE
  5
1F0
330
1E
100
AcDbEntity
  8
0
100
AcDbLine
 10
53.0
 20
179.8578
 30
0.0
 11
53.0
 21
174.5637999999999
 31
0.0
  0
LINE
  5
1F1
330
1E
100
AcDbEntity
  8
0
100
AcDbLine
 10
53.0
 20
179.8578
 30
0.0
 11
53.0
 21
183.9167999999999
 31
0.0
  0
LINE
  5
1F2
330
1E
100
AcDbEntity
  8
0
100
AcDbLine
 10
53.0
 20
174.5637999999999
 30
0.0
 11
53.0
 21
179.8578
 31
0.0
  0
LINE
  5
1F3
330
1E
100
AcDbEntity
  8
0
100
AcDbLine
 10
53.0
 20
174.5637999999999
 30
0.0
 11
53.0
 21
168.2987999999999
 31
0.0
  0
LINE
  5
1F4
330
1E
100
AcDbEntity
  8
0
100
AcDbLine
 10
53.0
 20
183.9167999999999
 30
0.0
 11
53.0
 21
186.9167999999999
 31
0.0
  0
LINE
  5
1F5
330
1E
100
AcDbEntity
  8
0
100
AcDbLine
 10
53.0
 20
183.9167999999999
 30
0.0
 11
53.0
 21
179.8578
 31
0.0
  0
LINE
  5
1F6
330
1E
100
AcDbEntity
  8
0
100
AcDbLine
 10
53.0
 20
188.8578
 30
0.0
 11
53.0
 21
186.9167999999999
 31
0.0
  0
LINE
  5
1F7
330
1E
100
AcDbEntity
  8
0
100
AcDbLine
 10
53.0
 20
188.8578
 30
0.0
 11
53.0
 21
189.5637999999999
 31
0.0
  0
LINE
  5
1F8
330
1E
100
AcDbEntity
  8
0
100
AcDbLine
 10
53.0
 20
186.9167999999999
 30
0.0
 11
53.0
 21
188.8578
 31
0.0
  0
LINE
  5
1F9
330
1E
100
AcDbEntity
  8
0
100
AcDbLine
 10
53.0
 20
186.9167999999999
 30
0.0
 11
53.0
 21
183.9167999999999
 31
0.0
  0
LINE
  5
1FA
330
1E
100
AcDbEntity
  8
0
100
AcDbLine
 10
53.5
 20
43.62256
 30
0.0
 11
54.6
 21
42.65197599999999
 31
0.0
  0
LINE
  5
1FB
330
1E
100
AcDbEntity
  8
0
100
AcDbLine
 10
54.6
 20
42.65197599999999
 30
0.0
 11
56.0
 21
42.21079999999999
 31
0.0
  0
LINE
  5
1FC
330
1E
100
AcDbEntity
  8
0
100
AcDbLine
 10
53.0
 20
189.5637999999999
 30
0.0
 11
53.5
 21
190.7987999999999
 31
0.0
  0
LINE
  5
1FD
330
1E
100
AcDbEntity
  8
0
100
AcDbLine
 10
53.0
 20
189.5637999999999
 30
0.0
 11
53.0
 21
188.8578
 31
0.0
  0
LINE
  5
1FE
330
1E
100
AcDbEntity
  8
0
100
AcDbLine
 10
53.5
 20
190.7987999999999
 30
0.0
 11
54.6
 21
191.7698
 31
0.0
  0
LINE
  5
1FF
330
1E
100
AcDbEntity
  8
0
100
AcDbLine
 10
56.0
 20
42.21079999999999
 30
0.0
 11
66.0
 21
42.21079999999999
 31
0.0
  0
LINE
  5
200
330
1E
100
AcDbEntity
  8
0
100
AcDbLine
 10
66.0
 20
42.21079999999999
 30
0.0
 11
66.0
 21
43.00491799999999
 31
0.0
  0
LINE
  5
201
330
1E
100
AcDbEntity
  8
0
100
AcDbLine
 10
66.0
 20
43.00491799999999
 30
0.0
 11
66.0
 21
42.21079999999999
 31
0.0
  0
LINE
  5
202
330
1E
100
AcDbEntity
  8
0
100
AcDbLine
 10
66.0
 20
43.00491799999999
 30
0.0
 11
66.0
 21
44.94609
 31
0.0
  0
LINE
  5
203
330
1E
100
AcDbEntity
  8
0
100
AcDbLine
 10
66.0
 20
64.2696
 30
0.0
 11
66.0
 21
57.8284
 31
0.0
  0
LINE
  5
204
330
1E
100
AcDbEntity
  8
0
100
AcDbLine
 10
66.0
 20
64.2696
 30
0.0
 11
66.0
 21
71.5932
 31
0.0
  0
LINE
  5
205
330
1E
100
AcDbEntity
  8
0
100
AcDbLine
 10
66.0
 20
57.8284
 30
0.0
 11
66.0
 21
52.2696
 31
0.0
  0
LINE
  5
206
330
1E
100
AcDbEntity
  8
0
100
AcDbLine
 10
66.0
 20
57.8284
 30
0.0
 11
66.0
 21
64.2696
 31
0.0
  0
LINE
  5
207
330
1E
100
AcDbEntity
  8
0
100
AcDbLine
 10
66.0
 20
71.5932
 30
0.0
 11
66.0
 21
79.8873
 31
0.0
  0
LINE
  5
208
330
1E
100
AcDbEntity
  8
0
100
AcDbLine
 10
66.0
 20
71.5932
 30
0.0
 11
66.0
 21
64.2696
 31
0.0
  0
LINE
  5
209
330
1E
100
AcDbEntity
  8
0
100
AcDbLine
 10
66.0
 20
52.2696
 30
0.0
 11
66.0
 21
48.03433
 31
0.0
  0
LINE
  5
20A
330
1E
100
AcDbEntity
  8
0
100
AcDbLine
 10
66.0
 20
52.2696
 30
0.0
 11
66.0
 21
57.8284
 31
0.0
  0
LINE
  5
20B
330
1E
100
AcDbEntity
  8
0
100
AcDbLine
 10
66.0
 20
44.94609
 30
0.0
 11
66.0
 21
43.00491799999999
 31
0.0
  0
LINE
  5
20C
330
1E
100
AcDbEntity
  8
0
100
AcDbLine
 10
66.0
 20
44.94609
 30
0.0
 11
66.0
 21
48.03433
 31
0.0
  0
LINE
  5
20D
330
1E
100
AcDbEntity
  8
0
100
AcDbLine
 10
66.0
 20
48.03433
 30
0.0
 11
66.0
 21
44.94609
 31
0.0
  0
LINE
  5
20E
330
1E
100
AcDbEntity
  8
0
100
AcDbLine
 10
66.0
 20
48.03433
 30
0.0
 11
66.0
 21
52.2696
 31
0.0
  0
LINE
  5
20F
330
1E
100
AcDbEntity
  8
0
100
AcDbLine
 10
66.0
 20
88.53430000000001
 30
0.0
 11
66.0
 21
97.88730000000001
 31
0.0
  0
LINE
  5
210
330
1E
100
AcDbEntity
  8
0
100
AcDbLine
 10
66.0
 20
107.4167
 30
0.0
 11
66.0
 21
97.88730000000001
 31
0.0
  0
LINE
  5
211
330
1E
100
AcDbEntity
  8
0
100
AcDbLine
 10
66.0
 20
107.4167
 30
0.0
 11
66.0
 21
117.2108
 31
0.0
  0
LINE
  5
212
330
1E
100
AcDbEntity
  8
0
100
AcDbLine
 10
66.0
 20
97.88730000000001
 30
0.0
 11
66.0
 21
88.53430000000001
 31
0.0
  0
LINE
  5
213
330
1E
100
AcDbEntity
  8
0
100
AcDbLine
 10
66.0
 20
97.88730000000001
 30
0.0
 11
66.0
 21
107.4167
 31
0.0
  0
LINE
  5
214
330
1E
100
AcDbEntity
  8
0
100
AcDbLine
 10
66.0
 20
79.8873
 30
0.0
 11
66.0
 21
88.53430000000001
 31
0.0
  0
LINE
  5
215
330
1E
100
AcDbEntity
  8
0
100
AcDbLine
 10
66.0
 20
79.8873
 30
0.0
 11
66.0
 21
71.5932
 31
0.0
  0
LINE
  5
216
330
1E
100
AcDbEntity
  8
0
100
AcDbLine
 10
66.0
 20
117.2108
 30
0.0
 11
66.0
 21
127.0048999999999
 31
0.0
  0
LINE
  5
217
330
1E
100
AcDbEntity
  8
0
100
AcDbLine
 10
66.0
 20
117.2108
 30
0.0
 11
66.0
 21
107.4167
 31
0.0
  0
LINE
  5
218
330
1E
100
AcDbEntity
  8
0
100
AcDbLine
 10
66.0
 20
170.1518
 30
0.0
 11
66.0
 21
162.8287999999999
 31
0.0
  0
LINE
  5
219
330
1E
100
AcDbEntity
  8
0
100
AcDbLine
 10
66.0
 20
170.1518
 30
0.0
 11
66.0
 21
176.5928
 31
0.0
  0
LINE
  5
21A
330
1E
100
AcDbEntity
  8
0
100
AcDbLine
 10
66.0
 20
162.8287999999999
 30
0.0
 11
66.0
 21
154.5347999999999
 31
0.0
  0
LINE
  5
21B
330
1E
100
AcDbEntity
  8
0
100
AcDbLine
 10
66.0
 20
162.8287999999999
 30
0.0
 11
66.0
 21
170.1518
 31
0.0
  0
LINE
  5
21C
330
1E
100
AcDbEntity
  8
0
100
AcDbLine
 10
66.0
 20
154.5347999999999
 30
0.0
 11
66.0
 21
145.8868
 31
0.0
  0
LINE
  5
21D
330
1E
100
AcDbEntity
  8
0
100
AcDbLine
 10
66.0
 20
154.5347999999999
 30
0.0
 11
66.0
 21
162.8287999999999
 31
0.0
  0
LINE
  5
21E
330
1E
100
AcDbEntity
  8
0
100
AcDbLine
 10
66.0
 20
145.8868
 30
0.0
 11
66.0
 21
136.5342999999999
 31
0.0
  0
LINE
  5
21F
330
1E
100
AcDbEntity
  8
0
100
AcDbLine
 10
66.0
 20
145.8868
 30
0.0
 11
66.0
 21
154.5347999999999
 31
0.0
  0
LINE
  5
220
330
1E
100
AcDbEntity
  8
0
100
AcDbLine
 10
66.0
 20
136.5342999999999
 30
0.0
 11
66.0
 21
127.0048999999999
 31
0.0
  0
LINE
  5
221
330
1E
100
AcDbEntity
  8
0
100
AcDbLine
 10
66.0
 20
136.5342999999999
 30
0.0
 11
66.0
 21
145.8868
 31
0.0
  0
LINE
  5
222
330
1E
100
AcDbEntity
  8
0
100
AcDbLine
 10
66.0
 20
127.0048999999999
 30
0.0
 11
66.0
 21
117.2108
 31
0.0
  0
LINE
  5
223
330
1E
100
AcDbEntity
  8
0
100
AcDbLine
 10
66.0
 20
127.0048999999999
 30
0.0
 11
66.0
 21
136.5342999999999
 31
0.0
  0
LINE
  5
224
330
1E
100
AcDbEntity
  8
0
100
AcDbLine
 10
66.0
 20
189.4757999999999
 30
0.0
 11
66.0
 21
186.3868
 31
0.0
  0
LINE
  5
225
330
1E
100
AcDbEntity
  8
0
100
AcDbLine
 10
66.0
 20
189.4757999999999
 30
0.0
 11
66.0
 21
191.4168
 31
0.0
  0
LINE
  5
226
330
1E
100
AcDbEntity
  8
0
100
AcDbLine
 10
66.0
 20
191.4168
 30
0.0
 11
66.0
 21
189.4757999999999
 31
0.0
  0
LINE
  5
227
330
1E
100
AcDbEntity
  8
0
100
AcDbLine
 10
66.0
 20
191.4168
 30
0.0
 11
66.0
 21
192.2108
 31
0.0
  0
LINE
  5
228
330
1E
100
AcDbEntity
  8
0
100
AcDbLine
 10
66.0
 20
192.2108
 30
0.0
 11
66.0
 21
191.4168
 31
0.0
  0
LINE
  5
229
330
1E
100
AcDbEntity
  8
0
100
AcDbLine
 10
66.0
 20
186.3868
 30
0.0
 11
66.0
 21
182.1518
 31
0.0
  0
LINE
  5
22A
330
1E
100
AcDbEntity
  8
0
100
AcDbLine
 10
66.0
 20
186.3868
 30
0.0
 11
66.0
 21
189.4757999999999
 31
0.0
  0
LINE
  5
22B
330
1E
100
AcDbEntity
  8
0
100
AcDbLine
 10
66.0
 20
182.1518
 30
0.0
 11
66.0
 21
176.5928
 31
0.0
  0
LINE
  5
22C
330
1E
100
AcDbEntity
  8
0
100
AcDbLine
 10
66.0
 20
182.1518
 30
0.0
 11
66.0
 21
186.3868
 31
0.0
  0
LINE
  5
22D
330
1E
100
AcDbEntity
  8
0
100
AcDbLine
 10
66.0
 20
176.5928
 30
0.0
 11
66.0
 21
170.1518
 31
0.0
  0
LINE
  5
22E
330
1E
100
AcDbEntity
  8
0
100
AcDbLine
 10
66.0
 20
176.5928
 30
0.0
 11
66.0
 21
182.1518
 31
0.0
  0
LINE
  5
22F
330
1E
100
AcDbEntity
  8
0
100
AcDbLine
 10
54.6
 20
191.7698
 30
0.0
 11
56.0
 21
192.2108
 31
0.0
  0
LINE
  5
230
330
1E
100
AcDbEntity
  8
0
100
AcDbLine
 10
56.0
 20
192.2108
 30
0.0
 11
66.0
 21
192.2108
 31
0.0
  0
LINE
  5
231
330
1E
100
AcDbEntity
  8
0
100
AcDbLine
 10
53.0
 20
64.8108
 30
0.0
 11
53.0
 21
64.2108
 31
0.0
  0
ENDSEC
  0
SECTION
  2
OBJECTS
  0
DICTIONARY
  5
C
330
0
100
AcDbDictionary
  3
ACAD_GROUP
350
D
  3
ACAD_LAYOUT
350
19
  3
ACAD_MLINESTYLE
350
16
  3
ACAD_PLOTSETTINGS
350
18
  3
ACAD_PLOTSTYLENAME
350
E
  3
ACDBHEADERROUNDTRIPXREC
350
239
  3
ACDBVARIABLEDICTIONARY
350
236
  0
DICTIONARY
  5
25B
330
1E
100
AcDbDictionary
280
     1
  3
ACAD_LAYOUTSELFREF
360
25C
  0
DICTIONARY
  5
259
330
1A
100
AcDbDictionary
280
     1
  3
ACAD_LAYOUTSELFREF
360
25A
  0
DICTIONARY
  5
D
102
{ACAD_REACTORS
330
C
102
}
330
C
100
AcDbDictionary
  0
DICTIONARY
  5
19
102
{ACAD_REACTORS
330
C
102
}
330
C
100
AcDbDictionary
  0
DICTIONARY
  5
16
102
{ACAD_REACTORS
330
C
102
}
330
C
100
AcDbDictionary
  3
STANDARD
350
17
  0
DICTIONARY
  5
18
102
{ACAD_REACTORS
330
C
102
}
330
C
100
AcDbDictionary
  0
ACDBDICTIONARYWDFLT
  5
E
102
{ACAD_REACTORS
330
C
102
}
330
C
100
AcDbDictionary
281
     1
  3
Normal
350
F
100
AcDbDictionaryWithDefault
340
F
  0
DICTIONARY
  5
239
102
{ACAD_REACTORS
330
C
102
}
330
C
100
AcDbDictionary
  3
CEPSNTYPE
350
243
  3
FINGERPRINTGUID
350
244
  3
HYPERLINKBASE
350
23C
  3
INSUNITS
350
242
  3
LAYOUTDICT
350
23E
  3
LWETCUNION
350
241
  3
PLOTSETDICT
350
23F
  3
PLOTSTYLNAMDICT
350
240
  3
PSVPSCALE
350
246
  3
PUCSBASE
350
249
  3
PUCSORGBACK
350
24F
  3
PUCSORGBOTTOM
350
24B
  3
PUCSORGFRONT
350
24E
  3
PUCSORGLEFT
350
24C
  3
PUCSORGRIGHT
350
24D
  3
PUCSORGTOP
350
24A
  3
PUCSORTHOREF
350
247
  3
PUCSORTHOVIEW
350
248
  3
STYLESHEET
350
23D
  3
TSTACKALIGN
350
23A
  3
TSTACKSIZE
350
23B
  3
UCSBASE
350
252
  3
UCSORGBACK
350
258
  3
UCSORGBOTTOM
350
254
  3
UCSORGFRONT
350
257
  3
UCSORGLEFT
350
255
  3
UCSORGRIGHT
350
256
  3
UCSORGTOP
350
253
  3
UCSORTHOREF
350
250
  3
UCSORTHOVIEW
350
251
  3
VERSIONGUID
350
245
  0
DICTIONARY
  5
236
102
{ACAD_REACTORS
330
C
102
}
330
C
100
AcDbDictionary
  3
DIMASSOC
350
237
  0
XRECORD
  5
25C
102
{ACAD_REACTORS
330
25B
102
}
330
25B
100
AcDbXrecord
340
1E
  0
XRECORD
  5
25A
102
{ACAD_REACTORS
330
259
102
}
330
259
100
AcDbXrecord
340
1A
  0
MLINESTYLE
  5
17
102
{ACAD_REACTORS
330
16
102
}
330
16
100
AcDbMlineStyle
  2
STANDARD
 70
     0
  3

 62
   256
 51
90.0
 52
90.0
 71
     2
 49
0.5
 62
   256
  6
BYLAYER
 49
-0.5
 62
   256
  6
BYLAYER
  0
ACDBPLACEHOLDER
  5
F
102
{ACAD_REACTORS
330
E
102
}
330
E
100
AcDbPlaceHolder
280
     0
  0
XRECORD
  5
243
102
{ACAD_REACTORS
330
239
102
}
330
239
100
AcDbXrecord
 90
        0
  0
XRECORD
  5
244
102
{ACAD_REACTORS
330
239
102
}
330
239
100
AcDbXrecord
  1
{1A69666E-FDF4-464C-832B-977A57A53622}
  0
XRECORD
  5
23C
102
{ACAD_REACTORS
330
239
102
}
330
239
100
AcDbXrecord
  1

  0
XRECORD
  5
242
102
{ACAD_REACTORS
330
239
102
}
330
239
100
AcDbXrecord
 90
        0
  0
XRECORD
  5
23E
102
{ACAD_REACTORS
330
239
102
}
330
239
100
AcDbXrecord
340
19
  0
XRECORD
  5
241
102
{ACAD_REACTORS
330
239
102
}
330
239
100
AcDbXrecord
 90
    10781
  0
XRECORD
  5
23F
102
{ACAD_REACTORS
330
239
102
}
330
239
100
AcDbXrecord
340
18
  0
XRECORD
  5
240
102
{ACAD_REACTORS
330
239
102
}
330
239
100
AcDbXrecord
340
E
  0
XRECORD
  5
246
102
{ACAD_REACTORS
330
239
102
}
330
239
100
AcDbXrecord
 40
0.0
  0
XRECORD
  5
249
102
{ACAD_REACTORS
330
239
102
}
330
239
100
AcDbXrecord
340
0
  0
XRECORD
  5
24F
102
{ACAD_REACTORS
330
239
102
}
330
239
100
AcDbXrecord
 10
0.0
 20
0.0
 30
0.0
  0
XRECORD
  5
24B
102
{ACAD_REACTORS
330
239
102
}
330
239
100
AcDbXrecord
 10
0.0
 20
0.0
 30
0.0
  0
XRECORD
  5
24E
102
{ACAD_REACTORS
330
239
102
}
330
239
100
AcDbXrecord
 10
0.0
 20
0.0
 30
0.0
  0
XRECORD
  5
24C
102
{ACAD_REACTORS
330
239
102
}
330
239
100
AcDbXrecord
 10
0.0
 20
0.0
 30
0.0
  0
XRECORD
  5
24D
102
{ACAD_REACTORS
330
239
102
}
330
239
100
AcDbXrecord
 10
0.0
 20
0.0
 30
0.0
  0
XRECORD
  5
24A
102
{ACAD_REACTORS
330
239
102
}
330
239
100
AcDbXrecord
 10
0.0
 20
0.0
 30
0.0
  0
XRECORD
  5
247
102
{ACAD_REACTORS
330
239
102
}
330
239
100
AcDbXrecord
340
0
  0
XRECORD
  5
248
102
{ACAD_REACTORS
330
239
102
}
330
239
100
AcDbXrecord
 70
     0
  0
XRECORD
  5
23D
102
{ACAD_REACTORS
330
239
102
}
330
239
100
AcDbXrecord
  1

  0
XRECORD
  5
23A
102
{ACAD_REACTORS
330
239
102
}
330
239
100
AcDbXrecord
 90
        1
  0
XRECORD
  5
23B
102
{ACAD_REACTORS
330
239
102
}
330
239
100
AcDbXrecord
 90
       70
  0
XRECORD
  5
252
102
{ACAD_REACTORS
330
239
102
}
330
239
100
AcDbXrecord
340
0
  0
XRECORD
  5
258
102
{ACAD_REACTORS
330
239
102
}
330
239
100
AcDbXrecord
 10
0.0
 20
0.0
 30
0.0
  0
XRECORD
  5
254
102
{ACAD_REACTORS
330
239
102
}
330
239
100
AcDbXrecord
 10
0.0
 20
0.0
 30
0.0
  0
XRECORD
  5
257
102
{ACAD_REACTORS
330
239
102
}
330
239
100
AcDbXrecord
 10
0.0
 20
0.0
 30
0.0
  0
XRECORD
  5
255
102
{ACAD_REACTORS
330
239
102
}
330
239
100
AcDbXrecord
 10
0.0
 20
0.0
 30
0.0
  0
XRECORD
  5
256
102
{ACAD_REACTORS
330
239
102
}
330
239
100
AcDbXrecord
 10
0.0
 20
0.0
 30
0.0
  0
XRECORD
  5
253
102
{ACAD_REACTORS
330
239
102
}
330
239
100
AcDbXrecord
 10
0.0
 20
0.0
 30
0.0
  0
XRECORD
  5
250
102
{ACAD_REACTORS
330
239
102
}
330
239
100
AcDbXrecord
340
0
  0
XRECORD
  5
251
102
{ACAD_REACTORS
330
239
102
}
330
239
100
AcDbXrecord
 70
     1
  0
XRECORD
  5
245
102
{ACAD_REACTORS
330
239
102
}
330
239
100
AcDbXrecord
  1
{D37A997D-11A3-4A47-B79A-66FF0458897C}
  0
DICTIONARYVAR
  5
237
102
{ACAD_REACTORS
330
236
102
}
330
236
100
DictionaryVariables
280
     0
  1
1
  0
ENDSEC
  0
EOF
