  0
SECTION
  2
HEADER
  9
$ACADVER
  1
AC1014
  9
$ACADMAINTVER
 70
     9
  9
$DWGCODEPAGE
  3
ANSI_1252
  9
$INSBASE
 10
0.0
 20
0.0
 30
0.0
  9
$EXTMIN
 10
0.0000000000000053
 20
0.000000000000007
 30
0.0
  9
$EXTMAX
 10
220.0
 20
197.0
 30
0.0
  9
$LIMMIN
 10
0.0
 20
0.0
  9
$LIMMAX
 10
12.0
 20
9.0
  9
$ORTHOMODE
 70
     0
  9
$REGENMODE
 70
     1
  9
$FILLMODE
 70
     1
  9
$QTEXTMODE
 70
     0
  9
$MIRRTEXT
 70
     1
  9
$DRAGMODE
 70
     2
  9
$LTSCALE
 40
1.0
  9
$OSMODE
 70
    37
  9
$ATTMODE
 70
     1
  9
$TEXTSIZE
 40
0.2
  9
$TRACEWID
 40
0.05
  9
$TEXTSTYLE
  7
STANDARD
  9
$CLAYER
  8
0
  9
$CELTYPE
  6
CONTINUOUS
  9
$CECOLOR
 62
   256
  9
$CELTSCALE
 40
1.0
  9
$DELOBJ
 70
     1
  9
$DISPSILH
 70
     0
  9
$DIMSCALE
 40
1.0
  9
$DIMASZ
 40
0.18
  9
$DIMEXO
 40
0.0625
  9
$DIMDLI
 40
0.38
  9
$DIMRND
 40
0.0
  9
$DIMDLE
 40
0.0
  9
$DIMEXE
 40
0.18
  9
$DIMTP
 40
0.0
  9
$DIMTM
 40
0.0
  9
$DIMTXT
 40
0.18
  9
$DIMCEN
 40
0.09
  9
$DIMTSZ
 40
0.0
  9
$DIMTOL
 70
     0
  9
$DIMLIM
 70
     0
  9
$DIMTIH
 70
     1
  9
$DIMTOH
 70
     1
  9
$DIMSE1
 70
     0
  9
$DIMSE2
 70
     0
  9
$DIMTAD
 70
     0
  9
$DIMZIN
 70
     0
  9
$DIMBLK
  1

  9
$DIMASO
 70
     1
  9
$DIMSHO
 70
     1
  9
$DIMPOST
  1

  9
$DIMAPOST
  1

  9
$DIMALT
 70
     0
  9
$DIMALTD
 70
     2
  9
$DIMALTF
 40
25.4
  9
$DIMLFAC
 40
1.0
  9
$DIMTOFL
 70
     0
  9
$DIMTVP
 40
0.0
  9
$DIMTIX
 70
     0
  9
$DIMSOXD
 70
     0
  9
$DIMSAH
 70
     0
  9
$DIMBLK1
  1

  9
$DIMBLK2
  1

  9
$DIMSTYLE
  2
STANDARD
  9
$DIMCLRD
 70
     0
  9
$DIMCLRE
 70
     0
  9
$DIMCLRT
 70
     0
  9
$DIMTFAC
 40
1.0
  9
$DIMGAP
 40
0.09
  9
$DIMJUST
 70
     0
  9
$DIMSD1
 70
     0
  9
$DIMSD2
 70
     0
  9
$DIMTOLJ
 70
     1
  9
$DIMTZIN
 70
     0
  9
$DIMALTZ
 70
     0
  9
$DIMALTTZ
 70
     0
  9
$DIMFIT
 70
     3
  9
$DIMUPT
 70
     0
  9
$DIMUNIT
 70
     2
  9
$DIMDEC
 70
     4
  9
$DIMTDEC
 70
     4
  9
$DIMALTU
 70
     2
  9
$DIMALTTD
 70
     2
  9
$DIMTXSTY
  7
STANDARD
  9
$DIMAUNIT
 70
     0
  9
$LUNITS
 70
     2
  9
$LUPREC
 70
     4
  9
$SKETCHINC
 40
0.1
  9
$FILLETRAD
 40
0.0
  9
$AUNITS
 70
     0
  9
$AUPREC
 70
     0
  9
$MENU
  1
.
  9
$ELEVATION
 40
0.0
  9
$PELEVATION
 40
0.0
  9
$THICKNESS
 40
0.0
  9
$LIMCHECK
 70
     0
  9
$BLIPMODE
 70
     0
  9
$CHAMFERA
 40
0.0
  9
$CHAMFERB
 40
0.0
  9
$CHAMFERC
 40
0.0
  9
$CHAMFERD
 40
0.0
  9
$SKPOLY
 70
     0
  9
$TDCREATE
 40
2454698.401530300
  9
$TDUPDATE
 40
2454698.403184317
  9
$TDINDWG
 40
0.0016540162
  9
$TDUSRTIMER
 40
0.0016540162
  9
$USRTIMER
 70
     1
  9
$ANGBASE
 50
0.0
  9
$ANGDIR
 70
     0
  9
$PDMODE
 70
     0
  9
$PDSIZE
 40
0.0
  9
$PLINEWID
 40
0.0
  9
$COORDS
 70
     1
  9
$SPLFRAME
 70
     0
  9
$SPLINETYPE
 70
     6
  9
$SPLINESEGS
 70
     8
  9
$ATTDIA
 70
     0
  9
$ATTREQ
 70
     1
  9
$HANDLING
 70
 22529
  9
$HANDSEED
  5
3F0
  9
$SURFTAB1
 70
     6
  9
$SURFTAB2
 70
     6
  9
$SURFTYPE
 70
     6
  9
$SURFU
 70
     6
  9
$SURFV
 70
     6
  9
$UCSNAME
  2

  9
$UCSORG
 10
0.0
 20
0.0
 30
0.0
  9
$UCSXDIR
 10
1.0
 20
0.0
 30
0.0
  9
$UCSYDIR
 10
0.0
 20
1.0
 30
0.0
  9
$PUCSNAME
  2

  9
$PUCSORG
 10
0.0
 20
0.0
 30
0.0
  9
$PUCSXDIR
 10
1.0
 20
0.0
 30
0.0
  9
$PUCSYDIR
 10
0.0
 20
1.0
 30
0.0
  9
$USERI1
 70
     0
  9
$USERI2
 70
     0
  9
$USERI3
 70
     0
  9
$USERI4
 70
     0
  9
$USERI5
 70
     0
  9
$USERR1
 40
0.0
  9
$USERR2
 40
0.0
  9
$USERR3
 40
0.0
  9
$USERR4
 40
0.0
  9
$USERR5
 40
0.0
  9
$WORLDVIEW
 70
     1
  9
$SHADEDGE
 70
     3
  9
$SHADEDIF
 70
    70
  9
$TILEMODE
 70
     1
  9
$MAXACTVP
 70
    64
  9
$PINSBASE
 10
0.0
 20
0.0
 30
0.0
  9
$PLIMCHECK
 70
     0
  9
$PEXTMIN
 10
1.000000000000000E+20
 20
1.000000000000000E+20
 30
1.000000000000000E+20
  9
$PEXTMAX
 10
-1.000000000000000E+20
 20
-1.000000000000000E+20
 30
-1.000000000000000E+20
  9
$PLIMMIN
 10
0.0
 20
0.0
  9
$PLIMMAX
 10
12.0
 20
9.0
  9
$UNITMODE
 70
     0
  9
$VISRETAIN
 70
     1
  9
$PLINEGEN
 70
     0
  9
$PSLTSCALE
 70
     1
  9
$TREEDEPTH
 70
  3020
  9
$PICKSTYLE
 70
     1
  9
$CMLSTYLE
  2
STANDARD
  9
$CMLJUST
 70
     0
  9
$CMLSCALE
 40
1.0
  9
$PROXYGRAPHICS
 70
     1
  9
$MEASUREMENT
 70
     0
  0
ENDSEC
  0
SECTION
  2
CLASSES
  0
CLASS
  1
ACDBDICTIONARYWDFLT
  2
AcDbDictionaryWithDefault
  3
AutoCAD 2000
 90
        0
280
     0
281
     0
  0
CLASS
  1
ACDBPLACEHOLDER
  2
AcDbPlaceHolder
  3
AutoCAD 2000
 90
        0
280
     0
281
     0
  0
CLASS
  1
LAYOUT
  2
AcDbLayout
  3
AutoCAD 2000
 90
        0
280
     0
281
     0
  0
CLASS
  1
DICTIONARYVAR
  2
AcDbDictionaryVar
  3
AutoCAD 2000
 90
        0
280
     0
281
     0
  0
CLASS
  1
LONG_TRANSACTION
  2
AcDbLongTransaction
  3
AutoCAD 2000
 90
        0
280
     0
281
     0
  0
CLASS
  1
LWPOLYLINE
  2
AcDbPolyline
  3
AutoCAD 2000
 90
        0
280
     0
281
     1
  0
CLASS
  1
HATCH
  2
AcDbHatch
  3
AutoCAD 2000
 90
        0
280
     0
281
     1
  0
CLASS
  1
XRECORD
  2
AcDbXrecord
  3
AutoCAD 2000
 90
        0
280
     0
281
     0
  0
ENDSEC
  0
SECTION
  2
TABLES
  0
TABLE
  2
VPORT
  5
8
330
0
100
AcDbSymbolTable
 70
     2
  0
VPORT
  5
3CB
330
8
100
AcDbSymbolTableRecord
100
AcDbViewportTableRecord
  2
*ACTIVE
 70
     0
 10
0.0
 20
0.0
 11
1.0
 21
1.0
 12
110.0
 22
98.50000000000001
 13
0.0
 23
0.0
 14
1.0
 24
1.0
 15
0.0
 25
0.0
 16
0.0
 26
0.0
 36
1.0
 17
0.0
 27
0.0
 37
0.0
 40
198.5115089514066
 41
2.078104993597951
 42
50.0
 43
0.0
 44
0.0
 50
0.0
 51
0.0
 71
     0
 72
   100
 73
     1
 74
     3
 75
     0
 76
     0
 77
     0
 78
     0
  0
ENDTAB
  0
TABLE
  2
LTYPE
  5
5
330
0
100
AcDbSymbolTable
 70
     1
  0
LTYPE
  5
13
330
5
100
AcDbSymbolTableRecord
100
AcDbLinetypeTableRecord
  2
BYBLOCK
 70
     0
  3

 72
    65
 73
     0
 40
0.0
  0
LTYPE
  5
14
330
5
100
AcDbSymbolTableRecord
100
AcDbLinetypeTableRecord
  2
BYLAYER
 70
     0
  3

 72
    65
 73
     0
 40
0.0
  0
LTYPE
  5
15
330
5
100
AcDbSymbolTableRecord
100
AcDbLinetypeTableRecord
  2
CONTINUOUS
 70
     0
  3
Solid line
 72
    65
 73
     0
 40
0.0
  0
ENDTAB
  0
TABLE
  2
LAYER
  5
2
330
0
100
AcDbSymbolTable
 70
     1
  0
LAYER
  5
10
330
2
100
AcDbSymbolTableRecord
100
AcDbLayerTableRecord
  2
0
 70
     0
 62
     7
  6
CONTINUOUS
  0
ENDTAB
  0
TABLE
  2
STYLE
  5
3
330
0
100
AcDbSymbolTable
 70
     1
  0
STYLE
  5
11
330
3
100
AcDbSymbolTableRecord
100
AcDbTextStyleTableRecord
  2
STANDARD
 70
     0
 40
0.0
 41
1.0
 50
0.0
 71
     0
 42
0.2
  3
txt
  4

  0
ENDTAB
  0
TABLE
  2
VIEW
  5
6
330
0
100
AcDbSymbolTable
 70
     0
  0
ENDTAB
  0
TABLE
  2
UCS
  5
7
330
0
100
AcDbSymbolTable
 70
     0
  0
ENDTAB
  0
TABLE
  2
APPID
  5
9
330
0
100
AcDbSymbolTable
 70
     1
  0
APPID
  5
12
330
9
100
AcDbSymbolTableRecord
100
AcDbRegAppTableRecord
  2
ACAD
 70
     0
  0
ENDTAB
  0
TABLE
  2
DIMSTYLE
  5
A
330
0
100
AcDbSymbolTable
 70
     1
  0
DIMSTYLE
105
3C4
330
A
100
AcDbSymbolTableRecord
100
AcDbDimStyleTableRecord
  2
STANDARD
 70
     0
  3

  4

  5

  6

  7

 40
1.0
 41
0.18
 42
0.0625
 43
0.38
 44
0.18
 45
0.0
 46
0.0
 47
0.0
 48
0.0
140
0.18
141
0.09
142
0.0
143
25.4
144
1.0
145
0.0
146
1.0
147
0.09
 71
     0
 72
     0
 73
     1
 74
     1
 75
     0
 76
     0
 77
     0
 78
     0
170
     0
171
     2
172
     0
173
     0
174
     0
175
     0
176
     0
177
     0
178
     0
270
     2
271
     4
272
     4
273
     2
274
     2
340
11
275
     0
280
     0
281
     0
282
     0
283
     1
284
     0
285
     0
286
     0
287
     3
288
     0
  0
ENDTAB
  0
TABLE
  2
BLOCK_RECORD
  5
1
330
0
100
AcDbSymbolTable
 70
     0
  0
BLOCK_RECORD
  5
1E
102
{ACAD_XDICTIONARY
360
3EE
102
}
330
1
100
AcDbSymbolTableRecord
100
AcDbBlockTableRecord
  2
*MODEL_SPACE
  0
BLOCK_RECORD
  5
1A
102
{ACAD_XDICTIONARY
360
3EC
102
}
330
1
100
AcDbSymbolTableRecord
100
AcDbBlockTableRecord
  2
*PAPER_SPACE
  0
ENDTAB
  0
ENDSEC
  0
SECTION
  2
BLOCKS
  0
BLOCK
  5
1F
330
1E
100
AcDbEntity
  8
0
100
AcDbBlockBegin
  2
*MODEL_SPACE
 70
     0
 10
0.0
 20
0.0
 30
0.0
  3
*MODEL_SPACE
  1

  0
ENDBLK
  5
20
330
1E
100
AcDbEntity
  8
0
100
AcDbBlockEnd
  0
BLOCK
  5
1B
330
1A
100
AcDbEntity
 67
     1
  8
0
100
AcDbBlockBegin
  2
*PAPER_SPACE
 70
     0
 10
0.0
 20
0.0
 30
0.0
  3
*PAPER_SPACE
  1

  0
ENDBLK
  5
1C
330
1A
100
AcDbEntity
 67
     1
  8
0
100
AcDbBlockEnd
  0
ENDSEC
  0
SECTION
  2
ENTITIES
  0
LINE
  5
22
330
1E
100
AcDbEntity
  8
0
100
AcDbLine
 10
7.977520000000009
 20
107.0
 30
0.0
 11
106.4999999999999
 21
107.0
 31
0.0
  0
LINE
  5
23
330
1E
100
AcDbEntity
  8
0
100
AcDbLine
 10
7.977520000000009
 20
107.0
 30
0.0
 11
7.977520000000009
 21
107.7388999999999
 31
0.0
  0
LINE
  5
24
330
1E
100
AcDbEntity
  8
0
100
AcDbLine
 10
7.000000000000009
 20
117.872
 30
0.0
 11
7.000000000000009
 21
114.494
 31
0.0
  0
LINE
  5
25
330
1E
100
AcDbEntity
  8
0
100
AcDbLine
 10
7.000000000000009
 20
117.872
 30
0.0
 11
7.000000000000009
 21
121.7779999999999
 31
0.0
  0
LINE
  5
26
330
1E
100
AcDbEntity
  8
0
100
AcDbLine
 10
7.000000000000009
 20
121.7779999999999
 30
0.0
 11
7.000000000000009
 21
117.872
 31
0.0
  0
LINE
  5
27
330
1E
100
AcDbEntity
  8
0
100
AcDbLine
 10
7.000000000000009
 20
121.7779999999999
 30
0.0
 11
7.000000000000009
 21
126.0
 31
0.0
  0
LINE
  5
28
330
1E
100
AcDbEntity
  8
0
100
AcDbLine
 10
7.000000000000009
 20
114.494
 30
0.0
 11
7.000000000000009
 21
111.8555999999999
 31
0.0
  0
LINE
  5
29
330
1E
100
AcDbEntity
  8
0
100
AcDbLine
 10
7.000000000000009
 20
114.494
 30
0.0
 11
7.000000000000009
 21
117.872
 31
0.0
  0
LINE
  5
2A
330
1E
100
AcDbEntity
  8
0
100
AcDbLine
 10
7.000000000000009
 20
111.8555999999999
 30
0.0
 11
7.000000000000009
 21
110.2721999999999
 31
0.0
  0
LINE
  5
2B
330
1E
100
AcDbEntity
  8
0
100
AcDbLine
 10
7.000000000000009
 20
111.8555999999999
 30
0.0
 11
7.000000000000009
 21
114.494
 31
0.0
  0
LINE
  5
2C
330
1E
100
AcDbEntity
  8
0
100
AcDbLine
 10
7.000000000000009
 20
110.2721999999999
 30
0.0
 11
7.000000000000009
 21
109.6389
 31
0.0
  0
LINE
  5
2D
330
1E
100
AcDbEntity
  8
0
100
AcDbLine
 10
7.000000000000009
 20
110.2721999999999
 30
0.0
 11
7.000000000000009
 21
111.8555999999999
 31
0.0
  0
LINE
  5
2E
330
1E
100
AcDbEntity
  8
0
100
AcDbLine
 10
7.000000000000009
 20
126.0
 30
0.0
 11
7.000000000000009
 21
130.222
 31
0.0
  0
LINE
  5
2F
330
1E
100
AcDbEntity
  8
0
100
AcDbLine
 10
7.000000000000009
 20
126.0
 30
0.0
 11
7.000000000000009
 21
121.7779999999999
 31
0.0
  0
LINE
  5
30
330
1E
100
AcDbEntity
  8
0
100
AcDbLine
 10
7.000000000000009
 20
109.6389
 30
0.0
 11
7.19552
 21
109.1110999999999
 31
0.0
  0
LINE
  5
31
330
1E
100
AcDbEntity
  8
0
100
AcDbLine
 10
7.000000000000009
 20
109.6389
 30
0.0
 11
7.000000000000009
 21
110.2721999999999
 31
0.0
  0
LINE
  5
32
330
1E
100
AcDbEntity
  8
0
100
AcDbLine
 10
7.19552
 20
109.1110999999999
 30
0.0
 11
7.586479999999999
 21
108.5833
 31
0.0
  0
LINE
  5
37
330
1E
100
AcDbEntity
  8
0
100
AcDbLine
 10
7.782000000000009
 20
110.4832999999999
 30
0.0
 11
7.782000000000009
 21
108.6889
 31
0.0
  0
LINE
  5
38
330
1E
100
AcDbEntity
  8
0
100
AcDbLine
 10
7.782000000000009
 20
108.6889
 30
0.0
 11
7.782000000000009
 21
108.0554999999999
 31
0.0
  0
LINE
  5
39
330
1E
100
AcDbEntity
  8
0
100
AcDbLine
 10
7.782000000000009
 20
108.6889
 30
0.0
 11
7.782000000000009
 21
110.4832999999999
 31
0.0
  0
LINE
  5
3A
330
1E
100
AcDbEntity
  8
0
100
AcDbLine
 10
7.782000000000009
 20
109.9555999999999
 30
0.0
 11
7.782000000000009
 21
108.1611
 31
0.0
  0
LINE
  5
3B
330
1E
100
AcDbEntity
  8
0
100
AcDbLine
 10
7.782000000000009
 20
108.1611
 30
0.0
 11
7.782000000000009
 21
107.5277999999999
 31
0.0
  0
LINE
  5
3C
330
1E
100
AcDbEntity
  8
0
100
AcDbLine
 10
7.782000000000009
 20
108.1611
 30
0.0
 11
7.782000000000009
 21
109.9555999999999
 31
0.0
  0
LINE
  5
3D
330
1E
100
AcDbEntity
  8
0
100
AcDbLine
 10
7.586479999999999
 20
108.5833
 30
0.0
 11
7.782000000000009
 21
108.0554999999999
 31
0.0
  0
LINE
  5
3E
330
1E
100
AcDbEntity
  8
0
100
AcDbLine
 10
7.782000000000009
 20
108.0554999999999
 30
0.0
 11
7.782000000000009
 21
107.5277999999999
 31
0.0
  0
LINE
  5
3F
330
1E
100
AcDbEntity
  8
0
100
AcDbLine
 10
7.782000000000009
 20
108.0554999999999
 30
0.0
 11
7.782000000000009
 21
108.6889
 31
0.0
  0
LINE
  5
40
330
1E
100
AcDbEntity
  8
0
100
AcDbLine
 10
7.977520000000009
 20
116.606
 30
0.0
 11
7.977520000000009
 21
112.5944999999999
 31
0.0
  0
LINE
  5
41
330
1E
100
AcDbEntity
  8
0
100
AcDbLine
 10
7.977520000000009
 20
116.606
 30
0.0
 11
7.977520000000009
 21
121.1439999999999
 31
0.0
  0
LINE
  5
42
330
1E
100
AcDbEntity
  8
0
100
AcDbLine
 10
7.977520000000009
 20
121.1439999999999
 30
0.0
 11
7.977520000000009
 21
116.606
 31
0.0
  0
LINE
  5
43
330
1E
100
AcDbEntity
  8
0
100
AcDbLine
 10
7.977520000000009
 20
121.1439999999999
 30
0.0
 11
7.977520000000009
 21
126.0
 31
0.0
  0
LINE
  5
44
330
1E
100
AcDbEntity
  8
0
100
AcDbLine
 10
7.977520000000009
 20
112.5944999999999
 30
0.0
 11
7.977520000000009
 21
109.5332999999999
 31
0.0
  0
LINE
  5
45
330
1E
100
AcDbEntity
  8
0
100
AcDbLine
 10
7.977520000000009
 20
112.5944999999999
 30
0.0
 11
7.977520000000009
 21
116.606
 31
0.0
  0
LINE
  5
46
330
1E
100
AcDbEntity
  8
0
100
AcDbLine
 10
7.977520000000009
 20
109.5332999999999
 30
0.0
 11
7.977520000000009
 21
107.7388999999999
 31
0.0
  0
LINE
  5
47
330
1E
100
AcDbEntity
  8
0
100
AcDbLine
 10
7.977520000000009
 20
109.5332999999999
 30
0.0
 11
7.977520000000009
 21
112.5944999999999
 31
0.0
  0
LINE
  5
48
330
1E
100
AcDbEntity
  8
0
100
AcDbLine
 10
7.977520000000009
 20
107.7388999999999
 30
0.0
 11
7.977520000000009
 21
107.0
 31
0.0
  0
LINE
  5
49
330
1E
100
AcDbEntity
  8
0
100
AcDbLine
 10
7.977520000000009
 20
107.7388999999999
 30
0.0
 11
7.977520000000009
 21
109.5332999999999
 31
0.0
  0
LINE
  5
4A
330
1E
100
AcDbEntity
  8
0
100
AcDbLine
 10
7.977520000000009
 20
126.0
 30
0.0
 11
7.977520000000009
 21
130.8549999999999
 31
0.0
  0
LINE
  5
4B
330
1E
100
AcDbEntity
  8
0
100
AcDbLine
 10
7.977520000000009
 20
126.0
 30
0.0
 11
7.977520000000009
 21
121.1439999999999
 31
0.0
  0
LINE
  5
4C
330
1E
100
AcDbEntity
  8
0
100
AcDbLine
 10
7.782000000000009
 20
107.5277999999999
 30
0.0
 11
7.977520000000009
 21
107.0
 31
0.0
  0
LINE
  5
4D
330
1E
100
AcDbEntity
  8
0
100
AcDbLine
 10
7.782000000000009
 20
107.5277999999999
 30
0.0
 11
7.782000000000009
 21
108.0554999999999
 31
0.0
  0
LINE
  5
4E
330
1E
100
AcDbEntity
  8
0
100
AcDbLine
 10
7.782000000000009
 20
107.5277999999999
 30
0.0
 11
7.782000000000009
 21
108.1611
 31
0.0
  0
LINE
  5
4F
330
1E
100
AcDbEntity
  8
0
100
AcDbLine
 10
7.977520000000009
 20
107.0
 30
0.0
 11
106.4999999999999
 21
107.0
 31
0.0
  0
LINE
  5
50
330
1E
100
AcDbEntity
  8
0
100
AcDbLine
 10
93.65810000000001
 20
11.64082
 30
0.0
 11
95.30320000000001
 21
7.962940000000009
 31
0.0
  0
LINE
  5
51
330
1E
100
AcDbEntity
  8
0
100
AcDbLine
 10
93.65810000000001
 20
11.43116999999999
 30
0.0
 11
95.30320000000001
 21
7.753290000000009
 31
0.0
  0
LINE
  5
52
330
1E
100
AcDbEntity
  8
0
100
AcDbLine
 10
93.65810000000001
 20
19.59295
 30
0.0
 11
95.30320000000001
 21
23.2708
 31
0.0
  0
LINE
  5
53
330
1E
100
AcDbEntity
  8
0
100
AcDbLine
 10
93.0
 20
15.61689
 30
0.0
 11
93.65810000000001
 21
19.59295
 31
0.0
  0
LINE
  5
54
330
1E
100
AcDbEntity
  8
0
100
AcDbLine
 10
93.0
 20
15.61689
 30
0.0
 11
93.0
 21
15.40723999999999
 31
0.0
  0
LINE
  5
55
330
1E
100
AcDbEntity
  8
0
100
AcDbLine
 10
93.0
 20
15.61689
 30
0.0
 11
93.65810000000001
 21
11.64082
 31
0.0
  0
LINE
  5
56
330
1E
100
AcDbEntity
  8
0
100
AcDbLine
 10
93.0
 20
15.40723999999999
 30
0.0
 11
93.01735015209759
 21
15.51206486817999
 31
0.0
  0
LINE
  5
57
330
1E
100
AcDbEntity
  8
0
100
AcDbLine
 10
93.0
 20
15.40723999999999
 30
0.0
 11
93.0
 21
15.61689
 31
0.0
  0
LINE
  5
58
330
1E
100
AcDbEntity
  8
0
100
AcDbLine
 10
93.0
 20
15.40723999999999
 30
0.0
 11
93.65810000000001
 21
11.43116999999999
 31
0.0
  0
LINE
  5
59
330
1E
100
AcDbEntity
  8
0
100
AcDbLine
 10
94.40000000000001
 20
117.1
 30
0.0
 11
97.3
 21
113.3
 31
0.0
  0
LINE
  5
5A
330
1E
100
AcDbEntity
  8
0
100
AcDbLine
 10
93.59999999999999
 20
121.5999999999999
 30
0.0
 11
95.29999999999999
 21
117.5
 31
0.0
  0
LINE
  5
5B
330
1E
100
AcDbEntity
  8
0
100
AcDbLine
 10
93.1
 20
121.5
 30
0.0
 11
94.8
 21
117.3
 31
0.0
  0
LINE
  5
5C
330
1E
100
AcDbEntity
  8
0
100
AcDbLine
 10
92.70000000000001
 20
121.4
 30
0.0
 11
94.40000000000001
 21
117.1
 31
0.0
  0
LINE
  5
5D
330
1E
100
AcDbEntity
  8
0
100
AcDbLine
 10
95.30320000000001
 20
7.962940000000009
 30
0.0
 11
98.0452
 21
4.782160000000009
 31
0.0
  0
LINE
  5
5E
330
1E
100
AcDbEntity
  8
0
100
AcDbLine
 10
95.30320000000001
 20
7.753290000000009
 30
0.0
 11
98.0452
 21
4.572510000000009
 31
0.0
  0
LINE
  5
5F
330
1E
100
AcDbEntity
  8
0
100
AcDbLine
 10
95.74189999999999
 20
39.3895
 30
0.0
 11
95.74189999999999
 21
36.8236
 31
0.0
  0
LINE
  5
60
330
1E
100
AcDbEntity
  8
0
100
AcDbLine
 10
95.74189999999999
 20
39.3895
 30
0.0
 11
95.74189999999999
 21
42.0
 31
0.0
  0
LINE
  5
61
330
1E
100
AcDbEntity
  8
0
100
AcDbLine
 10
95.74189999999999
 20
36.8236
 30
0.0
 11
95.74189999999999
 21
34.3463
 31
0.0
  0
LINE
  5
62
330
1E
100
AcDbEntity
  8
0
100
AcDbLine
 10
95.74189999999999
 20
36.8236
 30
0.0
 11
95.74189999999999
 21
39.3895
 31
0.0
  0
LINE
  5
63
330
1E
100
AcDbEntity
  8
0
100
AcDbLine
 10
95.74189999999999
 20
34.3463
 30
0.0
 11
95.74189999999999
 21
32.0
 31
0.0
  0
LINE
  5
64
330
1E
100
AcDbEntity
  8
0
100
AcDbLine
 10
95.74189999999999
 20
34.3463
 30
0.0
 11
95.74189999999999
 21
36.8236
 31
0.0
  0
LINE
  5
65
330
1E
100
AcDbEntity
  8
0
100
AcDbLine
 10
95.74189999999999
 20
32.0
 30
0.0
 11
95.74189999999999
 21
29.8248
 31
0.0
  0
LINE
  5
66
330
1E
100
AcDbEntity
  8
0
100
AcDbLine
 10
95.74189999999999
 20
32.0
 30
0.0
 11
95.74189999999999
 21
34.3463
 31
0.0
  0
LINE
  5
67
330
1E
100
AcDbEntity
  8
0
100
AcDbLine
 10
95.74189999999999
 20
29.8248
 30
0.0
 11
95.74189999999999
 21
27.8579
 31
0.0
  0
LINE
  5
68
330
1E
100
AcDbEntity
  8
0
100
AcDbLine
 10
95.74189999999999
 20
29.8248
 30
0.0
 11
95.74189999999999
 21
32.0
 31
0.0
  0
LINE
  5
69
330
1E
100
AcDbEntity
  8
0
100
AcDbLine
 10
95.74189999999999
 20
27.8579
 30
0.0
 11
95.74189999999999
 21
26.1329
 31
0.0
  0
LINE
  5
6A
330
1E
100
AcDbEntity
  8
0
100
AcDbLine
 10
95.74189999999999
 20
27.8579
 30
0.0
 11
95.74189999999999
 21
29.8248
 31
0.0
  0
LINE
  5
6B
330
1E
100
AcDbEntity
  8
0
100
AcDbLine
 10
95.74189999999999
 20
107.0
 30
0.0
 11
95.74189999999999
 21
42.0
 31
0.0
  0
LINE
  5
6C
330
1E
100
AcDbEntity
  8
0
100
AcDbLine
 10
95.74189999999999
 20
42.0
 30
0.0
 11
95.74189999999999
 21
107.0
 31
0.0
  0
LINE
  5
6D
330
1E
100
AcDbEntity
  8
0
100
AcDbLine
 10
95.74189999999999
 20
42.0
 30
0.0
 11
95.74189999999999
 21
39.3895
 31
0.0
  0
LINE
  5
6E
330
1E
100
AcDbEntity
  8
0
100
AcDbLine
 10
95.74189999999999
 20
26.1329
 30
0.0
 11
95.74189999999999
 21
24.6795
 31
0.0
  0
LINE
  5
6F
330
1E
100
AcDbEntity
  8
0
100
AcDbLine
 10
95.74189999999999
 20
26.1329
 30
0.0
 11
95.74189999999999
 21
27.8579
 31
0.0
  0
LINE
  5
70
330
1E
100
AcDbEntity
  8
0
100
AcDbLine
 10
95.74189999999999
 20
24.6795
 30
0.0
 11
95.74189999999999
 21
16.87479
 31
0.0
  0
LINE
  5
71
330
1E
100
AcDbEntity
  8
0
100
AcDbLine
 10
95.74189999999999
 20
24.6795
 30
0.0
 11
95.74189999999999
 21
26.1329
 31
0.0
  0
LINE
  5
72
330
1E
100
AcDbEntity
  8
0
100
AcDbLine
 10
95.74189999999999
 20
16.87479
 30
0.0
 11
95.74189999999999
 21
24.6795
 31
0.0
  0
LINE
  5
73
330
1E
100
AcDbEntity
  8
0
100
AcDbLine
 10
95.30320000000001
 20
23.2708
 30
0.0
 11
95.74189999999999
 21
23.7797207986871
 31
0.0
  0
LINE
  5
74
330
1E
100
AcDbEntity
  8
0
100
AcDbLine
 10
96.6
 20
118.3
 30
0.0
 11
99.1
 21
115.1
 31
0.0
  0
LINE
  5
75
330
1E
100
AcDbEntity
  8
0
100
AcDbLine
 10
95.09999999999999
 20
122.0
 30
0.0
 11
96.6
 21
118.3
 31
0.0
  0
LINE
  5
76
330
1E
100
AcDbEntity
  8
0
100
AcDbLine
 10
95.29999999999999
 20
117.5
 30
0.0
 11
98.0
 21
114.0
 31
0.0
  0
LINE
  5
77
330
1E
100
AcDbEntity
  8
0
100
AcDbLine
 10
94.8
 20
117.3
 30
0.0
 11
97.59999999999999
 21
113.5999999999999
 31
0.0
  0
LINE
  5
78
330
1E
100
AcDbEntity
  8
0
100
AcDbLine
 10
97.3
 20
113.3
 30
0.0
 11
101.0999999999999
 21
110.4
 31
0.0
  0
LINE
  5
79
330
1E
100
AcDbEntity
  8
0
100
AcDbLine
 10
94.50000000000001
 20
126.0
 30
0.0
 11
95.09999999999999
 21
130.0
 31
0.0
  0
LINE
  5
7A
330
1E
100
AcDbEntity
  8
0
100
AcDbLine
 10
94.50000000000001
 20
126.0
 30
0.0
 11
95.09999999999999
 21
122.0
 31
0.0
  0
LINE
  5
7B
330
1E
100
AcDbEntity
  8
0
100
AcDbLine
 10
93.0
 20
126.0
 30
0.0
 11
93.59999999999999
 21
130.4
 31
0.0
  0
LINE
  5
7C
330
1E
100
AcDbEntity
  8
0
100
AcDbLine
 10
93.0
 20
126.0
 30
0.0
 11
93.59999999999999
 21
121.5999999999999
 31
0.0
  0
LINE
  5
7D
330
1E
100
AcDbEntity
  8
0
100
AcDbLine
 10
92.5
 20
126.0
 30
0.0
 11
93.1
 21
130.4999999999999
 31
0.0
  0
LINE
  5
7E
330
1E
100
AcDbEntity
  8
0
100
AcDbLine
 10
92.5
 20
126.0
 30
0.0
 11
93.1
 21
121.5
 31
0.0
  0
LINE
  5
7F
330
1E
100
AcDbEntity
  8
0
100
AcDbLine
 10
7.000000000000009
 20
134.1279999999999
 30
0.0
 11
7.000000000000009
 21
130.222
 31
0.0
  0
LINE
  5
80
330
1E
100
AcDbEntity
  8
0
100
AcDbLine
 10
7.000000000000009
 20
134.1279999999999
 30
0.0
 11
7.000000000000009
 21
137.5059999999999
 31
0.0
  0
LINE
  5
81
330
1E
100
AcDbEntity
  8
0
100
AcDbLine
 10
7.000000000000009
 20
130.222
 30
0.0
 11
7.000000000000009
 21
126.0
 31
0.0
  0
LINE
  5
82
330
1E
100
AcDbEntity
  8
0
100
AcDbLine
 10
7.000000000000009
 20
130.222
 30
0.0
 11
7.000000000000009
 21
134.1279999999999
 31
0.0
  0
LINE
  5
83
330
1E
100
AcDbEntity
  8
0
100
AcDbLine
 10
7.782000000000009
 20
110.4832999999999
 30
0.0
 11
7.782000000000009
 21
134.972
 31
0.0
  0
LINE
  5
84
330
1E
100
AcDbEntity
  8
0
100
AcDbLine
 10
7.782000000000009
 20
130.75
 30
0.0
 11
7.782000000000009
 21
135.1829999999999
 31
0.0
  0
LINE
  5
85
330
1E
100
AcDbEntity
  8
0
100
AcDbLine
 10
7.782000000000009
 20
134.972
 30
0.0
 11
7.782000000000009
 21
110.4832999999999
 31
0.0
  0
LINE
  5
86
330
1E
100
AcDbEntity
  8
0
100
AcDbLine
 10
7.782000000000009
 20
134.972
 30
0.0
 11
7.782000000000009
 21
138.667
 31
0.0
  0
LINE
  5
87
330
1E
100
AcDbEntity
  8
0
100
AcDbLine
 10
7.782000000000009
 20
138.667
 30
0.0
 11
7.782000000000009
 21
134.972
 31
0.0
  0
LINE
  5
88
330
1E
100
AcDbEntity
  8
0
100
AcDbLine
 10
7.782000000000009
 20
141.5169999999999
 30
0.0
 11
7.782000000000009
 21
135.1829999999999
 31
0.0
  0
LINE
  5
89
330
1E
100
AcDbEntity
  8
0
100
AcDbLine
 10
7.782000000000009
 20
135.1829999999999
 30
0.0
 11
7.782000000000009
 21
130.75
 31
0.0
  0
LINE
  5
8A
330
1E
100
AcDbEntity
  8
0
100
AcDbLine
 10
7.782000000000009
 20
135.1829999999999
 30
0.0
 11
7.782000000000009
 21
141.5169999999999
 31
0.0
  0
LINE
  5
8B
330
1E
100
AcDbEntity
  8
0
100
AcDbLine
 10
7.977520000000009
 20
135.395
 30
0.0
 11
7.977520000000009
 21
130.8549999999999
 31
0.0
  0
LINE
  5
8C
330
1E
100
AcDbEntity
  8
0
100
AcDbLine
 10
7.977520000000009
 20
135.395
 30
0.0
 11
7.977520000000009
 21
139.406
 31
0.0
  0
LINE
  5
8D
330
1E
100
AcDbEntity
  8
0
100
AcDbLine
 10
7.977520000000009
 20
130.8549999999999
 30
0.0
 11
7.977520000000009
 21
126.0
 31
0.0
  0
LINE
  5
8E
330
1E
100
AcDbEntity
  8
0
100
AcDbLine
 10
7.977520000000009
 20
130.8549999999999
 30
0.0
 11
7.977520000000009
 21
135.395
 31
0.0
  0
LINE
  5
8F
330
1E
100
AcDbEntity
  8
0
100
AcDbLine
 10
7.000000000000009
 20
137.5059999999999
 30
0.0
 11
7.000000000000009
 21
140.145
 31
0.0
  0
LINE
  5
90
330
1E
100
AcDbEntity
  8
0
100
AcDbLine
 10
7.000000000000009
 20
137.5059999999999
 30
0.0
 11
7.000000000000009
 21
134.1279999999999
 31
0.0
  0
LINE
  5
91
330
1E
100
AcDbEntity
  8
0
100
AcDbLine
 10
7.000000000000009
 20
140.145
 30
0.0
 11
7.000000000000009
 21
137.5059999999999
 31
0.0
  0
LINE
  5
92
330
1E
100
AcDbEntity
  8
0
100
AcDbLine
 10
7.000000000000009
 20
140.145
 30
0.0
 11
7.000000000000009
 21
141.7279999999999
 31
0.0
  0
LINE
  5
93
330
1E
100
AcDbEntity
  8
0
100
AcDbLine
 10
7.782000000000009
 20
141.5169999999999
 30
0.0
 11
7.782000000000009
 21
143.311
 31
0.0
  0
LINE
  5
94
330
1E
100
AcDbEntity
  8
0
100
AcDbLine
 10
7.977520000000009
 20
139.406
 30
0.0
 11
7.977520000000009
 21
142.467
 31
0.0
  0
LINE
  5
95
330
1E
100
AcDbEntity
  8
0
100
AcDbLine
 10
7.977520000000009
 20
139.406
 30
0.0
 11
7.977520000000009
 21
135.395
 31
0.0
  0
LINE
  5
96
330
1E
100
AcDbEntity
  8
0
100
AcDbLine
 10
96.6
 20
133.6999999999999
 30
0.0
 11
99.1
 21
136.8999999999999
 31
0.0
  0
LINE
  5
97
330
1E
100
AcDbEntity
  8
0
100
AcDbLine
 10
95.09999999999999
 20
130.0
 30
0.0
 11
96.6
 21
133.6999999999999
 31
0.0
  0
LINE
  5
98
330
1E
100
AcDbEntity
  8
0
100
AcDbLine
 10
95.29999999999999
 20
134.4999999999999
 30
0.0
 11
98.0
 21
138.0
 31
0.0
  0
LINE
  5
99
330
1E
100
AcDbEntity
  8
0
100
AcDbLine
 10
93.59999999999999
 20
130.4
 30
0.0
 11
95.29999999999999
 21
134.4999999999999
 31
0.0
  0
LINE
  5
9A
330
1E
100
AcDbEntity
  8
0
100
AcDbLine
 10
94.8
 20
134.6999999999999
 30
0.0
 11
97.59999999999999
 21
138.4
 31
0.0
  0
LINE
  5
9B
330
1E
100
AcDbEntity
  8
0
100
AcDbLine
 10
93.1
 20
130.4999999999999
 30
0.0
 11
94.8
 21
134.6999999999999
 31
0.0
  0
LINE
  5
9C
330
1E
100
AcDbEntity
  8
0
100
AcDbLine
 10
94.40000000000001
 20
134.8999999999999
 30
0.0
 11
97.3
 21
138.7
 31
0.0
  0
LINE
  5
9D
330
1E
100
AcDbEntity
  8
0
100
AcDbLine
 10
92.70000000000001
 20
130.6
 30
0.0
 11
94.40000000000001
 21
134.8999999999999
 31
0.0
  0
LINE
  5
9E
330
1E
100
AcDbEntity
  8
0
100
AcDbLine
 10
92.0
 20
126.0
 30
0.0
 11
92.70000000000001
 21
130.6
 31
0.0
  0
LINE
  5
9F
330
1E
100
AcDbEntity
  8
0
100
AcDbLine
 10
92.0
 20
126.0
 30
0.0
 11
92.70000000000001
 21
121.4
 31
0.0
  0
LINE
  5
A0
330
1E
100
AcDbEntity
  8
0
100
AcDbLine
 10
97.59999999999999
 20
113.5999999999999
 30
0.0
 11
101.2999999999999
 21
110.8
 31
0.0
  0
LINE
  5
A1
330
1E
100
AcDbEntity
  8
0
100
AcDbLine
 10
98.0452
 20
4.782160000000009
 30
0.0
 11
101.555
 21
2.297100000000009
 31
0.0
  0
LINE
  5
A2
330
1E
100
AcDbEntity
  8
0
100
AcDbLine
 10
98.0452
 20
4.572510000000009
 30
0.0
 11
101.555
 21
2.087400000000009
 31
0.0
  0
LINE
  5
A3
330
1E
100
AcDbEntity
  8
0
100
AcDbLine
 10
99.1
 20
115.1
 30
0.0
 11
102.2999999999999
 21
112.5999999999999
 31
0.0
  0
LINE
  5
A4
330
1E
100
AcDbEntity
  8
0
100
AcDbLine
 10
98.0
 20
114.0
 30
0.0
 11
101.5
 21
111.2999999999999
 31
0.0
  0
LINE
  5
A5
330
1E
100
AcDbEntity
  8
0
100
AcDbLine
 10
101.555
 20
2.297100000000009
 30
0.0
 11
105.613
 21
0.8061000000000079
 31
0.0
  0
LINE
  5
A6
330
1E
100
AcDbEntity
  8
0
100
AcDbLine
 10
101.555
 20
2.087400000000009
 30
0.0
 11
105.613
 21
0.5964000000000059
 31
0.0
  0
LINE
  5
A7
330
1E
100
AcDbEntity
  8
0
100
AcDbLine
 10
101.555
 20
2.087400000000009
 30
0.0
 11
105.613
 21
0.5964000000000059
 31
0.0
  0
LINE
  5
A8
330
1E
100
AcDbEntity
  8
0
100
AcDbLine
 10
105.167
 20
46.6861
 30
0.0
 11
105.6669999999999
 21
46.6861
 31
0.0
  0
LINE
  5
A9
330
1E
100
AcDbEntity
  8
0
100
AcDbLine
 10
104.3739999999999
 20
62.3742
 30
0.0
 11
106.026
 21
61.08389999999999
 31
0.0
  0
LINE
  5
AA
330
1E
100
AcDbEntity
  8
0
100
AcDbLine
 10
103.0839999999999
 20
64.0258
 30
0.0
 11
104.3739999999999
 21
62.3742
 31
0.0
  0
LINE
  5
AB
330
1E
100
AcDbEntity
  8
0
100
AcDbLine
 10
102.31
 20
65.9355
 30
0.0
 11
103.0839999999999
 21
64.0258
 31
0.0
  0
LINE
  5
AC
330
1E
100
AcDbEntity
  8
0
100
AcDbLine
 10
103.0839999999999
 20
71.9742
 30
0.0
 11
104.3739999999999
 21
73.6258
 31
0.0
  0
LINE
  5
AD
330
1E
100
AcDbEntity
  8
0
100
AcDbLine
 10
102.31
 20
70.0645
 30
0.0
 11
103.0839999999999
 21
71.9742
 31
0.0
  0
LINE
  5
AE
330
1E
100
AcDbEntity
  8
0
100
AcDbLine
 10
104.3739999999999
 20
73.6258
 30
0.0
 11
106.026
 21
74.9161
 31
0.0
  0
LINE
  5
AF
330
1E
100
AcDbEntity
  8
0
100
AcDbLine
 10
102.0
 20
68.0
 30
0.0
 11
102.31
 21
65.9355
 31
0.0
  0
LINE
  5
B0
330
1E
100
AcDbEntity
  8
0
100
AcDbLine
 10
102.0
 20
68.0
 30
0.0
 11
102.31
 21
70.0645
 31
0.0
  0
LINE
  5
B1
330
1E
100
AcDbEntity
  8
0
100
AcDbLine
 10
105.2499999999999
 20
47.33229999999999
 30
0.0
 11
105.417
 21
47.33229999999999
 31
0.0
  0
LINE
  5
B2
330
1E
100
AcDbEntity
  8
0
100
AcDbLine
 10
105.2499999999999
 20
47.33229999999999
 30
0.0
 11
105.8329999999999
 21
47.6092
 31
0.0
  0
LINE
  5
B3
330
1E
100
AcDbEntity
  8
0
100
AcDbLine
 10
105.0
 20
46.6861
 30
0.0
 11
105.2499999999999
 21
46.04
 31
0.0
  0
LINE
  5
B4
330
1E
100
AcDbEntity
  8
0
100
AcDbLine
 10
105.0
 20
46.6861
 30
0.0
 11
105.167
 21
46.6861
 31
0.0
  0
LINE
  5
B5
330
1E
100
AcDbEntity
  8
0
100
AcDbLine
 10
105.0
 20
46.6861
 30
0.0
 11
105.2499999999999
 21
47.33229999999999
 31
0.0
  0
LINE
  5
B6
330
1E
100
AcDbEntity
  8
0
100
AcDbLine
 10
105.2499999999999
 20
46.04
 30
0.0
 11
105.417
 21
46.04
 31
0.0
  0
LINE
  5
B7
330
1E
100
AcDbEntity
  8
0
100
AcDbLine
 10
105.2499999999999
 20
46.04
 30
0.0
 11
105.8329999999999
 21
45.7631
 31
0.0
  0
LINE
  5
B8
330
1E
100
AcDbEntity
  8
0
100
AcDbLine
 10
105.167
 20
104.4707
 30
0.0
 11
105.6669999999999
 21
104.4707
 31
0.0
  0
LINE
  5
B9
330
1E
100
AcDbEntity
  8
0
100
AcDbLine
 10
105.2499999999999
 20
103.8247
 30
0.0
 11
105.8329999999999
 21
103.5476999999999
 31
0.0
  0
LINE
  5
BA
330
1E
100
AcDbEntity
  8
0
100
AcDbLine
 10
105.2499999999999
 20
103.8247
 30
0.0
 11
105.417
 21
103.8247
 31
0.0
  0
LINE
  5
BB
330
1E
100
AcDbEntity
  8
0
100
AcDbLine
 10
105.0
 20
104.4707
 30
0.0
 11
105.2499999999999
 21
105.117
 31
0.0
  0
LINE
  5
BC
330
1E
100
AcDbEntity
  8
0
100
AcDbLine
 10
105.0
 20
104.4707
 30
0.0
 11
105.2499999999999
 21
103.8247
 31
0.0
  0
LINE
  5
BD
330
1E
100
AcDbEntity
  8
0
100
AcDbLine
 10
105.0
 20
104.4707
 30
0.0
 11
105.167
 21
104.4707
 31
0.0
  0
LINE
  5
BE
330
1E
100
AcDbEntity
  8
0
100
AcDbLine
 10
105.2499999999999
 20
105.117
 30
0.0
 11
105.8329999999999
 21
105.3938999999999
 31
0.0
  0
LINE
  5
BF
330
1E
100
AcDbEntity
  8
0
100
AcDbLine
 10
105.2499999999999
 20
105.117
 30
0.0
 11
105.417
 21
105.117
 31
0.0
  0
LINE
  5
C0
330
1E
100
AcDbEntity
  8
0
100
AcDbLine
 10
102.2999999999999
 20
112.5999999999999
 30
0.0
 11
106.0
 21
111.0999999999999
 31
0.0
  0
LINE
  5
C1
330
1E
100
AcDbEntity
  8
0
100
AcDbLine
 10
101.5
 20
111.2999999999999
 30
0.0
 11
105.6
 21
109.5999999999999
 31
0.0
  0
LINE
  5
C2
330
1E
100
AcDbEntity
  8
0
100
AcDbLine
 10
101.2999999999999
 20
110.8
 30
0.0
 11
105.4999999999999
 21
109.0999999999999
 31
0.0
  0
LINE
  5
C3
330
1E
100
AcDbEntity
  8
0
100
AcDbLine
 10
101.0999999999999
 20
110.4
 30
0.0
 11
105.4
 21
108.6999999999999
 31
0.0
  0
LINE
  5
C4
330
1E
100
AcDbEntity
  8
0
100
AcDbLine
 10
105.4
 20
108.6999999999999
 30
0.0
 11
110.0
 21
108.0
 31
0.0
  0
LINE
  5
C5
330
1E
100
AcDbEntity
  8
0
100
AcDbLine
 10
99.1
 20
136.8999999999999
 30
0.0
 11
102.2999999999999
 21
139.4
 31
0.0
  0
LINE
  5
C6
330
1E
100
AcDbEntity
  8
0
100
AcDbLine
 10
102.2999999999999
 20
139.4
 30
0.0
 11
106.0
 21
140.8999999999999
 31
0.0
  0
LINE
  5
C7
330
1E
100
AcDbEntity
  8
0
100
AcDbLine
 10
98.0
 20
138.0
 30
0.0
 11
101.5
 21
140.6999999999999
 31
0.0
  0
LINE
  5
C8
330
1E
100
AcDbEntity
  8
0
100
AcDbLine
 10
97.59999999999999
 20
138.4
 30
0.0
 11
101.2999999999999
 21
141.1999999999999
 31
0.0
  0
LINE
  5
C9
330
1E
100
AcDbEntity
  8
0
100
AcDbLine
 10
101.5
 20
140.6999999999999
 30
0.0
 11
105.6
 21
142.4
 31
0.0
  0
LINE
  5
CA
330
1E
100
AcDbEntity
  8
0
100
AcDbLine
 10
101.2999999999999
 20
141.1999999999999
 30
0.0
 11
105.4999999999999
 21
142.9
 31
0.0
  0
LINE
  5
CB
330
1E
100
AcDbEntity
  8
0
100
AcDbLine
 10
99.41451612903229
 20
140.3137096774189
 30
0.0
 11
101.0999999999999
 21
141.6549999999999
 31
0.0
  0
LINE
  5
CC
330
1E
100
AcDbEntity
  8
0
100
AcDbLine
 10
97.3
 20
138.7
 30
0.0
 11
101.0999999999999
 21
141.5999999999999
 31
0.0
  0
LINE
  5
CD
330
1E
100
AcDbEntity
  8
0
100
AcDbLine
 10
1.29630000000001
 20
196.6129999999999
 30
0.0
 11
4.666670000000009
 21
196.6129999999999
 31
0.0
  0
LINE
  5
CE
330
1E
100
AcDbEntity
  8
0
100
AcDbLine
 10
0.0000000000000053
 20
196.6129999999999
 30
0.0
 11
1.29630000000001
 21
196.6129999999999
 31
0.0
  0
LINE
  5
CF
330
1E
100
AcDbEntity
  8
0
100
AcDbLine
 10
0.0000000000000053
 20
196.6129999999999
 30
0.0
 11
4.537040000000009
 21
194.679
 31
0.0
  0
LINE
  5
D0
330
1E
100
AcDbEntity
  8
0
100
AcDbLine
 10
0.0000000000000053
 20
196.6129999999999
 30
0.0
 11
0.0000000000000053
 21
197.0
 31
0.0
  0
LINE
  5
D1
330
1E
100
AcDbEntity
  8
0
100
AcDbLine
 10
4.537040000000009
 20
194.679
 30
0.0
 11
9.72222
 21
191.1979999999999
 31
0.0
  0
LINE
  5
D2
330
1E
100
AcDbEntity
  8
0
100
AcDbLine
 10
7.000000000000009
 20
141.7279999999999
 30
0.0
 11
7.000000000000009
 21
140.145
 31
0.0
  0
LINE
  5
D3
330
1E
100
AcDbEntity
  8
0
100
AcDbLine
 10
7.000000000000009
 20
141.7279999999999
 30
0.0
 11
7.000000000000009
 21
142.3609999999999
 31
0.0
  0
LINE
  5
D4
330
1E
100
AcDbEntity
  8
0
100
AcDbLine
 10
7.000000000000009
 20
142.3609999999999
 30
0.0
 11
7.19552
 21
142.889
 31
0.0
  0
LINE
  5
D5
330
1E
100
AcDbEntity
  8
0
100
AcDbLine
 10
7.000000000000009
 20
142.3609999999999
 30
0.0
 11
7.000000000000009
 21
141.7279999999999
 31
0.0
  0
LINE
  5
D6
330
1E
100
AcDbEntity
  8
0
100
AcDbLine
 10
7.19552
 20
142.889
 30
0.0
 11
7.586479999999999
 21
143.4169999999999
 31
0.0
  0
LINE
  5
D7
330
1E
100
AcDbEntity
  8
0
100
AcDbLine
 10
7.782000000000009
 20
142.0439999999999
 30
0.0
 11
7.782000000000009
 21
143.839
 31
0.0
  0
LINE
  5
D8
330
1E
100
AcDbEntity
  8
0
100
AcDbLine
 10
7.782000000000009
 20
143.311
 30
0.0
 11
7.782000000000009
 21
141.5169999999999
 31
0.0
  0
LINE
  5
D9
330
1E
100
AcDbEntity
  8
0
100
AcDbLine
 10
7.782000000000009
 20
143.839
 30
0.0
 11
7.782000000000009
 21
142.0439999999999
 31
0.0
  0
LINE
  5
DA
330
1E
100
AcDbEntity
  8
0
100
AcDbLine
 10
7.586479999999999
 20
143.4169999999999
 30
0.0
 11
7.782000000000009
 21
143.9449999999999
 31
0.0
  0
LINE
  5
DB
330
1E
100
AcDbEntity
  8
0
100
AcDbLine
 10
7.782000000000009
 20
144.472
 30
0.0
 11
7.977520000000009
 21
145.0
 31
0.0
  0
LINE
  5
DC
330
1E
100
AcDbEntity
  8
0
100
AcDbLine
 10
7.782000000000009
 20
144.472
 30
0.0
 11
7.782000000000009
 21
143.9449999999999
 31
0.0
  0
LINE
  5
DD
330
1E
100
AcDbEntity
  8
0
100
AcDbLine
 10
7.977520000000009
 20
142.467
 30
0.0
 11
7.977520000000009
 21
139.406
 31
0.0
  0
LINE
  5
DE
330
1E
100
AcDbEntity
  8
0
100
AcDbLine
 10
7.977520000000009
 20
142.467
 30
0.0
 11
7.977520000000009
 21
144.2609999999999
 31
0.0
  0
LINE
  5
DF
330
1E
100
AcDbEntity
  8
0
100
AcDbLine
 10
7.977520000000009
 20
144.2609999999999
 30
0.0
 11
7.977520000000009
 21
142.467
 31
0.0
  0
LINE
  5
E0
330
1E
100
AcDbEntity
  8
0
100
AcDbLine
 10
7.977520000000009
 20
144.2609999999999
 30
0.0
 11
7.977520000000009
 21
145.0
 31
0.0
  0
LINE
  5
E1
330
1E
100
AcDbEntity
  8
0
100
AcDbLine
 10
7.977520000000009
 20
145.0
 30
0.0
 11
50.0
 21
145.0
 31
0.0
  0
LINE
  5
E2
330
1E
100
AcDbEntity
  8
0
100
AcDbLine
 10
7.782000000000009
 20
143.9449999999999
 30
0.0
 11
7.782000000000009
 21
144.472
 31
0.0
  0
LINE
  5
E3
330
1E
100
AcDbEntity
  8
0
100
AcDbLine
 10
7.977520000000009
 20
145.0
 30
0.0
 11
50.0
 21
145.0
 31
0.0
  0
LINE
  5
E4
330
1E
100
AcDbEntity
  8
0
100
AcDbLine
 10
7.977520000000009
 20
145.0
 30
0.0
 11
7.977520000000009
 21
144.2609999999999
 31
0.0
  0
LINE
  5
E5
330
1E
100
AcDbEntity
  8
0
100
AcDbLine
 10
18.14809999999999
 20
175.3379999999999
 30
0.0
 11
18.14809999999999
 21
172.0
 31
0.0
  0
LINE
  5
E6
330
1E
100
AcDbEntity
  8
0
100
AcDbLine
 10
20.0
 20
145.0
 30
0.0
 11
20.0
 21
159.0
 31
0.0
  0
LINE
  5
E7
330
1E
100
AcDbEntity
  8
0
100
AcDbLine
 10
19.0
 20
161.714
 30
0.0
 11
19.0
 21
170.2859999999999
 31
0.0
  0
LINE
  5
E8
330
1E
100
AcDbEntity
  8
0
100
AcDbLine
 10
19.0
 20
161.714
 30
0.0
 11
19.0
 21
160.857
 31
0.0
  0
LINE
  5
E9
330
1E
100
AcDbEntity
  8
0
100
AcDbLine
 10
19.0
 20
170.2859999999999
 30
0.0
 11
19.0
 21
171.143
 31
0.0
  0
LINE
  5
EA
330
1E
100
AcDbEntity
  8
0
100
AcDbLine
 10
19.0
 20
170.2859999999999
 30
0.0
 11
19.0
 21
161.714
 31
0.0
  0
LINE
  5
ED
330
1E
100
AcDbEntity
  8
0
100
AcDbLine
 10
19.0
 20
170.2859999999999
 30
0.0
 11
20.3713
 21
171.143
 31
0.0
  0
LINE
  5
EE
330
1E
100
AcDbEntity
  8
0
100
AcDbLine
 10
19.0
 20
160.857
 30
0.0
 11
19.0
 21
161.714
 31
0.0
  0
LINE
  5
EF
330
1E
100
AcDbEntity
  8
0
100
AcDbLine
 10
19.0
 20
160.857
 30
0.0
 11
19.3368
 21
160.857
 31
0.0
  0
LINE
  5
F0
330
1E
100
AcDbEntity
  8
0
100
AcDbLine
 10
19.0
 20
160.857
 30
0.0
 11
19.0
 21
160.206
 31
0.0
  0
LINE
  5
F1
330
1E
100
AcDbEntity
  8
0
100
AcDbLine
 10
19.0
 20
171.143
 30
0.0
 11
19.0
 21
171.794
 31
0.0
  0
LINE
  5
F3
330
1E
100
AcDbEntity
  8
0
100
AcDbLine
 10
19.0
 20
171.143
 30
0.0
 11
19.0
 21
170.2859999999999
 31
0.0
  0
LINE
  5
F4
330
1E
100
AcDbEntity
  8
0
100
AcDbLine
 10
19.0
 20
160.206
 30
0.0
 11
19.0
 21
160.857
 31
0.0
  0
LINE
  5
F5
330
1E
100
AcDbEntity
  8
0
100
AcDbLine
 10
19.0
 20
160.206
 30
0.0
 11
19.0
 21
160.086
 31
0.0
  0
LINE
  5
F6
330
1E
100
AcDbEntity
  8
0
100
AcDbLine
 10
19.0
 20
171.914
 30
0.0
 11
19.0
 21
171.794
 31
0.0
  0
LINE
  5
F7
330
1E
100
AcDbEntity
  8
0
100
AcDbLine
 10
19.0
 20
171.914
 30
0.0
 11
19.42109999999999
 21
172.0
 31
0.0
  0
LINE
  5
F8
330
1E
100
AcDbEntity
  8
0
100
AcDbLine
 10
19.0
 20
171.794
 30
0.0
 11
19.0
 21
171.914
 31
0.0
  0
LINE
  5
FC
330
1E
100
AcDbEntity
  8
0
100
AcDbLine
 10
19.0
 20
171.794
 30
0.0
 11
19.0
 21
171.143
 31
0.0
  0
LINE
  5
101
330
1E
100
AcDbEntity
  8
0
100
AcDbLine
 10
19.3368
 20
160.857
 30
0.0
 11
20.3713
 21
160.857
 31
0.0
  0
LINE
  5
102
330
1E
100
AcDbEntity
  8
0
100
AcDbLine
 10
19.42109999999999
 20
160.0
 30
0.0
 11
20.0105
 21
160.0
 31
0.0
  0
LINE
  5
103
330
1E
100
AcDbEntity
  8
0
100
AcDbLine
 10
20.0105
 20
160.0
 30
0.0
 11
21.52629999999999
 21
160.0
 31
0.0
  0
LINE
  5
104
330
1E
100
AcDbEntity
  8
0
100
AcDbLine
 10
20.0105
 20
172.0
 30
0.0
 11
21.52629999999999
 21
172.0
 31
0.0
  0
LINE
  5
106
330
1E
100
AcDbEntity
  8
0
100
AcDbLine
 10
19.42109999999999
 20
172.0
 30
0.0
 11
20.0105
 21
172.0
 31
0.0
  0
LINE
  5
107
330
1E
100
AcDbEntity
  8
0
100
AcDbLine
 10
19.0
 20
160.086
 30
0.0
 11
19.0
 21
160.206
 31
0.0
  0
LINE
  5
108
330
1E
100
AcDbEntity
  8
0
100
AcDbLine
 10
19.0
 20
160.086
 30
0.0
 11
19.42109999999999
 21
160.0
 31
0.0
  0
LINE
  5
109
330
1E
100
AcDbEntity
  8
0
100
AcDbLine
 10
20.0
 20
159.0
 30
0.0
 11
20.0
 21
145.0
 31
0.0
  0
LINE
  5
10A
330
1E
100
AcDbEntity
  8
0
100
AcDbLine
 10
20.0
 20
159.0
 30
0.0
 11
20.53999999999999
 21
159.0
 31
0.0
  0
LINE
  5
10D
330
1E
100
AcDbEntity
  8
0
100
AcDbLine
 10
20.3713
 20
171.143
 30
0.0
 11
23.0421
 21
171.6879999999999
 31
0.0
  0
LINE
  5
10E
330
1E
100
AcDbEntity
  8
0
100
AcDbLine
 10
20.3713
 20
160.857
 30
0.0
 11
23.0421
 21
160.312
 31
0.0
  0
LINE
  5
110
330
1E
100
AcDbEntity
  8
0
100
AcDbLine
 10
22.0
 20
159.0
 30
0.0
 11
22.0
 21
160.0
 31
0.0
  0
LINE
  5
111
330
1E
100
AcDbEntity
  8
0
100
AcDbLine
 10
24.38
 20
159.0
 30
0.0
 11
27.56
 21
159.0
 31
0.0
  0
LINE
  5
112
330
1E
100
AcDbEntity
  8
0
100
AcDbLine
 10
21.52629999999999
 20
160.0
 30
0.0
 11
48.0
 21
160.0
 31
0.0
  0
LINE
  5
113
330
1E
100
AcDbEntity
  8
0
100
AcDbLine
 10
21.52629999999999
 20
172.0
 30
0.0
 11
23.9684
 21
172.0
 31
0.0
  0
LINE
  5
114
330
1E
100
AcDbEntity
  8
0
100
AcDbLine
 10
23.9684
 20
172.0
 30
0.0
 11
27.2526
 21
172.0
 31
0.0
  0
LINE
  5
116
330
1E
100
AcDbEntity
  8
0
100
AcDbLine
 10
23.0421
 20
171.6879999999999
 30
0.0
 11
26.8555
 21
171.8269999999999
 31
0.0
  0
LINE
  5
118
330
1E
100
AcDbEntity
  8
0
100
AcDbLine
 10
23.0421
 20
160.312
 30
0.0
 11
26.8555
 21
160.173
 31
0.0
  0
LINE
  5
119
330
1E
100
AcDbEntity
  8
0
100
AcDbLine
 10
22.0
 20
160.0
 30
0.0
 11
22.0
 21
159.0
 31
0.0
  0
LINE
  5
11A
330
1E
100
AcDbEntity
  8
0
100
AcDbLine
 10
21.97999999999999
 20
159.0
 30
0.0
 11
24.38
 21
159.0
 31
0.0
  0
LINE
  5
11B
330
1E
100
AcDbEntity
  8
0
100
AcDbLine
 10
20.53999999999999
 20
159.0
 30
0.0
 11
21.97999999999999
 21
159.0
 31
0.0
  0
LINE
  5
11C
330
1E
100
AcDbEntity
  8
0
100
AcDbLine
 10
23.0741
 20
172.0
 30
0.0
 11
26.5741
 21
172.0
 31
0.0
  0
LINE
  5
11D
330
1E
100
AcDbEntity
  8
0
100
AcDbLine
 10
31.16
 20
159.0
 30
0.0
 11
35.0
 21
159.0
 31
0.0
  0
LINE
  5
11E
330
1E
100
AcDbEntity
  8
0
100
AcDbLine
 10
27.56
 20
159.0
 30
0.0
 11
31.16
 21
159.0
 31
0.0
  0
LINE
  5
11F
330
1E
100
AcDbEntity
  8
0
100
AcDbLine
 10
35.0
 20
159.0
 30
0.0
 11
38.84
 21
159.0
 31
0.0
  0
LINE
  5
120
330
1E
100
AcDbEntity
  8
0
100
AcDbLine
 10
26.8555
 20
160.173
 30
0.0
 11
30.6481
 21
160.359
 31
0.0
  0
LINE
  5
123
330
1E
100
AcDbEntity
  8
0
100
AcDbLine
 10
26.8555
 20
171.8269999999999
 30
0.0
 11
30.6481
 21
171.6409999999999
 31
0.0
  0
LINE
  5
125
330
1E
100
AcDbEntity
  8
0
100
AcDbLine
 10
35.0
 20
160.857
 30
0.0
 11
36.9775
 21
160.857
 31
0.0
  0
LINE
  5
12A
330
1E
100
AcDbEntity
  8
0
100
AcDbLine
 10
36.9775
 20
160.857
 30
0.0
 11
39.3519
 21
160.359
 31
0.0
  0
LINE
  5
12D
330
1E
100
AcDbEntity
  8
0
100
AcDbLine
 10
33.0225
 20
171.143
 30
0.0
 11
35.0
 21
171.143
 31
0.0
  0
LINE
  5
12E
330
1E
100
AcDbEntity
  8
0
100
AcDbLine
 10
36.9775
 20
171.143
 30
0.0
 11
39.3519
 21
171.6409999999999
 31
0.0
  0
LINE
  5
131
330
1E
100
AcDbEntity
  8
0
100
AcDbLine
 10
35.0
 20
171.143
 30
0.0
 11
36.9775
 21
171.143
 31
0.0
  0
LINE
  5
133
330
1E
100
AcDbEntity
  8
0
100
AcDbLine
 10
33.0225
 20
160.857
 30
0.0
 11
35.0
 21
160.857
 31
0.0
  0
LINE
  5
135
330
1E
100
AcDbEntity
  8
0
100
AcDbLine
 10
30.6481
 20
160.359
 30
0.0
 11
33.0225
 21
160.857
 31
0.0
  0
LINE
  5
137
330
1E
100
AcDbEntity
  8
0
100
AcDbLine
 10
39.04209999999999
 20
172.0
 30
0.0
 11
42.7473
 21
172.0
 31
0.0
  0
LINE
  5
13B
330
1E
100
AcDbEntity
  8
0
100
AcDbLine
 10
30.9579
 20
172.0
 30
0.0
 11
35.0
 21
172.0
 31
0.0
  0
LINE
  5
13D
330
1E
100
AcDbEntity
  8
0
100
AcDbLine
 10
30.6481
 20
171.6409999999999
 30
0.0
 11
33.0225
 21
171.143
 31
0.0
  0
LINE
  5
140
330
1E
100
AcDbEntity
  8
0
100
AcDbLine
 10
27.2526
 20
172.0
 30
0.0
 11
30.9579
 21
172.0
 31
0.0
  0
LINE
  5
142
330
1E
100
AcDbEntity
  8
0
100
AcDbLine
 10
38.84
 20
159.0
 30
0.0
 11
42.43999999999999
 21
159.0
 31
0.0
  0
LINE
  5
143
330
1E
100
AcDbEntity
  8
0
100
AcDbLine
 10
42.43999999999999
 20
159.0
 30
0.0
 11
45.62
 21
159.0
 31
0.0
  0
LINE
  5
144
330
1E
100
AcDbEntity
  8
0
100
AcDbLine
 10
48.0
 20
159.0
 30
0.0
 11
48.0
 21
160.0
 31
0.0
  0
LINE
  5
145
330
1E
100
AcDbEntity
  8
0
100
AcDbLine
 10
45.62
 20
159.0
 30
0.0
 11
48.02
 21
159.0
 31
0.0
  0
LINE
  5
147
330
1E
100
AcDbEntity
  8
0
100
AcDbLine
 10
43.14449999999999
 20
160.173
 30
0.0
 11
46.9579
 21
160.312
 31
0.0
  0
LINE
  5
149
330
1E
100
AcDbEntity
  8
0
100
AcDbLine
 10
39.3519
 20
171.6409999999999
 30
0.0
 11
43.14449999999999
 21
171.8269999999999
 31
0.0
  0
LINE
  5
14B
330
1E
100
AcDbEntity
  8
0
100
AcDbLine
 10
39.3519
 20
160.359
 30
0.0
 11
43.14449999999999
 21
160.173
 31
0.0
  0
LINE
  5
14C
330
1E
100
AcDbEntity
  8
0
100
AcDbLine
 10
42.7473
 20
172.0
 30
0.0
 11
46.0315
 21
172.0
 31
0.0
  0
LINE
  5
14E
330
1E
100
AcDbEntity
  8
0
100
AcDbLine
 10
46.0315
 20
172.0
 30
0.0
 11
48.4737
 21
172.0
 31
0.0
  0
LINE
  5
150
330
1E
100
AcDbEntity
  8
0
100
AcDbLine
 10
43.14449999999999
 20
171.8269999999999
 30
0.0
 11
46.9579
 21
171.6879999999999
 31
0.0
  0
LINE
  5
152
330
1E
100
AcDbEntity
  8
0
100
AcDbLine
 10
46.9579
 20
171.6879999999999
 30
0.0
 11
49.6287
 21
171.143
 31
0.0
  0
LINE
  5
155
330
1E
100
AcDbEntity
  8
0
100
AcDbLine
 10
46.9579
 20
160.312
 30
0.0
 11
49.6287
 21
160.857
 31
0.0
  0
LINE
  5
156
330
1E
100
AcDbEntity
  8
0
100
AcDbLine
 10
48.4737
 20
160.0
 30
0.0
 11
49.9895
 21
160.0
 31
0.0
  0
LINE
  5
157
330
1E
100
AcDbEntity
  8
0
100
AcDbLine
 10
48.4737
 20
172.0
 30
0.0
 11
49.9895
 21
172.0
 31
0.0
  0
LINE
  5
15A
330
1E
100
AcDbEntity
  8
0
100
AcDbLine
 10
48.0
 20
160.0
 30
0.0
 11
48.0
 21
159.0
 31
0.0
  0
LINE
  5
15B
330
1E
100
AcDbEntity
  8
0
100
AcDbLine
 10
48.0
 20
160.0
 30
0.0
 11
48.4737
 21
160.0
 31
0.0
  0
LINE
  5
15C
330
1E
100
AcDbEntity
  8
0
100
AcDbLine
 10
48.02
 20
159.0
 30
0.0
 11
49.46
 21
159.0
 31
0.0
  0
LINE
  5
15D
330
1E
100
AcDbEntity
  8
0
100
AcDbLine
 10
49.6287
 20
160.857
 30
0.0
 11
50.66320000000001
 21
160.857
 31
0.0
  0
LINE
  5
164
330
1E
100
AcDbEntity
  8
0
100
AcDbLine
 10
49.6287
 20
171.143
 30
0.0
 11
51.0
 21
170.2859999999999
 31
0.0
  0
LINE
  5
165
330
1E
100
AcDbEntity
  8
0
100
AcDbLine
 10
49.46
 20
159.0
 30
0.0
 11
50.0
 21
159.0
 31
0.0
  0
LINE
  5
166
330
1E
100
AcDbEntity
  8
0
100
AcDbLine
 10
46.9259
 20
172.0
 30
0.0
 11
49.64809999999999
 21
172.0
 31
0.0
  0
LINE
  5
167
330
1E
100
AcDbEntity
  8
0
100
AcDbLine
 10
49.9895
 20
160.0
 30
0.0
 11
50.579
 21
160.0
 31
0.0
  0
LINE
  5
169
330
1E
100
AcDbEntity
  8
0
100
AcDbLine
 10
49.9895
 20
172.0
 30
0.0
 11
50.579
 21
172.0
 31
0.0
  0
LINE
  5
16A
330
1E
100
AcDbEntity
  8
0
100
AcDbLine
 10
50.0
 20
159.0
 30
0.0
 11
50.0
 21
145.0
 31
0.0
  0
LINE
  5
16B
330
1E
100
AcDbEntity
  8
0
100
AcDbLine
 10
51.0
 20
160.086
 30
0.0
 11
51.0
 21
160.206
 31
0.0
  0
LINE
  5
16C
330
1E
100
AcDbEntity
  8
0
100
AcDbLine
 10
50.579
 20
160.0
 30
0.0
 11
51.0
 21
160.086
 31
0.0
  0
LINE
  5
16D
330
1E
100
AcDbEntity
  8
0
100
AcDbLine
 10
50.66320000000001
 20
160.857
 30
0.0
 11
51.0
 21
160.857
 31
0.0
  0
LINE
  5
16F
330
1E
100
AcDbEntity
  8
0
100
AcDbLine
 10
51.0
 20
160.857
 30
0.0
 11
51.0
 21
170.2859999999999
 31
0.0
  0
LINE
  5
172
330
1E
100
AcDbEntity
  8
0
100
AcDbLine
 10
51.0
 20
171.143
 30
0.0
 11
51.0
 21
170.2859999999999
 31
0.0
  0
LINE
  5
173
330
1E
100
AcDbEntity
  8
0
100
AcDbLine
 10
51.0
 20
171.143
 30
0.0
 11
51.0
 21
171.794
 31
0.0
  0
LINE
  5
174
330
1E
100
AcDbEntity
  8
0
100
AcDbLine
 10
51.0
 20
170.2859999999999
 30
0.0
 11
51.0
 21
160.857
 31
0.0
  0
LINE
  5
175
330
1E
100
AcDbEntity
  8
0
100
AcDbLine
 10
51.0
 20
170.2859999999999
 30
0.0
 11
51.0
 21
171.143
 31
0.0
  0
LINE
  5
176
330
1E
100
AcDbEntity
  8
0
100
AcDbLine
 10
51.0
 20
171.794
 30
0.0
 11
51.0
 21
171.143
 31
0.0
  0
LINE
  5
177
330
1E
100
AcDbEntity
  8
0
100
AcDbLine
 10
51.0
 20
160.857
 30
0.0
 11
51.0
 21
160.206
 31
0.0
  0
LINE
  5
178
330
1E
100
AcDbEntity
  8
0
100
AcDbLine
 10
51.0
 20
171.914
 30
0.0
 11
51.0
 21
171.794
 31
0.0
  0
LINE
  5
179
330
1E
100
AcDbEntity
  8
0
100
AcDbLine
 10
51.0
 20
160.206
 30
0.0
 11
51.0
 21
160.086
 31
0.0
  0
LINE
  5
17A
330
1E
100
AcDbEntity
  8
0
100
AcDbLine
 10
51.0
 20
160.206
 30
0.0
 11
51.0
 21
160.857
 31
0.0
  0
LINE
  5
17B
330
1E
100
AcDbEntity
  8
0
100
AcDbLine
 10
50.0
 20
145.0
 30
0.0
 11
50.0
 21
159.0
 31
0.0
  0
LINE
  5
17C
330
1E
100
AcDbEntity
  8
0
100
AcDbLine
 10
50.0
 20
145.0
 30
0.0
 11
110.0
 21
145.0
 31
0.0
  0
LINE
  5
17D
330
1E
100
AcDbEntity
  8
0
100
AcDbLine
 10
50.579
 20
172.0
 30
0.0
 11
51.2037
 21
172.0
 31
0.0
  0
LINE
  5
17E
330
1E
100
AcDbEntity
  8
0
100
AcDbLine
 10
50.579
 20
172.0
 30
0.0
 11
51.0
 21
171.914
 31
0.0
  0
LINE
  5
17F
330
1E
100
AcDbEntity
  8
0
100
AcDbLine
 10
49.64809999999999
 20
172.0
 30
0.0
 11
51.2037
 21
172.0
 31
0.0
  0
LINE
  5
180
330
1E
100
AcDbEntity
  8
0
100
AcDbLine
 10
51.2037
 20
172.0
 30
0.0
 11
51.8519
 21
172.0
 31
0.0
  0
LINE
  5
181
330
1E
100
AcDbEntity
  8
0
100
AcDbLine
 10
51.8519
 20
172.0
 30
0.0
 11
51.8519
 21
175.3379999999999
 31
0.0
  0
LINE
  5
182
330
1E
100
AcDbEntity
  8
0
100
AcDbLine
 10
43.4259
 20
172.0
 30
0.0
 11
46.9259
 21
172.0
 31
0.0
  0
LINE
  5
183
330
1E
100
AcDbEntity
  8
0
100
AcDbLine
 10
39.2778
 20
172.0
 30
0.0
 11
43.4259
 21
172.0
 31
0.0
  0
LINE
  5
184
330
1E
100
AcDbEntity
  8
0
100
AcDbLine
 10
35.0
 20
172.0
 30
0.0
 11
39.2778
 21
172.0
 31
0.0
  0
LINE
  5
185
330
1E
100
AcDbEntity
  8
0
100
AcDbLine
 10
35.0
 20
172.0
 30
0.0
 11
39.04209999999999
 21
172.0
 31
0.0
  0
LINE
  5
187
330
1E
100
AcDbEntity
  8
0
100
AcDbLine
 10
26.5741
 20
172.0
 30
0.0
 11
30.7222
 21
172.0
 31
0.0
  0
LINE
  5
188
330
1E
100
AcDbEntity
  8
0
100
AcDbLine
 10
30.7222
 20
172.0
 30
0.0
 11
35.0
 21
172.0
 31
0.0
  0
LINE
  5
189
330
1E
100
AcDbEntity
  8
0
100
AcDbLine
 10
20.3519
 20
172.0
 30
0.0
 11
23.0741
 21
172.0
 31
0.0
  0
LINE
  5
18A
330
1E
100
AcDbEntity
  8
0
100
AcDbLine
 10
51.8519
 20
175.3379999999999
 30
0.0
 11
53.1481
 21
181.527
 31
0.0
  0
LINE
  5
18B
330
1E
100
AcDbEntity
  8
0
100
AcDbLine
 10
51.8519
 20
175.3379999999999
 30
0.0
 11
51.8519
 21
172.0
 31
0.0
  0
LINE
  5
18C
330
1E
100
AcDbEntity
  8
0
100
AcDbLine
 10
53.1481
 20
181.527
 30
0.0
 11
55.74069999999999
 21
186.5559999999999
 31
0.0
  0
LINE
  5
18D
330
1E
100
AcDbEntity
  8
0
100
AcDbLine
 10
18.79629999999999
 20
172.0
 30
0.0
 11
20.3519
 21
172.0
 31
0.0
  0
LINE
  5
18E
330
1E
100
AcDbEntity
  8
0
100
AcDbLine
 10
18.79629999999999
 20
172.0
 30
0.0
 11
19.42109999999999
 21
172.0
 31
0.0
  0
LINE
  5
18F
330
1E
100
AcDbEntity
  8
0
100
AcDbLine
 10
18.14809999999999
 20
172.0
 30
0.0
 11
18.79629999999999
 21
172.0
 31
0.0
  0
LINE
  5
190
330
1E
100
AcDbEntity
  8
0
100
AcDbLine
 10
18.14809999999999
 20
172.0
 30
0.0
 11
18.14809999999999
 21
175.3379999999999
 31
0.0
  0
LINE
  5
191
330
1E
100
AcDbEntity
  8
0
100
AcDbLine
 10
55.74069999999999
 20
186.5559999999999
 30
0.0
 11
60.27779999999999
 21
191.1979999999999
 31
0.0
  0
LINE
  5
192
330
1E
100
AcDbEntity
  8
0
100
AcDbLine
 10
60.27779999999999
 20
191.1979999999999
 30
0.0
 11
65.46300000000001
 21
194.679
 31
0.0
  0
LINE
  5
193
330
1E
100
AcDbEntity
  8
0
100
AcDbLine
 10
16.8519
 20
181.527
 30
0.0
 11
18.14809999999999
 21
175.3379999999999
 31
0.0
  0
LINE
  5
194
330
1E
100
AcDbEntity
  8
0
100
AcDbLine
 10
14.2593
 20
186.5559999999999
 30
0.0
 11
16.8519
 21
181.527
 31
0.0
  0
LINE
  5
195
330
1E
100
AcDbEntity
  8
0
100
AcDbLine
 10
10.37039999999999
 20
196.6129999999999
 30
0.0
 11
17.6296
 21
196.6129999999999
 31
0.0
  0
LINE
  5
196
330
1E
100
AcDbEntity
  8
0
100
AcDbLine
 10
17.6296
 20
196.6129999999999
 30
0.0
 11
26.0556
 21
196.6129999999999
 31
0.0
  0
LINE
  5
197
330
1E
100
AcDbEntity
  8
0
100
AcDbLine
 10
26.0556
 20
196.6129999999999
 30
0.0
 11
35.0
 21
196.6129999999999
 31
0.0
  0
LINE
  5
198
330
1E
100
AcDbEntity
  8
0
100
AcDbLine
 10
10.37039999999999
 20
197.0
 30
0.0
 11
17.6296
 21
197.0
 31
0.0
  0
LINE
  5
199
330
1E
100
AcDbEntity
  8
0
100
AcDbLine
 10
17.6296
 20
197.0
 30
0.0
 11
26.0556
 21
197.0
 31
0.0
  0
LINE
  5
19A
330
1E
100
AcDbEntity
  8
0
100
AcDbLine
 10
43.9444
 20
196.6129999999999
 30
0.0
 11
52.3704
 21
196.6129999999999
 31
0.0
  0
LINE
  5
19B
330
1E
100
AcDbEntity
  8
0
100
AcDbLine
 10
35.0
 20
196.6129999999999
 30
0.0
 11
43.9444
 21
196.6129999999999
 31
0.0
  0
LINE
  5
19C
330
1E
100
AcDbEntity
  8
0
100
AcDbLine
 10
59.6296
 20
196.6129999999999
 30
0.0
 11
65.33329999999999
 21
196.6129999999999
 31
0.0
  0
LINE
  5
19D
330
1E
100
AcDbEntity
  8
0
100
AcDbLine
 10
65.33329999999999
 20
196.6129999999999
 30
0.0
 11
68.7037
 21
196.6129999999999
 31
0.0
  0
LINE
  5
19E
330
1E
100
AcDbEntity
  8
0
100
AcDbLine
 10
59.6296
 20
197.0
 30
0.0
 11
65.33329999999999
 21
197.0
 31
0.0
  0
LINE
  5
19F
330
1E
100
AcDbEntity
  8
0
100
AcDbLine
 10
65.46300000000001
 20
194.679
 30
0.0
 11
70.0
 21
196.6129999999999
 31
0.0
  0
LINE
  5
1A0
330
1E
100
AcDbEntity
  8
0
100
AcDbLine
 10
68.7037
 20
196.6129999999999
 30
0.0
 11
70.0
 21
196.6129999999999
 31
0.0
  0
LINE
  5
1A1
330
1E
100
AcDbEntity
  8
0
100
AcDbLine
 10
70.0
 20
197.0
 30
0.0
 11
70.0
 21
196.6129999999999
 31
0.0
  0
LINE
  5
1A2
330
1E
100
AcDbEntity
  8
0
100
AcDbLine
 10
70.0
 20
196.6129999999999
 30
0.0
 11
70.0
 21
197.0
 31
0.0
  0
LINE
  5
1A3
330
1E
100
AcDbEntity
  8
0
100
AcDbLine
 10
65.33329999999999
 20
197.0
 30
0.0
 11
68.7037
 21
197.0
 31
0.0
  0
LINE
  5
1A4
330
1E
100
AcDbEntity
  8
0
100
AcDbLine
 10
68.7037
 20
197.0
 30
0.0
 11
70.0
 21
197.0
 31
0.0
  0
LINE
  5
1A5
330
1E
100
AcDbEntity
  8
0
100
AcDbLine
 10
52.3704
 20
196.6129999999999
 30
0.0
 11
59.6296
 21
196.6129999999999
 31
0.0
  0
LINE
  5
1A6
330
1E
100
AcDbEntity
  8
0
100
AcDbLine
 10
52.3704
 20
197.0
 30
0.0
 11
59.6296
 21
197.0
 31
0.0
  0
LINE
  5
1A7
330
1E
100
AcDbEntity
  8
0
100
AcDbLine
 10
43.9444
 20
197.0
 30
0.0
 11
52.3704
 21
197.0
 31
0.0
  0
LINE
  5
1A8
330
1E
100
AcDbEntity
  8
0
100
AcDbLine
 10
35.0
 20
197.0
 30
0.0
 11
43.9444
 21
197.0
 31
0.0
  0
LINE
  5
1A9
330
1E
100
AcDbEntity
  8
0
100
AcDbLine
 10
26.0556
 20
197.0
 30
0.0
 11
35.0
 21
197.0
 31
0.0
  0
LINE
  5
1AA
330
1E
100
AcDbEntity
  8
0
100
AcDbLine
 10
9.72222
 20
191.1979999999999
 30
0.0
 11
14.2593
 21
186.5559999999999
 31
0.0
  0
LINE
  5
1AB
330
1E
100
AcDbEntity
  8
0
100
AcDbLine
 10
4.666670000000009
 20
196.6129999999999
 30
0.0
 11
10.37039999999999
 21
196.6129999999999
 31
0.0
  0
LINE
  5
1AC
330
1E
100
AcDbEntity
  8
0
100
AcDbLine
 10
4.666670000000009
 20
197.0
 30
0.0
 11
10.37039999999999
 21
197.0
 31
0.0
  0
LINE
  5
1AD
330
1E
100
AcDbEntity
  8
0
100
AcDbLine
 10
1.29630000000001
 20
197.0
 30
0.0
 11
4.666670000000009
 21
197.0
 31
0.0
  0
LINE
  5
1AE
330
1E
100
AcDbEntity
  8
0
100
AcDbLine
 10
0.0000000000000053
 20
197.0
 30
0.0
 11
1.29630000000001
 21
197.0
 31
0.0
  0
LINE
  5
1AF
330
1E
100
AcDbEntity
  8
0
100
AcDbLine
 10
0.0000000000000053
 20
197.0
 30
0.0
 11
0.0000000000000053
 21
196.6129999999999
 31
0.0
  0
LINE
  5
1B0
330
1E
100
AcDbEntity
  8
0
100
AcDbLine
 10
101.0999999999999
 20
141.6549999999999
 30
0.0
 11
103.138793103448
 21
142.406034482758
 31
0.0
  0
LINE
  5
1B1
330
1E
100
AcDbEntity
  8
0
100
AcDbLine
 10
101.0999999999999
 20
141.5999999999999
 30
0.0
 11
105.4
 21
143.3
 31
0.0
  0
LINE
  5
1B2
330
1E
100
AcDbEntity
  8
0
100
AcDbLine
 10
105.417
 20
47.33229999999999
 30
0.0
 11
105.9169999999999
 21
47.33229999999999
 31
0.0
  0
LINE
  5
1B3
330
1E
100
AcDbEntity
  8
0
100
AcDbLine
 10
105.417
 20
46.04
 30
0.0
 11
105.9169999999999
 21
46.04
 31
0.0
  0
LINE
  5
1B4
330
1E
100
AcDbEntity
  8
0
100
AcDbLine
 10
105.417
 20
103.8247
 30
0.0
 11
105.9169999999999
 21
103.8247
 31
0.0
  0
LINE
  5
1B5
330
1E
100
AcDbEntity
  8
0
100
AcDbLine
 10
105.417
 20
105.117
 30
0.0
 11
105.9169999999999
 21
105.117
 31
0.0
  0
LINE
  5
1B6
330
1E
100
AcDbEntity
  8
0
100
AcDbLine
 10
105.6
 20
109.5999999999999
 30
0.0
 11
110.0
 21
109.0
 31
0.0
  0
LINE
  5
1B7
330
1E
100
AcDbEntity
  8
0
100
AcDbLine
 10
105.4999999999999
 20
109.0999999999999
 30
0.0
 11
110.0
 21
108.4999999999999
 31
0.0
  0
LINE
  5
1B8
330
1E
100
AcDbEntity
  8
0
100
AcDbLine
 10
105.613
 20
0.8061000000000079
 30
0.0
 11
110.0
 21
0.209700000000009
 31
0.0
  0
LINE
  5
1B9
330
1E
100
AcDbEntity
  8
0
100
AcDbLine
 10
105.613
 20
0.5964000000000059
 30
0.0
 11
110.0
 21
0.000000000000007
 31
0.0
  0
LINE
  5
1BA
330
1E
100
AcDbEntity
  8
0
100
AcDbLine
 10
105.613
 20
0.5964000000000059
 30
0.0
 11
110.0
 21
0.000000000000007
 31
0.0
  0
LINE
  5
1BB
330
1E
100
AcDbEntity
  8
0
100
AcDbLine
 10
106.0
 20
45.7631
 30
0.0
 11
106.417
 21
45.7631
 31
0.0
  0
LINE
  5
1BC
330
1E
100
AcDbEntity
  8
0
100
AcDbLine
 10
105.8329999999999
 20
45.7631
 30
0.0
 11
106.0
 21
45.7631
 31
0.0
  0
LINE
  5
1BD
330
1E
100
AcDbEntity
  8
0
100
AcDbLine
 10
106.0
 20
47.6092
 30
0.0
 11
106.417
 21
47.6092
 31
0.0
  0
LINE
  5
1BE
330
1E
100
AcDbEntity
  8
0
100
AcDbLine
 10
105.8329999999999
 20
47.6092
 30
0.0
 11
106.0
 21
47.6092
 31
0.0
  0
LINE
  5
1BF
330
1E
100
AcDbEntity
  8
0
100
AcDbLine
 10
105.8329999999999
 20
47.6092
 30
0.0
 11
106.25
 21
52.50160000000001
 31
0.0
  0
LINE
  5
1C0
330
1E
100
AcDbEntity
  8
0
100
AcDbLine
 10
105.9169999999999
 20
47.33229999999999
 30
0.0
 11
106.667
 21
47.33229999999999
 31
0.0
  0
LINE
  5
1C1
330
1E
100
AcDbEntity
  8
0
100
AcDbLine
 10
105.6669999999999
 20
46.6861
 30
0.0
 11
106.4999999999999
 21
46.6861
 31
0.0
  0
LINE
  5
1C2
330
1E
100
AcDbEntity
  8
0
100
AcDbLine
 10
105.9169999999999
 20
46.04
 30
0.0
 11
106.667
 21
46.04
 31
0.0
  0
LINE
  5
1C3
330
1E
100
AcDbEntity
  8
0
100
AcDbLine
 10
106.0
 20
103.5476999999999
 30
0.0
 11
106.417
 21
103.5476999999999
 31
0.0
  0
LINE
  5
1C4
330
1E
100
AcDbEntity
  8
0
100
AcDbLine
 10
105.6669999999999
 20
104.4707
 30
0.0
 11
106.4999999999999
 21
104.4707
 31
0.0
  0
LINE
  5
1C5
330
1E
100
AcDbEntity
  8
0
100
AcDbLine
 10
105.9169999999999
 20
103.8247
 30
0.0
 11
106.667
 21
103.8247
 31
0.0
  0
LINE
  5
1C6
330
1E
100
AcDbEntity
  8
0
100
AcDbLine
 10
105.9169999999999
 20
105.117
 30
0.0
 11
106.667
 21
105.117
 31
0.0
  0
LINE
  5
1C7
330
1E
100
AcDbEntity
  8
0
100
AcDbLine
 10
106.0
 20
105.3938999999999
 30
0.0
 11
106.417
 21
105.3938999999999
 31
0.0
  0
LINE
  5
1C8
330
1E
100
AcDbEntity
  8
0
100
AcDbLine
 10
105.8329999999999
 20
105.3938999999999
 30
0.0
 11
106.0
 21
105.3938999999999
 31
0.0
  0
LINE
  5
1C9
330
1E
100
AcDbEntity
  8
0
100
AcDbLine
 10
105.8329999999999
 20
103.5476999999999
 30
0.0
 11
106.25
 21
98.65529999999999
 31
0.0
  0
LINE
  5
1CA
330
1E
100
AcDbEntity
  8
0
100
AcDbLine
 10
105.8329999999999
 20
103.5476999999999
 30
0.0
 11
106.0
 21
103.5476999999999
 31
0.0
  0
LINE
  5
1CB
330
1E
100
AcDbEntity
  8
0
100
AcDbLine
 10
106.026
 20
74.9161
 30
0.0
 11
106.667
 21
75.1760592456784
 31
0.0
  0
LINE
  5
1CC
330
1E
100
AcDbEntity
  8
0
100
AcDbLine
 10
106.026
 20
61.08389999999999
 30
0.0
 11
106.667
 21
60.8239407543216
 31
0.0
  0
LINE
  5
1CD
330
1E
100
AcDbEntity
  8
0
100
AcDbLine
 10
106.25
 20
52.50160000000001
 30
0.0
 11
106.667
 21
60.80919999999999
 31
0.0
  0
LINE
  5
1CE
330
1E
100
AcDbEntity
  8
0
100
AcDbLine
 10
106.25
 20
45.7631
 30
0.0
 11
106.417
 21
45.7631
 31
0.0
  0
LINE
  5
1CF
330
1E
100
AcDbEntity
  8
0
100
AcDbLine
 10
107.0829999999999
 20
45.7631
 30
0.0
 11
107.777265703971
 21
45.7631
 31
0.0
  0
LINE
  5
1D0
330
1E
100
AcDbEntity
  8
0
100
AcDbLine
 10
107.333
 20
45.7631
 30
0.0
 11
108.167
 21
45.7631
 31
0.0
  0
LINE
  5
1D1
330
1E
100
AcDbEntity
  8
0
100
AcDbLine
 10
108.167
 20
45.7631
 30
0.0
 11
109.0
 21
45.7631
 31
0.0
  0
LINE
  5
1D2
330
1E
100
AcDbEntity
  8
0
100
AcDbLine
 10
106.75
 20
45.7631
 30
0.0
 11
107.333
 21
45.7631
 31
0.0
  0
LINE
  5
1D3
330
1E
100
AcDbEntity
  8
0
100
AcDbLine
 10
106.417
 20
45.7631
 30
0.0
 11
106.75
 21
45.7631
 31
0.0
  0
LINE
  5
1D4
330
1E
100
AcDbEntity
  8
0
100
AcDbLine
 10
106.417
 20
45.7631
 30
0.0
 11
107.0829999999999
 21
45.7631
 31
0.0
  0
LINE
  5
1D5
330
1E
100
AcDbEntity
  8
0
100
AcDbLine
 10
106.667
 20
46.04
 30
0.0
 11
107.667
 21
46.04
 31
0.0
  0
LINE
  5
1D6
330
1E
100
AcDbEntity
  8
0
100
AcDbLine
 10
106.667
 20
60.80919999999999
 30
0.0
 11
106.667
 21
75.5784
 31
0.0
  0
LINE
  5
1D7
330
1E
100
AcDbEntity
  8
0
100
AcDbLine
 10
107.0829999999999
 20
47.6092
 30
0.0
 11
107.9169999999999
 21
47.6092
 31
0.0
  0
LINE
  5
1D8
330
1E
100
AcDbEntity
  8
0
100
AcDbLine
 10
106.667
 20
47.33229999999999
 30
0.0
 11
107.667
 21
47.33229999999999
 31
0.0
  0
LINE
  5
1D9
330
1E
100
AcDbEntity
  8
0
100
AcDbLine
 10
106.4999999999999
 20
46.6861
 30
0.0
 11
107.4999999999999
 21
46.6861
 31
0.0
  0
LINE
  5
1DA
330
1E
100
AcDbEntity
  8
0
100
AcDbLine
 10
107.9169999999999
 20
47.6092
 30
0.0
 11
108.9169999999999
 21
47.6092
 31
0.0
  0
LINE
  5
1DB
330
1E
100
AcDbEntity
  8
0
100
AcDbLine
 10
107.667
 20
47.33229999999999
 30
0.0
 11
108.75
 21
47.33229999999999
 31
0.0
  0
LINE
  5
1DC
330
1E
100
AcDbEntity
  8
0
100
AcDbLine
 10
107.4999999999999
 20
46.6861
 30
0.0
 11
108.75
 21
46.6861
 31
0.0
  0
LINE
  5
1DD
330
1E
100
AcDbEntity
  8
0
100
AcDbLine
 10
107.667
 20
46.04
 30
0.0
 11
108.75
 21
46.04
 31
0.0
  0
LINE
  5
1DE
330
1E
100
AcDbEntity
  8
0
100
AcDbLine
 10
106.417
 20
47.6092
 30
0.0
 11
107.0829999999999
 21
47.6092
 31
0.0
  0
LINE
  5
1DF
330
1E
100
AcDbEntity
  8
0
100
AcDbLine
 10
107.777265703971
 20
45.7631
 30
0.0
 11
108.3329999999999
 21
45.6707
 31
0.0
  0
LINE
  5
1E0
330
1E
100
AcDbEntity
  8
0
100
AcDbLine
 10
110.0
 20
0.000000000000007
 30
0.0
 11
114.3869999999999
 21
0.5964000000000059
 31
0.0
  0
LINE
  5
1E1
330
1E
100
AcDbEntity
  8
0
100
AcDbLine
 10
110.0
 20
0.209700000000009
 30
0.0
 11
114.3869999999999
 21
0.8061000000000079
 31
0.0
  0
LINE
  5
1E2
330
1E
100
AcDbEntity
  8
0
100
AcDbLine
 10
110.0
 20
0.000000000000007
 30
0.0
 11
114.3869999999999
 21
0.5964000000000059
 31
0.0
  0
LINE
  5
1E3
330
1E
100
AcDbEntity
  8
0
100
AcDbLine
 10
110.0
 20
45.7631
 30
0.0
 11
111.0
 21
45.7631
 31
0.0
  0
LINE
  5
1E4
330
1E
100
AcDbEntity
  8
0
100
AcDbLine
 10
114.3869999999999
 20
0.5964000000000059
 30
0.0
 11
118.445
 21
2.087400000000009
 31
0.0
  0
LINE
  5
1E5
330
1E
100
AcDbEntity
  8
0
100
AcDbLine
 10
114.3869999999999
 20
0.8061000000000079
 30
0.0
 11
118.445
 21
2.297100000000009
 31
0.0
  0
LINE
  5
1E6
330
1E
100
AcDbEntity
  8
0
100
AcDbLine
 10
114.3869999999999
 20
0.5964000000000059
 30
0.0
 11
118.445
 21
2.087400000000009
 31
0.0
  0
LINE
  5
1E7
330
1E
100
AcDbEntity
  8
0
100
AcDbLine
 10
112.2227342960289
 20
45.7631
 30
0.0
 11
112.917
 21
45.7631
 31
0.0
  0
LINE
  5
1E8
330
1E
100
AcDbEntity
  8
0
100
AcDbLine
 10
111.833
 20
45.7631
 30
0.0
 11
112.667
 21
45.7631
 31
0.0
  0
LINE
  5
1E9
330
1E
100
AcDbEntity
  8
0
100
AcDbLine
 10
111.0
 20
45.7631
 30
0.0
 11
111.833
 21
45.7631
 31
0.0
  0
LINE
  5
1EA
330
1E
100
AcDbEntity
  8
0
100
AcDbLine
 10
112.917
 20
45.7631
 30
0.0
 11
113.583
 21
45.7631
 31
0.0
  0
LINE
  5
1EB
330
1E
100
AcDbEntity
  8
0
100
AcDbLine
 10
112.667
 20
45.7631
 30
0.0
 11
113.25
 21
45.7631
 31
0.0
  0
LINE
  5
1EC
330
1E
100
AcDbEntity
  8
0
100
AcDbLine
 10
113.25
 20
45.7631
 30
0.0
 11
113.583
 21
45.7631
 31
0.0
  0
LINE
  5
1ED
330
1E
100
AcDbEntity
  8
0
100
AcDbLine
 10
114.0
 20
45.7631
 30
0.0
 11
114.1669999999999
 21
45.7631
 31
0.0
  0
LINE
  5
1EE
330
1E
100
AcDbEntity
  8
0
100
AcDbLine
 10
114.1669999999999
 20
45.7631
 30
0.0
 11
114.7499999999999
 21
46.04
 31
0.0
  0
LINE
  5
1EF
330
1E
100
AcDbEntity
  8
0
100
AcDbLine
 10
113.583
 20
45.7631
 30
0.0
 11
113.7499999999999
 21
45.7631
 31
0.0
  0
LINE
  5
1F0
330
1E
100
AcDbEntity
  8
0
100
AcDbLine
 10
113.583
 20
45.7631
 30
0.0
 11
114.0
 21
45.7631
 31
0.0
  0
LINE
  5
1F1
330
1E
100
AcDbEntity
  8
0
100
AcDbLine
 10
111.667
 20
45.6707
 30
0.0
 11
112.2227342960289
 21
45.7631
 31
0.0
  0
LINE
  5
1F2
330
1E
100
AcDbEntity
  8
0
100
AcDbLine
 10
110.0
 20
45.5784
 30
0.0
 11
111.667
 21
45.6707
 31
0.0
  0
LINE
  5
1F3
330
1E
100
AcDbEntity
  8
0
100
AcDbLine
 10
108.75
 20
47.33229999999999
 30
0.0
 11
110.0
 21
47.33229999999999
 31
0.0
  0
LINE
  5
1F4
330
1E
100
AcDbEntity
  8
0
100
AcDbLine
 10
108.75
 20
46.6861
 30
0.0
 11
110.0
 21
46.6861
 31
0.0
  0
LINE
  5
1F5
330
1E
100
AcDbEntity
  8
0
100
AcDbLine
 10
112.3329999999999
 20
46.04
 30
0.0
 11
113.3329999999999
 21
46.04
 31
0.0
  0
LINE
  5
1F6
330
1E
100
AcDbEntity
  8
0
100
AcDbLine
 10
111.25
 20
46.04
 30
0.0
 11
112.3329999999999
 21
46.04
 31
0.0
  0
LINE
  5
1F7
330
1E
100
AcDbEntity
  8
0
100
AcDbLine
 10
110.0
 20
46.04
 30
0.0
 11
111.25
 21
46.04
 31
0.0
  0
LINE
  5
1F8
330
1E
100
AcDbEntity
  8
0
100
AcDbLine
 10
113.3329999999999
 20
46.04
 30
0.0
 11
114.083
 21
46.04
 31
0.0
  0
LINE
  5
1F9
330
1E
100
AcDbEntity
  8
0
100
AcDbLine
 10
112.5
 20
46.6861
 30
0.0
 11
113.5
 21
46.6861
 31
0.0
  0
LINE
  5
1FA
330
1E
100
AcDbEntity
  8
0
100
AcDbLine
 10
111.25
 20
46.6861
 30
0.0
 11
112.5
 21
46.6861
 31
0.0
  0
LINE
  5
1FB
330
1E
100
AcDbEntity
  8
0
100
AcDbLine
 10
110.0
 20
46.6861
 30
0.0
 11
111.25
 21
46.6861
 31
0.0
  0
LINE
  5
1FC
330
1E
100
AcDbEntity
  8
0
100
AcDbLine
 10
112.3329999999999
 20
47.33229999999999
 30
0.0
 11
113.3329999999999
 21
47.33229999999999
 31
0.0
  0
LINE
  5
1FD
330
1E
100
AcDbEntity
  8
0
100
AcDbLine
 10
111.25
 20
47.33229999999999
 30
0.0
 11
112.3329999999999
 21
47.33229999999999
 31
0.0
  0
LINE
  5
1FE
330
1E
100
AcDbEntity
  8
0
100
AcDbLine
 10
110.0
 20
47.33229999999999
 30
0.0
 11
111.25
 21
47.33229999999999
 31
0.0
  0
LINE
  5
1FF
330
1E
100
AcDbEntity
  8
0
100
AcDbLine
 10
112.0829999999999
 20
47.6092
 30
0.0
 11
112.917
 21
47.6092
 31
0.0
  0
LINE
  5
200
330
1E
100
AcDbEntity
  8
0
100
AcDbLine
 10
111.0829999999999
 20
47.6092
 30
0.0
 11
112.0829999999999
 21
47.6092
 31
0.0
  0
LINE
  5
201
330
1E
100
AcDbEntity
  8
0
100
AcDbLine
 10
110.0
 20
47.6092
 30
0.0
 11
111.0829999999999
 21
47.6092
 31
0.0
  0
LINE
  5
202
330
1E
100
AcDbEntity
  8
0
100
AcDbLine
 10
112.917
 20
47.6092
 30
0.0
 11
113.583
 21
47.6092
 31
0.0
  0
LINE
  5
203
330
1E
100
AcDbEntity
  8
0
100
AcDbLine
 10
113.583
 20
47.6092
 30
0.0
 11
114.0
 21
47.6092
 31
0.0
  0
LINE
  5
204
330
1E
100
AcDbEntity
  8
0
100
AcDbLine
 10
114.0
 20
47.6092
 30
0.0
 11
114.1669999999999
 21
47.6092
 31
0.0
  0
LINE
  5
205
330
1E
100
AcDbEntity
  8
0
100
AcDbLine
 10
113.3329999999999
 20
47.33229999999999
 30
0.0
 11
114.083
 21
47.33229999999999
 31
0.0
  0
LINE
  5
206
330
1E
100
AcDbEntity
  8
0
100
AcDbLine
 10
114.1669999999999
 20
47.6092
 30
0.0
 11
114.7499999999999
 21
47.33229999999999
 31
0.0
  0
LINE
  5
207
330
1E
100
AcDbEntity
  8
0
100
AcDbLine
 10
114.083
 20
47.33229999999999
 30
0.0
 11
114.5829999999999
 21
47.33229999999999
 31
0.0
  0
LINE
  5
208
330
1E
100
AcDbEntity
  8
0
100
AcDbLine
 10
113.5
 20
46.6861
 30
0.0
 11
114.3329999999999
 21
46.6861
 31
0.0
  0
LINE
  5
209
330
1E
100
AcDbEntity
  8
0
100
AcDbLine
 10
114.5829999999999
 20
47.33229999999999
 30
0.0
 11
114.7499999999999
 21
47.33229999999999
 31
0.0
  0
LINE
  5
20A
330
1E
100
AcDbEntity
  8
0
100
AcDbLine
 10
114.3329999999999
 20
46.6861
 30
0.0
 11
114.833
 21
46.6861
 31
0.0
  0
LINE
  5
20B
330
1E
100
AcDbEntity
  8
0
100
AcDbLine
 10
114.083
 20
46.04
 30
0.0
 11
114.5829999999999
 21
46.04
 31
0.0
  0
LINE
  5
20C
330
1E
100
AcDbEntity
  8
0
100
AcDbLine
 10
114.7499999999999
 20
47.33229999999999
 30
0.0
 11
115.0
 21
46.6861
 31
0.0
  0
LINE
  5
20D
330
1E
100
AcDbEntity
  8
0
100
AcDbLine
 10
114.833
 20
46.6861
 30
0.0
 11
115.0
 21
46.6861
 31
0.0
  0
LINE
  5
20E
330
1E
100
AcDbEntity
  8
0
100
AcDbLine
 10
114.7499999999999
 20
46.04
 30
0.0
 11
115.0
 21
46.6861
 31
0.0
  0
LINE
  5
20F
330
1E
100
AcDbEntity
  8
0
100
AcDbLine
 10
114.5829999999999
 20
46.04
 30
0.0
 11
114.7499999999999
 21
46.04
 31
0.0
  0
LINE
  5
210
330
1E
100
AcDbEntity
  8
0
100
AcDbLine
 10
113.3329999999999
 20
75.1760592456784
 30
0.0
 11
113.9739999999999
 21
74.9161
 31
0.0
  0
LINE
  5
211
330
1E
100
AcDbEntity
  8
0
100
AcDbLine
 10
113.3329999999999
 20
60.8239407543216
 30
0.0
 11
113.9739999999999
 21
61.08389999999999
 31
0.0
  0
LINE
  5
212
330
1E
100
AcDbEntity
  8
0
100
AcDbLine
 10
113.3329999999999
 20
60.80919999999999
 30
0.0
 11
113.7499999999999
 21
52.50160000000001
 31
0.0
  0
LINE
  5
213
330
1E
100
AcDbEntity
  8
0
100
AcDbLine
 10
113.3329999999999
 20
60.80919999999999
 30
0.0
 11
113.3329999999999
 21
75.5784
 31
0.0
  0
LINE
  5
214
330
1E
100
AcDbEntity
  8
0
100
AcDbLine
 10
113.9739999999999
 20
61.08389999999999
 30
0.0
 11
115.626
 21
62.3742
 31
0.0
  0
LINE
  5
215
330
1E
100
AcDbEntity
  8
0
100
AcDbLine
 10
115.626
 20
62.3742
 30
0.0
 11
116.9159999999999
 21
64.0258
 31
0.0
  0
LINE
  5
216
330
1E
100
AcDbEntity
  8
0
100
AcDbLine
 10
115.626
 20
73.6258
 30
0.0
 11
116.9159999999999
 21
71.9742
 31
0.0
  0
LINE
  5
217
330
1E
100
AcDbEntity
  8
0
100
AcDbLine
 10
116.9159999999999
 20
71.9742
 30
0.0
 11
117.69
 21
70.0645
 31
0.0
  0
LINE
  5
218
330
1E
100
AcDbEntity
  8
0
100
AcDbLine
 10
117.69
 20
70.0645
 30
0.0
 11
118.0
 21
68.0
 31
0.0
  0
LINE
  5
219
330
1E
100
AcDbEntity
  8
0
100
AcDbLine
 10
113.9739999999999
 20
74.9161
 30
0.0
 11
115.626
 21
73.6258
 31
0.0
  0
LINE
  5
21A
330
1E
100
AcDbEntity
  8
0
100
AcDbLine
 10
116.9159999999999
 20
64.0258
 30
0.0
 11
117.69
 21
65.9355
 31
0.0
  0
LINE
  5
21B
330
1E
100
AcDbEntity
  8
0
100
AcDbLine
 10
117.69
 20
65.9355
 30
0.0
 11
118.0
 21
68.0
 31
0.0
  0
LINE
  5
21C
330
1E
100
AcDbEntity
  8
0
100
AcDbLine
 10
113.7499999999999
 20
52.50160000000001
 30
0.0
 11
114.1669999999999
 21
47.6092
 31
0.0
  0
LINE
  5
21D
330
1E
100
AcDbEntity
  8
0
100
AcDbLine
 10
113.3329999999999
 20
75.5784
 30
0.0
 11
113.3329999999999
 21
90.3476
 31
0.0
  0
LINE
  5
21E
330
1E
100
AcDbEntity
  8
0
100
AcDbLine
 10
113.3329999999999
 20
75.5784
 30
0.0
 11
113.3329999999999
 21
60.80919999999999
 31
0.0
  0
LINE
  5
21F
330
1E
100
AcDbEntity
  8
0
100
AcDbLine
 10
108.9169999999999
 20
47.6092
 30
0.0
 11
110.0
 21
47.6092
 31
0.0
  0
LINE
  5
220
330
1E
100
AcDbEntity
  8
0
100
AcDbLine
 10
108.75
 20
46.04
 30
0.0
 11
110.0
 21
46.04
 31
0.0
  0
LINE
  5
221
330
1E
100
AcDbEntity
  8
0
100
AcDbLine
 10
109.0
 20
45.7631
 30
0.0
 11
110.0
 21
45.7631
 31
0.0
  0
LINE
  5
222
330
1E
100
AcDbEntity
  8
0
100
AcDbLine
 10
108.3329999999999
 20
45.6707
 30
0.0
 11
110.0
 21
45.5784
 31
0.0
  0
LINE
  5
223
330
1E
100
AcDbEntity
  8
0
100
AcDbLine
 10
106.417
 20
103.5476999999999
 30
0.0
 11
107.0829999999999
 21
103.5476999999999
 31
0.0
  0
LINE
  5
224
330
1E
100
AcDbEntity
  8
0
100
AcDbLine
 10
106.667
 20
90.3476
 30
0.0
 11
106.667
 21
75.5784
 31
0.0
  0
LINE
  5
225
330
1E
100
AcDbEntity
  8
0
100
AcDbLine
 10
107.0829999999999
 20
103.5476999999999
 30
0.0
 11
107.9169999999999
 21
103.5476999999999
 31
0.0
  0
LINE
  5
226
330
1E
100
AcDbEntity
  8
0
100
AcDbLine
 10
106.667
 20
103.8247
 30
0.0
 11
107.667
 21
103.8247
 31
0.0
  0
LINE
  5
227
330
1E
100
AcDbEntity
  8
0
100
AcDbLine
 10
106.4999999999999
 20
104.4707
 30
0.0
 11
107.4999999999999
 21
104.4707
 31
0.0
  0
LINE
  5
228
330
1E
100
AcDbEntity
  8
0
100
AcDbLine
 10
106.4999999999999
 20
105.3938999999999
 30
0.0
 11
106.4999999999999
 21
108.5326086956519
 31
0.0
  0
LINE
  5
229
330
1E
100
AcDbEntity
  8
0
100
AcDbLine
 10
106.417
 20
105.3938999999999
 30
0.0
 11
107.0829999999999
 21
105.3938999999999
 31
0.0
  0
LINE
  5
22A
330
1E
100
AcDbEntity
  8
0
100
AcDbLine
 10
106.667
 20
105.117
 30
0.0
 11
107.667
 21
105.117
 31
0.0
  0
LINE
  5
22B
330
1E
100
AcDbEntity
  8
0
100
AcDbLine
 10
107.667
 20
103.8247
 30
0.0
 11
108.75
 21
103.8247
 31
0.0
  0
LINE
  5
22C
330
1E
100
AcDbEntity
  8
0
100
AcDbLine
 10
107.4999999999999
 20
104.4707
 30
0.0
 11
108.75
 21
104.4707
 31
0.0
  0
LINE
  5
22D
330
1E
100
AcDbEntity
  8
0
100
AcDbLine
 10
107.9169999999999
 20
103.5476999999999
 30
0.0
 11
108.9169999999999
 21
103.5476999999999
 31
0.0
  0
LINE
  5
22E
330
1E
100
AcDbEntity
  8
0
100
AcDbLine
 10
108.9169999999999
 20
103.5476999999999
 30
0.0
 11
110.0
 21
103.5476999999999
 31
0.0
  0
LINE
  5
22F
330
1E
100
AcDbEntity
  8
0
100
AcDbLine
 10
108.75
 20
103.8247
 30
0.0
 11
110.0
 21
103.8247
 31
0.0
  0
LINE
  5
230
330
1E
100
AcDbEntity
  8
0
100
AcDbLine
 10
108.75
 20
104.4707
 30
0.0
 11
110.0
 21
104.4707
 31
0.0
  0
LINE
  5
231
330
1E
100
AcDbEntity
  8
0
100
AcDbLine
 10
107.667
 20
105.117
 30
0.0
 11
108.75
 21
105.117
 31
0.0
  0
LINE
  5
232
330
1E
100
AcDbEntity
  8
0
100
AcDbLine
 10
108.75
 20
105.117
 30
0.0
 11
110.0
 21
105.117
 31
0.0
  0
LINE
  5
233
330
1E
100
AcDbEntity
  8
0
100
AcDbLine
 10
107.0829999999999
 20
105.3938999999999
 30
0.0
 11
107.9169999999999
 21
105.3938999999999
 31
0.0
  0
LINE
  5
234
330
1E
100
AcDbEntity
  8
0
100
AcDbLine
 10
107.9169999999999
 20
105.3938999999999
 30
0.0
 11
108.9169999999999
 21
105.3938999999999
 31
0.0
  0
LINE
  5
235
330
1E
100
AcDbEntity
  8
0
100
AcDbLine
 10
113.3329999999999
 20
90.3476
 30
0.0
 11
113.7499999999999
 21
98.65529999999999
 31
0.0
  0
LINE
  5
236
330
1E
100
AcDbEntity
  8
0
100
AcDbLine
 10
113.3329999999999
 20
90.3476
 30
0.0
 11
113.3329999999999
 21
75.5784
 31
0.0
  0
LINE
  5
237
330
1E
100
AcDbEntity
  8
0
100
AcDbLine
 10
110.0
 20
103.5476999999999
 30
0.0
 11
111.0829999999999
 21
103.5476999999999
 31
0.0
  0
LINE
  5
238
330
1E
100
AcDbEntity
  8
0
100
AcDbLine
 10
110.0
 20
103.8247
 30
0.0
 11
111.25
 21
103.8247
 31
0.0
  0
LINE
  5
239
330
1E
100
AcDbEntity
  8
0
100
AcDbLine
 10
112.0829999999999
 20
103.5476999999999
 30
0.0
 11
112.917
 21
103.5476999999999
 31
0.0
  0
LINE
  5
23A
330
1E
100
AcDbEntity
  8
0
100
AcDbLine
 10
111.0829999999999
 20
103.5476999999999
 30
0.0
 11
112.0829999999999
 21
103.5476999999999
 31
0.0
  0
LINE
  5
23B
330
1E
100
AcDbEntity
  8
0
100
AcDbLine
 10
112.917
 20
103.5476999999999
 30
0.0
 11
113.583
 21
103.5476999999999
 31
0.0
  0
LINE
  5
23C
330
1E
100
AcDbEntity
  8
0
100
AcDbLine
 10
113.583
 20
103.5476999999999
 30
0.0
 11
114.0
 21
103.5476999999999
 31
0.0
  0
LINE
  5
23D
330
1E
100
AcDbEntity
  8
0
100
AcDbLine
 10
114.0
 20
103.5476999999999
 30
0.0
 11
114.1669999999999
 21
103.5476999999999
 31
0.0
  0
LINE
  5
23E
330
1E
100
AcDbEntity
  8
0
100
AcDbLine
 10
113.3329999999999
 20
103.8247
 30
0.0
 11
114.083
 21
103.8247
 31
0.0
  0
LINE
  5
23F
330
1E
100
AcDbEntity
  8
0
100
AcDbLine
 10
114.083
 20
103.8247
 30
0.0
 11
114.5829999999999
 21
103.8247
 31
0.0
  0
LINE
  5
240
330
1E
100
AcDbEntity
  8
0
100
AcDbLine
 10
112.3329999999999
 20
103.8247
 30
0.0
 11
113.3329999999999
 21
103.8247
 31
0.0
  0
LINE
  5
241
330
1E
100
AcDbEntity
  8
0
100
AcDbLine
 10
111.25
 20
103.8247
 30
0.0
 11
112.3329999999999
 21
103.8247
 31
0.0
  0
LINE
  5
242
330
1E
100
AcDbEntity
  8
0
100
AcDbLine
 10
113.7499999999999
 20
98.65529999999999
 30
0.0
 11
114.1669999999999
 21
103.5476999999999
 31
0.0
  0
LINE
  5
243
330
1E
100
AcDbEntity
  8
0
100
AcDbLine
 10
114.5829999999999
 20
103.8247
 30
0.0
 11
114.7499999999999
 21
103.8247
 31
0.0
  0
LINE
  5
244
330
1E
100
AcDbEntity
  8
0
100
AcDbLine
 10
114.1669999999999
 20
103.5476999999999
 30
0.0
 11
114.7499999999999
 21
103.8247
 31
0.0
  0
LINE
  5
245
330
1E
100
AcDbEntity
  8
0
100
AcDbLine
 10
110.0
 20
104.4707
 30
0.0
 11
111.25
 21
104.4707
 31
0.0
  0
LINE
  5
246
330
1E
100
AcDbEntity
  8
0
100
AcDbLine
 10
110.0
 20
105.117
 30
0.0
 11
111.25
 21
105.117
 31
0.0
  0
LINE
  5
247
330
1E
100
AcDbEntity
  8
0
100
AcDbLine
 10
111.25
 20
104.4707
 30
0.0
 11
112.5
 21
104.4707
 31
0.0
  0
LINE
  5
248
330
1E
100
AcDbEntity
  8
0
100
AcDbLine
 10
111.25
 20
105.117
 30
0.0
 11
112.3329999999999
 21
105.117
 31
0.0
  0
LINE
  5
249
330
1E
100
AcDbEntity
  8
0
100
AcDbLine
 10
113.5
 20
104.4707
 30
0.0
 11
114.3329999999999
 21
104.4707
 31
0.0
  0
LINE
  5
24A
330
1E
100
AcDbEntity
  8
0
100
AcDbLine
 10
113.3329999999999
 20
105.117
 30
0.0
 11
114.083
 21
105.117
 31
0.0
  0
LINE
  5
24B
330
1E
100
AcDbEntity
  8
0
100
AcDbLine
 10
114.3329999999999
 20
104.4707
 30
0.0
 11
114.833
 21
104.4707
 31
0.0
  0
LINE
  5
24C
330
1E
100
AcDbEntity
  8
0
100
AcDbLine
 10
114.083
 20
105.117
 30
0.0
 11
114.5829999999999
 21
105.117
 31
0.0
  0
LINE
  5
24D
330
1E
100
AcDbEntity
  8
0
100
AcDbLine
 10
114.5829999999999
 20
105.117
 30
0.0
 11
114.7499999999999
 21
105.117
 31
0.0
  0
LINE
  5
24E
330
1E
100
AcDbEntity
  8
0
100
AcDbLine
 10
112.5
 20
104.4707
 30
0.0
 11
113.5
 21
104.4707
 31
0.0
  0
LINE
  5
24F
330
1E
100
AcDbEntity
  8
0
100
AcDbLine
 10
113.5
 20
105.3938999999999
 30
0.0
 11
113.5
 21
108.5326086956519
 31
0.0
  0
LINE
  5
250
330
1E
100
AcDbEntity
  8
0
100
AcDbLine
 10
112.917
 20
105.3938999999999
 30
0.0
 11
113.583
 21
105.3938999999999
 31
0.0
  0
LINE
  5
251
330
1E
100
AcDbEntity
  8
0
100
AcDbLine
 10
113.583
 20
105.3938999999999
 30
0.0
 11
114.0
 21
105.3938999999999
 31
0.0
  0
LINE
  5
252
330
1E
100
AcDbEntity
  8
0
100
AcDbLine
 10
114.0
 20
105.3938999999999
 30
0.0
 11
114.1669999999999
 21
105.3938999999999
 31
0.0
  0
LINE
  5
253
330
1E
100
AcDbEntity
  8
0
100
AcDbLine
 10
112.3329999999999
 20
105.117
 30
0.0
 11
113.3329999999999
 21
105.117
 31
0.0
  0
LINE
  5
254
330
1E
100
AcDbEntity
  8
0
100
AcDbLine
 10
112.0829999999999
 20
105.3938999999999
 30
0.0
 11
112.917
 21
105.3938999999999
 31
0.0
  0
LINE
  5
255
330
1E
100
AcDbEntity
  8
0
100
AcDbLine
 10
111.0829999999999
 20
105.3938999999999
 30
0.0
 11
112.0829999999999
 21
105.3938999999999
 31
0.0
  0
LINE
  5
256
330
1E
100
AcDbEntity
  8
0
100
AcDbLine
 10
110.0
 20
105.3938999999999
 30
0.0
 11
111.0829999999999
 21
105.3938999999999
 31
0.0
  0
LINE
  5
257
330
1E
100
AcDbEntity
  8
0
100
AcDbLine
 10
114.7499999999999
 20
103.8247
 30
0.0
 11
115.0
 21
104.4707
 31
0.0
  0
LINE
  5
258
330
1E
100
AcDbEntity
  8
0
100
AcDbLine
 10
114.833
 20
104.4707
 30
0.0
 11
115.0
 21
104.4707
 31
0.0
  0
LINE
  5
259
330
1E
100
AcDbEntity
  8
0
100
AcDbLine
 10
114.7499999999999
 20
105.117
 30
0.0
 11
115.0
 21
104.4707
 31
0.0
  0
LINE
  5
25A
330
1E
100
AcDbEntity
  8
0
100
AcDbLine
 10
113.5
 20
107.0
 30
0.0
 11
212.022
 21
107.0
 31
0.0
  0
LINE
  5
25B
330
1E
100
AcDbEntity
  8
0
100
AcDbLine
 10
114.1669999999999
 20
105.3938999999999
 30
0.0
 11
114.7499999999999
 21
105.117
 31
0.0
  0
LINE
  5
25C
330
1E
100
AcDbEntity
  8
0
100
AcDbLine
 10
108.9169999999999
 20
105.3938999999999
 30
0.0
 11
110.0
 21
105.3938999999999
 31
0.0
  0
LINE
  5
25D
330
1E
100
AcDbEntity
  8
0
100
AcDbLine
 10
106.667
 20
75.5784
 30
0.0
 11
106.667
 21
90.3476
 31
0.0
  0
LINE
  5
25E
330
1E
100
AcDbEntity
  8
0
100
AcDbLine
 10
106.667
 20
75.5784
 30
0.0
 11
106.667
 21
60.80919999999999
 31
0.0
  0
LINE
  5
25F
330
1E
100
AcDbEntity
  8
0
100
AcDbLine
 10
106.25
 20
98.65529999999999
 30
0.0
 11
106.667
 21
90.3476
 31
0.0
  0
LINE
  5
260
330
1E
100
AcDbEntity
  8
0
100
AcDbLine
 10
106.4999999999999
 20
108.5326086956519
 30
0.0
 11
106.4999999999999
 21
105.3938999999999
 31
0.0
  0
LINE
  5
261
330
1E
100
AcDbEntity
  8
0
100
AcDbLine
 10
113.5
 20
108.5326086956519
 30
0.0
 11
113.5
 21
105.3938999999999
 31
0.0
  0
LINE
  5
262
330
1E
100
AcDbEntity
  8
0
100
AcDbLine
 10
114.0
 20
111.0999999999999
 30
0.0
 11
117.7
 21
112.5999999999999
 31
0.0
  0
LINE
  5
263
330
1E
100
AcDbEntity
  8
0
100
AcDbLine
 10
110.0
 20
110.4999999999999
 30
0.0
 11
114.0
 21
111.0999999999999
 31
0.0
  0
LINE
  5
264
330
1E
100
AcDbEntity
  8
0
100
AcDbLine
 10
114.4
 20
109.5999999999999
 30
0.0
 11
118.5
 21
111.2999999999999
 31
0.0
  0
LINE
  5
265
330
1E
100
AcDbEntity
  8
0
100
AcDbLine
 10
110.0
 20
109.0
 30
0.0
 11
114.4
 21
109.5999999999999
 31
0.0
  0
LINE
  5
266
330
1E
100
AcDbEntity
  8
0
100
AcDbLine
 10
114.5
 20
109.0999999999999
 30
0.0
 11
118.7
 21
110.8
 31
0.0
  0
LINE
  5
267
330
1E
100
AcDbEntity
  8
0
100
AcDbLine
 10
110.0
 20
108.4999999999999
 30
0.0
 11
114.5
 21
109.0999999999999
 31
0.0
  0
LINE
  5
268
330
1E
100
AcDbEntity
  8
0
100
AcDbLine
 10
117.7
 20
112.5999999999999
 30
0.0
 11
120.9
 21
115.1
 31
0.0
  0
LINE
  5
269
330
1E
100
AcDbEntity
  8
0
100
AcDbLine
 10
114.5999999999999
 20
108.6999999999999
 30
0.0
 11
118.9
 21
110.4
 31
0.0
  0
LINE
  5
26A
330
1E
100
AcDbEntity
  8
0
100
AcDbLine
 10
110.0
 20
108.0
 30
0.0
 11
114.5999999999999
 21
108.6999999999999
 31
0.0
  0
LINE
  5
26B
330
1E
100
AcDbEntity
  8
0
100
AcDbLine
 10
124.258
 20
16.87479
 30
0.0
 11
124.258
 21
24.6795
 31
0.0
  0
LINE
  5
26C
330
1E
100
AcDbEntity
  8
0
100
AcDbLine
 10
121.9549999999999
 20
4.782160000000009
 30
0.0
 11
124.697
 21
7.962940000000009
 31
0.0
  0
LINE
  5
26D
330
1E
100
AcDbEntity
  8
0
100
AcDbLine
 10
121.9549999999999
 20
4.572510000000009
 30
0.0
 11
124.697
 21
7.753290000000009
 31
0.0
  0
LINE
  5
26E
330
1E
100
AcDbEntity
  8
0
100
AcDbLine
 10
118.445
 20
2.297100000000009
 30
0.0
 11
121.9549999999999
 21
4.782160000000009
 31
0.0
  0
LINE
  5
26F
330
1E
100
AcDbEntity
  8
0
100
AcDbLine
 10
118.445
 20
2.087400000000009
 30
0.0
 11
121.9549999999999
 21
4.572510000000009
 31
0.0
  0
LINE
  5
270
330
1E
100
AcDbEntity
  8
0
100
AcDbLine
 10
124.258
 20
23.78006881838079
 30
0.0
 11
124.697
 21
23.2708
 31
0.0
  0
LINE
  5
271
330
1E
100
AcDbEntity
  8
0
100
AcDbLine
 10
124.258
 20
24.6795
 30
0.0
 11
124.258
 21
26.1329
 31
0.0
  0
LINE
  5
272
330
1E
100
AcDbEntity
  8
0
100
AcDbLine
 10
124.258
 20
24.6795
 30
0.0
 11
124.258
 21
16.87479
 31
0.0
  0
LINE
  5
273
330
1E
100
AcDbEntity
  8
0
100
AcDbLine
 10
124.258
 20
26.1329
 30
0.0
 11
124.258
 21
27.8579
 31
0.0
  0
LINE
  5
274
330
1E
100
AcDbEntity
  8
0
100
AcDbLine
 10
124.258
 20
26.1329
 30
0.0
 11
124.258
 21
24.6795
 31
0.0
  0
LINE
  5
275
330
1E
100
AcDbEntity
  8
0
100
AcDbLine
 10
124.258
 20
27.8579
 30
0.0
 11
124.258
 21
29.8248
 31
0.0
  0
LINE
  5
276
330
1E
100
AcDbEntity
  8
0
100
AcDbLine
 10
124.258
 20
27.8579
 30
0.0
 11
124.258
 21
26.1329
 31
0.0
  0
LINE
  5
277
330
1E
100
AcDbEntity
  8
0
100
AcDbLine
 10
124.258
 20
29.8248
 30
0.0
 11
124.258
 21
32.0
 31
0.0
  0
LINE
  5
278
330
1E
100
AcDbEntity
  8
0
100
AcDbLine
 10
124.258
 20
29.8248
 30
0.0
 11
124.258
 21
27.8579
 31
0.0
  0
LINE
  5
279
330
1E
100
AcDbEntity
  8
0
100
AcDbLine
 10
124.258
 20
32.0
 30
0.0
 11
124.258
 21
34.3463
 31
0.0
  0
LINE
  5
27A
330
1E
100
AcDbEntity
  8
0
100
AcDbLine
 10
124.258
 20
32.0
 30
0.0
 11
124.258
 21
29.8248
 31
0.0
  0
LINE
  5
27B
330
1E
100
AcDbEntity
  8
0
100
AcDbLine
 10
124.258
 20
34.3463
 30
0.0
 11
124.258
 21
36.8236
 31
0.0
  0
LINE
  5
27C
330
1E
100
AcDbEntity
  8
0
100
AcDbLine
 10
124.258
 20
34.3463
 30
0.0
 11
124.258
 21
32.0
 31
0.0
  0
LINE
  5
27D
330
1E
100
AcDbEntity
  8
0
100
AcDbLine
 10
124.258
 20
36.8236
 30
0.0
 11
124.258
 21
39.3895
 31
0.0
  0
LINE
  5
27E
330
1E
100
AcDbEntity
  8
0
100
AcDbLine
 10
124.258
 20
36.8236
 30
0.0
 11
124.258
 21
34.3463
 31
0.0
  0
LINE
  5
27F
330
1E
100
AcDbEntity
  8
0
100
AcDbLine
 10
124.258
 20
39.3895
 30
0.0
 11
124.258
 21
42.0
 31
0.0
  0
LINE
  5
280
330
1E
100
AcDbEntity
  8
0
100
AcDbLine
 10
124.258
 20
39.3895
 30
0.0
 11
124.258
 21
36.8236
 31
0.0
  0
LINE
  5
281
330
1E
100
AcDbEntity
  8
0
100
AcDbLine
 10
124.258
 20
42.0
 30
0.0
 11
124.258
 21
107.0
 31
0.0
  0
LINE
  5
282
330
1E
100
AcDbEntity
  8
0
100
AcDbLine
 10
124.258
 20
42.0
 30
0.0
 11
124.258
 21
39.3895
 31
0.0
  0
LINE
  5
283
330
1E
100
AcDbEntity
  8
0
100
AcDbLine
 10
124.697
 20
7.962940000000009
 30
0.0
 11
126.342
 21
11.64082
 31
0.0
  0
LINE
  5
284
330
1E
100
AcDbEntity
  8
0
100
AcDbLine
 10
124.697
 20
7.753290000000009
 30
0.0
 11
126.342
 21
11.43116999999999
 31
0.0
  0
LINE
  5
285
330
1E
100
AcDbEntity
  8
0
100
AcDbLine
 10
124.697
 20
23.2708
 30
0.0
 11
126.342
 21
19.59295
 31
0.0
  0
LINE
  5
286
330
1E
100
AcDbEntity
  8
0
100
AcDbLine
 10
124.258
 20
107.0
 30
0.0
 11
124.258
 21
42.0
 31
0.0
  0
LINE
  5
287
330
1E
100
AcDbEntity
  8
0
100
AcDbLine
 10
118.5
 20
111.2999999999999
 30
0.0
 11
122.0
 21
114.0
 31
0.0
  0
LINE
  5
288
330
1E
100
AcDbEntity
  8
0
100
AcDbLine
 10
120.9
 20
115.1
 30
0.0
 11
123.3999999999999
 21
118.3
 31
0.0
  0
LINE
  5
289
330
1E
100
AcDbEntity
  8
0
100
AcDbLine
 10
122.0
 20
114.0
 30
0.0
 11
124.7
 21
117.5
 31
0.0
  0
LINE
  5
28A
330
1E
100
AcDbEntity
  8
0
100
AcDbLine
 10
123.3999999999999
 20
118.3
 30
0.0
 11
124.9
 21
122.0
 31
0.0
  0
LINE
  5
28B
330
1E
100
AcDbEntity
  8
0
100
AcDbLine
 10
124.9
 20
122.0
 30
0.0
 11
125.5
 21
126.0
 31
0.0
  0
LINE
  5
28C
330
1E
100
AcDbEntity
  8
0
100
AcDbLine
 10
124.7
 20
117.5
 30
0.0
 11
126.4
 21
121.5999999999999
 31
0.0
  0
LINE
  5
28D
330
1E
100
AcDbEntity
  8
0
100
AcDbLine
 10
122.3999999999999
 20
113.5999999999999
 30
0.0
 11
125.2
 21
117.3
 31
0.0
  0
LINE
  5
28E
330
1E
100
AcDbEntity
  8
0
100
AcDbLine
 10
122.7
 20
113.3
 30
0.0
 11
125.6
 21
117.1
 31
0.0
  0
LINE
  5
28F
330
1E
100
AcDbEntity
  8
0
100
AcDbLine
 10
118.7
 20
110.8
 30
0.0
 11
122.3999999999999
 21
113.5999999999999
 31
0.0
  0
LINE
  5
290
330
1E
100
AcDbEntity
  8
0
100
AcDbLine
 10
118.9
 20
110.4
 30
0.0
 11
122.7
 21
113.3
 31
0.0
  0
LINE
  5
291
330
1E
100
AcDbEntity
  8
0
100
AcDbLine
 10
126.342
 20
11.64082
 30
0.0
 11
127.0
 21
15.61689
 31
0.0
  0
LINE
  5
292
330
1E
100
AcDbEntity
  8
0
100
AcDbLine
 10
126.342
 20
11.43116999999999
 30
0.0
 11
127.0
 21
15.40723999999999
 31
0.0
  0
LINE
  5
293
330
1E
100
AcDbEntity
  8
0
100
AcDbLine
 10
126.342
 20
19.59295
 30
0.0
 11
127.0
 21
15.61689
 31
0.0
  0
LINE
  5
294
330
1E
100
AcDbEntity
  8
0
100
AcDbLine
 10
126.4
 20
121.5999999999999
 30
0.0
 11
127.0
 21
126.0
 31
0.0
  0
LINE
  5
295
330
1E
100
AcDbEntity
  8
0
100
AcDbLine
 10
125.2
 20
117.3
 30
0.0
 11
126.9
 21
121.5
 31
0.0
  0
LINE
  5
296
330
1E
100
AcDbEntity
  8
0
100
AcDbLine
 10
126.9
 20
121.5
 30
0.0
 11
127.5
 21
126.0
 31
0.0
  0
LINE
  5
297
330
1E
100
AcDbEntity
  8
0
100
AcDbLine
 10
125.6
 20
117.1
 30
0.0
 11
127.2999999999999
 21
121.4
 31
0.0
  0
LINE
  5
298
330
1E
100
AcDbEntity
  8
0
100
AcDbLine
 10
124.9
 20
130.0
 30
0.0
 11
125.5
 21
126.0
 31
0.0
  0
LINE
  5
299
330
1E
100
AcDbEntity
  8
0
100
AcDbLine
 10
126.4
 20
130.4
 30
0.0
 11
127.0
 21
126.0
 31
0.0
  0
LINE
  5
29A
330
1E
100
AcDbEntity
  8
0
100
AcDbLine
 10
127.0
 20
15.40723999999999
 30
0.0
 11
127.0
 21
15.61689
 31
0.0
  0
LINE
  5
29B
330
1E
100
AcDbEntity
  8
0
100
AcDbLine
 10
127.0
 20
15.61689
 30
0.0
 11
127.0
 21
15.40723999999999
 31
0.0
  0
LINE
  5
29C
330
1E
100
AcDbEntity
  8
0
100
AcDbLine
 10
126.982652484303
 20
15.51206486817999
 30
0.0
 11
127.0
 21
15.40723999999999
 31
0.0
  0
LINE
  5
29D
330
1E
100
AcDbEntity
  8
0
100
AcDbLine
 10
212.022
 20
116.606
 30
0.0
 11
212.022
 21
121.1439999999999
 31
0.0
  0
LINE
  5
29E
330
1E
100
AcDbEntity
  8
0
100
AcDbLine
 10
212.022
 20
116.606
 30
0.0
 11
212.022
 21
112.5944999999999
 31
0.0
  0
LINE
  5
29F
330
1E
100
AcDbEntity
  8
0
100
AcDbLine
 10
212.022
 20
121.1439999999999
 30
0.0
 11
212.022
 21
126.0
 31
0.0
  0
LINE
  5
2A0
330
1E
100
AcDbEntity
  8
0
100
AcDbLine
 10
212.022
 20
121.1439999999999
 30
0.0
 11
212.022
 21
116.606
 31
0.0
  0
LINE
  5
2A1
330
1E
100
AcDbEntity
  8
0
100
AcDbLine
 10
212.022
 20
112.5944999999999
 30
0.0
 11
212.022
 21
109.5332999999999
 31
0.0
  0
LINE
  5
2A2
330
1E
100
AcDbEntity
  8
0
100
AcDbLine
 10
212.022
 20
112.5944999999999
 30
0.0
 11
212.022
 21
116.606
 31
0.0
  0
LINE
  5
2A3
330
1E
100
AcDbEntity
  8
0
100
AcDbLine
 10
212.022
 20
109.5332999999999
 30
0.0
 11
212.022
 21
112.5944999999999
 31
0.0
  0
LINE
  5
2A4
330
1E
100
AcDbEntity
  8
0
100
AcDbLine
 10
212.022
 20
109.5332999999999
 30
0.0
 11
212.022
 21
107.7388999999999
 31
0.0
  0
LINE
  5
2A5
330
1E
100
AcDbEntity
  8
0
100
AcDbLine
 10
212.022
 20
107.7388999999999
 30
0.0
 11
212.022
 21
109.5332999999999
 31
0.0
  0
LINE
  5
2A6
330
1E
100
AcDbEntity
  8
0
100
AcDbLine
 10
212.022
 20
107.7388999999999
 30
0.0
 11
212.022
 21
107.0
 31
0.0
  0
LINE
  5
2A7
330
1E
100
AcDbEntity
  8
0
100
AcDbLine
 10
212.2179999999999
 20
107.5277999999999
 30
0.0
 11
212.2179999999999
 21
108.1611
 31
0.0
  0
LINE
  5
2A8
330
1E
100
AcDbEntity
  8
0
100
AcDbLine
 10
212.2179999999999
 20
108.1611
 30
0.0
 11
212.2179999999999
 21
107.5277999999999
 31
0.0
  0
LINE
  5
2AD
330
1E
100
AcDbEntity
  8
0
100
AcDbLine
 10
212.8039999999999
 20
109.1110999999999
 30
0.0
 11
213.0
 21
109.6389
 31
0.0
  0
LINE
  5
2AE
330
1E
100
AcDbEntity
  8
0
100
AcDbLine
 10
212.414
 20
108.5833
 30
0.0
 11
212.8039999999999
 21
109.1110999999999
 31
0.0
  0
LINE
  5
2AF
330
1E
100
AcDbEntity
  8
0
100
AcDbLine
 10
212.2179999999999
 20
108.0554999999999
 30
0.0
 11
212.414
 21
108.5833
 31
0.0
  0
LINE
  5
2B0
330
1E
100
AcDbEntity
  8
0
100
AcDbLine
 10
212.022
 20
107.0
 30
0.0
 11
212.2179999999999
 21
107.5277999999999
 31
0.0
  0
LINE
  5
2B1
330
1E
100
AcDbEntity
  8
0
100
AcDbLine
 10
212.022
 20
107.0
 30
0.0
 11
212.022
 21
107.7388999999999
 31
0.0
  0
LINE
  5
2B7
330
1E
100
AcDbEntity
  8
0
100
AcDbLine
 10
212.022
 20
126.0
 30
0.0
 11
212.022
 21
130.8549999999999
 31
0.0
  0
LINE
  5
2B8
330
1E
100
AcDbEntity
  8
0
100
AcDbLine
 10
212.022
 20
126.0
 30
0.0
 11
212.022
 21
121.1439999999999
 31
0.0
  0
LINE
  5
2B9
330
1E
100
AcDbEntity
  8
0
100
AcDbLine
 10
127.2999999999999
 20
121.4
 30
0.0
 11
128.0
 21
126.0
 31
0.0
  0
LINE
  5
2BA
330
1E
100
AcDbEntity
  8
0
100
AcDbLine
 10
126.9
 20
130.4999999999999
 30
0.0
 11
127.5
 21
126.0
 31
0.0
  0
LINE
  5
2BB
330
1E
100
AcDbEntity
  8
0
100
AcDbLine
 10
120.9
 20
136.8999999999999
 30
0.0
 11
123.3999999999999
 21
133.6999999999999
 31
0.0
  0
LINE
  5
2BC
330
1E
100
AcDbEntity
  8
0
100
AcDbLine
 10
123.3999999999999
 20
133.6999999999999
 30
0.0
 11
124.9
 21
130.0
 31
0.0
  0
LINE
  5
2BD
330
1E
100
AcDbEntity
  8
0
100
AcDbLine
 10
122.0
 20
138.0
 30
0.0
 11
124.7
 21
134.4999999999999
 31
0.0
  0
LINE
  5
2BE
330
1E
100
AcDbEntity
  8
0
100
AcDbLine
 10
124.7
 20
134.4999999999999
 30
0.0
 11
126.4
 21
130.4
 31
0.0
  0
LINE
  5
2BF
330
1E
100
AcDbEntity
  8
0
100
AcDbLine
 10
122.3999999999999
 20
138.4
 30
0.0
 11
125.2
 21
134.6999999999999
 31
0.0
  0
LINE
  5
2C0
330
1E
100
AcDbEntity
  8
0
100
AcDbLine
 10
125.2
 20
134.6999999999999
 30
0.0
 11
126.9
 21
130.4999999999999
 31
0.0
  0
LINE
  5
2C1
330
1E
100
AcDbEntity
  8
0
100
AcDbLine
 10
122.7
 20
138.7
 30
0.0
 11
125.6
 21
134.8999999999999
 31
0.0
  0
LINE
  5
2C6
330
1E
100
AcDbEntity
  8
0
100
AcDbLine
 10
212.022
 20
135.395
 30
0.0
 11
212.022
 21
139.406
 31
0.0
  0
LINE
  5
2C7
330
1E
100
AcDbEntity
  8
0
100
AcDbLine
 10
212.022
 20
135.395
 30
0.0
 11
212.022
 21
130.8549999999999
 31
0.0
  0
LINE
  5
2C8
330
1E
100
AcDbEntity
  8
0
100
AcDbLine
 10
212.022
 20
130.8549999999999
 30
0.0
 11
212.022
 21
135.395
 31
0.0
  0
LINE
  5
2C9
330
1E
100
AcDbEntity
  8
0
100
AcDbLine
 10
212.022
 20
130.8549999999999
 30
0.0
 11
212.022
 21
126.0
 31
0.0
  0
LINE
  5
2CE
330
1E
100
AcDbEntity
  8
0
100
AcDbLine
 10
212.022
 20
139.406
 30
0.0
 11
212.022
 21
142.467
 31
0.0
  0
LINE
  5
2CF
330
1E
100
AcDbEntity
  8
0
100
AcDbLine
 10
212.022
 20
139.406
 30
0.0
 11
212.022
 21
135.395
 31
0.0
  0
LINE
  5
2D0
330
1E
100
AcDbEntity
  8
0
100
AcDbLine
 10
125.6
 20
134.8999999999999
 30
0.0
 11
127.2999999999999
 21
130.6
 31
0.0
  0
LINE
  5
2D1
330
1E
100
AcDbEntity
  8
0
100
AcDbLine
 10
127.2999999999999
 20
130.6
 30
0.0
 11
128.0
 21
126.0
 31
0.0
  0
LINE
  5
2D2
330
1E
100
AcDbEntity
  8
0
100
AcDbLine
 10
117.7
 20
139.4
 30
0.0
 11
120.9
 21
136.8999999999999
 31
0.0
  0
LINE
  5
2D3
330
1E
100
AcDbEntity
  8
0
100
AcDbLine
 10
114.0
 20
140.8999999999999
 30
0.0
 11
117.7
 21
139.4
 31
0.0
  0
LINE
  5
2D4
330
1E
100
AcDbEntity
  8
0
100
AcDbLine
 10
118.5
 20
140.6999999999999
 30
0.0
 11
122.0
 21
138.0
 31
0.0
  0
LINE
  5
2D5
330
1E
100
AcDbEntity
  8
0
100
AcDbLine
 10
106.0
 20
111.0999999999999
 30
0.0
 11
110.0
 21
110.4999999999999
 31
0.0
  0
LINE
  5
2D6
330
1E
100
AcDbEntity
  8
0
100
AcDbLine
 10
110.0
 20
141.5
 30
0.0
 11
114.0
 21
140.8999999999999
 31
0.0
  0
LINE
  5
2D7
330
1E
100
AcDbEntity
  8
0
100
AcDbLine
 10
118.7
 20
141.1999999999999
 30
0.0
 11
122.3999999999999
 21
138.4
 31
0.0
  0
LINE
  5
2D8
330
1E
100
AcDbEntity
  8
0
100
AcDbLine
 10
114.4
 20
142.4
 30
0.0
 11
118.5
 21
140.6999999999999
 31
0.0
  0
LINE
  5
2D9
330
1E
100
AcDbEntity
  8
0
100
AcDbLine
 10
114.5
 20
142.9
 30
0.0
 11
118.7
 21
141.1999999999999
 31
0.0
  0
LINE
  5
2DA
330
1E
100
AcDbEntity
  8
0
100
AcDbLine
 10
118.9
 20
141.6549999999999
 30
0.0
 11
120.585483870968
 21
140.3137096774189
 31
0.0
  0
LINE
  5
2DC
330
1E
100
AcDbEntity
  8
0
100
AcDbLine
 10
212.2179999999999
 20
108.1611
 30
0.0
 11
212.2179999999999
 21
143.839
 31
0.0
  0
LINE
  5
2DD
330
1E
100
AcDbEntity
  8
0
100
AcDbLine
 10
212.022
 20
142.467
 30
0.0
 11
212.022
 21
144.2609999999999
 31
0.0
  0
LINE
  5
2DE
330
1E
100
AcDbEntity
  8
0
100
AcDbLine
 10
212.022
 20
142.467
 30
0.0
 11
212.022
 21
139.406
 31
0.0
  0
LINE
  5
2DF
330
1E
100
AcDbEntity
  8
0
100
AcDbLine
 10
212.8039999999999
 20
142.889
 30
0.0
 11
213.0
 21
142.3609999999999
 31
0.0
  0
LINE
  5
2E0
330
1E
100
AcDbEntity
  8
0
100
AcDbLine
 10
118.9
 20
141.5999999999999
 30
0.0
 11
122.7
 21
138.7
 31
0.0
  0
LINE
  5
2E1
330
1E
100
AcDbEntity
  8
0
100
AcDbLine
 10
106.0
 20
140.8999999999999
 30
0.0
 11
110.0
 21
141.5
 31
0.0
  0
LINE
  5
2E2
330
1E
100
AcDbEntity
  8
0
100
AcDbLine
 10
105.6
 20
142.4
 30
0.0
 11
110.0
 21
143.0
 31
0.0
  0
LINE
  5
2E3
330
1E
100
AcDbEntity
  8
0
100
AcDbLine
 10
110.0
 20
143.0
 30
0.0
 11
114.4
 21
142.4
 31
0.0
  0
LINE
  5
2E4
330
1E
100
AcDbEntity
  8
0
100
AcDbLine
 10
110.0
 20
145.0
 30
0.0
 11
200.0
 21
145.0
 31
0.0
  0
LINE
  5
2E5
330
1E
100
AcDbEntity
  8
0
100
AcDbLine
 10
110.0
 20
143.5
 30
0.0
 11
114.5
 21
142.9
 31
0.0
  0
LINE
  5
2E6
330
1E
100
AcDbEntity
  8
0
100
AcDbLine
 10
169.0
 20
161.714
 30
0.0
 11
169.0
 21
170.2859999999999
 31
0.0
  0
LINE
  5
2E7
330
1E
100
AcDbEntity
  8
0
100
AcDbLine
 10
169.0
 20
161.714
 30
0.0
 11
169.0
 21
160.857
 31
0.0
  0
LINE
  5
2E8
330
1E
100
AcDbEntity
  8
0
100
AcDbLine
 10
169.0
 20
170.2859999999999
 30
0.0
 11
169.0
 21
171.143
 31
0.0
  0
LINE
  5
2E9
330
1E
100
AcDbEntity
  8
0
100
AcDbLine
 10
169.0
 20
170.2859999999999
 30
0.0
 11
169.0
 21
161.714
 31
0.0
  0
LINE
  5
2EC
330
1E
100
AcDbEntity
  8
0
100
AcDbLine
 10
169.0
 20
170.2859999999999
 30
0.0
 11
170.3709999999999
 21
171.143
 31
0.0
  0
LINE
  5
2ED
330
1E
100
AcDbEntity
  8
0
100
AcDbLine
 10
169.0
 20
160.206
 30
0.0
 11
169.0
 21
160.857
 31
0.0
  0
LINE
  5
2EE
330
1E
100
AcDbEntity
  8
0
100
AcDbLine
 10
169.0
 20
160.206
 30
0.0
 11
169.0
 21
160.086
 31
0.0
  0
LINE
  5
2EF
330
1E
100
AcDbEntity
  8
0
100
AcDbLine
 10
169.0
 20
160.086
 30
0.0
 11
169.0
 21
160.206
 31
0.0
  0
LINE
  5
2F0
330
1E
100
AcDbEntity
  8
0
100
AcDbLine
 10
169.0
 20
160.086
 30
0.0
 11
169.4209999999999
 21
160.0
 31
0.0
  0
LINE
  5
2F1
330
1E
100
AcDbEntity
  8
0
100
AcDbLine
 10
169.4209999999999
 20
160.0
 30
0.0
 11
170.0099999999999
 21
160.0
 31
0.0
  0
LINE
  5
2F3
330
1E
100
AcDbEntity
  8
0
100
AcDbLine
 10
169.337
 20
160.857
 30
0.0
 11
170.3709999999999
 21
160.857
 31
0.0
  0
LINE
  5
2F4
330
1E
100
AcDbEntity
  8
0
100
AcDbLine
 10
169.0
 20
160.857
 30
0.0
 11
169.0
 21
160.206
 31
0.0
  0
LINE
  5
2F5
330
1E
100
AcDbEntity
  8
0
100
AcDbLine
 10
169.0
 20
160.857
 30
0.0
 11
169.0
 21
161.714
 31
0.0
  0
LINE
  5
2F6
330
1E
100
AcDbEntity
  8
0
100
AcDbLine
 10
169.0
 20
160.857
 30
0.0
 11
169.337
 21
160.857
 31
0.0
  0
LINE
  5
2F7
330
1E
100
AcDbEntity
  8
0
100
AcDbLine
 10
169.0
 20
171.914
 30
0.0
 11
169.0
 21
171.794
 31
0.0
  0
LINE
  5
2F8
330
1E
100
AcDbEntity
  8
0
100
AcDbLine
 10
169.0
 20
171.914
 30
0.0
 11
169.4209999999999
 21
172.0
 31
0.0
  0
LINE
  5
2F9
330
1E
100
AcDbEntity
  8
0
100
AcDbLine
 10
169.0
 20
171.143
 30
0.0
 11
169.0
 21
171.794
 31
0.0
  0
LINE
  5
2FA
330
1E
100
AcDbEntity
  8
0
100
AcDbLine
 10
169.0
 20
171.143
 30
0.0
 11
169.0
 21
170.2859999999999
 31
0.0
  0
LINE
  5
2FC
330
1E
100
AcDbEntity
  8
0
100
AcDbLine
 10
169.4209999999999
 20
172.0
 30
0.0
 11
170.0099999999999
 21
172.0
 31
0.0
  0
LINE
  5
300
330
1E
100
AcDbEntity
  8
0
100
AcDbLine
 10
169.0
 20
171.794
 30
0.0
 11
169.0
 21
171.143
 31
0.0
  0
LINE
  5
301
330
1E
100
AcDbEntity
  8
0
100
AcDbLine
 10
169.0
 20
171.794
 30
0.0
 11
169.0
 21
171.914
 31
0.0
  0
LINE
  5
306
330
1E
100
AcDbEntity
  8
0
100
AcDbLine
 10
170.0099999999999
 20
160.0
 30
0.0
 11
171.5259999999999
 21
160.0
 31
0.0
  0
LINE
  5
307
330
1E
100
AcDbEntity
  8
0
100
AcDbLine
 10
170.0099999999999
 20
172.0
 30
0.0
 11
171.5259999999999
 21
172.0
 31
0.0
  0
LINE
  5
308
330
1E
100
AcDbEntity
  8
0
100
AcDbLine
 10
170.0
 20
159.0
 30
0.0
 11
170.54
 21
159.0
 31
0.0
  0
LINE
  5
309
330
1E
100
AcDbEntity
  8
0
100
AcDbLine
 10
170.0
 20
159.0
 30
0.0
 11
170.0
 21
145.0
 31
0.0
  0
LINE
  5
30A
330
1E
100
AcDbEntity
  8
0
100
AcDbLine
 10
170.0
 20
145.0
 30
0.0
 11
170.0
 21
159.0
 31
0.0
  0
LINE
  5
30B
330
1E
100
AcDbEntity
  8
0
100
AcDbLine
 10
172.0
 20
159.0
 30
0.0
 11
172.0
 21
160.0
 31
0.0
  0
LINE
  5
30C
330
1E
100
AcDbEntity
  8
0
100
AcDbLine
 10
174.38
 20
159.0
 30
0.0
 11
177.56
 21
159.0
 31
0.0
  0
LINE
  5
30D
330
1E
100
AcDbEntity
  8
0
100
AcDbLine
 10
171.98
 20
159.0
 30
0.0
 11
174.38
 21
159.0
 31
0.0
  0
LINE
  5
30E
330
1E
100
AcDbEntity
  8
0
100
AcDbLine
 10
171.5259999999999
 20
160.0
 30
0.0
 11
198.0
 21
160.0
 31
0.0
  0
LINE
  5
30F
330
1E
100
AcDbEntity
  8
0
100
AcDbLine
 10
170.3709999999999
 20
160.857
 30
0.0
 11
173.042
 21
160.312
 31
0.0
  0
LINE
  5
313
330
1E
100
AcDbEntity
  8
0
100
AcDbLine
 10
171.5259999999999
 20
172.0
 30
0.0
 11
173.969
 21
172.0
 31
0.0
  0
LINE
  5
314
330
1E
100
AcDbEntity
  8
0
100
AcDbLine
 10
170.3709999999999
 20
171.143
 30
0.0
 11
173.042
 21
171.6879999999999
 31
0.0
  0
LINE
  5
316
330
1E
100
AcDbEntity
  8
0
100
AcDbLine
 10
173.042
 20
160.312
 30
0.0
 11
176.8549999999999
 21
160.173
 31
0.0
  0
LINE
  5
317
330
1E
100
AcDbEntity
  8
0
100
AcDbLine
 10
173.969
 20
172.0
 30
0.0
 11
177.2529999999999
 21
172.0
 31
0.0
  0
LINE
  5
319
330
1E
100
AcDbEntity
  8
0
100
AcDbLine
 10
173.042
 20
171.6879999999999
 30
0.0
 11
176.8549999999999
 21
171.8269999999999
 31
0.0
  0
LINE
  5
31B
330
1E
100
AcDbEntity
  8
0
100
AcDbLine
 10
172.0
 20
160.0
 30
0.0
 11
172.0
 21
159.0
 31
0.0
  0
LINE
  5
31C
330
1E
100
AcDbEntity
  8
0
100
AcDbLine
 10
170.54
 20
159.0
 30
0.0
 11
171.98
 21
159.0
 31
0.0
  0
LINE
  5
31D
330
1E
100
AcDbEntity
  8
0
100
AcDbLine
 10
170.352
 20
172.0
 30
0.0
 11
173.074
 21
172.0
 31
0.0
  0
LINE
  5
31E
330
1E
100
AcDbEntity
  8
0
100
AcDbLine
 10
168.7959999999999
 20
172.0
 30
0.0
 11
170.352
 21
172.0
 31
0.0
  0
LINE
  5
31F
330
1E
100
AcDbEntity
  8
0
100
AcDbLine
 10
168.7959999999999
 20
172.0
 30
0.0
 11
169.4209999999999
 21
172.0
 31
0.0
  0
LINE
  5
320
330
1E
100
AcDbEntity
  8
0
100
AcDbLine
 10
168.148
 20
172.0
 30
0.0
 11
168.148
 21
175.3379999999999
 31
0.0
  0
LINE
  5
321
330
1E
100
AcDbEntity
  8
0
100
AcDbLine
 10
168.148
 20
172.0
 30
0.0
 11
168.7959999999999
 21
172.0
 31
0.0
  0
LINE
  5
322
330
1E
100
AcDbEntity
  8
0
100
AcDbLine
 10
173.074
 20
172.0
 30
0.0
 11
176.574
 21
172.0
 31
0.0
  0
LINE
  5
323
330
1E
100
AcDbEntity
  8
0
100
AcDbLine
 10
185.0
 20
159.0
 30
0.0
 11
188.84
 21
159.0
 31
0.0
  0
LINE
  5
324
330
1E
100
AcDbEntity
  8
0
100
AcDbLine
 10
188.84
 20
159.0
 30
0.0
 11
192.44
 21
159.0
 31
0.0
  0
LINE
  5
325
330
1E
100
AcDbEntity
  8
0
100
AcDbLine
 10
181.16
 20
159.0
 30
0.0
 11
185.0
 21
159.0
 31
0.0
  0
LINE
  5
329
330
1E
100
AcDbEntity
  8
0
100
AcDbLine
 10
183.023
 20
160.857
 30
0.0
 11
185.0
 21
160.857
 31
0.0
  0
LINE
  5
32A
330
1E
100
AcDbEntity
  8
0
100
AcDbLine
 10
180.648
 20
160.359
 30
0.0
 11
183.023
 21
160.857
 31
0.0
  0
LINE
  5
32C
330
1E
100
AcDbEntity
  8
0
100
AcDbLine
 10
176.8549999999999
 20
160.173
 30
0.0
 11
180.648
 21
160.359
 31
0.0
  0
LINE
  5
32F
330
1E
100
AcDbEntity
  8
0
100
AcDbLine
 10
185.0
 20
160.857
 30
0.0
 11
186.977
 21
160.857
 31
0.0
  0
LINE
  5
333
330
1E
100
AcDbEntity
  8
0
100
AcDbLine
 10
183.023
 20
171.143
 30
0.0
 11
185.0
 21
171.143
 31
0.0
  0
LINE
  5
334
330
1E
100
AcDbEntity
  8
0
100
AcDbLine
 10
180.648
 20
171.6409999999999
 30
0.0
 11
183.023
 21
171.143
 31
0.0
  0
LINE
  5
338
330
1E
100
AcDbEntity
  8
0
100
AcDbLine
 10
177.2529999999999
 20
172.0
 30
0.0
 11
180.958
 21
172.0
 31
0.0
  0
LINE
  5
33A
330
1E
100
AcDbEntity
  8
0
100
AcDbLine
 10
176.8549999999999
 20
171.8269999999999
 30
0.0
 11
180.648
 21
171.6409999999999
 31
0.0
  0
LINE
  5
33C
330
1E
100
AcDbEntity
  8
0
100
AcDbLine
 10
180.958
 20
172.0
 30
0.0
 11
185.0
 21
172.0
 31
0.0
  0
LINE
  5
33F
330
1E
100
AcDbEntity
  8
0
100
AcDbLine
 10
185.0
 20
171.143
 30
0.0
 11
186.977
 21
171.143
 31
0.0
  0
LINE
  5
343
330
1E
100
AcDbEntity
  8
0
100
AcDbLine
 10
186.977
 20
160.857
 30
0.0
 11
189.352
 21
160.359
 31
0.0
  0
LINE
  5
344
330
1E
100
AcDbEntity
  8
0
100
AcDbLine
 10
186.977
 20
171.143
 30
0.0
 11
189.352
 21
171.6409999999999
 31
0.0
  0
LINE
  5
347
330
1E
100
AcDbEntity
  8
0
100
AcDbLine
 10
189.0419999999999
 20
172.0
 30
0.0
 11
192.747
 21
172.0
 31
0.0
  0
LINE
  5
349
330
1E
100
AcDbEntity
  8
0
100
AcDbLine
 10
177.56
 20
159.0
 30
0.0
 11
181.16
 21
159.0
 31
0.0
  0
LINE
  5
34A
330
1E
100
AcDbEntity
  8
0
100
AcDbLine
 10
176.574
 20
172.0
 30
0.0
 11
180.722
 21
172.0
 31
0.0
  0
LINE
  5
34B
330
1E
100
AcDbEntity
  8
0
100
AcDbLine
 10
180.722
 20
172.0
 30
0.0
 11
185.0
 21
172.0
 31
0.0
  0
LINE
  5
34C
330
1E
100
AcDbEntity
  8
0
100
AcDbLine
 10
189.352
 20
160.359
 30
0.0
 11
193.145
 21
160.173
 31
0.0
  0
LINE
  5
34D
330
1E
100
AcDbEntity
  8
0
100
AcDbLine
 10
193.145
 20
160.173
 30
0.0
 11
196.958
 21
160.312
 31
0.0
  0
LINE
  5
34E
330
1E
100
AcDbEntity
  8
0
100
AcDbLine
 10
193.145
 20
171.8269999999999
 30
0.0
 11
196.958
 21
171.6879999999999
 31
0.0
  0
LINE
  5
351
330
1E
100
AcDbEntity
  8
0
100
AcDbLine
 10
192.747
 20
172.0
 30
0.0
 11
196.032
 21
172.0
 31
0.0
  0
LINE
  5
353
330
1E
100
AcDbEntity
  8
0
100
AcDbLine
 10
189.352
 20
171.6409999999999
 30
0.0
 11
193.145
 21
171.8269999999999
 31
0.0
  0
LINE
  5
354
330
1E
100
AcDbEntity
  8
0
100
AcDbLine
 10
192.44
 20
159.0
 30
0.0
 11
195.62
 21
159.0
 31
0.0
  0
LINE
  5
356
330
1E
100
AcDbEntity
  8
0
100
AcDbLine
 10
196.032
 20
172.0
 30
0.0
 11
198.474
 21
172.0
 31
0.0
  0
LINE
  5
357
330
1E
100
AcDbEntity
  8
0
100
AcDbLine
 10
195.62
 20
159.0
 30
0.0
 11
198.02
 21
159.0
 31
0.0
  0
LINE
  5
358
330
1E
100
AcDbEntity
  8
0
100
AcDbLine
 10
193.4259999999999
 20
172.0
 30
0.0
 11
196.926
 21
172.0
 31
0.0
  0
LINE
  5
359
330
1E
100
AcDbEntity
  8
0
100
AcDbLine
 10
189.2779999999999
 20
172.0
 30
0.0
 11
193.4259999999999
 21
172.0
 31
0.0
  0
LINE
  5
35A
330
1E
100
AcDbEntity
  8
0
100
AcDbLine
 10
185.0
 20
172.0
 30
0.0
 11
189.2779999999999
 21
172.0
 31
0.0
  0
LINE
  5
35B
330
1E
100
AcDbEntity
  8
0
100
AcDbLine
 10
185.0
 20
172.0
 30
0.0
 11
189.0419999999999
 21
172.0
 31
0.0
  0
LINE
  5
35D
330
1E
100
AcDbEntity
  8
0
100
AcDbLine
 10
198.0
 20
159.0
 30
0.0
 11
198.0
 21
160.0
 31
0.0
  0
LINE
  5
35E
330
1E
100
AcDbEntity
  8
0
100
AcDbLine
 10
198.02
 20
159.0
 30
0.0
 11
199.46
 21
159.0
 31
0.0
  0
LINE
  5
35F
330
1E
100
AcDbEntity
  8
0
100
AcDbLine
 10
199.46
 20
159.0
 30
0.0
 11
200.0
 21
159.0
 31
0.0
  0
LINE
  5
360
330
1E
100
AcDbEntity
  8
0
100
AcDbLine
 10
196.958
 20
160.312
 30
0.0
 11
199.629
 21
160.857
 31
0.0
  0
LINE
  5
361
330
1E
100
AcDbEntity
  8
0
100
AcDbLine
 10
196.958
 20
171.6879999999999
 30
0.0
 11
199.629
 21
171.143
 31
0.0
  0
LINE
  5
364
330
1E
100
AcDbEntity
  8
0
100
AcDbLine
 10
198.474
 20
160.0
 30
0.0
 11
199.99
 21
160.0
 31
0.0
  0
LINE
  5
368
330
1E
100
AcDbEntity
  8
0
100
AcDbLine
 10
198.474
 20
172.0
 30
0.0
 11
199.99
 21
172.0
 31
0.0
  0
LINE
  5
36A
330
1E
100
AcDbEntity
  8
0
100
AcDbLine
 10
199.629
 20
160.857
 30
0.0
 11
200.6629999999999
 21
160.857
 31
0.0
  0
LINE
  5
36D
330
1E
100
AcDbEntity
  8
0
100
AcDbLine
 10
199.99
 20
160.0
 30
0.0
 11
200.579
 21
160.0
 31
0.0
  0
LINE
  5
370
330
1E
100
AcDbEntity
  8
0
100
AcDbLine
 10
199.629
 20
171.143
 30
0.0
 11
201.0
 21
170.2859999999999
 31
0.0
  0
LINE
  5
372
330
1E
100
AcDbEntity
  8
0
100
AcDbLine
 10
199.99
 20
172.0
 30
0.0
 11
200.579
 21
172.0
 31
0.0
  0
LINE
  5
373
330
1E
100
AcDbEntity
  8
0
100
AcDbLine
 10
198.0
 20
160.0
 30
0.0
 11
198.0
 21
159.0
 31
0.0
  0
LINE
  5
374
330
1E
100
AcDbEntity
  8
0
100
AcDbLine
 10
198.0
 20
160.0
 30
0.0
 11
198.474
 21
160.0
 31
0.0
  0
LINE
  5
375
330
1E
100
AcDbEntity
  8
0
100
AcDbLine
 10
200.0
 20
159.0
 30
0.0
 11
200.0
 21
145.0
 31
0.0
  0
LINE
  5
376
330
1E
100
AcDbEntity
  8
0
100
AcDbLine
 10
196.926
 20
172.0
 30
0.0
 11
199.648
 21
172.0
 31
0.0
  0
LINE
  5
377
330
1E
100
AcDbEntity
  8
0
100
AcDbLine
 10
159.722
 20
191.1979999999999
 30
0.0
 11
164.259
 21
186.5559999999999
 31
0.0
  0
LINE
  5
378
330
1E
100
AcDbEntity
  8
0
100
AcDbLine
 10
154.537
 20
194.679
 30
0.0
 11
159.722
 21
191.1979999999999
 31
0.0
  0
LINE
  5
379
330
1E
100
AcDbEntity
  8
0
100
AcDbLine
 10
154.6669999999999
 20
196.6129999999999
 30
0.0
 11
160.37
 21
196.6129999999999
 31
0.0
  0
LINE
  5
37A
330
1E
100
AcDbEntity
  8
0
100
AcDbLine
 10
151.2959999999999
 20
196.6129999999999
 30
0.0
 11
154.6669999999999
 21
196.6129999999999
 31
0.0
  0
LINE
  5
37B
330
1E
100
AcDbEntity
  8
0
100
AcDbLine
 10
150.0
 20
196.6129999999999
 30
0.0
 11
150.0
 21
197.0
 31
0.0
  0
LINE
  5
37C
330
1E
100
AcDbEntity
  8
0
100
AcDbLine
 10
150.0
 20
196.6129999999999
 30
0.0
 11
151.2959999999999
 21
196.6129999999999
 31
0.0
  0
LINE
  5
37D
330
1E
100
AcDbEntity
  8
0
100
AcDbLine
 10
150.0
 20
196.6129999999999
 30
0.0
 11
154.537
 21
194.679
 31
0.0
  0
LINE
  5
37E
330
1E
100
AcDbEntity
  8
0
100
AcDbLine
 10
168.148
 20
175.3379999999999
 30
0.0
 11
168.148
 21
172.0
 31
0.0
  0
LINE
  5
37F
330
1E
100
AcDbEntity
  8
0
100
AcDbLine
 10
166.852
 20
181.527
 30
0.0
 11
168.148
 21
175.3379999999999
 31
0.0
  0
LINE
  5
380
330
1E
100
AcDbEntity
  8
0
100
AcDbLine
 10
164.259
 20
186.5559999999999
 30
0.0
 11
166.852
 21
181.527
 31
0.0
  0
LINE
  5
381
330
1E
100
AcDbEntity
  8
0
100
AcDbLine
 10
160.37
 20
196.6129999999999
 30
0.0
 11
167.6299999999999
 21
196.6129999999999
 31
0.0
  0
LINE
  5
382
330
1E
100
AcDbEntity
  8
0
100
AcDbLine
 10
167.6299999999999
 20
196.6129999999999
 30
0.0
 11
176.0559999999999
 21
196.6129999999999
 31
0.0
  0
LINE
  5
383
330
1E
100
AcDbEntity
  8
0
100
AcDbLine
 10
176.0559999999999
 20
196.6129999999999
 30
0.0
 11
185.0
 21
196.6129999999999
 31
0.0
  0
LINE
  5
384
330
1E
100
AcDbEntity
  8
0
100
AcDbLine
 10
154.6669999999999
 20
197.0
 30
0.0
 11
160.37
 21
197.0
 31
0.0
  0
LINE
  5
385
330
1E
100
AcDbEntity
  8
0
100
AcDbLine
 10
151.2959999999999
 20
197.0
 30
0.0
 11
154.6669999999999
 21
197.0
 31
0.0
  0
LINE
  5
386
330
1E
100
AcDbEntity
  8
0
100
AcDbLine
 10
150.0
 20
197.0
 30
0.0
 11
151.2959999999999
 21
197.0
 31
0.0
  0
LINE
  5
387
330
1E
100
AcDbEntity
  8
0
100
AcDbLine
 10
150.0
 20
197.0
 30
0.0
 11
150.0
 21
196.6129999999999
 31
0.0
  0
LINE
  5
388
330
1E
100
AcDbEntity
  8
0
100
AcDbLine
 10
160.37
 20
197.0
 30
0.0
 11
167.6299999999999
 21
197.0
 31
0.0
  0
LINE
  5
389
330
1E
100
AcDbEntity
  8
0
100
AcDbLine
 10
167.6299999999999
 20
197.0
 30
0.0
 11
176.0559999999999
 21
197.0
 31
0.0
  0
LINE
  5
38A
330
1E
100
AcDbEntity
  8
0
100
AcDbLine
 10
176.0559999999999
 20
197.0
 30
0.0
 11
185.0
 21
197.0
 31
0.0
  0
LINE
  5
38B
330
1E
100
AcDbEntity
  8
0
100
AcDbLine
 10
185.0
 20
196.6129999999999
 30
0.0
 11
193.944
 21
196.6129999999999
 31
0.0
  0
LINE
  5
38C
330
1E
100
AcDbEntity
  8
0
100
AcDbLine
 10
193.944
 20
196.6129999999999
 30
0.0
 11
202.37
 21
196.6129999999999
 31
0.0
  0
LINE
  5
38D
330
1E
100
AcDbEntity
  8
0
100
AcDbLine
 10
193.944
 20
197.0
 30
0.0
 11
202.37
 21
197.0
 31
0.0
  0
LINE
  5
38E
330
1E
100
AcDbEntity
  8
0
100
AcDbLine
 10
185.0
 20
197.0
 30
0.0
 11
193.944
 21
197.0
 31
0.0
  0
LINE
  5
38F
330
1E
100
AcDbEntity
  8
0
100
AcDbLine
 10
199.648
 20
172.0
 30
0.0
 11
201.204
 21
172.0
 31
0.0
  0
LINE
  5
390
330
1E
100
AcDbEntity
  8
0
100
AcDbLine
 10
212.2179999999999
 20
143.839
 30
0.0
 11
212.2179999999999
 21
144.472
 31
0.0
  0
LINE
  5
391
330
1E
100
AcDbEntity
  8
0
100
AcDbLine
 10
212.2179999999999
 20
143.839
 30
0.0
 11
212.2179999999999
 21
108.1611
 31
0.0
  0
LINE
  5
392
330
1E
100
AcDbEntity
  8
0
100
AcDbLine
 10
212.2179999999999
 20
144.472
 30
0.0
 11
212.2179999999999
 21
143.839
 31
0.0
  0
LINE
  5
393
330
1E
100
AcDbEntity
  8
0
100
AcDbLine
 10
212.022
 20
144.2609999999999
 30
0.0
 11
212.022
 21
145.0
 31
0.0
  0
LINE
  5
394
330
1E
100
AcDbEntity
  8
0
100
AcDbLine
 10
212.022
 20
144.2609999999999
 30
0.0
 11
212.022
 21
142.467
 31
0.0
  0
LINE
  5
395
330
1E
100
AcDbEntity
  8
0
100
AcDbLine
 10
212.414
 20
143.4169999999999
 30
0.0
 11
212.8039999999999
 21
142.889
 31
0.0
  0
LINE
  5
396
330
1E
100
AcDbEntity
  8
0
100
AcDbLine
 10
212.2179999999999
 20
143.9449999999999
 30
0.0
 11
212.414
 21
143.4169999999999
 31
0.0
  0
LINE
  5
397
330
1E
100
AcDbEntity
  8
0
100
AcDbLine
 10
201.0
 20
160.857
 30
0.0
 11
201.0
 21
160.206
 31
0.0
  0
LINE
  5
398
330
1E
100
AcDbEntity
  8
0
100
AcDbLine
 10
200.6629999999999
 20
160.857
 30
0.0
 11
201.0
 21
160.857
 31
0.0
  0
LINE
  5
399
330
1E
100
AcDbEntity
  8
0
100
AcDbLine
 10
200.579
 20
160.0
 30
0.0
 11
201.0
 21
160.086
 31
0.0
  0
LINE
  5
39D
330
1E
100
AcDbEntity
  8
0
100
AcDbLine
 10
201.0
 20
160.857
 30
0.0
 11
201.0
 21
170.2859999999999
 31
0.0
  0
LINE
  5
39E
330
1E
100
AcDbEntity
  8
0
100
AcDbLine
 10
201.0
 20
170.2859999999999
 30
0.0
 11
201.0
 21
171.143
 31
0.0
  0
LINE
  5
39F
330
1E
100
AcDbEntity
  8
0
100
AcDbLine
 10
201.0
 20
170.2859999999999
 30
0.0
 11
201.0
 21
160.857
 31
0.0
  0
LINE
  5
3A0
330
1E
100
AcDbEntity
  8
0
100
AcDbLine
 10
201.0
 20
171.143
 30
0.0
 11
201.0
 21
171.794
 31
0.0
  0
LINE
  5
3A1
330
1E
100
AcDbEntity
  8
0
100
AcDbLine
 10
201.0
 20
171.143
 30
0.0
 11
201.0
 21
170.2859999999999
 31
0.0
  0
LINE
  5
3A2
330
1E
100
AcDbEntity
  8
0
100
AcDbLine
 10
201.0
 20
160.206
 30
0.0
 11
201.0
 21
160.857
 31
0.0
  0
LINE
  5
3A3
330
1E
100
AcDbEntity
  8
0
100
AcDbLine
 10
201.0
 20
160.206
 30
0.0
 11
201.0
 21
160.086
 31
0.0
  0
LINE
  5
3A4
330
1E
100
AcDbEntity
  8
0
100
AcDbLine
 10
201.0
 20
171.914
 30
0.0
 11
201.0
 21
171.794
 31
0.0
  0
LINE
  5
3A5
330
1E
100
AcDbEntity
  8
0
100
AcDbLine
 10
201.0
 20
171.794
 30
0.0
 11
201.0
 21
171.914
 31
0.0
  0
LINE
  5
3A6
330
1E
100
AcDbEntity
  8
0
100
AcDbLine
 10
201.0
 20
171.794
 30
0.0
 11
201.0
 21
171.143
 31
0.0
  0
LINE
  5
3A7
330
1E
100
AcDbEntity
  8
0
100
AcDbLine
 10
201.0
 20
160.086
 30
0.0
 11
201.0
 21
160.206
 31
0.0
  0
LINE
  5
3A8
330
1E
100
AcDbEntity
  8
0
100
AcDbLine
 10
200.579
 20
172.0
 30
0.0
 11
201.204
 21
172.0
 31
0.0
  0
LINE
  5
3A9
330
1E
100
AcDbEntity
  8
0
100
AcDbLine
 10
200.579
 20
172.0
 30
0.0
 11
201.0
 21
171.914
 31
0.0
  0
LINE
  5
3AA
330
1E
100
AcDbEntity
  8
0
100
AcDbLine
 10
201.852
 20
172.0
 30
0.0
 11
201.852
 21
175.3379999999999
 31
0.0
  0
LINE
  5
3AB
330
1E
100
AcDbEntity
  8
0
100
AcDbLine
 10
201.204
 20
172.0
 30
0.0
 11
201.852
 21
172.0
 31
0.0
  0
LINE
  5
3AC
330
1E
100
AcDbEntity
  8
0
100
AcDbLine
 10
201.852
 20
175.3379999999999
 30
0.0
 11
203.148
 21
181.527
 31
0.0
  0
LINE
  5
3AD
330
1E
100
AcDbEntity
  8
0
100
AcDbLine
 10
201.852
 20
175.3379999999999
 30
0.0
 11
201.852
 21
172.0
 31
0.0
  0
LINE
  5
3AE
330
1E
100
AcDbEntity
  8
0
100
AcDbLine
 10
202.37
 20
196.6129999999999
 30
0.0
 11
209.6299999999999
 21
196.6129999999999
 31
0.0
  0
LINE
  5
3AF
330
1E
100
AcDbEntity
  8
0
100
AcDbLine
 10
203.148
 20
181.527
 30
0.0
 11
205.7409999999999
 21
186.5559999999999
 31
0.0
  0
LINE
  5
3B0
330
1E
100
AcDbEntity
  8
0
100
AcDbLine
 10
205.7409999999999
 20
186.5559999999999
 30
0.0
 11
210.278
 21
191.1979999999999
 31
0.0
  0
LINE
  5
3B1
330
1E
100
AcDbEntity
  8
0
100
AcDbLine
 10
202.37
 20
197.0
 30
0.0
 11
209.6299999999999
 21
197.0
 31
0.0
  0
LINE
  5
3B2
330
1E
100
AcDbEntity
  8
0
100
AcDbLine
 10
209.6299999999999
 20
196.6129999999999
 30
0.0
 11
215.3329999999999
 21
196.6129999999999
 31
0.0
  0
LINE
  5
3B3
330
1E
100
AcDbEntity
  8
0
100
AcDbLine
 10
210.278
 20
191.1979999999999
 30
0.0
 11
215.463
 21
194.679
 31
0.0
  0
LINE
  5
3B4
330
1E
100
AcDbEntity
  8
0
100
AcDbLine
 10
215.463
 20
194.679
 30
0.0
 11
220.0
 21
196.6129999999999
 31
0.0
  0
LINE
  5
3B5
330
1E
100
AcDbEntity
  8
0
100
AcDbLine
 10
215.3329999999999
 20
196.6129999999999
 30
0.0
 11
218.704
 21
196.6129999999999
 31
0.0
  0
LINE
  5
3B6
330
1E
100
AcDbEntity
  8
0
100
AcDbLine
 10
218.704
 20
196.6129999999999
 30
0.0
 11
220.0
 21
196.6129999999999
 31
0.0
  0
LINE
  5
3B7
330
1E
100
AcDbEntity
  8
0
100
AcDbLine
 10
209.6299999999999
 20
197.0
 30
0.0
 11
215.3329999999999
 21
197.0
 31
0.0
  0
LINE
  5
3B8
330
1E
100
AcDbEntity
  8
0
100
AcDbLine
 10
215.3329999999999
 20
197.0
 30
0.0
 11
218.704
 21
197.0
 31
0.0
  0
LINE
  5
3B9
330
1E
100
AcDbEntity
  8
0
100
AcDbLine
 10
220.0
 20
196.6129999999999
 30
0.0
 11
220.0
 21
197.0
 31
0.0
  0
LINE
  5
3BA
330
1E
100
AcDbEntity
  8
0
100
AcDbLine
 10
220.0
 20
197.0
 30
0.0
 11
220.0
 21
196.6129999999999
 31
0.0
  0
LINE
  5
3BB
330
1E
100
AcDbEntity
  8
0
100
AcDbLine
 10
218.704
 20
197.0
 30
0.0
 11
220.0
 21
197.0
 31
0.0
  0
LINE
  5
3BC
330
1E
100
AcDbEntity
  8
0
100
AcDbLine
 10
212.022
 20
145.0
 30
0.0
 11
212.2179999999999
 21
144.472
 31
0.0
  0
LINE
  5
3BD
330
1E
100
AcDbEntity
  8
0
100
AcDbLine
 10
212.022
 20
145.0
 30
0.0
 11
212.022
 21
144.2609999999999
 31
0.0
  0
LINE
  5
3BE
330
1E
100
AcDbEntity
  8
0
100
AcDbLine
 10
200.0
 20
145.0
 30
0.0
 11
212.022
 21
145.0
 31
0.0
  0
LINE
  5
3BF
330
1E
100
AcDbEntity
  8
0
100
AcDbLine
 10
200.0
 20
145.0
 30
0.0
 11
200.0
 21
159.0
 31
0.0
  0
LINE
  5
3C0
330
1E
100
AcDbEntity
  8
0
100
AcDbLine
 10
114.5999999999999
 20
143.3
 30
0.0
 11
118.9
 21
141.5999999999999
 31
0.0
  0
LINE
  5
3C1
330
1E
100
AcDbEntity
  8
0
100
AcDbLine
 10
110.0
 20
144.0
 30
0.0
 11
114.5999999999999
 21
143.3
 31
0.0
  0
LINE
  5
3C2
330
1E
100
AcDbEntity
  8
0
100
AcDbLine
 10
105.4999999999999
 20
142.9
 30
0.0
 11
110.0
 21
143.5
 31
0.0
  0
LINE
  5
3C3
330
1E
100
AcDbEntity
  8
0
100
AcDbLine
 10
105.4
 20
143.3
 30
0.0
 11
110.0
 21
144.0
 31
0.0
  0
LINE
  5
3C8
330
1E
100
AcDbEntity
  8
0
100
AcDbLine
 10
213.0
 20
142.3609999999999
 30
0.0
 11
213.0
 21
109.6389
 31
0.0
  0
ENDSEC
  0
SECTION
  2
OBJECTS
  0
DICTIONARY
  5
C
330
0
100
AcDbDictionary
  3
ACAD_GROUP
350
D
  3
ACAD_LAYOUT
350
19
  3
ACAD_MLINESTYLE
350
16
  3
ACAD_PLOTSETTINGS
350
18
  3
ACAD_PLOTSTYLENAME
350
E
  3
ACDBHEADERROUNDTRIPXREC
350
3CC
  3
ACDBVARIABLEDICTIONARY
350
3C9
  0
DICTIONARY
  5
3EE
330
1E
100
AcDbDictionary
280
     1
  3
ACAD_LAYOUTSELFREF
360
3EF
  0
DICTIONARY
  5
3EC
330
1A
100
AcDbDictionary
280
     1
  3
ACAD_LAYOUTSELFREF
360
3ED
  0
DICTIONARY
  5
D
102
{ACAD_REACTORS
330
C
102
}
330
C
100
AcDbDictionary
  0
DICTIONARY
  5
19
102
{ACAD_REACTORS
330
C
102
}
330
C
100
AcDbDictionary
  0
DICTIONARY
  5
16
102
{ACAD_REACTORS
330
C
102
}
330
C
100
AcDbDictionary
  3
STANDARD
350
17
  0
DICTIONARY
  5
18
102
{ACAD_REACTORS
330
C
102
}
330
C
100
AcDbDictionary
  0
ACDBDICTIONARYWDFLT
  5
E
102
{ACAD_REACTORS
330
C
102
}
330
C
100
AcDbDictionary
281
     1
  3
Normal
350
F
100
AcDbDictionaryWithDefault
340
F
  0
DICTIONARY
  5
3CC
102
{ACAD_REACTORS
330
C
102
}
330
C
100
AcDbDictionary
  3
CEPSNTYPE
350
3D6
  3
FINGERPRINTGUID
350
3D7
  3
HYPERLINKBASE
350
3CF
  3
INSUNITS
350
3D5
  3
LAYOUTDICT
350
3D1
  3
LWETCUNION
350
3D4
  3
PLOTSETDICT
350
3D2
  3
PLOTSTYLNAMDICT
350
3D3
  3
PSVPSCALE
350
3D9
  3
PUCSBASE
350
3DC
  3
PUCSORGBACK
350
3E2
  3
PUCSORGBOTTOM
350
3DE
  3
PUCSORGFRONT
350
3E1
  3
PUCSORGLEFT
350
3DF
  3
PUCSORGRIGHT
350
3E0
  3
PUCSORGTOP
350
3DD
  3
PUCSORTHOREF
350
3DA
  3
PUCSORTHOVIEW
350
3DB
  3
STYLESHEET
350
3D0
  3
TSTACKALIGN
350
3CD
  3
TSTACKSIZE
350
3CE
  3
UCSBASE
350
3E5
  3
UCSORGBACK
350
3EB
  3
UCSORGBOTTOM
350
3E7
  3
UCSORGFRONT
350
3EA
  3
UCSORGLEFT
350
3E8
  3
UCSORGRIGHT
350
3E9
  3
UCSORGTOP
350
3E6
  3
UCSORTHOREF
350
3E3
  3
UCSORTHOVIEW
350
3E4
  3
VERSIONGUID
350
3D8
  0
DICTIONARY
  5
3C9
102
{ACAD_REACTORS
330
C
102
}
330
C
100
AcDbDictionary
  3
DIMASSOC
350
3CA
  0
XRECORD
  5
3EF
102
{ACAD_REACTORS
330
3EE
102
}
330
3EE
100
AcDbXrecord
340
1E
  0
XRECORD
  5
3ED
102
{ACAD_REACTORS
330
3EC
102
}
330
3EC
100
AcDbXrecord
340
1A
  0
MLINESTYLE
  5
17
102
{ACAD_REACTORS
330
16
102
}
330
16
100
AcDbMlineStyle
  2
STANDARD
 70
     0
  3

 62
   256
 51
90.0
 52
90.0
 71
     2
 49
0.5
 62
   256
  6
BYLAYER
 49
-0.5
 62
   256
  6
BYLAYER
  0
ACDBPLACEHOLDER
  5
F
102
{ACAD_REACTORS
330
E
102
}
330
E
100
AcDbPlaceHolder
280
     0
  0
XRECORD
  5
3D6
102
{ACAD_REACTORS
330
3CC
102
}
330
3CC
100
AcDbXrecord
 90
        0
  0
XRECORD
  5
3D7
102
{ACAD_REACTORS
330
3CC
102
}
330
3CC
100
AcDbXrecord
  1
{7975E3C3-B3A1-4EF9-AF7F-3B35CE0F9D29}
  0
XRECORD
  5
3CF
102
{ACAD_REACTORS
330
3CC
102
}
330
3CC
100
AcDbXrecord
  1

  0
XRECORD
  5
3D5
102
{ACAD_REACTORS
330
3CC
102
}
330
3CC
100
AcDbXrecord
 90
        0
  0
XRECORD
  5
3D1
102
{ACAD_REACTORS
330
3CC
102
}
330
3CC
100
AcDbXrecord
340
19
  0
XRECORD
  5
3D4
102
{ACAD_REACTORS
330
3CC
102
}
330
3CC
100
AcDbXrecord
 90
    10781
  0
XRECORD
  5
3D2
102
{ACAD_REACTORS
330
3CC
102
}
330
3CC
100
AcDbXrecord
340
18
  0
XRECORD
  5
3D3
102
{ACAD_REACTORS
330
3CC
102
}
330
3CC
100
AcDbXrecord
340
E
  0
XRECORD
  5
3D9
102
{ACAD_REACTORS
330
3CC
102
}
330
3CC
100
AcDbXrecord
 40
0.0
  0
XRECORD
  5
3DC
102
{ACAD_REACTORS
330
3CC
102
}
330
3CC
100
AcDbXrecord
340
0
  0
XRECORD
  5
3E2
102
{ACAD_REACTORS
330
3CC
102
}
330
3CC
100
AcDbXrecord
 10
0.0
 20
0.0
 30
0.0
  0
XRECORD
  5
3DE
102
{ACAD_REACTORS
330
3CC
102
}
330
3CC
100
AcDbXrecord
 10
0.0
 20
0.0
 30
0.0
  0
XRECORD
  5
3E1
102
{ACAD_REACTORS
330
3CC
102
}
330
3CC
100
AcDbXrecord
 10
0.0
 20
0.0
 30
0.0
  0
XRECORD
  5
3DF
102
{ACAD_REACTORS
330
3CC
102
}
330
3CC
100
AcDbXrecord
 10
0.0
 20
0.0
 30
0.0
  0
XRECORD
  5
3E0
102
{ACAD_REACTORS
330
3CC
102
}
330
3CC
100
AcDbXrecord
 10
0.0
 20
0.0
 30
0.0
  0
XRECORD
  5
3DD
102
{ACAD_REACTORS
330
3CC
102
}
330
3CC
100
AcDbXrecord
 10
0.0
 20
0.0
 30
0.0
  0
XRECORD
  5
3DA
102
{ACAD_REACTORS
330
3CC
102
}
330
3CC
100
AcDbXrecord
340
0
  0
XRECORD
  5
3DB
102
{ACAD_REACTORS
330
3CC
102
}
330
3CC
100
AcDbXrecord
 70
     0
  0
XRECORD
  5
3D0
102
{ACAD_REACTORS
330
3CC
102
}
330
3CC
100
AcDbXrecord
  1

  0
XRECORD
  5
3CD
102
{ACAD_REACTORS
330
3CC
102
}
330
3CC
100
AcDbXrecord
 90
        1
  0
XRECORD
  5
3CE
102
{ACAD_REACTORS
330
3CC
102
}
330
3CC
100
AcDbXrecord
 90
       70
  0
XRECORD
  5
3E5
102
{ACAD_REACTORS
330
3CC
102
}
330
3CC
100
AcDbXrecord
340
0
  0
XRECORD
  5
3EB
102
{ACAD_REACTORS
330
3CC
102
}
330
3CC
100
AcDbXrecord
 10
0.0
 20
0.0
 30
0.0
  0
XRECORD
  5
3E7
102
{ACAD_REACTORS
330
3CC
102
}
330
3CC
100
AcDbXrecord
 10
0.0
 20
0.0
 30
0.0
  0
XRECORD
  5
3EA
102
{ACAD_REACTORS
330
3CC
102
}
330
3CC
100
AcDbXrecord
 10
0.0
 20
0.0
 30
0.0
  0
XRECORD
  5
3E8
102
{ACAD_REACTORS
330
3CC
102
}
330
3CC
100
AcDbXrecord
 10
0.0
 20
0.0
 30
0.0
  0
XRECORD
  5
3E9
102
{ACAD_REACTORS
330
3CC
102
}
330
3CC
100
AcDbXrecord
 10
0.0
 20
0.0
 30
0.0
  0
XRECORD
  5
3E6
102
{ACAD_REACTORS
330
3CC
102
}
330
3CC
100
AcDbXrecord
 10
0.0
 20
0.0
 30
0.0
  0
XRECORD
  5
3E3
102
{ACAD_REACTORS
330
3CC
102
}
330
3CC
100
AcDbXrecord
340
0
  0
XRECORD
  5
3E4
102
{ACAD_REACTORS
330
3CC
102
}
330
3CC
100
AcDbXrecord
 70
     1
  0
XRECORD
  5
3D8
102
{ACAD_REACTORS
330
3CC
102
}
330
3CC
100
AcDbXrecord
  1
{9691A44E-93D0-4054-A003-CA6B338766DF}
  0
DICTIONARYVAR
  5
3CA
102
{ACAD_REACTORS
330
3C9
102
}
330
3C9
100
DictionaryVariables
280
     0
  1
1
  0
ENDSEC
  0
EOF
