  0
SECTION
  2
HEADER
  9
$ACADVER
  1
AC1014
  9
$ACADMAINTVER
 70
     9
  9
$DWGCODEPAGE
  3
ANSI_1252
  9
$INSBASE
 10
0.0
 20
0.0
 30
0.0
  9
$EXTMIN
 10
0.0000000000000015
 20
0.127035000000016
 30
0.0
  9
$EXTMAX
 10
54.0
 20
135.8729649999999
 30
0.0
  9
$LIMMIN
 10
0.0
 20
0.0
  9
$LIMMAX
 10
12.0
 20
9.0
  9
$ORTHOMODE
 70
     0
  9
$REGENMODE
 70
     1
  9
$FILLMODE
 70
     1
  9
$QTEXTMODE
 70
     0
  9
$MIRRTEXT
 70
     1
  9
$DRAGMODE
 70
     2
  9
$LTSCALE
 40
1.0
  9
$OSMODE
 70
    37
  9
$ATTMODE
 70
     1
  9
$TEXTSIZE
 40
0.2
  9
$TRACEWID
 40
0.05
  9
$TEXTSTYLE
  7
STANDARD
  9
$CLAYER
  8
0
  9
$CELTYPE
  6
CONTINUOUS
  9
$CECOLOR
 62
   256
  9
$CELTSCALE
 40
1.0
  9
$DELOBJ
 70
     1
  9
$DISPSILH
 70
     0
  9
$DIMSCALE
 40
1.0
  9
$DIMASZ
 40
0.18
  9
$DIMEXO
 40
0.0625
  9
$DIMDLI
 40
0.38
  9
$DIMRND
 40
0.0
  9
$DIMDLE
 40
0.0
  9
$DIMEXE
 40
0.18
  9
$DIMTP
 40
0.0
  9
$DIMTM
 40
0.0
  9
$DIMTXT
 40
0.18
  9
$DIMCEN
 40
0.09
  9
$DIMTSZ
 40
0.0
  9
$DIMTOL
 70
     0
  9
$DIMLIM
 70
     0
  9
$DIMTIH
 70
     1
  9
$DIMTOH
 70
     1
  9
$DIMSE1
 70
     0
  9
$DIMSE2
 70
     0
  9
$DIMTAD
 70
     0
  9
$DIMZIN
 70
     0
  9
$DIMBLK
  1

  9
$DIMASO
 70
     1
  9
$DIMSHO
 70
     1
  9
$DIMPOST
  1

  9
$DIMAPOST
  1

  9
$DIMALT
 70
     0
  9
$DIMALTD
 70
     2
  9
$DIMALTF
 40
25.4
  9
$DIMLFAC
 40
1.0
  9
$DIMTOFL
 70
     0
  9
$DIMTVP
 40
0.0
  9
$DIMTIX
 70
     0
  9
$DIMSOXD
 70
     0
  9
$DIMSAH
 70
     0
  9
$DIMBLK1
  1

  9
$DIMBLK2
  1

  9
$DIMSTYLE
  2
STANDARD
  9
$DIMCLRD
 70
     0
  9
$DIMCLRE
 70
     0
  9
$DIMCLRT
 70
     0
  9
$DIMTFAC
 40
1.0
  9
$DIMGAP
 40
0.09
  9
$DIMJUST
 70
     0
  9
$DIMSD1
 70
     0
  9
$DIMSD2
 70
     0
  9
$DIMTOLJ
 70
     1
  9
$DIMTZIN
 70
     0
  9
$DIMALTZ
 70
     0
  9
$DIMALTTZ
 70
     0
  9
$DIMFIT
 70
     3
  9
$DIMUPT
 70
     0
  9
$DIMUNIT
 70
     2
  9
$DIMDEC
 70
     4
  9
$DIMTDEC
 70
     4
  9
$DIMALTU
 70
     2
  9
$DIMALTTD
 70
     2
  9
$DIMTXSTY
  7
STANDARD
  9
$DIMAUNIT
 70
     0
  9
$LUNITS
 70
     2
  9
$LUPREC
 70
     4
  9
$SKETCHINC
 40
0.1
  9
$FILLETRAD
 40
0.0
  9
$AUNITS
 70
     0
  9
$AUPREC
 70
     0
  9
$MENU
  1
.
  9
$ELEVATION
 40
0.0
  9
$PELEVATION
 40
0.0
  9
$THICKNESS
 40
0.0
  9
$LIMCHECK
 70
     0
  9
$BLIPMODE
 70
     0
  9
$CHAMFERA
 40
0.0
  9
$CHAMFERB
 40
0.0
  9
$CHAMFERC
 40
0.0
  9
$CHAMFERD
 40
0.0
  9
$SKPOLY
 70
     0
  9
$TDCREATE
 40
2454698.405940208
  9
$TDUPDATE
 40
2454698.410674189
  9
$TDINDWG
 40
0.0047339815
  9
$TDUSRTIMER
 40
0.0047339815
  9
$USRTIMER
 70
     1
  9
$ANGBASE
 50
0.0
  9
$ANGDIR
 70
     0
  9
$PDMODE
 70
     0
  9
$PDSIZE
 40
0.0
  9
$PLINEWID
 40
0.0
  9
$COORDS
 70
     1
  9
$SPLFRAME
 70
     0
  9
$SPLINETYPE
 70
     6
  9
$SPLINESEGS
 70
     8
  9
$ATTDIA
 70
     0
  9
$ATTREQ
 70
     1
  9
$HANDLING
 70
 22529
  9
$HANDSEED
  5
262
  9
$SURFTAB1
 70
     6
  9
$SURFTAB2
 70
     6
  9
$SURFTYPE
 70
     6
  9
$SURFU
 70
     6
  9
$SURFV
 70
     6
  9
$UCSNAME
  2

  9
$UCSORG
 10
0.0
 20
0.0
 30
0.0
  9
$UCSXDIR
 10
1.0
 20
0.0
 30
0.0
  9
$UCSYDIR
 10
0.0
 20
1.0
 30
0.0
  9
$PUCSNAME
  2

  9
$PUCSORG
 10
0.0
 20
0.0
 30
0.0
  9
$PUCSXDIR
 10
1.0
 20
0.0
 30
0.0
  9
$PUCSYDIR
 10
0.0
 20
1.0
 30
0.0
  9
$USERI1
 70
     0
  9
$USERI2
 70
     0
  9
$USERI3
 70
     0
  9
$USERI4
 70
     0
  9
$USERI5
 70
     0
  9
$USERR1
 40
0.0
  9
$USERR2
 40
0.0
  9
$USERR3
 40
0.0
  9
$USERR4
 40
0.0
  9
$USERR5
 40
0.0
  9
$WORLDVIEW
 70
     1
  9
$SHADEDGE
 70
     3
  9
$SHADEDIF
 70
    70
  9
$TILEMODE
 70
     1
  9
$MAXACTVP
 70
    64
  9
$PINSBASE
 10
0.0
 20
0.0
 30
0.0
  9
$PLIMCHECK
 70
     0
  9
$PEXTMIN
 10
1.000000000000000E+20
 20
1.000000000000000E+20
 30
1.000000000000000E+20
  9
$PEXTMAX
 10
-1.000000000000000E+20
 20
-1.000000000000000E+20
 30
-1.000000000000000E+20
  9
$PLIMMIN
 10
0.0
 20
0.0
  9
$PLIMMAX
 10
12.0
 20
9.0
  9
$UNITMODE
 70
     0
  9
$VISRETAIN
 70
     1
  9
$PLINEGEN
 70
     0
  9
$PSLTSCALE
 70
     1
  9
$TREEDEPTH
 70
  3020
  9
$PICKSTYLE
 70
     1
  9
$CMLSTYLE
  2
STANDARD
  9
$CMLJUST
 70
     0
  9
$CMLSCALE
 40
1.0
  9
$PROXYGRAPHICS
 70
     1
  9
$MEASUREMENT
 70
     0
  0
ENDSEC
  0
SECTION
  2
CLASSES
  0
CLASS
  1
ACDBDICTIONARYWDFLT
  2
AcDbDictionaryWithDefault
  3
AutoCAD 2000
 90
        0
280
     0
281
     0
  0
CLASS
  1
ACDBPLACEHOLDER
  2
AcDbPlaceHolder
  3
AutoCAD 2000
 90
        0
280
     0
281
     0
  0
CLASS
  1
LAYOUT
  2
AcDbLayout
  3
AutoCAD 2000
 90
        0
280
     0
281
     0
  0
CLASS
  1
DICTIONARYVAR
  2
AcDbDictionaryVar
  3
AutoCAD 2000
 90
        0
280
     0
281
     0
  0
CLASS
  1
LONG_TRANSACTION
  2
AcDbLongTransaction
  3
AutoCAD 2000
 90
        0
280
     0
281
     0
  0
CLASS
  1
LWPOLYLINE
  2
AcDbPolyline
  3
AutoCAD 2000
 90
        0
280
     0
281
     1
  0
CLASS
  1
HATCH
  2
AcDbHatch
  3
AutoCAD 2000
 90
        0
280
     0
281
     1
  0
CLASS
  1
XRECORD
  2
AcDbXrecord
  3
AutoCAD 2000
 90
        0
280
     0
281
     0
  0
ENDSEC
  0
SECTION
  2
TABLES
  0
TABLE
  2
VPORT
  5
8
330
0
100
AcDbSymbolTable
 70
     2
  0
VPORT
  5
23D
330
8
100
AcDbSymbolTableRecord
100
AcDbViewportTableRecord
  2
*ACTIVE
 70
     0
 10
0.0
 20
0.0
 11
1.0
 21
1.0
 12
27.0
 22
68.00000000000001
 13
0.0
 23
0.0
 14
1.0
 24
1.0
 15
0.0
 25
0.0
 16
0.0
 26
0.0
 36
1.0
 17
0.0
 27
0.0
 37
0.0
 40
136.7874588746802
 41
2.078104993597951
 42
50.0
 43
0.0
 44
0.0
 50
0.0
 51
0.0
 71
     0
 72
   100
 73
     1
 74
     3
 75
     0
 76
     0
 77
     0
 78
     0
  0
ENDTAB
  0
TABLE
  2
LTYPE
  5
5
330
0
100
AcDbSymbolTable
 70
     1
  0
LTYPE
  5
13
330
5
100
AcDbSymbolTableRecord
100
AcDbLinetypeTableRecord
  2
BYBLOCK
 70
     0
  3

 72
    65
 73
     0
 40
0.0
  0
LTYPE
  5
14
330
5
100
AcDbSymbolTableRecord
100
AcDbLinetypeTableRecord
  2
BYLAYER
 70
     0
  3

 72
    65
 73
     0
 40
0.0
  0
LTYPE
  5
15
330
5
100
AcDbSymbolTableRecord
100
AcDbLinetypeTableRecord
  2
CONTINUOUS
 70
     0
  3
Solid line
 72
    65
 73
     0
 40
0.0
  0
ENDTAB
  0
TABLE
  2
LAYER
  5
2
330
0
100
AcDbSymbolTable
 70
     1
  0
LAYER
  5
10
330
2
100
AcDbSymbolTableRecord
100
AcDbLayerTableRecord
  2
0
 70
     0
 62
     7
  6
CONTINUOUS
  0
ENDTAB
  0
TABLE
  2
STYLE
  5
3
330
0
100
AcDbSymbolTable
 70
     1
  0
STYLE
  5
11
330
3
100
AcDbSymbolTableRecord
100
AcDbTextStyleTableRecord
  2
STANDARD
 70
     0
 40
0.0
 41
1.0
 50
0.0
 71
     0
 42
0.2
  3
txt
  4

  0
ENDTAB
  0
TABLE
  2
VIEW
  5
6
330
0
100
AcDbSymbolTable
 70
     0
  0
ENDTAB
  0
TABLE
  2
UCS
  5
7
330
0
100
AcDbSymbolTable
 70
     0
  0
ENDTAB
  0
TABLE
  2
APPID
  5
9
330
0
100
AcDbSymbolTable
 70
     1
  0
APPID
  5
12
330
9
100
AcDbSymbolTableRecord
100
AcDbRegAppTableRecord
  2
ACAD
 70
     0
  0
ENDTAB
  0
TABLE
  2
DIMSTYLE
  5
A
330
0
100
AcDbSymbolTable
 70
     1
  0
DIMSTYLE
105
237
330
A
100
AcDbSymbolTableRecord
100
AcDbDimStyleTableRecord
  2
STANDARD
 70
     0
  3

  4

  5

  6

  7

 40
1.0
 41
0.18
 42
0.0625
 43
0.38
 44
0.18
 45
0.0
 46
0.0
 47
0.0
 48
0.0
140
0.18
141
0.09
142
0.0
143
25.4
144
1.0
145
0.0
146
1.0
147
0.09
 71
     0
 72
     0
 73
     1
 74
     1
 75
     0
 76
     0
 77
     0
 78
     0
170
     0
171
     2
172
     0
173
     0
174
     0
175
     0
176
     0
177
     0
178
     0
270
     2
271
     4
272
     4
273
     2
274
     2
340
11
275
     0
280
     0
281
     0
282
     0
283
     1
284
     0
285
     0
286
     0
287
     3
288
     0
  0
ENDTAB
  0
TABLE
  2
BLOCK_RECORD
  5
1
330
0
100
AcDbSymbolTable
 70
     0
  0
BLOCK_RECORD
  5
1E
102
{ACAD_XDICTIONARY
360
260
102
}
330
1
100
AcDbSymbolTableRecord
100
AcDbBlockTableRecord
  2
*MODEL_SPACE
  0
BLOCK_RECORD
  5
1A
102
{ACAD_XDICTIONARY
360
25E
102
}
330
1
100
AcDbSymbolTableRecord
100
AcDbBlockTableRecord
  2
*PAPER_SPACE
  0
ENDTAB
  0
ENDSEC
  0
SECTION
  2
BLOCKS
  0
BLOCK
  5
1F
330
1E
100
AcDbEntity
  8
0
100
AcDbBlockBegin
  2
*MODEL_SPACE
 70
     0
 10
0.0
 20
0.0
 30
0.0
  3
*MODEL_SPACE
  1

  0
ENDBLK
  5
20
330
1E
100
AcDbEntity
  8
0
100
AcDbBlockEnd
  0
BLOCK
  5
1B
330
1A
100
AcDbEntity
 67
     1
  8
0
100
AcDbBlockBegin
  2
*PAPER_SPACE
 70
     0
 10
0.0
 20
0.0
 30
0.0
  3
*PAPER_SPACE
  1

  0
ENDBLK
  5
1C
330
1A
100
AcDbEntity
 67
     1
  8
0
100
AcDbBlockEnd
  0
ENDSEC
  0
SECTION
  2
ENTITIES
  0
LINE
  5
22
330
1E
100
AcDbEntity
  8
0
100
AcDbLine
 10
8.0
 20
89.67396499999999
 30
0.0
 11
13.6
 21
85.273965
 31
0.0
  0
LINE
  5
23
330
1E
100
AcDbEntity
  8
0
100
AcDbLine
 10
3.6
 20
95.273965
 30
0.0
 11
8.0
 21
89.67396499999999
 31
0.0
  0
LINE
  5
24
330
1E
100
AcDbEntity
  8
0
100
AcDbLine
 10
1.0
 20
101.7739649999999
 30
0.0
 11
3.6
 21
95.273965
 31
0.0
  0
LINE
  5
25
330
1E
100
AcDbEntity
  8
0
100
AcDbLine
 10
1.0
 20
101.7739649999999
 30
0.0
 11
3.6
 21
95.273965
 31
0.0
  0
LINE
  5
26
330
1E
100
AcDbEntity
  8
0
100
AcDbLine
 10
1.0
 20
115.5739649999999
 30
0.0
 11
3.6
 21
122.0739649999999
 31
0.0
  0
LINE
  5
27
330
1E
100
AcDbEntity
  8
0
100
AcDbLine
 10
3.6
 20
122.0739649999999
 30
0.0
 11
8.0
 21
127.6739649999999
 31
0.0
  0
LINE
  5
28
330
1E
100
AcDbEntity
  8
0
100
AcDbLine
 10
1.0
 20
115.5739649999999
 30
0.0
 11
3.6
 21
122.0739649999999
 31
0.0
  0
LINE
  5
29
330
1E
100
AcDbEntity
  8
0
100
AcDbLine
 10
0.0000000000000015
 20
108.6739649999999
 30
0.0
 11
1.0
 21
115.5739649999999
 31
0.0
  0
LINE
  5
2A
330
1E
100
AcDbEntity
  8
0
100
AcDbLine
 10
0.0000000000000015
 20
108.6739649999999
 30
0.0
 11
1.0
 21
101.7739649999999
 31
0.0
  0
LINE
  5
2B
330
1E
100
AcDbEntity
  8
0
100
AcDbLine
 10
9.5
 20
108.6739649999999
 30
0.0
 11
10.1
 21
113.1739649999999
 31
0.0
  0
LINE
  5
2C
330
1E
100
AcDbEntity
  8
0
100
AcDbLine
 10
9.5
 20
108.6739649999999
 30
0.0
 11
10.1
 21
104.173965
 31
0.0
  0
LINE
  5
2D
330
1E
100
AcDbEntity
  8
0
100
AcDbLine
 10
11.5
 20
27.183265
 30
0.0
 11
12.0
 21
27.683265
 31
0.0
  0
LINE
  5
2E
330
1E
100
AcDbEntity
  8
0
100
AcDbLine
 10
11.5
 20
27.183265
 30
0.0
 11
11.5
 21
26.683265
 31
0.0
  0
LINE
  5
2F
330
1E
100
AcDbEntity
  8
0
100
AcDbLine
 10
11.5
 20
27.183265
 30
0.0
 11
12.09999999999999
 21
27.183265
 31
0.0
  0
LINE
  5
30
330
1E
100
AcDbEntity
  8
0
100
AcDbLine
 10
12.09999999999999
 20
27.183265
 30
0.0
 11
13.6
 21
27.183265
 31
0.0
  0
LINE
  5
31
330
1E
100
AcDbEntity
  8
0
100
AcDbLine
 10
12.09999999999999
 20
26.683265
 30
0.0
 11
13.6
 21
26.683265
 31
0.0
  0
LINE
  5
32
330
1E
100
AcDbEntity
  8
0
100
AcDbLine
 10
13.0
 20
28.183265
 30
0.0
 11
13.5
 21
28.683265
 31
0.0
  0
LINE
  5
33
330
1E
100
AcDbEntity
  8
0
100
AcDbLine
 10
12.0
 20
27.683265
 30
0.0
 11
13.0
 21
28.183265
 31
0.0
  0
LINE
  5
34
330
1E
100
AcDbEntity
  8
0
100
AcDbLine
 10
11.5
 20
26.683265
 30
0.0
 11
12.0
 21
26.183265
 31
0.0
  0
LINE
  5
35
330
1E
100
AcDbEntity
  8
0
100
AcDbLine
 10
11.5
 20
26.683265
 30
0.0
 11
11.5
 21
27.183265
 31
0.0
  0
LINE
  5
36
330
1E
100
AcDbEntity
  8
0
100
AcDbLine
 10
11.5
 20
26.683265
 30
0.0
 11
12.09999999999999
 21
26.683265
 31
0.0
  0
LINE
  5
37
330
1E
100
AcDbEntity
  8
0
100
AcDbLine
 10
12.0
 20
26.183265
 30
0.0
 11
13.0
 21
25.68326499999999
 31
0.0
  0
LINE
  5
38
330
1E
100
AcDbEntity
  8
0
100
AcDbLine
 10
13.6
 20
27.183265
 30
0.0
 11
16.1
 21
27.183265
 31
0.0
  0
LINE
  5
39
330
1E
100
AcDbEntity
  8
0
100
AcDbLine
 10
13.6
 20
26.683265
 30
0.0
 11
16.1
 21
26.683265
 31
0.0
  0
LINE
  5
3A
330
1E
100
AcDbEntity
  8
0
100
AcDbLine
 10
13.5
 20
28.683265
 30
0.0
 11
14.0
 21
30.183265
 31
0.0
  0
LINE
  5
3B
330
1E
100
AcDbEntity
  8
0
100
AcDbLine
 10
13.5
 20
25.68326499999999
 30
0.0
 11
14.9
 21
25.68326499999999
 31
0.0
  0
LINE
  5
3C
330
1E
100
AcDbEntity
  8
0
100
AcDbLine
 10
13.0
 20
25.68326499999999
 30
0.0
 11
13.5
 21
25.68326499999999
 31
0.0
  0
LINE
  5
3D
330
1E
100
AcDbEntity
  8
0
100
AcDbLine
 10
13.5
 20
95.67396499999999
 30
0.0
 11
14.0
 21
88.17396499999999
 31
0.0
  0
LINE
  5
3E
330
1E
100
AcDbEntity
  8
0
100
AcDbLine
 10
14.312
 20
9.064565000000019
 30
0.0
 11
14.77999999999999
 21
8.79486500000001
 31
0.0
  0
LINE
  5
3F
330
1E
100
AcDbEntity
  8
0
100
AcDbLine
 10
15.72
 20
0.8426950000000159
 30
0.0
 11
16.87199999999999
 21
0.613405000000016
 31
0.0
  0
LINE
  5
40
330
1E
100
AcDbEntity
  8
0
100
AcDbLine
 10
16.87199999999999
 20
0.613405000000016
 30
0.0
 11
18.74399999999999
 21
0.411805000000016
 31
0.0
  0
LINE
  5
41
330
1E
100
AcDbEntity
  8
0
100
AcDbLine
 10
16.584
 20
0.8469150000000158
 30
0.0
 11
18.504
 21
0.6373450000000171
 31
0.0
  0
LINE
  5
42
330
1E
100
AcDbEntity
  8
0
100
AcDbLine
 10
15.288
 20
1.091805000000019
 30
0.0
 11
15.72
 21
0.8426950000000159
 31
0.0
  0
LINE
  5
43
330
1E
100
AcDbEntity
  8
0
100
AcDbLine
 10
15.432
 20
1.084075000000019
 30
0.0
 11
16.584
 21
0.8469150000000158
 31
0.0
  0
LINE
  5
44
330
1E
100
AcDbEntity
  8
0
100
AcDbLine
 10
15.0
 20
1.337165000000019
 30
0.0
 11
15.432
 21
1.084075000000019
 31
0.0
  0
LINE
  5
45
330
1E
100
AcDbEntity
  8
0
100
AcDbLine
 10
15.0
 20
1.337165000000019
 30
0.0
 11
15.288
 21
1.091805000000019
 31
0.0
  0
LINE
  5
46
330
1E
100
AcDbEntity
  8
0
100
AcDbLine
 10
15.0
 20
1.337165000000019
 30
0.0
 11
15.0
 21
8.75105891025643
 31
0.0
  0
LINE
  5
47
330
1E
100
AcDbEntity
  8
0
100
AcDbLine
 10
15.0
 20
8.75105891025643
 30
0.0
 11
15.0
 21
1.337165000000019
 31
0.0
  0
LINE
  5
48
330
1E
100
AcDbEntity
  8
0
100
AcDbLine
 10
16.028
 20
8.546365000000019
 30
0.0
 11
18.05599999999999
 21
8.327965000000018
 31
0.0
  0
LINE
  5
49
330
1E
100
AcDbEntity
  8
0
100
AcDbLine
 10
14.77999999999999
 20
8.79486500000001
 30
0.0
 11
16.028
 21
8.546365000000019
 31
0.0
  0
LINE
  5
4A
330
1E
100
AcDbEntity
  8
0
100
AcDbLine
 10
15.716
 20
8.840165000000009
 30
0.0
 11
17.796
 21
8.613165000000019
 31
0.0
  0
LINE
  5
4B
330
1E
100
AcDbEntity
  8
0
100
AcDbLine
 10
14.468
 20
9.097165000000019
 30
0.0
 11
15.716
 21
8.840165000000009
 31
0.0
  0
LINE
  5
4C
330
1E
100
AcDbEntity
  8
0
100
AcDbLine
 10
15.716
 20
16.199665
 30
0.0
 11
17.796
 21
15.972565
 31
0.0
  0
LINE
  5
4D
330
1E
100
AcDbEntity
  8
0
100
AcDbLine
 10
16.584
 20
16.547165
 30
0.0
 11
18.504
 21
16.33756499999999
 31
0.0
  0
LINE
  5
4E
330
1E
100
AcDbEntity
  8
0
100
AcDbLine
 10
16.028
 20
16.519265
 30
0.0
 11
18.05599999999999
 21
16.30066499999999
 31
0.0
  0
LINE
  5
4F
330
1E
100
AcDbEntity
  8
0
100
AcDbLine
 10
15.432
 20
16.784465
 30
0.0
 11
16.584
 21
16.547165
 31
0.0
  0
LINE
  5
50
330
1E
100
AcDbEntity
  8
0
100
AcDbLine
 10
16.584
 20
24.21416499999999
 30
0.0
 11
18.504
 21
24.004565
 31
0.0
  0
LINE
  5
51
330
1E
100
AcDbEntity
  8
0
100
AcDbLine
 10
16.87199999999999
 20
24.53266499999999
 30
0.0
 11
18.74399999999999
 21
24.331065
 31
0.0
  0
LINE
  5
52
330
1E
100
AcDbEntity
  8
0
100
AcDbLine
 10
16.87199999999999
 20
25.489465
 30
0.0
 11
18.6706792265741
 21
25.68326499999999
 31
0.0
  0
LINE
  5
53
330
1E
100
AcDbEntity
  8
0
100
AcDbLine
 10
15.72
 20
25.260165
 30
0.0
 11
16.87199999999999
 21
25.489465
 31
0.0
  0
LINE
  5
54
330
1E
100
AcDbEntity
  8
0
100
AcDbLine
 10
15.72
 20
24.76206499999999
 30
0.0
 11
16.87199999999999
 21
24.53266499999999
 31
0.0
  0
LINE
  5
55
330
1E
100
AcDbEntity
  8
0
100
AcDbLine
 10
15.288
 20
25.011065
 30
0.0
 11
15.72
 21
24.76206499999999
 31
0.0
  0
LINE
  5
56
330
1E
100
AcDbEntity
  8
0
100
AcDbLine
 10
15.288
 20
25.011065
 30
0.0
 11
15.72
 21
25.260165
 31
0.0
  0
LINE
  5
57
330
1E
100
AcDbEntity
  8
0
100
AcDbLine
 10
15.432
 20
24.451365
 30
0.0
 11
16.584
 21
24.21416499999999
 31
0.0
  0
LINE
  5
58
330
1E
100
AcDbEntity
  8
0
100
AcDbLine
 10
15.0
 20
24.70436499999999
 30
0.0
 11
15.432
 21
24.451365
 31
0.0
  0
LINE
  5
59
330
1E
100
AcDbEntity
  8
0
100
AcDbLine
 10
15.0
 20
24.70436499999999
 30
0.0
 11
15.0
 21
17.03736499999999
 31
0.0
  0
LINE
  5
5A
330
1E
100
AcDbEntity
  8
0
100
AcDbLine
 10
15.0
 20
24.70436499999999
 30
0.0
 11
15.288
 21
25.011065
 31
0.0
  0
LINE
  5
5B
330
1E
100
AcDbEntity
  8
0
100
AcDbLine
 10
15.0
 20
17.03736499999999
 30
0.0
 11
15.432
 21
16.784465
 31
0.0
  0
LINE
  5
5C
330
1E
100
AcDbEntity
  8
0
100
AcDbLine
 10
15.0
 20
17.03736499999999
 30
0.0
 11
15.0
 21
24.70436499999999
 31
0.0
  0
LINE
  5
5D
330
1E
100
AcDbEntity
  8
0
100
AcDbLine
 10
14.77999999999999
 20
17.307265
 30
0.0
 11
15.0
 21
17.3510534615385
 31
0.0
  0
LINE
  5
5E
330
1E
100
AcDbEntity
  8
0
100
AcDbLine
 10
14.77999999999999
 20
16.767665
 30
0.0
 11
16.028
 21
16.519265
 31
0.0
  0
LINE
  5
5F
330
1E
100
AcDbEntity
  8
0
100
AcDbLine
 10
14.312
 20
17.03736499999999
 30
0.0
 11
14.77999999999999
 21
16.767665
 31
0.0
  0
LINE
  5
60
330
1E
100
AcDbEntity
  8
0
100
AcDbLine
 10
14.312
 20
17.03736499999999
 30
0.0
 11
14.77999999999999
 21
17.307265
 31
0.0
  0
LINE
  5
61
330
1E
100
AcDbEntity
  8
0
100
AcDbLine
 10
14.468
 20
16.456665
 30
0.0
 11
15.716
 21
16.199665
 31
0.0
  0
LINE
  5
62
330
1E
100
AcDbEntity
  8
0
100
AcDbLine
 10
14.0
 20
16.73076499999999
 30
0.0
 11
14.468
 21
16.456665
 31
0.0
  0
LINE
  5
63
330
1E
100
AcDbEntity
  8
0
100
AcDbLine
 10
14.0
 20
16.73076499999999
 30
0.0
 11
14.0
 21
9.371265000000018
 31
0.0
  0
LINE
  5
64
330
1E
100
AcDbEntity
  8
0
100
AcDbLine
 10
14.0
 20
16.73076499999999
 30
0.0
 11
14.312
 21
17.03736499999999
 31
0.0
  0
LINE
  5
65
330
1E
100
AcDbEntity
  8
0
100
AcDbLine
 10
14.0
 20
9.371265000000018
 30
0.0
 11
14.468
 21
9.097165000000019
 31
0.0
  0
LINE
  5
66
330
1E
100
AcDbEntity
  8
0
100
AcDbLine
 10
14.0
 20
9.371265000000018
 30
0.0
 11
14.0
 21
16.73076499999999
 31
0.0
  0
LINE
  5
67
330
1E
100
AcDbEntity
  8
0
100
AcDbLine
 10
14.0
 20
9.371265000000018
 30
0.0
 11
14.312
 21
9.064565000000019
 31
0.0
  0
LINE
  5
68
330
1E
100
AcDbEntity
  8
0
100
AcDbLine
 10
18.74399999999999
 20
0.411805000000016
 30
0.0
 11
21.19199999999999
 21
0.257515000000017
 31
0.0
  0
LINE
  5
69
330
1E
100
AcDbEntity
  8
0
100
AcDbLine
 10
18.504
 20
0.6373450000000171
 30
0.0
 11
21.048
 21
0.4791750000000161
 31
0.0
  0
LINE
  5
6A
330
1E
100
AcDbEntity
  8
0
100
AcDbLine
 10
18.05599999999999
 20
8.327965000000018
 30
0.0
 11
20.708
 21
8.160865000000018
 31
0.0
  0
LINE
  5
6B
330
1E
100
AcDbEntity
  8
0
100
AcDbLine
 10
17.796
 20
8.613165000000019
 30
0.0
 11
20.552
 21
8.441765000000019
 31
0.0
  0
LINE
  5
6C
330
1E
100
AcDbEntity
  8
0
100
AcDbLine
 10
18.504
 20
16.33756499999999
 30
0.0
 11
21.048
 21
16.179465
 31
0.0
  0
LINE
  5
6D
330
1E
100
AcDbEntity
  8
0
100
AcDbLine
 10
18.74399999999999
 20
24.331065
 30
0.0
 11
21.19199999999999
 21
24.176865
 31
0.0
  0
LINE
  5
6E
330
1E
100
AcDbEntity
  8
0
100
AcDbLine
 10
18.504
 20
24.004565
 30
0.0
 11
21.048
 21
23.846465
 31
0.0
  0
LINE
  5
6F
330
1E
100
AcDbEntity
  8
0
100
AcDbLine
 10
18.05599999999999
 20
16.30066499999999
 30
0.0
 11
20.708
 21
16.133665
 31
0.0
  0
LINE
  5
70
330
1E
100
AcDbEntity
  8
0
100
AcDbLine
 10
17.796
 20
15.972565
 30
0.0
 11
20.552
 21
15.80126499999999
 31
0.0
  0
LINE
  5
71
330
1E
100
AcDbEntity
  8
0
100
AcDbLine
 10
17.1
 20
25.68326499999999
 30
0.0
 11
35.32932077342589
 21
25.68326499999999
 31
0.0
  0
LINE
  5
72
330
1E
100
AcDbEntity
  8
0
100
AcDbLine
 10
14.0
 20
88.17396499999999
 30
0.0
 11
14.0
 21
30.183265
 31
0.0
  0
LINE
  5
73
330
1E
100
AcDbEntity
  8
0
100
AcDbLine
 10
16.1
 20
26.683265
 30
0.0
 11
19.3
 21
26.683265
 31
0.0
  0
LINE
  5
74
330
1E
100
AcDbEntity
  8
0
100
AcDbLine
 10
19.3
 20
95.273965
 30
0.0
 11
23.0
 21
93.77396500000001
 31
0.0
  0
LINE
  5
75
330
1E
100
AcDbEntity
  8
0
100
AcDbLine
 10
18.5
 20
93.97396500000001
 30
0.0
 11
22.6
 21
92.27396500000001
 31
0.0
  0
LINE
  5
76
330
1E
100
AcDbEntity
  8
0
100
AcDbLine
 10
18.3
 20
93.473965
 30
0.0
 11
22.5
 21
91.773965
 31
0.0
  0
LINE
  5
77
330
1E
100
AcDbEntity
  8
0
100
AcDbLine
 10
18.1
 20
93.07396500000001
 30
0.0
 11
22.39999999999999
 21
91.37396499999999
 31
0.0
  0
LINE
  5
78
330
1E
100
AcDbEntity
  8
0
100
AcDbLine
 10
16.1
 20
27.183265
 30
0.0
 11
19.3
 21
27.183265
 31
0.0
  0
LINE
  5
79
330
1E
100
AcDbEntity
  8
0
100
AcDbLine
 10
19.3
 20
27.183265
 30
0.0
 11
23.0
 21
27.183265
 31
0.0
  0
LINE
  5
7A
330
1E
100
AcDbEntity
  8
0
100
AcDbLine
 10
19.3
 20
26.683265
 30
0.0
 11
23.0
 21
26.683265
 31
0.0
  0
LINE
  5
7B
330
1E
100
AcDbEntity
  8
0
100
AcDbLine
 10
14.0
 20
30.183265
 30
0.0
 11
14.0
 21
88.17396499999999
 31
0.0
  0
LINE
  5
7C
330
1E
100
AcDbEntity
  8
0
100
AcDbLine
 10
14.9
 20
25.68326499999999
 30
0.0
 11
17.1
 21
25.68326499999999
 31
0.0
  0
LINE
  5
7D
330
1E
100
AcDbEntity
  8
0
100
AcDbLine
 10
13.6
 20
85.273965
 30
0.0
 11
14.0
 21
85.11396500000001
 31
0.0
  0
LINE
  5
7E
330
1E
100
AcDbEntity
  8
0
100
AcDbLine
 10
10.6
 20
104.273965
 30
0.0
 11
12.3
 21
100.1739649999999
 31
0.0
  0
LINE
  5
7F
330
1E
100
AcDbEntity
  8
0
100
AcDbLine
 10
10.1
 20
104.173965
 30
0.0
 11
11.8
 21
99.973965
 31
0.0
  0
LINE
  5
80
330
1E
100
AcDbEntity
  8
0
100
AcDbLine
 10
11.4
 20
99.77396500000001
 30
0.0
 11
14.3
 21
95.973965
 31
0.0
  0
LINE
  5
81
330
1E
100
AcDbEntity
  8
0
100
AcDbLine
 10
12.09999999999999
 20
104.6739649999999
 30
0.0
 11
13.6
 21
100.9739649999999
 31
0.0
  0
LINE
  5
82
330
1E
100
AcDbEntity
  8
0
100
AcDbLine
 10
12.3
 20
100.1739649999999
 30
0.0
 11
15.0
 21
96.673965
 31
0.0
  0
LINE
  5
83
330
1E
100
AcDbEntity
  8
0
100
AcDbLine
 10
11.8
 20
99.973965
 30
0.0
 11
14.59999999999999
 21
96.27396500000001
 31
0.0
  0
LINE
  5
84
330
1E
100
AcDbEntity
  8
0
100
AcDbLine
 10
11.5
 20
108.6739649999999
 30
0.0
 11
12.09999999999999
 21
112.6739649999999
 31
0.0
  0
LINE
  5
85
330
1E
100
AcDbEntity
  8
0
100
AcDbLine
 10
11.5
 20
108.6739649999999
 30
0.0
 11
12.09999999999999
 21
104.6739649999999
 31
0.0
  0
LINE
  5
86
330
1E
100
AcDbEntity
  8
0
100
AcDbLine
 10
10.0
 20
108.6739649999999
 30
0.0
 11
10.6
 21
113.0739649999999
 31
0.0
  0
LINE
  5
87
330
1E
100
AcDbEntity
  8
0
100
AcDbLine
 10
10.0
 20
108.6739649999999
 30
0.0
 11
10.6
 21
104.273965
 31
0.0
  0
LINE
  5
88
330
1E
100
AcDbEntity
  8
0
100
AcDbLine
 10
16.1
 20
97.77396500000001
 30
0.0
 11
19.3
 21
95.273965
 31
0.0
  0
LINE
  5
89
330
1E
100
AcDbEntity
  8
0
100
AcDbLine
 10
15.0
 20
96.673965
 30
0.0
 11
18.5
 21
93.97396500000001
 31
0.0
  0
LINE
  5
8A
330
1E
100
AcDbEntity
  8
0
100
AcDbLine
 10
14.59999999999999
 20
96.27396500000001
 30
0.0
 11
18.3
 21
93.473965
 31
0.0
  0
LINE
  5
8B
330
1E
100
AcDbEntity
  8
0
100
AcDbLine
 10
13.6
 20
100.9739649999999
 30
0.0
 11
16.1
 21
97.77396500000001
 31
0.0
  0
LINE
  5
8C
330
1E
100
AcDbEntity
  8
0
100
AcDbLine
 10
12.8842519685039
 20
97.82908311023621
 30
0.0
 11
13.5
 21
95.67396499999999
 31
0.0
  0
LINE
  5
8D
330
1E
100
AcDbEntity
  8
0
100
AcDbLine
 10
14.3
 20
95.973965
 30
0.0
 11
18.1
 21
93.07396500000001
 31
0.0
  0
LINE
  5
8E
330
1E
100
AcDbEntity
  8
0
100
AcDbLine
 10
9.699999999999999
 20
104.073965
 30
0.0
 11
11.4
 21
99.77396500000001
 31
0.0
  0
LINE
  5
8F
330
1E
100
AcDbEntity
  8
0
100
AcDbLine
 10
13.6
 20
116.3739649999999
 30
0.0
 11
16.1
 21
119.5739649999999
 31
0.0
  0
LINE
  5
90
330
1E
100
AcDbEntity
  8
0
100
AcDbLine
 10
12.09999999999999
 20
112.6739649999999
 30
0.0
 11
13.6
 21
116.3739649999999
 31
0.0
  0
LINE
  5
91
330
1E
100
AcDbEntity
  8
0
100
AcDbLine
 10
12.3
 20
117.1739649999999
 30
0.0
 11
15.0
 21
120.673965
 31
0.0
  0
LINE
  5
92
330
1E
100
AcDbEntity
  8
0
100
AcDbLine
 10
10.6
 20
113.0739649999999
 30
0.0
 11
12.3
 21
117.1739649999999
 31
0.0
  0
LINE
  5
93
330
1E
100
AcDbEntity
  8
0
100
AcDbLine
 10
11.8
 20
117.3739649999999
 30
0.0
 11
14.59999999999999
 21
121.0739649999999
 31
0.0
  0
LINE
  5
94
330
1E
100
AcDbEntity
  8
0
100
AcDbLine
 10
10.1
 20
113.1739649999999
 30
0.0
 11
11.8
 21
117.3739649999999
 31
0.0
  0
LINE
  5
95
330
1E
100
AcDbEntity
  8
0
100
AcDbLine
 10
11.4
 20
117.5739649999999
 30
0.0
 11
14.3
 21
121.3739649999999
 31
0.0
  0
LINE
  5
96
330
1E
100
AcDbEntity
  8
0
100
AcDbLine
 10
16.1
 20
119.5739649999999
 30
0.0
 11
19.3
 21
122.0739649999999
 31
0.0
  0
LINE
  5
97
330
1E
100
AcDbEntity
  8
0
100
AcDbLine
 10
19.3
 20
122.0739649999999
 30
0.0
 11
23.0
 21
123.5739649999999
 31
0.0
  0
LINE
  5
98
330
1E
100
AcDbEntity
  8
0
100
AcDbLine
 10
15.0
 20
120.673965
 30
0.0
 11
18.5
 21
123.3739649999999
 31
0.0
  0
LINE
  5
99
330
1E
100
AcDbEntity
  8
0
100
AcDbLine
 10
14.59999999999999
 20
121.0739649999999
 30
0.0
 11
18.3
 21
123.8739649999999
 31
0.0
  0
LINE
  5
9A
330
1E
100
AcDbEntity
  8
0
100
AcDbLine
 10
18.5
 20
123.3739649999999
 30
0.0
 11
22.6
 21
125.0739649999999
 31
0.0
  0
LINE
  5
9B
330
1E
100
AcDbEntity
  8
0
100
AcDbLine
 10
18.3
 20
123.8739649999999
 30
0.0
 11
22.5
 21
125.5739649999999
 31
0.0
  0
LINE
  5
9C
330
1E
100
AcDbEntity
  8
0
100
AcDbLine
 10
16.4145161290327
 20
122.98767467742
 30
0.0
 11
18.1
 21
124.3289649999999
 31
0.0
  0
LINE
  5
9D
330
1E
100
AcDbEntity
  8
0
100
AcDbLine
 10
14.3
 20
121.3739649999999
 30
0.0
 11
18.1
 21
124.2739649999999
 31
0.0
  0
LINE
  5
9E
330
1E
100
AcDbEntity
  8
0
100
AcDbLine
 10
18.1
 20
124.2739649999999
 30
0.0
 11
22.39999999999999
 21
125.9739649999999
 31
0.0
  0
LINE
  5
9F
330
1E
100
AcDbEntity
  8
0
100
AcDbLine
 10
9.699999999999999
 20
113.2739649999999
 30
0.0
 11
11.4
 21
117.5739649999999
 31
0.0
  0
LINE
  5
A0
330
1E
100
AcDbEntity
  8
0
100
AcDbLine
 10
9.0
 20
108.6739649999999
 30
0.0
 11
9.699999999999999
 21
104.073965
 31
0.0
  0
LINE
  5
A1
330
1E
100
AcDbEntity
  8
0
100
AcDbLine
 10
9.0
 20
108.6739649999999
 30
0.0
 11
9.699999999999999
 21
113.2739649999999
 31
0.0
  0
LINE
  5
A2
330
1E
100
AcDbEntity
  8
0
100
AcDbLine
 10
8.0
 20
127.6739649999999
 30
0.0
 11
13.6
 21
132.0739649999999
 31
0.0
  0
LINE
  5
A3
330
1E
100
AcDbEntity
  8
0
100
AcDbLine
 10
13.6
 20
132.0739649999999
 30
0.0
 11
20.1
 21
134.6739649999999
 31
0.0
  0
LINE
  5
A4
330
1E
100
AcDbEntity
  8
0
100
AcDbLine
 10
20.552
 20
8.441765000000019
 30
0.0
 11
23.67199999999999
 21
8.339065000000019
 31
0.0
  0
LINE
  5
A5
330
1E
100
AcDbEntity
  8
0
100
AcDbLine
 10
21.19199999999999
 20
0.257515000000017
 30
0.0
 11
23.976
 21
0.162685000000017
 31
0.0
  0
LINE
  5
A6
330
1E
100
AcDbEntity
  8
0
100
AcDbLine
 10
21.048
 20
0.4791750000000161
 30
0.0
 11
23.928
 21
0.3842550000000171
 31
0.0
  0
LINE
  5
A7
330
1E
100
AcDbEntity
  8
0
100
AcDbLine
 10
21.048
 20
16.179465
 30
0.0
 11
23.928
 21
16.08456499999999
 31
0.0
  0
LINE
  5
A8
330
1E
100
AcDbEntity
  8
0
100
AcDbLine
 10
22.66
 20
24.80676499999999
 30
0.0
 11
23.46
 21
24.719565
 31
0.0
  0
LINE
  5
A9
330
1E
100
AcDbEntity
  8
0
100
AcDbLine
 10
22.17999999999999
 20
24.90566499999999
 30
0.0
 11
22.66
 21
24.80676499999999
 31
0.0
  0
LINE
  5
AA
330
1E
100
AcDbEntity
  8
0
100
AcDbLine
 10
22.0
 20
25.68326499999999
 30
0.0
 11
22.0
 21
25.011065
 31
0.0
  0
LINE
  5
AB
330
1E
100
AcDbEntity
  8
0
100
AcDbLine
 10
22.0
 20
25.011065
 30
0.0
 11
22.17999999999999
 21
24.90566499999999
 31
0.0
  0
LINE
  5
AC
330
1E
100
AcDbEntity
  8
0
100
AcDbLine
 10
22.0
 20
25.011065
 30
0.0
 11
22.0
 21
25.68326499999999
 31
0.0
  0
LINE
  5
AD
330
1E
100
AcDbEntity
  8
0
100
AcDbLine
 10
21.19199999999999
 20
24.176865
 30
0.0
 11
23.976
 21
24.081965
 31
0.0
  0
LINE
  5
AE
330
1E
100
AcDbEntity
  8
0
100
AcDbLine
 10
21.048
 20
23.846465
 30
0.0
 11
23.928
 21
23.751565
 31
0.0
  0
LINE
  5
AF
330
1E
100
AcDbEntity
  8
0
100
AcDbLine
 10
20.708
 20
16.133665
 30
0.0
 11
23.724
 21
16.03086499999999
 31
0.0
  0
LINE
  5
B0
330
1E
100
AcDbEntity
  8
0
100
AcDbLine
 10
20.708
 20
8.160865000000018
 30
0.0
 11
23.724
 21
8.058065000000018
 31
0.0
  0
LINE
  5
B1
330
1E
100
AcDbEntity
  8
0
100
AcDbLine
 10
20.552
 20
15.80126499999999
 30
0.0
 11
23.67199999999999
 21
15.69846499999999
 31
0.0
  0
LINE
  5
B2
330
1E
100
AcDbEntity
  8
0
100
AcDbLine
 10
22.1667
 20
29.360165
 30
0.0
 11
22.66669999999999
 21
29.360165
 31
0.0
  0
LINE
  5
B3
330
1E
100
AcDbEntity
  8
0
100
AcDbLine
 10
22.25
 20
30.006265
 30
0.0
 11
22.4167
 21
30.006265
 31
0.0
  0
LINE
  5
B4
330
1E
100
AcDbEntity
  8
0
100
AcDbLine
 10
22.25
 20
30.006265
 30
0.0
 11
22.8333
 21
30.283165
 31
0.0
  0
LINE
  5
B5
330
1E
100
AcDbEntity
  8
0
100
AcDbLine
 10
22.0
 20
29.360165
 30
0.0
 11
22.25
 21
28.713965
 31
0.0
  0
LINE
  5
B6
330
1E
100
AcDbEntity
  8
0
100
AcDbLine
 10
22.0
 20
29.360165
 30
0.0
 11
22.1667
 21
29.360165
 31
0.0
  0
LINE
  5
B7
330
1E
100
AcDbEntity
  8
0
100
AcDbLine
 10
22.0
 20
29.360165
 30
0.0
 11
22.25
 21
30.006265
 31
0.0
  0
LINE
  5
B8
330
1E
100
AcDbEntity
  8
0
100
AcDbLine
 10
22.25
 20
28.713965
 30
0.0
 11
22.4167
 21
28.713965
 31
0.0
  0
LINE
  5
B9
330
1E
100
AcDbEntity
  8
0
100
AcDbLine
 10
22.25
 20
28.713965
 30
0.0
 11
22.8333
 21
28.437065
 31
0.0
  0
LINE
  5
BA
330
1E
100
AcDbEntity
  8
0
100
AcDbLine
 10
22.1667
 20
87.144665
 30
0.0
 11
22.66669999999999
 21
87.144665
 31
0.0
  0
LINE
  5
BB
330
1E
100
AcDbEntity
  8
0
100
AcDbLine
 10
22.25
 20
86.49866499999999
 30
0.0
 11
22.8333
 21
86.221665
 31
0.0
  0
LINE
  5
BC
330
1E
100
AcDbEntity
  8
0
100
AcDbLine
 10
22.25
 20
86.49866499999999
 30
0.0
 11
22.4167
 21
86.49866499999999
 31
0.0
  0
LINE
  5
BD
330
1E
100
AcDbEntity
  8
0
100
AcDbLine
 10
22.0
 20
87.144665
 30
0.0
 11
22.25
 21
87.79096499999999
 31
0.0
  0
LINE
  5
BE
330
1E
100
AcDbEntity
  8
0
100
AcDbLine
 10
22.0
 20
87.144665
 30
0.0
 11
22.25
 21
86.49866499999999
 31
0.0
  0
LINE
  5
BF
330
1E
100
AcDbEntity
  8
0
100
AcDbLine
 10
22.0
 20
87.144665
 30
0.0
 11
22.1667
 21
87.144665
 31
0.0
  0
LINE
  5
C0
330
1E
100
AcDbEntity
  8
0
100
AcDbLine
 10
22.8333
 20
28.437065
 30
0.0
 11
23.0
 21
28.437065
 31
0.0
  0
LINE
  5
C1
330
1E
100
AcDbEntity
  8
0
100
AcDbLine
 10
23.0
 20
28.437065
 30
0.0
 11
23.4167
 21
28.437065
 31
0.0
  0
LINE
  5
C2
330
1E
100
AcDbEntity
  8
0
100
AcDbLine
 10
22.91669999999999
 20
28.713965
 30
0.0
 11
23.6667
 21
28.713965
 31
0.0
  0
LINE
  5
C3
330
1E
100
AcDbEntity
  8
0
100
AcDbLine
 10
22.4167
 20
30.006265
 30
0.0
 11
22.91669999999999
 21
30.006265
 31
0.0
  0
LINE
  5
C4
330
1E
100
AcDbEntity
  8
0
100
AcDbLine
 10
23.0
 20
30.283165
 30
0.0
 11
23.4167
 21
30.283165
 31
0.0
  0
LINE
  5
C5
330
1E
100
AcDbEntity
  8
0
100
AcDbLine
 10
22.8333
 20
30.283165
 30
0.0
 11
23.0
 21
30.283165
 31
0.0
  0
LINE
  5
C6
330
1E
100
AcDbEntity
  8
0
100
AcDbLine
 10
22.8333
 20
30.283165
 30
0.0
 11
23.25
 21
35.17556499999999
 31
0.0
  0
LINE
  5
C7
330
1E
100
AcDbEntity
  8
0
100
AcDbLine
 10
22.91669999999999
 20
30.006265
 30
0.0
 11
23.6667
 21
30.006265
 31
0.0
  0
LINE
  5
C8
330
1E
100
AcDbEntity
  8
0
100
AcDbLine
 10
22.66669999999999
 20
29.360165
 30
0.0
 11
23.5
 21
29.360165
 31
0.0
  0
LINE
  5
C9
330
1E
100
AcDbEntity
  8
0
100
AcDbLine
 10
22.4167
 20
28.713965
 30
0.0
 11
22.91669999999999
 21
28.713965
 31
0.0
  0
LINE
  5
CA
330
1E
100
AcDbEntity
  8
0
100
AcDbLine
 10
23.0
 20
86.221665
 30
0.0
 11
23.4167
 21
86.221665
 31
0.0
  0
LINE
  5
CB
330
1E
100
AcDbEntity
  8
0
100
AcDbLine
 10
22.4167
 20
86.49866499999999
 30
0.0
 11
22.91669999999999
 21
86.49866499999999
 31
0.0
  0
LINE
  5
CC
330
1E
100
AcDbEntity
  8
0
100
AcDbLine
 10
22.66669999999999
 20
87.144665
 30
0.0
 11
23.5
 21
87.144665
 31
0.0
  0
LINE
  5
CD
330
1E
100
AcDbEntity
  8
0
100
AcDbLine
 10
22.4167
 20
87.79096499999999
 30
0.0
 11
22.91669999999999
 21
87.79096499999999
 31
0.0
  0
LINE
  5
CE
330
1E
100
AcDbEntity
  8
0
100
AcDbLine
 10
22.91669999999999
 20
86.49866499999999
 30
0.0
 11
23.6667
 21
86.49866499999999
 31
0.0
  0
LINE
  5
CF
330
1E
100
AcDbEntity
  8
0
100
AcDbLine
 10
22.91669999999999
 20
87.79096499999999
 30
0.0
 11
23.6667
 21
87.79096499999999
 31
0.0
  0
LINE
  5
D0
330
1E
100
AcDbEntity
  8
0
100
AcDbLine
 10
23.0
 20
88.06786499999999
 30
0.0
 11
23.4167
 21
88.06786499999999
 31
0.0
  0
LINE
  5
D1
330
1E
100
AcDbEntity
  8
0
100
AcDbLine
 10
22.8333
 20
88.06786499999999
 30
0.0
 11
23.0
 21
88.06786499999999
 31
0.0
  0
LINE
  5
D2
330
1E
100
AcDbEntity
  8
0
100
AcDbLine
 10
22.8333
 20
86.221665
 30
0.0
 11
23.25
 21
81.32926500000001
 31
0.0
  0
LINE
  5
D3
330
1E
100
AcDbEntity
  8
0
100
AcDbLine
 10
22.8333
 20
86.221665
 30
0.0
 11
23.0
 21
86.221665
 31
0.0
  0
LINE
  5
D4
330
1E
100
AcDbEntity
  8
0
100
AcDbLine
 10
22.25
 20
87.79096499999999
 30
0.0
 11
22.8333
 21
88.06786499999999
 31
0.0
  0
LINE
  5
D5
330
1E
100
AcDbEntity
  8
0
100
AcDbLine
 10
22.25
 20
87.79096499999999
 30
0.0
 11
22.4167
 21
87.79096499999999
 31
0.0
  0
LINE
  5
D6
330
1E
100
AcDbEntity
  8
0
100
AcDbLine
 10
23.0
 20
27.183265
 30
0.0
 11
27.0
 21
27.183265
 31
0.0
  0
LINE
  5
D7
330
1E
100
AcDbEntity
  8
0
100
AcDbLine
 10
23.25
 20
35.17556499999999
 30
0.0
 11
23.6667
 21
43.483165
 31
0.0
  0
LINE
  5
D8
330
1E
100
AcDbEntity
  8
0
100
AcDbLine
 10
23.25
 20
28.437065
 30
0.0
 11
23.4167
 21
28.437065
 31
0.0
  0
LINE
  5
D9
330
1E
100
AcDbEntity
  8
0
100
AcDbLine
 10
23.46
 20
24.719565
 30
0.0
 11
24.51999999999999
 21
24.653665
 31
0.0
  0
LINE
  5
DA
330
1E
100
AcDbEntity
  8
0
100
AcDbLine
 10
23.4167
 20
28.437065
 30
0.0
 11
24.0833
 21
28.437065
 31
0.0
  0
LINE
  5
DB
330
1E
100
AcDbEntity
  8
0
100
AcDbLine
 10
23.6667
 20
30.006265
 30
0.0
 11
24.6667
 21
30.006265
 31
0.0
  0
LINE
  5
DC
330
1E
100
AcDbEntity
  8
0
100
AcDbLine
 10
23.5
 20
29.360165
 30
0.0
 11
24.5
 21
29.360165
 31
0.0
  0
LINE
  5
DD
330
1E
100
AcDbEntity
  8
0
100
AcDbLine
 10
23.6667
 20
28.713965
 30
0.0
 11
24.6667
 21
28.713965
 31
0.0
  0
LINE
  5
DE
330
1E
100
AcDbEntity
  8
0
100
AcDbLine
 10
23.6667
 20
43.483165
 30
0.0
 11
23.6667
 21
58.252365
 31
0.0
  0
LINE
  5
DF
330
1E
100
AcDbEntity
  8
0
100
AcDbLine
 10
23.4167
 20
30.283165
 30
0.0
 11
24.0833
 21
30.283165
 31
0.0
  0
LINE
  5
E0
330
1E
100
AcDbEntity
  8
0
100
AcDbLine
 10
23.4167
 20
28.437065
 30
0.0
 11
23.75
 21
28.437065
 31
0.0
  0
LINE
  5
E1
330
1E
100
AcDbEntity
  8
0
100
AcDbLine
 10
23.976
 20
0.162685000000017
 30
0.0
 11
27.0
 21
0.127035000000016
 31
0.0
  0
LINE
  5
E2
330
1E
100
AcDbEntity
  8
0
100
AcDbLine
 10
23.928
 20
0.3842550000000171
 30
0.0
 11
27.0
 21
0.348685000000017
 31
0.0
  0
LINE
  5
E3
330
1E
100
AcDbEntity
  8
0
100
AcDbLine
 10
27.0
 20
0.127035000000016
 30
0.0
 11
30.024
 21
0.162685000000017
 31
0.0
  0
LINE
  5
E4
330
1E
100
AcDbEntity
  8
0
100
AcDbLine
 10
27.0
 20
0.348685000000017
 30
0.0
 11
30.072
 21
0.3842550000000171
 31
0.0
  0
LINE
  5
E5
330
1E
100
AcDbEntity
  8
0
100
AcDbLine
 10
23.724
 20
8.058065000000018
 30
0.0
 11
27.0
 21
8.019465000000019
 31
0.0
  0
LINE
  5
E6
330
1E
100
AcDbEntity
  8
0
100
AcDbLine
 10
27.0
 20
8.019465000000019
 30
0.0
 11
30.276
 21
8.058065000000018
 31
0.0
  0
LINE
  5
E7
330
1E
100
AcDbEntity
  8
0
100
AcDbLine
 10
23.67199999999999
 20
8.339065000000019
 30
0.0
 11
27.0
 21
8.300465000000018
 31
0.0
  0
LINE
  5
E8
330
1E
100
AcDbEntity
  8
0
100
AcDbLine
 10
23.67199999999999
 20
15.69846499999999
 30
0.0
 11
27.0
 21
15.65996499999999
 31
0.0
  0
LINE
  5
E9
330
1E
100
AcDbEntity
  8
0
100
AcDbLine
 10
27.0
 20
8.300465000000018
 30
0.0
 11
30.328
 21
8.339065000000019
 31
0.0
  0
LINE
  5
EA
330
1E
100
AcDbEntity
  8
0
100
AcDbLine
 10
27.0
 20
15.65996499999999
 30
0.0
 11
30.328
 21
15.69846499999999
 31
0.0
  0
LINE
  5
EB
330
1E
100
AcDbEntity
  8
0
100
AcDbLine
 10
23.928
 20
16.08456499999999
 30
0.0
 11
27.0
 21
16.049065
 31
0.0
  0
LINE
  5
EC
330
1E
100
AcDbEntity
  8
0
100
AcDbLine
 10
23.928
 20
23.751565
 30
0.0
 11
27.0
 21
23.71606499999999
 31
0.0
  0
LINE
  5
ED
330
1E
100
AcDbEntity
  8
0
100
AcDbLine
 10
27.0
 20
16.049065
 30
0.0
 11
30.072
 21
16.08456499999999
 31
0.0
  0
LINE
  5
EE
330
1E
100
AcDbEntity
  8
0
100
AcDbLine
 10
27.0
 20
23.71606499999999
 30
0.0
 11
30.072
 21
23.751565
 31
0.0
  0
LINE
  5
EF
330
1E
100
AcDbEntity
  8
0
100
AcDbLine
 10
27.0
 20
27.183265
 30
0.0
 11
31.0
 21
27.183265
 31
0.0
  0
LINE
  5
F0
330
1E
100
AcDbEntity
  8
0
100
AcDbLine
 10
27.0
 20
26.683265
 30
0.0
 11
31.0
 21
26.683265
 31
0.0
  0
LINE
  5
F1
330
1E
100
AcDbEntity
  8
0
100
AcDbLine
 10
25.72
 20
24.614065
 30
0.0
 11
27.0
 21
24.599165
 31
0.0
  0
LINE
  5
F2
330
1E
100
AcDbEntity
  8
0
100
AcDbLine
 10
24.51999999999999
 20
24.653665
 30
0.0
 11
25.72
 21
24.614065
 31
0.0
  0
LINE
  5
F3
330
1E
100
AcDbEntity
  8
0
100
AcDbLine
 10
27.0
 20
24.599165
 30
0.0
 11
28.28
 21
24.614065
 31
0.0
  0
LINE
  5
F4
330
1E
100
AcDbEntity
  8
0
100
AcDbLine
 10
23.976
 20
24.081965
 30
0.0
 11
27.0
 21
24.046365
 31
0.0
  0
LINE
  5
F5
330
1E
100
AcDbEntity
  8
0
100
AcDbLine
 10
27.0
 20
24.046365
 30
0.0
 11
30.024
 21
24.081965
 31
0.0
  0
LINE
  5
F6
330
1E
100
AcDbEntity
  8
0
100
AcDbLine
 10
23.724
 20
16.03086499999999
 30
0.0
 11
27.0
 21
15.99236499999999
 31
0.0
  0
LINE
  5
F7
330
1E
100
AcDbEntity
  8
0
100
AcDbLine
 10
27.0
 20
15.99236499999999
 30
0.0
 11
30.276
 21
16.03086499999999
 31
0.0
  0
LINE
  5
F8
330
1E
100
AcDbEntity
  8
0
100
AcDbLine
 10
30.024
 20
0.162685000000017
 30
0.0
 11
32.808
 21
0.257515000000017
 31
0.0
  0
LINE
  5
F9
330
1E
100
AcDbEntity
  8
0
100
AcDbLine
 10
30.072
 20
0.3842550000000171
 30
0.0
 11
32.95199999999999
 21
0.4791750000000161
 31
0.0
  0
LINE
  5
FA
330
1E
100
AcDbEntity
  8
0
100
AcDbLine
 10
30.072
 20
16.08456499999999
 30
0.0
 11
32.95199999999999
 21
16.179465
 31
0.0
  0
LINE
  5
FB
330
1E
100
AcDbEntity
  8
0
100
AcDbLine
 10
30.276
 20
8.058065000000018
 30
0.0
 11
33.292
 21
8.160865000000018
 31
0.0
  0
LINE
  5
FC
330
1E
100
AcDbEntity
  8
0
100
AcDbLine
 10
32.808
 20
0.257515000000017
 30
0.0
 11
35.256
 21
0.411805000000016
 31
0.0
  0
LINE
  5
FD
330
1E
100
AcDbEntity
  8
0
100
AcDbLine
 10
32.95199999999999
 20
0.4791750000000161
 30
0.0
 11
35.496
 21
0.6373450000000171
 31
0.0
  0
LINE
  5
FE
330
1E
100
AcDbEntity
  8
0
100
AcDbLine
 10
33.292
 20
8.160865000000018
 30
0.0
 11
35.944
 21
8.327965000000018
 31
0.0
  0
LINE
  5
FF
330
1E
100
AcDbEntity
  8
0
100
AcDbLine
 10
30.328
 20
8.339065000000019
 30
0.0
 11
33.448
 21
8.441765000000019
 31
0.0
  0
LINE
  5
100
330
1E
100
AcDbEntity
  8
0
100
AcDbLine
 10
33.448
 20
8.441765000000019
 30
0.0
 11
36.204
 21
8.613165000000019
 31
0.0
  0
LINE
  5
101
330
1E
100
AcDbEntity
  8
0
100
AcDbLine
 10
30.328
 20
15.69846499999999
 30
0.0
 11
33.448
 21
15.80126499999999
 31
0.0
  0
LINE
  5
102
330
1E
100
AcDbEntity
  8
0
100
AcDbLine
 10
30.276
 20
16.03086499999999
 30
0.0
 11
33.292
 21
16.133665
 31
0.0
  0
LINE
  5
103
330
1E
100
AcDbEntity
  8
0
100
AcDbLine
 10
32.95199999999999
 20
16.179465
 30
0.0
 11
35.496
 21
16.33756499999999
 31
0.0
  0
LINE
  5
104
330
1E
100
AcDbEntity
  8
0
100
AcDbLine
 10
33.292
 20
16.133665
 30
0.0
 11
35.944
 21
16.30066499999999
 31
0.0
  0
LINE
  5
105
330
1E
100
AcDbEntity
  8
0
100
AcDbLine
 10
35.256
 20
0.411805000000016
 30
0.0
 11
37.128
 21
0.613405000000016
 31
0.0
  0
LINE
  5
106
330
1E
100
AcDbEntity
  8
0
100
AcDbLine
 10
35.496
 20
0.6373450000000171
 30
0.0
 11
37.416
 21
0.8469150000000158
 31
0.0
  0
LINE
  5
107
330
1E
100
AcDbEntity
  8
0
100
AcDbLine
 10
35.944
 20
8.327965000000018
 30
0.0
 11
37.972
 21
8.546365000000019
 31
0.0
  0
LINE
  5
108
330
1E
100
AcDbEntity
  8
0
100
AcDbLine
 10
36.204
 20
8.613165000000019
 30
0.0
 11
38.284
 21
8.840165000000009
 31
0.0
  0
LINE
  5
109
330
1E
100
AcDbEntity
  8
0
100
AcDbLine
 10
33.448
 20
15.80126499999999
 30
0.0
 11
36.204
 21
15.972565
 31
0.0
  0
LINE
  5
10A
330
1E
100
AcDbEntity
  8
0
100
AcDbLine
 10
35.496
 20
16.33756499999999
 30
0.0
 11
37.416
 21
16.547165
 31
0.0
  0
LINE
  5
10B
330
1E
100
AcDbEntity
  8
0
100
AcDbLine
 10
35.944
 20
16.30066499999999
 30
0.0
 11
37.972
 21
16.519265
 31
0.0
  0
LINE
  5
10C
330
1E
100
AcDbEntity
  8
0
100
AcDbLine
 10
37.128
 20
0.613405000000016
 30
0.0
 11
38.28
 21
0.8426950000000159
 31
0.0
  0
LINE
  5
10D
330
1E
100
AcDbEntity
  8
0
100
AcDbLine
 10
37.416
 20
0.8469150000000158
 30
0.0
 11
38.568
 21
1.084075000000019
 31
0.0
  0
LINE
  5
10E
330
1E
100
AcDbEntity
  8
0
100
AcDbLine
 10
38.28
 20
0.8426950000000159
 30
0.0
 11
38.71199999999999
 21
1.091805000000019
 31
0.0
  0
LINE
  5
10F
330
1E
100
AcDbEntity
  8
0
100
AcDbLine
 10
37.972
 20
8.546365000000019
 30
0.0
 11
39.22
 21
8.79486500000001
 31
0.0
  0
LINE
  5
110
330
1E
100
AcDbEntity
  8
0
100
AcDbLine
 10
38.284
 20
8.840165000000009
 30
0.0
 11
39.53199999999999
 21
9.097165000000019
 31
0.0
  0
LINE
  5
111
330
1E
100
AcDbEntity
  8
0
100
AcDbLine
 10
36.204
 20
15.972565
 30
0.0
 11
38.284
 21
16.199665
 31
0.0
  0
LINE
  5
112
330
1E
100
AcDbEntity
  8
0
100
AcDbLine
 10
37.416
 20
16.547165
 30
0.0
 11
38.568
 21
16.784465
 31
0.0
  0
LINE
  5
113
330
1E
100
AcDbEntity
  8
0
100
AcDbLine
 10
37.972
 20
16.519265
 30
0.0
 11
39.22
 21
16.767665
 31
0.0
  0
LINE
  5
114
330
1E
100
AcDbEntity
  8
0
100
AcDbLine
 10
39.0
 20
8.75105891025643
 30
0.0
 11
39.0
 21
1.337165000000019
 31
0.0
  0
LINE
  5
115
330
1E
100
AcDbEntity
  8
0
100
AcDbLine
 10
38.71199999999999
 20
1.091805000000019
 30
0.0
 11
39.0
 21
1.337165000000019
 31
0.0
  0
LINE
  5
116
330
1E
100
AcDbEntity
  8
0
100
AcDbLine
 10
39.0
 20
1.337165000000019
 30
0.0
 11
39.0
 21
8.75105891025643
 31
0.0
  0
LINE
  5
117
330
1E
100
AcDbEntity
  8
0
100
AcDbLine
 10
38.568
 20
1.084075000000019
 30
0.0
 11
39.0
 21
1.337165000000019
 31
0.0
  0
LINE
  5
118
330
1E
100
AcDbEntity
  8
0
100
AcDbLine
 10
39.22
 20
8.79486500000001
 30
0.0
 11
39.688
 21
9.064565000000019
 31
0.0
  0
LINE
  5
119
330
1E
100
AcDbEntity
  8
0
100
AcDbLine
 10
39.53199999999999
 20
9.097165000000019
 30
0.0
 11
40.0
 21
9.371265000000018
 31
0.0
  0
LINE
  5
11A
330
1E
100
AcDbEntity
  8
0
100
AcDbLine
 10
38.284
 20
16.199665
 30
0.0
 11
39.53199999999999
 21
16.456665
 31
0.0
  0
LINE
  5
11B
330
1E
100
AcDbEntity
  8
0
100
AcDbLine
 10
39.0
 20
17.03736499999999
 30
0.0
 11
39.0
 21
24.70436499999999
 31
0.0
  0
LINE
  5
11C
330
1E
100
AcDbEntity
  8
0
100
AcDbLine
 10
38.568
 20
16.784465
 30
0.0
 11
39.0
 21
17.03736499999999
 31
0.0
  0
LINE
  5
11D
330
1E
100
AcDbEntity
  8
0
100
AcDbLine
 10
30.072
 20
23.751565
 30
0.0
 11
32.95199999999999
 21
23.846465
 31
0.0
  0
LINE
  5
11E
330
1E
100
AcDbEntity
  8
0
100
AcDbLine
 10
30.024
 20
24.081965
 30
0.0
 11
32.808
 21
24.176865
 31
0.0
  0
LINE
  5
11F
330
1E
100
AcDbEntity
  8
0
100
AcDbLine
 10
32.808
 20
24.176865
 30
0.0
 11
35.256
 21
24.331065
 31
0.0
  0
LINE
  5
120
330
1E
100
AcDbEntity
  8
0
100
AcDbLine
 10
32.95199999999999
 20
23.846465
 30
0.0
 11
35.496
 21
24.004565
 31
0.0
  0
LINE
  5
121
330
1E
100
AcDbEntity
  8
0
100
AcDbLine
 10
35.256
 20
24.331065
 30
0.0
 11
37.128
 21
24.53266499999999
 31
0.0
  0
LINE
  5
122
330
1E
100
AcDbEntity
  8
0
100
AcDbLine
 10
35.496
 20
24.004565
 30
0.0
 11
37.416
 21
24.21416499999999
 31
0.0
  0
LINE
  5
123
330
1E
100
AcDbEntity
  8
0
100
AcDbLine
 10
28.28
 20
24.614065
 30
0.0
 11
29.48
 21
24.653665
 31
0.0
  0
LINE
  5
124
330
1E
100
AcDbEntity
  8
0
100
AcDbLine
 10
29.48
 20
24.653665
 30
0.0
 11
30.54
 21
24.719565
 31
0.0
  0
LINE
  5
125
330
1E
100
AcDbEntity
  8
0
100
AcDbLine
 10
30.54
 20
24.719565
 30
0.0
 11
31.34
 21
24.80676499999999
 31
0.0
  0
LINE
  5
126
330
1E
100
AcDbEntity
  8
0
100
AcDbLine
 10
37.128
 20
24.53266499999999
 30
0.0
 11
38.28
 21
24.76206499999999
 31
0.0
  0
LINE
  5
127
330
1E
100
AcDbEntity
  8
0
100
AcDbLine
 10
37.416
 20
24.21416499999999
 30
0.0
 11
38.568
 21
24.451365
 31
0.0
  0
LINE
  5
128
330
1E
100
AcDbEntity
  8
0
100
AcDbLine
 10
31.34
 20
24.80676499999999
 30
0.0
 11
31.82
 21
24.90566499999999
 31
0.0
  0
LINE
  5
129
330
1E
100
AcDbEntity
  8
0
100
AcDbLine
 10
32.0
 20
25.011065
 30
0.0
 11
32.0
 21
25.68326499999999
 31
0.0
  0
LINE
  5
12A
330
1E
100
AcDbEntity
  8
0
100
AcDbLine
 10
31.82
 20
24.90566499999999
 30
0.0
 11
32.0
 21
25.011065
 31
0.0
  0
LINE
  5
12B
330
1E
100
AcDbEntity
  8
0
100
AcDbLine
 10
31.0
 20
27.183265
 30
0.0
 11
34.7
 21
27.183265
 31
0.0
  0
LINE
  5
12C
330
1E
100
AcDbEntity
  8
0
100
AcDbLine
 10
34.7
 20
27.183265
 30
0.0
 11
37.9
 21
27.183265
 31
0.0
  0
LINE
  5
12D
330
1E
100
AcDbEntity
  8
0
100
AcDbLine
 10
34.7
 20
26.683265
 30
0.0
 11
37.9
 21
26.683265
 31
0.0
  0
LINE
  5
12E
330
1E
100
AcDbEntity
  8
0
100
AcDbLine
 10
31.0
 20
26.683265
 30
0.0
 11
34.7
 21
26.683265
 31
0.0
  0
LINE
  5
12F
330
1E
100
AcDbEntity
  8
0
100
AcDbLine
 10
32.0
 20
25.68326499999999
 30
0.0
 11
32.0
 21
25.011065
 31
0.0
  0
LINE
  5
130
330
1E
100
AcDbEntity
  8
0
100
AcDbLine
 10
37.9
 20
27.183265
 30
0.0
 11
40.4
 21
27.183265
 31
0.0
  0
LINE
  5
131
330
1E
100
AcDbEntity
  8
0
100
AcDbLine
 10
37.9
 20
26.683265
 30
0.0
 11
40.4
 21
26.683265
 31
0.0
  0
LINE
  5
132
330
1E
100
AcDbEntity
  8
0
100
AcDbLine
 10
36.89999999999999
 20
25.68326499999999
 30
0.0
 11
39.1
 21
25.68326499999999
 31
0.0
  0
LINE
  5
133
330
1E
100
AcDbEntity
  8
0
100
AcDbLine
 10
35.32932077342589
 20
25.68326499999999
 30
0.0
 11
36.89999999999999
 21
25.68326499999999
 31
0.0
  0
LINE
  5
134
330
1E
100
AcDbEntity
  8
0
100
AcDbLine
 10
35.32932077342589
 20
25.68326499999999
 30
0.0
 11
37.128
 21
25.489465
 31
0.0
  0
LINE
  5
135
330
1E
100
AcDbEntity
  8
0
100
AcDbLine
 10
37.128
 20
25.489465
 30
0.0
 11
38.28
 21
25.260165
 31
0.0
  0
LINE
  5
136
330
1E
100
AcDbEntity
  8
0
100
AcDbLine
 10
38.28
 20
25.260165
 30
0.0
 11
38.71199999999999
 21
25.011065
 31
0.0
  0
LINE
  5
137
330
1E
100
AcDbEntity
  8
0
100
AcDbLine
 10
38.28
 20
24.76206499999999
 30
0.0
 11
38.71199999999999
 21
25.011065
 31
0.0
  0
LINE
  5
138
330
1E
100
AcDbEntity
  8
0
100
AcDbLine
 10
39.0
 20
24.70436499999999
 30
0.0
 11
39.0
 21
17.03736499999999
 31
0.0
  0
LINE
  5
139
330
1E
100
AcDbEntity
  8
0
100
AcDbLine
 10
39.1
 20
25.68326499999999
 30
0.0
 11
40.49999999999999
 21
25.68326499999999
 31
0.0
  0
LINE
  5
13A
330
1E
100
AcDbEntity
  8
0
100
AcDbLine
 10
38.71199999999999
 20
25.011065
 30
0.0
 11
39.0
 21
24.70436499999999
 31
0.0
  0
LINE
  5
13B
330
1E
100
AcDbEntity
  8
0
100
AcDbLine
 10
38.568
 20
24.451365
 30
0.0
 11
39.0
 21
24.70436499999999
 31
0.0
  0
LINE
  5
13C
330
1E
100
AcDbEntity
  8
0
100
AcDbLine
 10
39.0
 20
17.3510534615385
 30
0.0
 11
39.22
 21
17.307265
 31
0.0
  0
LINE
  5
13D
330
1E
100
AcDbEntity
  8
0
100
AcDbLine
 10
39.22
 20
17.307265
 30
0.0
 11
39.688
 21
17.03736499999999
 31
0.0
  0
LINE
  5
13E
330
1E
100
AcDbEntity
  8
0
100
AcDbLine
 10
39.22
 20
16.767665
 30
0.0
 11
39.688
 21
17.03736499999999
 31
0.0
  0
LINE
  5
13F
330
1E
100
AcDbEntity
  8
0
100
AcDbLine
 10
40.0
 20
9.371265000000018
 30
0.0
 11
40.0
 21
16.73076499999999
 31
0.0
  0
LINE
  5
140
330
1E
100
AcDbEntity
  8
0
100
AcDbLine
 10
39.688
 20
9.064565000000019
 30
0.0
 11
40.0
 21
9.371265000000018
 31
0.0
  0
LINE
  5
141
330
1E
100
AcDbEntity
  8
0
100
AcDbLine
 10
40.0
 20
16.73076499999999
 30
0.0
 11
40.0
 21
9.371265000000018
 31
0.0
  0
LINE
  5
142
330
1E
100
AcDbEntity
  8
0
100
AcDbLine
 10
40.4
 20
27.183265
 30
0.0
 11
41.9
 21
27.183265
 31
0.0
  0
LINE
  5
143
330
1E
100
AcDbEntity
  8
0
100
AcDbLine
 10
40.4
 20
26.683265
 30
0.0
 11
41.9
 21
26.683265
 31
0.0
  0
LINE
  5
144
330
1E
100
AcDbEntity
  8
0
100
AcDbLine
 10
41.9
 20
27.183265
 30
0.0
 11
42.5
 21
27.183265
 31
0.0
  0
LINE
  5
145
330
1E
100
AcDbEntity
  8
0
100
AcDbLine
 10
41.9
 20
26.683265
 30
0.0
 11
42.5
 21
26.683265
 31
0.0
  0
LINE
  5
146
330
1E
100
AcDbEntity
  8
0
100
AcDbLine
 10
41.0
 20
28.183265
 30
0.0
 11
42.0
 21
27.683265
 31
0.0
  0
LINE
  5
147
330
1E
100
AcDbEntity
  8
0
100
AcDbLine
 10
42.0
 20
27.683265
 30
0.0
 11
42.5
 21
27.183265
 31
0.0
  0
LINE
  5
148
330
1E
100
AcDbEntity
  8
0
100
AcDbLine
 10
42.5
 20
26.683265
 30
0.0
 11
42.5
 21
27.183265
 31
0.0
  0
LINE
  5
149
330
1E
100
AcDbEntity
  8
0
100
AcDbLine
 10
42.5
 20
27.183265
 30
0.0
 11
42.5
 21
26.683265
 31
0.0
  0
LINE
  5
14A
330
1E
100
AcDbEntity
  8
0
100
AcDbLine
 10
42.0
 20
26.183265
 30
0.0
 11
42.5
 21
26.683265
 31
0.0
  0
LINE
  5
14B
330
1E
100
AcDbEntity
  8
0
100
AcDbLine
 10
41.0
 20
25.68326499999999
 30
0.0
 11
42.0
 21
26.183265
 31
0.0
  0
LINE
  5
14C
330
1E
100
AcDbEntity
  8
0
100
AcDbLine
 10
40.49999999999999
 20
25.68326499999999
 30
0.0
 11
41.0
 21
25.68326499999999
 31
0.0
  0
LINE
  5
14D
330
1E
100
AcDbEntity
  8
0
100
AcDbLine
 10
39.688
 20
17.03736499999999
 30
0.0
 11
40.0
 21
16.73076499999999
 31
0.0
  0
LINE
  5
14E
330
1E
100
AcDbEntity
  8
0
100
AcDbLine
 10
39.53199999999999
 20
16.456665
 30
0.0
 11
40.0
 21
16.73076499999999
 31
0.0
  0
LINE
  5
14F
330
1E
100
AcDbEntity
  8
0
100
AcDbLine
 10
28.6667
 20
28.344765
 30
0.0
 11
29.2222333333333
 21
28.437065
 31
0.0
  0
LINE
  5
150
330
1E
100
AcDbEntity
  8
0
100
AcDbLine
 10
27.0
 20
28.252465
 30
0.0
 11
28.6667
 21
28.344765
 31
0.0
  0
LINE
  5
151
330
1E
100
AcDbEntity
  8
0
100
AcDbLine
 10
24.0833
 20
28.437065
 30
0.0
 11
24.77776666666669
 21
28.437065
 31
0.0
  0
LINE
  5
152
330
1E
100
AcDbEntity
  8
0
100
AcDbLine
 10
24.3333
 20
28.437065
 30
0.0
 11
25.16669999999999
 21
28.437065
 31
0.0
  0
LINE
  5
153
330
1E
100
AcDbEntity
  8
0
100
AcDbLine
 10
24.0833
 20
30.283165
 30
0.0
 11
24.9167
 21
30.283165
 31
0.0
  0
LINE
  5
154
330
1E
100
AcDbEntity
  8
0
100
AcDbLine
 10
24.6667
 20
30.006265
 30
0.0
 11
25.75
 21
30.006265
 31
0.0
  0
LINE
  5
155
330
1E
100
AcDbEntity
  8
0
100
AcDbLine
 10
24.5
 20
29.360165
 30
0.0
 11
25.75
 21
29.360165
 31
0.0
  0
LINE
  5
156
330
1E
100
AcDbEntity
  8
0
100
AcDbLine
 10
24.6667
 20
28.713965
 30
0.0
 11
25.75
 21
28.713965
 31
0.0
  0
LINE
  5
157
330
1E
100
AcDbEntity
  8
0
100
AcDbLine
 10
23.75
 20
28.437065
 30
0.0
 11
24.3333
 21
28.437065
 31
0.0
  0
LINE
  5
158
330
1E
100
AcDbEntity
  8
0
100
AcDbLine
 10
29.2222333333333
 20
28.437065
 30
0.0
 11
29.9167
 21
28.437065
 31
0.0
  0
LINE
  5
159
330
1E
100
AcDbEntity
  8
0
100
AcDbLine
 10
28.8333
 20
28.437065
 30
0.0
 11
29.6667
 21
28.437065
 31
0.0
  0
LINE
  5
15A
330
1E
100
AcDbEntity
  8
0
100
AcDbLine
 10
28.0
 20
28.437065
 30
0.0
 11
28.8333
 21
28.437065
 31
0.0
  0
LINE
  5
15B
330
1E
100
AcDbEntity
  8
0
100
AcDbLine
 10
27.0
 20
28.437065
 30
0.0
 11
28.0
 21
28.437065
 31
0.0
  0
LINE
  5
15C
330
1E
100
AcDbEntity
  8
0
100
AcDbLine
 10
29.9167
 20
28.437065
 30
0.0
 11
30.5833
 21
28.437065
 31
0.0
  0
LINE
  5
15D
330
1E
100
AcDbEntity
  8
0
100
AcDbLine
 10
30.5833
 20
28.437065
 30
0.0
 11
31.0
 21
28.437065
 31
0.0
  0
LINE
  5
15E
330
1E
100
AcDbEntity
  8
0
100
AcDbLine
 10
29.6667
 20
28.437065
 30
0.0
 11
30.25
 21
28.437065
 31
0.0
  0
LINE
  5
15F
330
1E
100
AcDbEntity
  8
0
100
AcDbLine
 10
30.25
 20
28.437065
 30
0.0
 11
30.5833
 21
28.437065
 31
0.0
  0
LINE
  5
160
330
1E
100
AcDbEntity
  8
0
100
AcDbLine
 10
31.0
 20
28.437065
 30
0.0
 11
31.1667
 21
28.437065
 31
0.0
  0
LINE
  5
161
330
1E
100
AcDbEntity
  8
0
100
AcDbLine
 10
31.1667
 20
28.437065
 30
0.0
 11
31.75
 21
28.713965
 31
0.0
  0
LINE
  5
162
330
1E
100
AcDbEntity
  8
0
100
AcDbLine
 10
30.5833
 20
28.437065
 30
0.0
 11
30.75
 21
28.437065
 31
0.0
  0
LINE
  5
163
330
1E
100
AcDbEntity
  8
0
100
AcDbLine
 10
25.16669999999999
 20
28.437065
 30
0.0
 11
26.0
 21
28.437065
 31
0.0
  0
LINE
  5
164
330
1E
100
AcDbEntity
  8
0
100
AcDbLine
 10
24.9167
 20
30.283165
 30
0.0
 11
25.9167
 21
30.283165
 31
0.0
  0
LINE
  5
165
330
1E
100
AcDbEntity
  8
0
100
AcDbLine
 10
25.75
 20
30.006265
 30
0.0
 11
27.0
 21
30.006265
 31
0.0
  0
LINE
  5
166
330
1E
100
AcDbEntity
  8
0
100
AcDbLine
 10
25.75
 20
29.360165
 30
0.0
 11
27.0
 21
29.360165
 31
0.0
  0
LINE
  5
167
330
1E
100
AcDbEntity
  8
0
100
AcDbLine
 10
29.3333
 20
28.713965
 30
0.0
 11
30.3333
 21
28.713965
 31
0.0
  0
LINE
  5
168
330
1E
100
AcDbEntity
  8
0
100
AcDbLine
 10
28.25
 20
28.713965
 30
0.0
 11
29.3333
 21
28.713965
 31
0.0
  0
LINE
  5
169
330
1E
100
AcDbEntity
  8
0
100
AcDbLine
 10
27.0
 20
28.713965
 30
0.0
 11
28.25
 21
28.713965
 31
0.0
  0
LINE
  5
16A
330
1E
100
AcDbEntity
  8
0
100
AcDbLine
 10
30.3333
 20
28.713965
 30
0.0
 11
31.0833
 21
28.713965
 31
0.0
  0
LINE
  5
16B
330
1E
100
AcDbEntity
  8
0
100
AcDbLine
 10
29.5
 20
29.360165
 30
0.0
 11
30.5
 21
29.360165
 31
0.0
  0
LINE
  5
16C
330
1E
100
AcDbEntity
  8
0
100
AcDbLine
 10
28.25
 20
29.360165
 30
0.0
 11
29.5
 21
29.360165
 31
0.0
  0
LINE
  5
16D
330
1E
100
AcDbEntity
  8
0
100
AcDbLine
 10
27.0
 20
29.360165
 30
0.0
 11
28.25
 21
29.360165
 31
0.0
  0
LINE
  5
16E
330
1E
100
AcDbEntity
  8
0
100
AcDbLine
 10
29.3333
 20
30.006265
 30
0.0
 11
30.3333
 21
30.006265
 31
0.0
  0
LINE
  5
16F
330
1E
100
AcDbEntity
  8
0
100
AcDbLine
 10
28.25
 20
30.006265
 30
0.0
 11
29.3333
 21
30.006265
 31
0.0
  0
LINE
  5
170
330
1E
100
AcDbEntity
  8
0
100
AcDbLine
 10
27.0
 20
30.006265
 30
0.0
 11
28.25
 21
30.006265
 31
0.0
  0
LINE
  5
171
330
1E
100
AcDbEntity
  8
0
100
AcDbLine
 10
29.0833
 20
30.283165
 30
0.0
 11
29.9167
 21
30.283165
 31
0.0
  0
LINE
  5
172
330
1E
100
AcDbEntity
  8
0
100
AcDbLine
 10
28.0833
 20
30.283165
 30
0.0
 11
29.0833
 21
30.283165
 31
0.0
  0
LINE
  5
173
330
1E
100
AcDbEntity
  8
0
100
AcDbLine
 10
27.0
 20
30.283165
 30
0.0
 11
28.0833
 21
30.283165
 31
0.0
  0
LINE
  5
174
330
1E
100
AcDbEntity
  8
0
100
AcDbLine
 10
29.9167
 20
30.283165
 30
0.0
 11
30.5833
 21
30.283165
 31
0.0
  0
LINE
  5
175
330
1E
100
AcDbEntity
  8
0
100
AcDbLine
 10
30.5833
 20
30.283165
 30
0.0
 11
31.0
 21
30.283165
 31
0.0
  0
LINE
  5
176
330
1E
100
AcDbEntity
  8
0
100
AcDbLine
 10
31.0
 20
30.283165
 30
0.0
 11
31.1667
 21
30.283165
 31
0.0
  0
LINE
  5
177
330
1E
100
AcDbEntity
  8
0
100
AcDbLine
 10
30.3333
 20
30.006265
 30
0.0
 11
31.0833
 21
30.006265
 31
0.0
  0
LINE
  5
178
330
1E
100
AcDbEntity
  8
0
100
AcDbLine
 10
31.1667
 20
30.283165
 30
0.0
 11
31.75
 21
30.006265
 31
0.0
  0
LINE
  5
179
330
1E
100
AcDbEntity
  8
0
100
AcDbLine
 10
31.0833
 20
30.006265
 30
0.0
 11
31.5833
 21
30.006265
 31
0.0
  0
LINE
  5
17A
330
1E
100
AcDbEntity
  8
0
100
AcDbLine
 10
30.5
 20
29.360165
 30
0.0
 11
31.3333
 21
29.360165
 31
0.0
  0
LINE
  5
17B
330
1E
100
AcDbEntity
  8
0
100
AcDbLine
 10
31.5833
 20
30.006265
 30
0.0
 11
31.75
 21
30.006265
 31
0.0
  0
LINE
  5
17C
330
1E
100
AcDbEntity
  8
0
100
AcDbLine
 10
31.3333
 20
29.360165
 30
0.0
 11
31.8333
 21
29.360165
 31
0.0
  0
LINE
  5
17D
330
1E
100
AcDbEntity
  8
0
100
AcDbLine
 10
31.0833
 20
28.713965
 30
0.0
 11
31.5833
 21
28.713965
 31
0.0
  0
LINE
  5
17E
330
1E
100
AcDbEntity
  8
0
100
AcDbLine
 10
40.49999999999999
 20
28.683265
 30
0.0
 11
41.0
 21
28.183265
 31
0.0
  0
LINE
  5
17F
330
1E
100
AcDbEntity
  8
0
100
AcDbLine
 10
31.75
 20
30.006265
 30
0.0
 11
32.0
 21
29.360165
 31
0.0
  0
LINE
  5
180
330
1E
100
AcDbEntity
  8
0
100
AcDbLine
 10
40.0
 20
30.183265
 30
0.0
 11
40.49999999999999
 21
28.683265
 31
0.0
  0
LINE
  5
181
330
1E
100
AcDbEntity
  8
0
100
AcDbLine
 10
40.0
 20
30.183265
 30
0.0
 11
40.0
 21
88.17396499999999
 31
0.0
  0
LINE
  5
182
330
1E
100
AcDbEntity
  8
0
100
AcDbLine
 10
31.8333
 20
29.360165
 30
0.0
 11
32.0
 21
29.360165
 31
0.0
  0
LINE
  5
183
330
1E
100
AcDbEntity
  8
0
100
AcDbLine
 10
31.75
 20
28.713965
 30
0.0
 11
32.0
 21
29.360165
 31
0.0
  0
LINE
  5
184
330
1E
100
AcDbEntity
  8
0
100
AcDbLine
 10
31.5833
 20
28.713965
 30
0.0
 11
31.75
 21
28.713965
 31
0.0
  0
LINE
  5
185
330
1E
100
AcDbEntity
  8
0
100
AcDbLine
 10
30.3333
 20
43.483165
 30
0.0
 11
30.75
 21
35.17556499999999
 31
0.0
  0
LINE
  5
186
330
1E
100
AcDbEntity
  8
0
100
AcDbLine
 10
30.3333
 20
43.483165
 30
0.0
 11
30.3333
 21
58.252365
 31
0.0
  0
LINE
  5
187
330
1E
100
AcDbEntity
  8
0
100
AcDbLine
 10
30.3333
 20
58.252365
 30
0.0
 11
30.3333
 21
73.02156499999999
 31
0.0
  0
LINE
  5
188
330
1E
100
AcDbEntity
  8
0
100
AcDbLine
 10
30.3333
 20
58.252365
 30
0.0
 11
30.3333
 21
43.483165
 31
0.0
  0
LINE
  5
189
330
1E
100
AcDbEntity
  8
0
100
AcDbLine
 10
30.75
 20
35.17556499999999
 30
0.0
 11
31.1667
 21
30.283165
 31
0.0
  0
LINE
  5
18A
330
1E
100
AcDbEntity
  8
0
100
AcDbLine
 10
30.3333
 20
73.02156499999999
 30
0.0
 11
30.75
 21
81.32926500000001
 31
0.0
  0
LINE
  5
18B
330
1E
100
AcDbEntity
  8
0
100
AcDbLine
 10
30.3333
 20
73.02156499999999
 30
0.0
 11
30.3333
 21
58.252365
 31
0.0
  0
LINE
  5
18C
330
1E
100
AcDbEntity
  8
0
100
AcDbLine
 10
25.9167
 20
30.283165
 30
0.0
 11
27.0
 21
30.283165
 31
0.0
  0
LINE
  5
18D
330
1E
100
AcDbEntity
  8
0
100
AcDbLine
 10
25.75
 20
28.713965
 30
0.0
 11
27.0
 21
28.713965
 31
0.0
  0
LINE
  5
18E
330
1E
100
AcDbEntity
  8
0
100
AcDbLine
 10
26.0
 20
28.437065
 30
0.0
 11
27.0
 21
28.437065
 31
0.0
  0
LINE
  5
18F
330
1E
100
AcDbEntity
  8
0
100
AcDbLine
 10
24.77776666666669
 20
28.437065
 30
0.0
 11
25.3333
 21
28.344765
 31
0.0
  0
LINE
  5
190
330
1E
100
AcDbEntity
  8
0
100
AcDbLine
 10
25.3333
 20
28.344765
 30
0.0
 11
27.0
 21
28.252465
 31
0.0
  0
LINE
  5
191
330
1E
100
AcDbEntity
  8
0
100
AcDbLine
 10
23.6667
 20
58.252365
 30
0.0
 11
23.6667
 21
73.02156499999999
 31
0.0
  0
LINE
  5
192
330
1E
100
AcDbEntity
  8
0
100
AcDbLine
 10
23.6667
 20
58.252365
 30
0.0
 11
23.6667
 21
43.483165
 31
0.0
  0
LINE
  5
193
330
1E
100
AcDbEntity
  8
0
100
AcDbLine
 10
23.4167
 20
86.221665
 30
0.0
 11
24.0833
 21
86.221665
 31
0.0
  0
LINE
  5
194
330
1E
100
AcDbEntity
  8
0
100
AcDbLine
 10
24.0833
 20
86.221665
 30
0.0
 11
24.9167
 21
86.221665
 31
0.0
  0
LINE
  5
195
330
1E
100
AcDbEntity
  8
0
100
AcDbLine
 10
23.6667
 20
86.49866499999999
 30
0.0
 11
24.6667
 21
86.49866499999999
 31
0.0
  0
LINE
  5
196
330
1E
100
AcDbEntity
  8
0
100
AcDbLine
 10
23.5
 20
87.144665
 30
0.0
 11
24.5
 21
87.144665
 31
0.0
  0
LINE
  5
197
330
1E
100
AcDbEntity
  8
0
100
AcDbLine
 10
23.5
 20
88.06786499999999
 30
0.0
 11
23.5
 21
91.2065736956522
 31
0.0
  0
LINE
  5
198
330
1E
100
AcDbEntity
  8
0
100
AcDbLine
 10
23.4167
 20
88.06786499999999
 30
0.0
 11
24.0833
 21
88.06786499999999
 31
0.0
  0
LINE
  5
199
330
1E
100
AcDbEntity
  8
0
100
AcDbLine
 10
23.6667
 20
87.79096499999999
 30
0.0
 11
24.6667
 21
87.79096499999999
 31
0.0
  0
LINE
  5
19A
330
1E
100
AcDbEntity
  8
0
100
AcDbLine
 10
24.6667
 20
86.49866499999999
 30
0.0
 11
25.75
 21
86.49866499999999
 31
0.0
  0
LINE
  5
19B
330
1E
100
AcDbEntity
  8
0
100
AcDbLine
 10
24.5
 20
87.144665
 30
0.0
 11
25.75
 21
87.144665
 31
0.0
  0
LINE
  5
19C
330
1E
100
AcDbEntity
  8
0
100
AcDbLine
 10
24.9167
 20
86.221665
 30
0.0
 11
25.9167
 21
86.221665
 31
0.0
  0
LINE
  5
19D
330
1E
100
AcDbEntity
  8
0
100
AcDbLine
 10
25.9167
 20
86.221665
 30
0.0
 11
27.0
 21
86.221665
 31
0.0
  0
LINE
  5
19E
330
1E
100
AcDbEntity
  8
0
100
AcDbLine
 10
25.75
 20
86.49866499999999
 30
0.0
 11
27.0
 21
86.49866499999999
 31
0.0
  0
LINE
  5
19F
330
1E
100
AcDbEntity
  8
0
100
AcDbLine
 10
25.75
 20
87.144665
 30
0.0
 11
27.0
 21
87.144665
 31
0.0
  0
LINE
  5
1A0
330
1E
100
AcDbEntity
  8
0
100
AcDbLine
 10
24.6667
 20
87.79096499999999
 30
0.0
 11
25.75
 21
87.79096499999999
 31
0.0
  0
LINE
  5
1A1
330
1E
100
AcDbEntity
  8
0
100
AcDbLine
 10
25.75
 20
87.79096499999999
 30
0.0
 11
27.0
 21
87.79096499999999
 31
0.0
  0
LINE
  5
1A2
330
1E
100
AcDbEntity
  8
0
100
AcDbLine
 10
24.0833
 20
88.06786499999999
 30
0.0
 11
24.9167
 21
88.06786499999999
 31
0.0
  0
LINE
  5
1A3
330
1E
100
AcDbEntity
  8
0
100
AcDbLine
 10
24.9167
 20
88.06786499999999
 30
0.0
 11
25.9167
 21
88.06786499999999
 31
0.0
  0
LINE
  5
1A4
330
1E
100
AcDbEntity
  8
0
100
AcDbLine
 10
27.0
 20
86.221665
 30
0.0
 11
28.0833
 21
86.221665
 31
0.0
  0
LINE
  5
1A5
330
1E
100
AcDbEntity
  8
0
100
AcDbLine
 10
29.0833
 20
86.221665
 30
0.0
 11
29.9167
 21
86.221665
 31
0.0
  0
LINE
  5
1A6
330
1E
100
AcDbEntity
  8
0
100
AcDbLine
 10
28.0833
 20
86.221665
 30
0.0
 11
29.0833
 21
86.221665
 31
0.0
  0
LINE
  5
1A7
330
1E
100
AcDbEntity
  8
0
100
AcDbLine
 10
29.9167
 20
86.221665
 30
0.0
 11
30.5833
 21
86.221665
 31
0.0
  0
LINE
  5
1A8
330
1E
100
AcDbEntity
  8
0
100
AcDbLine
 10
30.5833
 20
86.221665
 30
0.0
 11
31.0
 21
86.221665
 31
0.0
  0
LINE
  5
1A9
330
1E
100
AcDbEntity
  8
0
100
AcDbLine
 10
31.0
 20
86.221665
 30
0.0
 11
31.1667
 21
86.221665
 31
0.0
  0
LINE
  5
1AA
330
1E
100
AcDbEntity
  8
0
100
AcDbLine
 10
30.3333
 20
86.49866499999999
 30
0.0
 11
31.0833
 21
86.49866499999999
 31
0.0
  0
LINE
  5
1AB
330
1E
100
AcDbEntity
  8
0
100
AcDbLine
 10
31.0833
 20
86.49866499999999
 30
0.0
 11
31.5833
 21
86.49866499999999
 31
0.0
  0
LINE
  5
1AC
330
1E
100
AcDbEntity
  8
0
100
AcDbLine
 10
29.3333
 20
86.49866499999999
 30
0.0
 11
30.3333
 21
86.49866499999999
 31
0.0
  0
LINE
  5
1AD
330
1E
100
AcDbEntity
  8
0
100
AcDbLine
 10
28.25
 20
86.49866499999999
 30
0.0
 11
29.3333
 21
86.49866499999999
 31
0.0
  0
LINE
  5
1AE
330
1E
100
AcDbEntity
  8
0
100
AcDbLine
 10
27.0
 20
86.49866499999999
 30
0.0
 11
28.25
 21
86.49866499999999
 31
0.0
  0
LINE
  5
1AF
330
1E
100
AcDbEntity
  8
0
100
AcDbLine
 10
30.75
 20
81.32926500000001
 30
0.0
 11
31.1667
 21
86.221665
 31
0.0
  0
LINE
  5
1B0
330
1E
100
AcDbEntity
  8
0
100
AcDbLine
 10
31.5833
 20
86.49866499999999
 30
0.0
 11
31.75
 21
86.49866499999999
 31
0.0
  0
LINE
  5
1B1
330
1E
100
AcDbEntity
  8
0
100
AcDbLine
 10
31.1667
 20
86.221665
 30
0.0
 11
31.75
 21
86.49866499999999
 31
0.0
  0
LINE
  5
1B2
330
1E
100
AcDbEntity
  8
0
100
AcDbLine
 10
27.0
 20
87.144665
 30
0.0
 11
28.25
 21
87.144665
 31
0.0
  0
LINE
  5
1B3
330
1E
100
AcDbEntity
  8
0
100
AcDbLine
 10
27.0
 20
87.79096499999999
 30
0.0
 11
28.25
 21
87.79096499999999
 31
0.0
  0
LINE
  5
1B4
330
1E
100
AcDbEntity
  8
0
100
AcDbLine
 10
28.25
 20
87.144665
 30
0.0
 11
29.5
 21
87.144665
 31
0.0
  0
LINE
  5
1B5
330
1E
100
AcDbEntity
  8
0
100
AcDbLine
 10
28.25
 20
87.79096499999999
 30
0.0
 11
29.3333
 21
87.79096499999999
 31
0.0
  0
LINE
  5
1B6
330
1E
100
AcDbEntity
  8
0
100
AcDbLine
 10
30.5
 20
87.144665
 30
0.0
 11
31.3333
 21
87.144665
 31
0.0
  0
LINE
  5
1B7
330
1E
100
AcDbEntity
  8
0
100
AcDbLine
 10
30.3333
 20
87.79096499999999
 30
0.0
 11
31.0833
 21
87.79096499999999
 31
0.0
  0
LINE
  5
1B8
330
1E
100
AcDbEntity
  8
0
100
AcDbLine
 10
31.3333
 20
87.144665
 30
0.0
 11
31.8333
 21
87.144665
 31
0.0
  0
LINE
  5
1B9
330
1E
100
AcDbEntity
  8
0
100
AcDbLine
 10
31.0833
 20
87.79096499999999
 30
0.0
 11
31.5833
 21
87.79096499999999
 31
0.0
  0
LINE
  5
1BA
330
1E
100
AcDbEntity
  8
0
100
AcDbLine
 10
31.5833
 20
87.79096499999999
 30
0.0
 11
31.75
 21
87.79096499999999
 31
0.0
  0
LINE
  5
1BB
330
1E
100
AcDbEntity
  8
0
100
AcDbLine
 10
29.5
 20
87.144665
 30
0.0
 11
30.5
 21
87.144665
 31
0.0
  0
LINE
  5
1BC
330
1E
100
AcDbEntity
  8
0
100
AcDbLine
 10
30.5
 20
88.06786499999999
 30
0.0
 11
30.5
 21
91.2065736956522
 31
0.0
  0
LINE
  5
1BD
330
1E
100
AcDbEntity
  8
0
100
AcDbLine
 10
29.9167
 20
88.06786499999999
 30
0.0
 11
30.5833
 21
88.06786499999999
 31
0.0
  0
LINE
  5
1BE
330
1E
100
AcDbEntity
  8
0
100
AcDbLine
 10
30.5833
 20
88.06786499999999
 30
0.0
 11
31.0
 21
88.06786499999999
 31
0.0
  0
LINE
  5
1BF
330
1E
100
AcDbEntity
  8
0
100
AcDbLine
 10
31.0
 20
88.06786499999999
 30
0.0
 11
31.1667
 21
88.06786499999999
 31
0.0
  0
LINE
  5
1C0
330
1E
100
AcDbEntity
  8
0
100
AcDbLine
 10
29.3333
 20
87.79096499999999
 30
0.0
 11
30.3333
 21
87.79096499999999
 31
0.0
  0
LINE
  5
1C1
330
1E
100
AcDbEntity
  8
0
100
AcDbLine
 10
29.0833
 20
88.06786499999999
 30
0.0
 11
29.9167
 21
88.06786499999999
 31
0.0
  0
LINE
  5
1C2
330
1E
100
AcDbEntity
  8
0
100
AcDbLine
 10
28.0833
 20
88.06786499999999
 30
0.0
 11
29.0833
 21
88.06786499999999
 31
0.0
  0
LINE
  5
1C3
330
1E
100
AcDbEntity
  8
0
100
AcDbLine
 10
27.0
 20
88.06786499999999
 30
0.0
 11
28.0833
 21
88.06786499999999
 31
0.0
  0
LINE
  5
1C4
330
1E
100
AcDbEntity
  8
0
100
AcDbLine
 10
31.75
 20
86.49866499999999
 30
0.0
 11
32.0
 21
87.144665
 31
0.0
  0
LINE
  5
1C5
330
1E
100
AcDbEntity
  8
0
100
AcDbLine
 10
40.4
 20
85.273965
 30
0.0
 11
46.0
 21
89.67396499999999
 31
0.0
  0
LINE
  5
1C6
330
1E
100
AcDbEntity
  8
0
100
AcDbLine
 10
40.0
 20
85.11396500000001
 30
0.0
 11
40.4
 21
85.273965
 31
0.0
  0
LINE
  5
1C7
330
1E
100
AcDbEntity
  8
0
100
AcDbLine
 10
31.8333
 20
87.144665
 30
0.0
 11
32.0
 21
87.144665
 31
0.0
  0
LINE
  5
1C8
330
1E
100
AcDbEntity
  8
0
100
AcDbLine
 10
31.75
 20
87.79096499999999
 30
0.0
 11
32.0
 21
87.144665
 31
0.0
  0
LINE
  5
1C9
330
1E
100
AcDbEntity
  8
0
100
AcDbLine
 10
46.0
 20
89.67396499999999
 30
0.0
 11
50.4
 21
95.273965
 31
0.0
  0
LINE
  5
1CA
330
1E
100
AcDbEntity
  8
0
100
AcDbLine
 10
40.0
 20
88.17396499999999
 30
0.0
 11
40.0
 21
30.183265
 31
0.0
  0
LINE
  5
1CB
330
1E
100
AcDbEntity
  8
0
100
AcDbLine
 10
40.0
 20
88.17396499999999
 30
0.0
 11
40.49999999999999
 21
95.67396499999999
 31
0.0
  0
LINE
  5
1CC
330
1E
100
AcDbEntity
  8
0
100
AcDbLine
 10
31.1667
 20
88.06786499999999
 30
0.0
 11
31.75
 21
87.79096499999999
 31
0.0
  0
LINE
  5
1CD
330
1E
100
AcDbEntity
  8
0
100
AcDbLine
 10
25.9167
 20
88.06786499999999
 30
0.0
 11
27.0
 21
88.06786499999999
 31
0.0
  0
LINE
  5
1CE
330
1E
100
AcDbEntity
  8
0
100
AcDbLine
 10
23.6667
 20
73.02156499999999
 30
0.0
 11
23.6667
 21
58.252365
 31
0.0
  0
LINE
  5
1CF
330
1E
100
AcDbEntity
  8
0
100
AcDbLine
 10
23.25
 20
81.32926500000001
 30
0.0
 11
23.6667
 21
73.02156499999999
 31
0.0
  0
LINE
  5
1D0
330
1E
100
AcDbEntity
  8
0
100
AcDbLine
 10
30.5
 20
91.2065736956522
 30
0.0
 11
30.5
 21
88.06786499999999
 31
0.0
  0
LINE
  5
1D1
330
1E
100
AcDbEntity
  8
0
100
AcDbLine
 10
23.5
 20
91.2065736956522
 30
0.0
 11
23.5
 21
88.06786499999999
 31
0.0
  0
LINE
  5
1D2
330
1E
100
AcDbEntity
  8
0
100
AcDbLine
 10
27.0
 20
91.17396499999999
 30
0.0
 11
31.5
 21
91.773965
 31
0.0
  0
LINE
  5
1D3
330
1E
100
AcDbEntity
  8
0
100
AcDbLine
 10
30.5
 20
91.2065736956522
 30
0.0
 11
31.6
 21
91.37396499999999
 31
0.0
  0
LINE
  5
1D4
330
1E
100
AcDbEntity
  8
0
100
AcDbLine
 10
27.0
 20
90.67396499999999
 30
0.0
 11
31.6
 21
91.37396499999999
 31
0.0
  0
LINE
  5
1D5
330
1E
100
AcDbEntity
  8
0
100
AcDbLine
 10
23.0
 20
26.683265
 30
0.0
 11
27.0
 21
26.683265
 31
0.0
  0
LINE
  5
1D6
330
1E
100
AcDbEntity
  8
0
100
AcDbLine
 10
22.39999999999999
 20
91.37396499999999
 30
0.0
 11
27.0
 21
90.67396499999999
 31
0.0
  0
LINE
  5
1D7
330
1E
100
AcDbEntity
  8
0
100
AcDbLine
 10
22.6
 20
92.27396500000001
 30
0.0
 11
27.0
 21
91.673965
 31
0.0
  0
LINE
  5
1D8
330
1E
100
AcDbEntity
  8
0
100
AcDbLine
 10
22.5
 20
91.773965
 30
0.0
 11
27.0
 21
91.17396499999999
 31
0.0
  0
LINE
  5
1D9
330
1E
100
AcDbEntity
  8
0
100
AcDbLine
 10
31.0
 20
93.77396500000001
 30
0.0
 11
34.7
 21
95.273965
 31
0.0
  0
LINE
  5
1DA
330
1E
100
AcDbEntity
  8
0
100
AcDbLine
 10
27.0
 20
93.17396499999999
 30
0.0
 11
31.0
 21
93.77396500000001
 31
0.0
  0
LINE
  5
1DB
330
1E
100
AcDbEntity
  8
0
100
AcDbLine
 10
31.4
 20
92.27396500000001
 30
0.0
 11
35.5
 21
93.97396500000001
 31
0.0
  0
LINE
  5
1DC
330
1E
100
AcDbEntity
  8
0
100
AcDbLine
 10
27.0
 20
91.673965
 30
0.0
 11
31.4
 21
92.27396500000001
 31
0.0
  0
LINE
  5
1DD
330
1E
100
AcDbEntity
  8
0
100
AcDbLine
 10
34.7
 20
95.273965
 30
0.0
 11
37.9
 21
97.77396500000001
 31
0.0
  0
LINE
  5
1DE
330
1E
100
AcDbEntity
  8
0
100
AcDbLine
 10
31.5
 20
91.773965
 30
0.0
 11
35.7
 21
93.473965
 31
0.0
  0
LINE
  5
1DF
330
1E
100
AcDbEntity
  8
0
100
AcDbLine
 10
31.6
 20
91.37396499999999
 30
0.0
 11
35.89999999999999
 21
93.07396500000001
 31
0.0
  0
LINE
  5
1E0
330
1E
100
AcDbEntity
  8
0
100
AcDbLine
 10
35.5
 20
93.97396500000001
 30
0.0
 11
39.0
 21
96.673965
 31
0.0
  0
LINE
  5
1E1
330
1E
100
AcDbEntity
  8
0
100
AcDbLine
 10
40.49999999999999
 20
95.67396499999999
 30
0.0
 11
41.1157480314961
 21
97.82908311023621
 31
0.0
  0
LINE
  5
1E2
330
1E
100
AcDbEntity
  8
0
100
AcDbLine
 10
37.9
 20
97.77396500000001
 30
0.0
 11
40.4
 21
100.9739649999999
 31
0.0
  0
LINE
  5
1E3
330
1E
100
AcDbEntity
  8
0
100
AcDbLine
 10
39.0
 20
96.673965
 30
0.0
 11
41.7
 21
100.1739649999999
 31
0.0
  0
LINE
  5
1E4
330
1E
100
AcDbEntity
  8
0
100
AcDbLine
 10
40.4
 20
100.9739649999999
 30
0.0
 11
41.9
 21
104.6739649999999
 31
0.0
  0
LINE
  5
1E5
330
1E
100
AcDbEntity
  8
0
100
AcDbLine
 10
41.9
 20
104.6739649999999
 30
0.0
 11
42.5
 21
108.6739649999999
 31
0.0
  0
LINE
  5
1E6
330
1E
100
AcDbEntity
  8
0
100
AcDbLine
 10
41.7
 20
100.1739649999999
 30
0.0
 11
43.39999999999999
 21
104.273965
 31
0.0
  0
LINE
  5
1E7
330
1E
100
AcDbEntity
  8
0
100
AcDbLine
 10
39.39999999999999
 20
96.27396500000001
 30
0.0
 11
42.2
 21
99.973965
 31
0.0
  0
LINE
  5
1E8
330
1E
100
AcDbEntity
  8
0
100
AcDbLine
 10
39.7
 20
95.973965
 30
0.0
 11
42.6
 21
99.77396500000001
 31
0.0
  0
LINE
  5
1E9
330
1E
100
AcDbEntity
  8
0
100
AcDbLine
 10
35.7
 20
93.473965
 30
0.0
 11
39.39999999999999
 21
96.27396500000001
 31
0.0
  0
LINE
  5
1EA
330
1E
100
AcDbEntity
  8
0
100
AcDbLine
 10
35.89999999999999
 20
93.07396500000001
 30
0.0
 11
39.7
 21
95.973965
 31
0.0
  0
LINE
  5
1EB
330
1E
100
AcDbEntity
  8
0
100
AcDbLine
 10
43.39999999999999
 20
104.273965
 30
0.0
 11
44.0
 21
108.6739649999999
 31
0.0
  0
LINE
  5
1EC
330
1E
100
AcDbEntity
  8
0
100
AcDbLine
 10
42.2
 20
99.973965
 30
0.0
 11
43.89999999999999
 21
104.173965
 31
0.0
  0
LINE
  5
1ED
330
1E
100
AcDbEntity
  8
0
100
AcDbLine
 10
43.89999999999999
 20
104.173965
 30
0.0
 11
44.5
 21
108.6739649999999
 31
0.0
  0
LINE
  5
1EE
330
1E
100
AcDbEntity
  8
0
100
AcDbLine
 10
42.6
 20
99.77396500000001
 30
0.0
 11
44.29999999999999
 21
104.073965
 31
0.0
  0
LINE
  5
1EF
330
1E
100
AcDbEntity
  8
0
100
AcDbLine
 10
41.9
 20
112.6739649999999
 30
0.0
 11
42.5
 21
108.6739649999999
 31
0.0
  0
LINE
  5
1F0
330
1E
100
AcDbEntity
  8
0
100
AcDbLine
 10
43.39999999999999
 20
113.0739649999999
 30
0.0
 11
44.0
 21
108.6739649999999
 31
0.0
  0
LINE
  5
1F1
330
1E
100
AcDbEntity
  8
0
100
AcDbLine
 10
50.4
 20
95.273965
 30
0.0
 11
53.0
 21
101.7739649999999
 31
0.0
  0
LINE
  5
1F2
330
1E
100
AcDbEntity
  8
0
100
AcDbLine
 10
53.0
 20
101.7739649999999
 30
0.0
 11
54.0
 21
108.6739649999999
 31
0.0
  0
LINE
  5
1F3
330
1E
100
AcDbEntity
  8
0
100
AcDbLine
 10
44.29999999999999
 20
104.073965
 30
0.0
 11
45.0
 21
108.6739649999999
 31
0.0
  0
LINE
  5
1F4
330
1E
100
AcDbEntity
  8
0
100
AcDbLine
 10
43.89999999999999
 20
113.1739649999999
 30
0.0
 11
44.5
 21
108.6739649999999
 31
0.0
  0
LINE
  5
1F5
330
1E
100
AcDbEntity
  8
0
100
AcDbLine
 10
37.9
 20
119.5739649999999
 30
0.0
 11
40.4
 21
116.3739649999999
 31
0.0
  0
LINE
  5
1F6
330
1E
100
AcDbEntity
  8
0
100
AcDbLine
 10
40.4
 20
116.3739649999999
 30
0.0
 11
41.9
 21
112.6739649999999
 31
0.0
  0
LINE
  5
1F7
330
1E
100
AcDbEntity
  8
0
100
AcDbLine
 10
39.0
 20
120.673965
 30
0.0
 11
41.7
 21
117.1739649999999
 31
0.0
  0
LINE
  5
1F8
330
1E
100
AcDbEntity
  8
0
100
AcDbLine
 10
41.7
 20
117.1739649999999
 30
0.0
 11
43.39999999999999
 21
113.0739649999999
 31
0.0
  0
LINE
  5
1F9
330
1E
100
AcDbEntity
  8
0
100
AcDbLine
 10
39.39999999999999
 20
121.0739649999999
 30
0.0
 11
42.2
 21
117.3739649999999
 31
0.0
  0
LINE
  5
1FA
330
1E
100
AcDbEntity
  8
0
100
AcDbLine
 10
42.2
 20
117.3739649999999
 30
0.0
 11
43.89999999999999
 21
113.1739649999999
 31
0.0
  0
LINE
  5
1FB
330
1E
100
AcDbEntity
  8
0
100
AcDbLine
 10
38.65211117166209
 20
122.188836444142
 30
0.0
 11
38.7036
 21
122.2439649999999
 31
0.0
  0
LINE
  5
1FC
330
1E
100
AcDbEntity
  8
0
100
AcDbLine
 10
38.655316047737
 20
122.186344231299
 30
0.0
 11
38.6951
 21
122.228965
 31
0.0
  0
LINE
  5
1FD
330
1E
100
AcDbEntity
  8
0
100
AcDbLine
 10
39.29899999999999
 20
123.2769649999999
 30
0.0
 11
39.53759999999999
 21
123.6899649999999
 31
0.0
  0
LINE
  5
1FE
330
1E
100
AcDbEntity
  8
0
100
AcDbLine
 10
39.07999999999999
 20
122.8979649999999
 30
0.0
 11
39.29899999999999
 21
123.2769649999999
 31
0.0
  0
LINE
  5
1FF
330
1E
100
AcDbEntity
  8
0
100
AcDbLine
 10
38.8892
 20
122.5669649999999
 30
0.0
 11
39.07999999999999
 21
122.8979649999999
 31
0.0
  0
LINE
  5
200
330
1E
100
AcDbEntity
  8
0
100
AcDbLine
 10
38.7036
 20
122.2439649999999
 30
0.0
 11
38.8892
 21
122.5669649999999
 31
0.0
  0
LINE
  5
201
330
1E
100
AcDbEntity
  8
0
100
AcDbLine
 10
38.66588056534629
 20
122.17812892879
 30
0.0
 11
38.6951
 21
122.228965
 31
0.0
  0
LINE
  5
202
330
1E
100
AcDbEntity
  8
0
100
AcDbLine
 10
39.7
 20
121.3739649999999
 30
0.0
 11
42.6
 21
117.5739649999999
 31
0.0
  0
LINE
  5
203
330
1E
100
AcDbEntity
  8
0
100
AcDbLine
 10
53.0
 20
115.5739649999999
 30
0.0
 11
54.0
 21
108.6739649999999
 31
0.0
  0
LINE
  5
204
330
1E
100
AcDbEntity
  8
0
100
AcDbLine
 10
50.4
 20
122.0739649999999
 30
0.0
 11
53.0
 21
115.5739649999999
 31
0.0
  0
LINE
  5
205
330
1E
100
AcDbEntity
  8
0
100
AcDbLine
 10
42.6
 20
117.5739649999999
 30
0.0
 11
44.29999999999999
 21
113.2739649999999
 31
0.0
  0
LINE
  5
206
330
1E
100
AcDbEntity
  8
0
100
AcDbLine
 10
44.29999999999999
 20
113.2739649999999
 30
0.0
 11
45.0
 21
108.6739649999999
 31
0.0
  0
LINE
  5
207
330
1E
100
AcDbEntity
  8
0
100
AcDbLine
 10
34.7
 20
122.0739649999999
 30
0.0
 11
37.9
 21
119.5739649999999
 31
0.0
  0
LINE
  5
208
330
1E
100
AcDbEntity
  8
0
100
AcDbLine
 10
31.0
 20
123.5739649999999
 30
0.0
 11
34.7
 21
122.0739649999999
 31
0.0
  0
LINE
  5
209
330
1E
100
AcDbEntity
  8
0
100
AcDbLine
 10
35.5
 20
123.3739649999999
 30
0.0
 11
39.0
 21
120.673965
 31
0.0
  0
LINE
  5
20A
330
1E
100
AcDbEntity
  8
0
100
AcDbLine
 10
23.0
 20
93.77396500000001
 30
0.0
 11
27.0
 21
93.17396499999999
 31
0.0
  0
LINE
  5
20B
330
1E
100
AcDbEntity
  8
0
100
AcDbLine
 10
27.0
 20
124.1739649999999
 30
0.0
 11
31.0
 21
123.5739649999999
 31
0.0
  0
LINE
  5
20C
330
1E
100
AcDbEntity
  8
0
100
AcDbLine
 10
31.4
 20
125.0739649999999
 30
0.0
 11
35.5
 21
123.3739649999999
 31
0.0
  0
LINE
  5
20D
330
1E
100
AcDbEntity
  8
0
100
AcDbLine
 10
31.5
 20
125.5739649999999
 30
0.0
 11
35.7
 21
123.8739649999999
 31
0.0
  0
LINE
  5
20E
330
1E
100
AcDbEntity
  8
0
100
AcDbLine
 10
39.7859
 20
124.1189649999999
 30
0.0
 11
45.1403
 21
133.3689649999999
 31
0.0
  0
LINE
  5
20F
330
1E
100
AcDbEntity
  8
0
100
AcDbLine
 10
39.53759999999999
 20
123.6899649999999
 30
0.0
 11
39.7859
 21
124.1189649999999
 31
0.0
  0
LINE
  5
210
330
1E
100
AcDbEntity
  8
0
100
AcDbLine
 10
35.7
 20
123.8739649999999
 30
0.0
 11
39.39999999999999
 21
121.0739649999999
 31
0.0
  0
LINE
  5
211
330
1E
100
AcDbEntity
  8
0
100
AcDbLine
 10
34.7519
 20
125.4009649999999
 30
0.0
 11
34.9709
 21
125.7799649999999
 31
0.0
  0
LINE
  5
212
330
1E
100
AcDbEntity
  8
0
100
AcDbLine
 10
34.5611
 20
125.069965
 30
0.0
 11
34.7519
 21
125.4009649999999
 31
0.0
  0
LINE
  5
213
330
1E
100
AcDbEntity
  8
0
100
AcDbLine
 10
34.4432907158292
 20
124.8655760479359
 30
0.0
 11
34.5611
 21
125.069965
 31
0.0
  0
LINE
  5
214
330
1E
100
AcDbEntity
  8
0
100
AcDbLine
 10
35.89999999999999
 20
124.2739649999999
 30
0.0
 11
39.7
 21
121.3739649999999
 31
0.0
  0
LINE
  5
215
330
1E
100
AcDbEntity
  8
0
100
AcDbLine
 10
33.8612068965528
 20
125.079999482758
 30
0.0
 11
35.89999999999999
 21
124.3289649999999
 31
0.0
  0
LINE
  5
216
330
1E
100
AcDbEntity
  8
0
100
AcDbLine
 10
23.0
 20
123.5739649999999
 30
0.0
 11
27.0
 21
124.1739649999999
 31
0.0
  0
LINE
  5
217
330
1E
100
AcDbEntity
  8
0
100
AcDbLine
 10
22.6
 20
125.0739649999999
 30
0.0
 11
27.0
 21
125.6739649999999
 31
0.0
  0
LINE
  5
218
330
1E
100
AcDbEntity
  8
0
100
AcDbLine
 10
27.0
 20
125.6739649999999
 30
0.0
 11
31.4
 21
125.0739649999999
 31
0.0
  0
LINE
  5
219
330
1E
100
AcDbEntity
  8
0
100
AcDbLine
 10
27.0
 20
135.6739649999999
 30
0.0
 11
33.9
 21
134.6739649999999
 31
0.0
  0
LINE
  5
21A
330
1E
100
AcDbEntity
  8
0
100
AcDbLine
 10
27.0
 20
126.1739649999999
 30
0.0
 11
31.5
 21
125.5739649999999
 31
0.0
  0
LINE
  5
21B
330
1E
100
AcDbEntity
  8
0
100
AcDbLine
 10
34.9709
 20
125.7799649999999
 30
0.0
 11
35.2095
 21
126.1929649999999
 31
0.0
  0
LINE
  5
21C
330
1E
100
AcDbEntity
  8
0
100
AcDbLine
 10
33.9
 20
134.6739649999999
 30
0.0
 11
38.9490002773935
 21
132.654364889043
 31
0.0
  0
LINE
  5
21D
330
1E
100
AcDbEntity
  8
0
100
AcDbLine
 10
43.1430889965095
 20
129.9186807884569
 30
0.0
 11
46.0
 21
127.6739649999999
 31
0.0
  0
LINE
  5
21E
330
1E
100
AcDbEntity
  8
0
100
AcDbLine
 10
42.9727
 20
134.6229649999999
 30
0.0
 11
43.801
 21
134.1439649999999
 31
0.0
  0
LINE
  5
21F
330
1E
100
AcDbEntity
  8
0
100
AcDbLine
 10
43.801
 20
134.1439649999999
 30
0.0
 11
44.5041
 21
133.737965
 31
0.0
  0
LINE
  5
220
330
1E
100
AcDbEntity
  8
0
100
AcDbLine
 10
44.5041
 20
133.737965
 30
0.0
 11
44.9742
 21
133.4649649999999
 31
0.0
  0
LINE
  5
221
330
1E
100
AcDbEntity
  8
0
100
AcDbLine
 10
46.0
 20
127.6739649999999
 30
0.0
 11
50.4
 21
122.0739649999999
 31
0.0
  0
LINE
  5
222
330
1E
100
AcDbEntity
  8
0
100
AcDbLine
 10
44.9742
 20
133.4649649999999
 30
0.0
 11
45.1403
 21
133.3689649999999
 31
0.0
  0
LINE
  5
223
330
1E
100
AcDbEntity
  8
0
100
AcDbLine
 10
44.97679999999999
 20
133.4639649999999
 30
0.0
 11
45.1403
 21
133.3689649999999
 31
0.0
  0
LINE
  5
224
330
1E
100
AcDbEntity
  8
0
100
AcDbLine
 10
44.6177488952812
 20
133.671965960622
 30
0.0
 11
44.97679999999999
 21
133.4639649999999
 31
0.0
  0
LINE
  5
225
330
1E
100
AcDbEntity
  8
0
100
AcDbLine
 10
42.1513
 20
135.098965
 30
0.0
 11
42.97101147373989
 21
134.623942052523
 31
0.0
  0
LINE
  5
226
330
1E
100
AcDbEntity
  8
0
100
AcDbLine
 10
35.4577
 20
126.6229649999999
 30
0.0
 11
40.8121
 21
135.8729649999999
 31
0.0
  0
LINE
  5
227
330
1E
100
AcDbEntity
  8
0
100
AcDbLine
 10
40.9782
 20
135.7769649999999
 30
0.0
 11
41.32697266963289
 21
135.5753365916259
 31
0.0
  0
LINE
  5
228
330
1E
100
AcDbEntity
  8
0
100
AcDbLine
 10
40.8121
 20
135.8729649999999
 30
0.0
 11
40.9756
 21
135.7779649999999
 31
0.0
  0
LINE
  5
229
330
1E
100
AcDbEntity
  8
0
100
AcDbLine
 10
40.8121
 20
135.8729649999999
 30
0.0
 11
40.9782
 21
135.7769649999999
 31
0.0
  0
LINE
  5
22A
330
1E
100
AcDbEntity
  8
0
100
AcDbLine
 10
40.9756
 20
135.7779649999999
 30
0.0
 11
41.4438
 21
135.5079649999999
 31
0.0
  0
LINE
  5
22B
330
1E
100
AcDbEntity
  8
0
100
AcDbLine
 10
41.58010581280239
 20
135.4290316666699
 30
0.0
 11
42.1513
 21
135.098965
 31
0.0
  0
LINE
  5
22C
330
1E
100
AcDbEntity
  8
0
100
AcDbLine
 10
41.4438
 20
135.5079649999999
 30
0.0
 11
42.1449
 21
135.1019649999999
 31
0.0
  0
LINE
  5
22D
330
1E
100
AcDbEntity
  8
0
100
AcDbLine
 10
42.1449
 20
135.1019649999999
 30
0.0
 11
42.9727
 21
134.6229649999999
 31
0.0
  0
LINE
  5
22E
330
1E
100
AcDbEntity
  8
0
100
AcDbLine
 10
42.1449
 20
135.1019649999999
 30
0.0
 11
44.5041
 21
133.737965
 31
0.0
  0
LINE
  5
22F
330
1E
100
AcDbEntity
  8
0
100
AcDbLine
 10
35.2095
 20
126.1929649999999
 30
0.0
 11
35.4577
 21
126.6229649999999
 31
0.0
  0
LINE
  5
230
330
1E
100
AcDbEntity
  8
0
100
AcDbLine
 10
31.6
 20
125.9739649999999
 30
0.0
 11
35.89999999999999
 21
124.2739649999999
 31
0.0
  0
LINE
  5
231
330
1E
100
AcDbEntity
  8
0
100
AcDbLine
 10
31.6
 20
125.9739649999999
 30
0.0
 11
33.8612068965528
 21
125.079999482758
 31
0.0
  0
LINE
  5
232
330
1E
100
AcDbEntity
  8
0
100
AcDbLine
 10
27.0
 20
126.6739649999999
 30
0.0
 11
31.6
 21
125.9739649999999
 31
0.0
  0
LINE
  5
233
330
1E
100
AcDbEntity
  8
0
100
AcDbLine
 10
22.5
 20
125.5739649999999
 30
0.0
 11
27.0
 21
126.1739649999999
 31
0.0
  0
LINE
  5
234
330
1E
100
AcDbEntity
  8
0
100
AcDbLine
 10
22.39999999999999
 20
125.9739649999999
 30
0.0
 11
27.0
 21
126.6739649999999
 31
0.0
  0
LINE
  5
235
330
1E
100
AcDbEntity
  8
0
100
AcDbLine
 10
22.39999999999999
 20
91.37396499999999
 30
0.0
 11
23.5
 21
91.2065736956522
 31
0.0
  0
LINE
  5
236
330
1E
100
AcDbEntity
  8
0
100
AcDbLine
 10
20.1
 20
134.6739649999999
 30
0.0
 11
27.0
 21
135.6739649999999
 31
0.0
  0
ENDSEC
  0
SECTION
  2
OBJECTS
  0
DICTIONARY
  5
C
330
0
100
AcDbDictionary
  3
ACAD_GROUP
350
D
  3
ACAD_LAYOUT
350
19
  3
ACAD_MLINESTYLE
350
16
  3
ACAD_PLOTSETTINGS
350
18
  3
ACAD_PLOTSTYLENAME
350
E
  3
ACDBHEADERROUNDTRIPXREC
350
23E
  3
ACDBVARIABLEDICTIONARY
350
23B
  0
DICTIONARY
  5
260
330
1E
100
AcDbDictionary
280
     1
  3
ACAD_LAYOUTSELFREF
360
261
  0
DICTIONARY
  5
25E
330
1A
100
AcDbDictionary
280
     1
  3
ACAD_LAYOUTSELFREF
360
25F
  0
DICTIONARY
  5
D
102
{ACAD_REACTORS
330
C
102
}
330
C
100
AcDbDictionary
  0
DICTIONARY
  5
19
102
{ACAD_REACTORS
330
C
102
}
330
C
100
AcDbDictionary
  0
DICTIONARY
  5
16
102
{ACAD_REACTORS
330
C
102
}
330
C
100
AcDbDictionary
  3
STANDARD
350
17
  0
DICTIONARY
  5
18
102
{ACAD_REACTORS
330
C
102
}
330
C
100
AcDbDictionary
  0
ACDBDICTIONARYWDFLT
  5
E
102
{ACAD_REACTORS
330
C
102
}
330
C
100
AcDbDictionary
281
     1
  3
Normal
350
F
100
AcDbDictionaryWithDefault
340
F
  0
DICTIONARY
  5
23E
102
{ACAD_REACTORS
330
C
102
}
330
C
100
AcDbDictionary
  3
CEPSNTYPE
350
248
  3
FINGERPRINTGUID
350
249
  3
HYPERLINKBASE
350
241
  3
INSUNITS
350
247
  3
LAYOUTDICT
350
243
  3
LWETCUNION
350
246
  3
PLOTSETDICT
350
244
  3
PLOTSTYLNAMDICT
350
245
  3
PSVPSCALE
350
24B
  3
PUCSBASE
350
24E
  3
PUCSORGBACK
350
254
  3
PUCSORGBOTTOM
350
250
  3
PUCSORGFRONT
350
253
  3
PUCSORGLEFT
350
251
  3
PUCSORGRIGHT
350
252
  3
PUCSORGTOP
350
24F
  3
PUCSORTHOREF
350
24C
  3
PUCSORTHOVIEW
350
24D
  3
STYLESHEET
350
242
  3
TSTACKALIGN
350
23F
  3
TSTACKSIZE
350
240
  3
UCSBASE
350
257
  3
UCSORGBACK
350
25D
  3
UCSORGBOTTOM
350
259
  3
UCSORGFRONT
350
25C
  3
UCSORGLEFT
350
25A
  3
UCSORGRIGHT
350
25B
  3
UCSORGTOP
350
258
  3
UCSORTHOREF
350
255
  3
UCSORTHOVIEW
350
256
  3
VERSIONGUID
350
24A
  0
DICTIONARY
  5
23B
102
{ACAD_REACTORS
330
C
102
}
330
C
100
AcDbDictionary
  3
DIMASSOC
350
23C
  0
XRECORD
  5
261
102
{ACAD_REACTORS
330
260
102
}
330
260
100
AcDbXrecord
340
1E
  0
XRECORD
  5
25F
102
{ACAD_REACTORS
330
25E
102
}
330
25E
100
AcDbXrecord
340
1A
  0
MLINESTYLE
  5
17
102
{ACAD_REACTORS
330
16
102
}
330
16
100
AcDbMlineStyle
  2
STANDARD
 70
     0
  3

 62
   256
 51
90.0
 52
90.0
 71
     2
 49
0.5
 62
   256
  6
BYLAYER
 49
-0.5
 62
   256
  6
BYLAYER
  0
ACDBPLACEHOLDER
  5
F
102
{ACAD_REACTORS
330
E
102
}
330
E
100
AcDbPlaceHolder
280
     0
  0
XRECORD
  5
248
102
{ACAD_REACTORS
330
23E
102
}
330
23E
100
AcDbXrecord
 90
        0
  0
XRECORD
  5
249
102
{ACAD_REACTORS
330
23E
102
}
330
23E
100
AcDbXrecord
  1
{B278A00C-3525-42CA-8565-E5057BD02E51}
  0
XRECORD
  5
241
102
{ACAD_REACTORS
330
23E
102
}
330
23E
100
AcDbXrecord
  1

  0
XRECORD
  5
247
102
{ACAD_REACTORS
330
23E
102
}
330
23E
100
AcDbXrecord
 90
        0
  0
XRECORD
  5
243
102
{ACAD_REACTORS
330
23E
102
}
330
23E
100
AcDbXrecord
340
19
  0
XRECORD
  5
246
102
{ACAD_REACTORS
330
23E
102
}
330
23E
100
AcDbXrecord
 90
    10781
  0
XRECORD
  5
244
102
{ACAD_REACTORS
330
23E
102
}
330
23E
100
AcDbXrecord
340
18
  0
XRECORD
  5
245
102
{ACAD_REACTORS
330
23E
102
}
330
23E
100
AcDbXrecord
340
E
  0
XRECORD
  5
24B
102
{ACAD_REACTORS
330
23E
102
}
330
23E
100
AcDbXrecord
 40
0.0
  0
XRECORD
  5
24E
102
{ACAD_REACTORS
330
23E
102
}
330
23E
100
AcDbXrecord
340
0
  0
XRECORD
  5
254
102
{ACAD_REACTORS
330
23E
102
}
330
23E
100
AcDbXrecord
 10
0.0
 20
0.0
 30
0.0
  0
XRECORD
  5
250
102
{ACAD_REACTORS
330
23E
102
}
330
23E
100
AcDbXrecord
 10
0.0
 20
0.0
 30
0.0
  0
XRECORD
  5
253
102
{ACAD_REACTORS
330
23E
102
}
330
23E
100
AcDbXrecord
 10
0.0
 20
0.0
 30
0.0
  0
XRECORD
  5
251
102
{ACAD_REACTORS
330
23E
102
}
330
23E
100
AcDbXrecord
 10
0.0
 20
0.0
 30
0.0
  0
XRECORD
  5
252
102
{ACAD_REACTORS
330
23E
102
}
330
23E
100
AcDbXrecord
 10
0.0
 20
0.0
 30
0.0
  0
XRECORD
  5
24F
102
{ACAD_REACTORS
330
23E
102
}
330
23E
100
AcDbXrecord
 10
0.0
 20
0.0
 30
0.0
  0
XRECORD
  5
24C
102
{ACAD_REACTORS
330
23E
102
}
330
23E
100
AcDbXrecord
340
0
  0
XRECORD
  5
24D
102
{ACAD_REACTORS
330
23E
102
}
330
23E
100
AcDbXrecord
 70
     0
  0
XRECORD
  5
242
102
{ACAD_REACTORS
330
23E
102
}
330
23E
100
AcDbXrecord
  1

  0
XRECORD
  5
23F
102
{ACAD_REACTORS
330
23E
102
}
330
23E
100
AcDbXrecord
 90
        1
  0
XRECORD
  5
240
102
{ACAD_REACTORS
330
23E
102
}
330
23E
100
AcDbXrecord
 90
       70
  0
XRECORD
  5
257
102
{ACAD_REACTORS
330
23E
102
}
330
23E
100
AcDbXrecord
340
0
  0
XRECORD
  5
25D
102
{ACAD_REACTORS
330
23E
102
}
330
23E
100
AcDbXrecord
 10
0.0
 20
0.0
 30
0.0
  0
XRECORD
  5
259
102
{ACAD_REACTORS
330
23E
102
}
330
23E
100
AcDbXrecord
 10
0.0
 20
0.0
 30
0.0
  0
XRECORD
  5
25C
102
{ACAD_REACTORS
330
23E
102
}
330
23E
100
AcDbXrecord
 10
0.0
 20
0.0
 30
0.0
  0
XRECORD
  5
25A
102
{ACAD_REACTORS
330
23E
102
}
330
23E
100
AcDbXrecord
 10
0.0
 20
0.0
 30
0.0
  0
XRECORD
  5
25B
102
{ACAD_REACTORS
330
23E
102
}
330
23E
100
AcDbXrecord
 10
0.0
 20
0.0
 30
0.0
  0
XRECORD
  5
258
102
{ACAD_REACTORS
330
23E
102
}
330
23E
100
AcDbXrecord
 10
0.0
 20
0.0
 30
0.0
  0
XRECORD
  5
255
102
{ACAD_REACTORS
330
23E
102
}
330
23E
100
AcDbXrecord
340
0
  0
XRECORD
  5
256
102
{ACAD_REACTORS
330
23E
102
}
330
23E
100
AcDbXrecord
 70
     1
  0
XRECORD
  5
24A
102
{ACAD_REACTORS
330
23E
102
}
330
23E
100
AcDbXrecord
  1
{8DFAAA25-80E4-4718-A36A-EC77E152887D}
  0
DICTIONARYVAR
  5
23C
102
{ACAD_REACTORS
330
23B
102
}
330
23B
100
DictionaryVariables
280
     0
  1
1
  0
ENDSEC
  0
EOF
