  0
SECTION
  2
HEADER
  9
$ACADVER
  1
AC1014
  9
$ACADMAINTVER
 70
     9
  9
$DWGCODEPAGE
  3
ANSI_1252
  9
$INSBASE
 10
0.0
 20
0.0
 30
0.0
  9
$EXTMIN
 10
0.127035000000016
 20
0.249999999999996
 30
0.0
  9
$EXTMAX
 10
135.8729649999999
 20
143.75
 30
0.0
  9
$LIMMIN
 10
0.0
 20
0.0
  9
$LIMMAX
 10
12.0
 20
9.0
  9
$ORTHOMODE
 70
     0
  9
$REGENMODE
 70
     1
  9
$FILLMODE
 70
     1
  9
$QTEXTMODE
 70
     0
  9
$MIRRTEXT
 70
     1
  9
$DRAGMODE
 70
     2
  9
$LTSCALE
 40
1.0
  9
$OSMODE
 70
    37
  9
$ATTMODE
 70
     1
  9
$TEXTSIZE
 40
0.2
  9
$TRACEWID
 40
0.05
  9
$TEXTSTYLE
  7
STANDARD
  9
$CLAYER
  8
0
  9
$CELTYPE
  6
CONTINUOUS
  9
$CECOLOR
 62
   256
  9
$CELTSCALE
 40
1.0
  9
$DELOBJ
 70
     1
  9
$DISPSILH
 70
     0
  9
$DIMSCALE
 40
1.0
  9
$DIMASZ
 40
0.18
  9
$DIMEXO
 40
0.0625
  9
$DIMDLI
 40
0.38
  9
$DIMRND
 40
0.0
  9
$DIMDLE
 40
0.0
  9
$DIMEXE
 40
0.18
  9
$DIMTP
 40
0.0
  9
$DIMTM
 40
0.0
  9
$DIMTXT
 40
0.18
  9
$DIMCEN
 40
0.09
  9
$DIMTSZ
 40
0.0
  9
$DIMTOL
 70
     0
  9
$DIMLIM
 70
     0
  9
$DIMTIH
 70
     1
  9
$DIMTOH
 70
     1
  9
$DIMSE1
 70
     0
  9
$DIMSE2
 70
     0
  9
$DIMTAD
 70
     0
  9
$DIMZIN
 70
     0
  9
$DIMBLK
  1

  9
$DIMASO
 70
     1
  9
$DIMSHO
 70
     1
  9
$DIMPOST
  1

  9
$DIMAPOST
  1

  9
$DIMALT
 70
     0
  9
$DIMALTD
 70
     2
  9
$DIMALTF
 40
25.4
  9
$DIMLFAC
 40
1.0
  9
$DIMTOFL
 70
     0
  9
$DIMTVP
 40
0.0
  9
$DIMTIX
 70
     0
  9
$DIMSOXD
 70
     0
  9
$DIMSAH
 70
     0
  9
$DIMBLK1
  1

  9
$DIMBLK2
  1

  9
$DIMSTYLE
  2
STANDARD
  9
$DIMCLRD
 70
     0
  9
$DIMCLRE
 70
     0
  9
$DIMCLRT
 70
     0
  9
$DIMTFAC
 40
1.0
  9
$DIMGAP
 40
0.09
  9
$DIMJUST
 70
     0
  9
$DIMSD1
 70
     0
  9
$DIMSD2
 70
     0
  9
$DIMTOLJ
 70
     1
  9
$DIMTZIN
 70
     0
  9
$DIMALTZ
 70
     0
  9
$DIMALTTZ
 70
     0
  9
$DIMFIT
 70
     3
  9
$DIMUPT
 70
     0
  9
$DIMUNIT
 70
     2
  9
$DIMDEC
 70
     4
  9
$DIMTDEC
 70
     4
  9
$DIMALTU
 70
     2
  9
$DIMALTTD
 70
     2
  9
$DIMTXSTY
  7
STANDARD
  9
$DIMAUNIT
 70
     0
  9
$LUNITS
 70
     2
  9
$LUPREC
 70
     4
  9
$SKETCHINC
 40
0.1
  9
$FILLETRAD
 40
0.0
  9
$AUNITS
 70
     0
  9
$AUPREC
 70
     0
  9
$MENU
  1
.
  9
$ELEVATION
 40
0.0
  9
$PELEVATION
 40
0.0
  9
$THICKNESS
 40
0.0
  9
$LIMCHECK
 70
     0
  9
$BLIPMODE
 70
     0
  9
$CHAMFERA
 40
0.0
  9
$CHAMFERB
 40
0.0
  9
$CHAMFERC
 40
0.0
  9
$CHAMFERD
 40
0.0
  9
$SKPOLY
 70
     0
  9
$TDCREATE
 40
2454698.405938032
  9
$TDUPDATE
 40
2454698.411813148
  9
$TDINDWG
 40
0.0058754630
  9
$TDUSRTIMER
 40
0.0058754630
  9
$USRTIMER
 70
     1
  9
$ANGBASE
 50
0.0
  9
$ANGDIR
 70
     0
  9
$PDMODE
 70
     0
  9
$PDSIZE
 40
0.0
  9
$PLINEWID
 40
0.0
  9
$COORDS
 70
     1
  9
$SPLFRAME
 70
     0
  9
$SPLINETYPE
 70
     6
  9
$SPLINESEGS
 70
     8
  9
$ATTDIA
 70
     0
  9
$ATTREQ
 70
     1
  9
$HANDLING
 70
 22529
  9
$HANDSEED
  5
303
  9
$SURFTAB1
 70
     6
  9
$SURFTAB2
 70
     6
  9
$SURFTYPE
 70
     6
  9
$SURFU
 70
     6
  9
$SURFV
 70
     6
  9
$UCSNAME
  2

  9
$UCSORG
 10
0.0
 20
0.0
 30
0.0
  9
$UCSXDIR
 10
1.0
 20
0.0
 30
0.0
  9
$UCSYDIR
 10
0.0
 20
1.0
 30
0.0
  9
$PUCSNAME
  2

  9
$PUCSORG
 10
0.0
 20
0.0
 30
0.0
  9
$PUCSXDIR
 10
1.0
 20
0.0
 30
0.0
  9
$PUCSYDIR
 10
0.0
 20
1.0
 30
0.0
  9
$USERI1
 70
     0
  9
$USERI2
 70
     0
  9
$USERI3
 70
     0
  9
$USERI4
 70
     0
  9
$USERI5
 70
     0
  9
$USERR1
 40
0.0
  9
$USERR2
 40
0.0
  9
$USERR3
 40
0.0
  9
$USERR4
 40
0.0
  9
$USERR5
 40
0.0
  9
$WORLDVIEW
 70
     1
  9
$SHADEDGE
 70
     3
  9
$SHADEDIF
 70
    70
  9
$TILEMODE
 70
     1
  9
$MAXACTVP
 70
    64
  9
$PINSBASE
 10
0.0
 20
0.0
 30
0.0
  9
$PLIMCHECK
 70
     0
  9
$PEXTMIN
 10
1.000000000000000E+20
 20
1.000000000000000E+20
 30
1.000000000000000E+20
  9
$PEXTMAX
 10
-1.000000000000000E+20
 20
-1.000000000000000E+20
 30
-1.000000000000000E+20
  9
$PLIMMIN
 10
0.0
 20
0.0
  9
$PLIMMAX
 10
12.0
 20
9.0
  9
$UNITMODE
 70
     0
  9
$VISRETAIN
 70
     1
  9
$PLINEGEN
 70
     0
  9
$PSLTSCALE
 70
     1
  9
$TREEDEPTH
 70
  3020
  9
$PICKSTYLE
 70
     1
  9
$CMLSTYLE
  2
STANDARD
  9
$CMLJUST
 70
     0
  9
$CMLSCALE
 40
1.0
  9
$PROXYGRAPHICS
 70
     1
  9
$MEASUREMENT
 70
     0
  0
ENDSEC
  0
SECTION
  2
CLASSES
  0
CLASS
  1
ACDBDICTIONARYWDFLT
  2
AcDbDictionaryWithDefault
  3
AutoCAD 2000
 90
        0
280
     0
281
     0
  0
CLASS
  1
ACDBPLACEHOLDER
  2
AcDbPlaceHolder
  3
AutoCAD 2000
 90
        0
280
     0
281
     0
  0
CLASS
  1
LAYOUT
  2
AcDbLayout
  3
AutoCAD 2000
 90
        0
280
     0
281
     0
  0
CLASS
  1
DICTIONARYVAR
  2
AcDbDictionaryVar
  3
AutoCAD 2000
 90
        0
280
     0
281
     0
  0
CLASS
  1
LONG_TRANSACTION
  2
AcDbLongTransaction
  3
AutoCAD 2000
 90
        0
280
     0
281
     0
  0
CLASS
  1
LWPOLYLINE
  2
AcDbPolyline
  3
AutoCAD 2000
 90
        0
280
     0
281
     1
  0
CLASS
  1
HATCH
  2
AcDbHatch
  3
AutoCAD 2000
 90
        0
280
     0
281
     1
  0
CLASS
  1
XRECORD
  2
AcDbXrecord
  3
AutoCAD 2000
 90
        0
280
     0
281
     0
  0
ENDSEC
  0
SECTION
  2
TABLES
  0
TABLE
  2
VPORT
  5
8
330
0
100
AcDbSymbolTable
 70
     2
  0
VPORT
  5
2DE
330
8
100
AcDbSymbolTableRecord
100
AcDbViewportTableRecord
  2
*ACTIVE
 70
     0
 10
0.0
 20
0.0
 11
1.0
 21
1.0
 12
68.00000000000001
 22
72.0
 13
0.0
 23
0.0
 14
1.0
 24
1.0
 15
0.0
 25
0.0
 16
0.0
 26
0.0
 36
1.0
 17
0.0
 27
0.0
 37
0.0
 40
144.6010230179028
 41
2.078104993597951
 42
50.0
 43
0.0
 44
0.0
 50
0.0
 51
0.0
 71
     0
 72
   100
 73
     1
 74
     3
 75
     0
 76
     0
 77
     0
 78
     0
  0
ENDTAB
  0
TABLE
  2
LTYPE
  5
5
330
0
100
AcDbSymbolTable
 70
     1
  0
LTYPE
  5
13
330
5
100
AcDbSymbolTableRecord
100
AcDbLinetypeTableRecord
  2
BYBLOCK
 70
     0
  3

 72
    65
 73
     0
 40
0.0
  0
LTYPE
  5
14
330
5
100
AcDbSymbolTableRecord
100
AcDbLinetypeTableRecord
  2
BYLAYER
 70
     0
  3

 72
    65
 73
     0
 40
0.0
  0
LTYPE
  5
15
330
5
100
AcDbSymbolTableRecord
100
AcDbLinetypeTableRecord
  2
CONTINUOUS
 70
     0
  3
Solid line
 72
    65
 73
     0
 40
0.0
  0
ENDTAB
  0
TABLE
  2
LAYER
  5
2
330
0
100
AcDbSymbolTable
 70
     1
  0
LAYER
  5
10
330
2
100
AcDbSymbolTableRecord
100
AcDbLayerTableRecord
  2
0
 70
     0
 62
     7
  6
CONTINUOUS
  0
ENDTAB
  0
TABLE
  2
STYLE
  5
3
330
0
100
AcDbSymbolTable
 70
     1
  0
STYLE
  5
11
330
3
100
AcDbSymbolTableRecord
100
AcDbTextStyleTableRecord
  2
STANDARD
 70
     0
 40
0.0
 41
1.0
 50
0.0
 71
     0
 42
0.2
  3
txt
  4

  0
ENDTAB
  0
TABLE
  2
VIEW
  5
6
330
0
100
AcDbSymbolTable
 70
     0
  0
ENDTAB
  0
TABLE
  2
UCS
  5
7
330
0
100
AcDbSymbolTable
 70
     0
  0
ENDTAB
  0
TABLE
  2
APPID
  5
9
330
0
100
AcDbSymbolTable
 70
     1
  0
APPID
  5
12
330
9
100
AcDbSymbolTableRecord
100
AcDbRegAppTableRecord
  2
ACAD
 70
     0
  0
ENDTAB
  0
TABLE
  2
DIMSTYLE
  5
A
330
0
100
AcDbSymbolTable
 70
     1
  0
DIMSTYLE
105
2D7
330
A
100
AcDbSymbolTableRecord
100
AcDbDimStyleTableRecord
  2
STANDARD
 70
     0
  3

  4

  5

  6

  7

 40
1.0
 41
0.18
 42
0.0625
 43
0.38
 44
0.18
 45
0.0
 46
0.0
 47
0.0
 48
0.0
140
0.18
141
0.09
142
0.0
143
25.4
144
1.0
145
0.0
146
1.0
147
0.09
 71
     0
 72
     0
 73
     1
 74
     1
 75
     0
 76
     0
 77
     0
 78
     0
170
     0
171
     2
172
     0
173
     0
174
     0
175
     0
176
     0
177
     0
178
     0
270
     2
271
     4
272
     4
273
     2
274
     2
340
11
275
     0
280
     0
281
     0
282
     0
283
     1
284
     0
285
     0
286
     0
287
     3
288
     0
  0
ENDTAB
  0
TABLE
  2
BLOCK_RECORD
  5
1
330
0
100
AcDbSymbolTable
 70
     0
  0
BLOCK_RECORD
  5
1E
102
{ACAD_XDICTIONARY
360
301
102
}
330
1
100
AcDbSymbolTableRecord
100
AcDbBlockTableRecord
  2
*MODEL_SPACE
  0
BLOCK_RECORD
  5
1A
102
{ACAD_XDICTIONARY
360
2FF
102
}
330
1
100
AcDbSymbolTableRecord
100
AcDbBlockTableRecord
  2
*PAPER_SPACE
  0
ENDTAB
  0
ENDSEC
  0
SECTION
  2
BLOCKS
  0
BLOCK
  5
1F
330
1E
100
AcDbEntity
  8
0
100
AcDbBlockBegin
  2
*MODEL_SPACE
 70
     0
 10
0.0
 20
0.0
 30
0.0
  3
*MODEL_SPACE
  1

  0
ENDBLK
  5
20
330
1E
100
AcDbEntity
  8
0
100
AcDbBlockEnd
  0
BLOCK
  5
1B
330
1A
100
AcDbEntity
 67
     1
  8
0
100
AcDbBlockBegin
  2
*PAPER_SPACE
 70
     0
 10
0.0
 20
0.0
 30
0.0
  3
*PAPER_SPACE
  1

  0
ENDBLK
  5
1C
330
1A
100
AcDbEntity
 67
     1
  8
0
100
AcDbBlockEnd
  0
ENDSEC
  0
SECTION
  2
ENTITIES
  0
LINE
  5
22
330
1E
100
AcDbEntity
  8
0
100
AcDbLine
 10
132.0739649999999
 20
0.249999999999996
 30
0.0
 11
134.6739649999999
 21
0.249999999999996
 31
0.0
  0
LINE
  5
23
330
1E
100
AcDbEntity
  8
0
100
AcDbLine
 10
108.6739649999999
 20
0.249999999999997
 30
0.0
 11
115.5739649999999
 21
0.249999999999997
 31
0.0
  0
LINE
  5
24
330
1E
100
AcDbEntity
  8
0
100
AcDbLine
 10
81.673965
 20
0.7499999999999991
 30
0.0
 11
83.67396499999999
 21
1.75
 31
0.0
  0
LINE
  5
25
330
1E
100
AcDbEntity
  8
0
100
AcDbLine
 10
81.673965
 20
0.7499999999999991
 30
0.0
 11
81.673965
 21
0.249999999999999
 31
0.0
  0
LINE
  5
26
330
1E
100
AcDbEntity
  8
0
100
AcDbLine
 10
81.673965
 20
0.7499999999999991
 30
0.0
 11
82.673965
 21
0.7499999999999991
 31
0.0
  0
LINE
  5
27
330
1E
100
AcDbEntity
  8
0
100
AcDbLine
 10
85.273965
 20
0.249999999999999
 30
0.0
 11
89.67396499999999
 21
0.249999999999998
 31
0.0
  0
LINE
  5
28
330
1E
100
AcDbEntity
  8
0
100
AcDbLine
 10
83.67396499999999
 20
1.75
 30
0.0
 11
87.673965
 21
5.25
 31
0.0
  0
LINE
  5
29
330
1E
100
AcDbEntity
  8
0
100
AcDbLine
 10
82.673965
 20
0.7499999999999991
 30
0.0
 11
85.273965
 21
0.7499999999999991
 31
0.0
  0
LINE
  5
2A
330
1E
100
AcDbEntity
  8
0
100
AcDbLine
 10
89.67396499999999
 20
0.7499999999999979
 30
0.0
 11
95.273965
 21
0.7499999999999979
 31
0.0
  0
LINE
  5
2B
330
1E
100
AcDbEntity
  8
0
100
AcDbLine
 10
95.273965
 20
0.7499999999999979
 30
0.0
 11
101.7739649999999
 21
0.7499999999999979
 31
0.0
  0
LINE
  5
2C
330
1E
100
AcDbEntity
  8
0
100
AcDbLine
 10
85.273965
 20
0.7499999999999991
 30
0.0
 11
89.67396499999999
 21
0.7499999999999979
 31
0.0
  0
LINE
  5
2D
330
1E
100
AcDbEntity
  8
0
100
AcDbLine
 10
83.67396499999999
 20
1.75
 30
0.0
 11
87.673965
 21
5.25
 31
0.0
  0
LINE
  5
2E
330
1E
100
AcDbEntity
  8
0
100
AcDbLine
 10
82.673965
 20
0.249999999999999
 30
0.0
 11
85.273965
 21
0.249999999999999
 31
0.0
  0
LINE
  5
2F
330
1E
100
AcDbEntity
  8
0
100
AcDbLine
 10
81.673965
 20
0.249999999999999
 30
0.0
 11
82.673965
 21
0.249999999999999
 31
0.0
  0
LINE
  5
30
330
1E
100
AcDbEntity
  8
0
100
AcDbLine
 10
81.673965
 20
0.249999999999999
 30
0.0
 11
81.673965
 21
0.7499999999999991
 31
0.0
  0
LINE
  5
31
330
1E
100
AcDbEntity
  8
0
100
AcDbLine
 10
89.67396499999999
 20
0.249999999999998
 30
0.0
 11
95.273965
 21
0.249999999999998
 31
0.0
  0
LINE
  5
32
330
1E
100
AcDbEntity
  8
0
100
AcDbLine
 10
115.5739649999999
 20
0.749999999999997
 30
0.0
 11
122.0739649999999
 21
0.749999999999996
 31
0.0
  0
LINE
  5
33
330
1E
100
AcDbEntity
  8
0
100
AcDbLine
 10
108.6739649999999
 20
0.749999999999997
 30
0.0
 11
115.5739649999999
 21
0.749999999999997
 31
0.0
  0
LINE
  5
34
330
1E
100
AcDbEntity
  8
0
100
AcDbLine
 10
101.7739649999999
 20
0.7499999999999979
 30
0.0
 11
108.6739649999999
 21
0.749999999999997
 31
0.0
  0
LINE
  5
35
330
1E
100
AcDbEntity
  8
0
100
AcDbLine
 10
95.273965
 20
0.249999999999998
 30
0.0
 11
101.7739649999999
 21
0.249999999999998
 31
0.0
  0
LINE
  5
36
330
1E
100
AcDbEntity
  8
0
100
AcDbLine
 10
101.7739649999999
 20
0.249999999999998
 30
0.0
 11
108.6739649999999
 21
0.249999999999997
 31
0.0
  0
LINE
  5
37
330
1E
100
AcDbEntity
  8
0
100
AcDbLine
 10
127.6739649999999
 20
0.749999999999996
 30
0.0
 11
132.0739649999999
 21
0.749999999999996
 31
0.0
  0
LINE
  5
38
330
1E
100
AcDbEntity
  8
0
100
AcDbLine
 10
132.0739649999999
 20
0.749999999999996
 30
0.0
 11
134.6739649999999
 21
0.749999999999996
 31
0.0
  0
LINE
  5
39
330
1E
100
AcDbEntity
  8
0
100
AcDbLine
 10
122.0739649999999
 20
0.749999999999996
 30
0.0
 11
127.6739649999999
 21
0.749999999999996
 31
0.0
  0
LINE
  5
3A
330
1E
100
AcDbEntity
  8
0
100
AcDbLine
 10
122.0739649999999
 20
0.249999999999996
 30
0.0
 11
127.6739649999999
 21
0.249999999999996
 31
0.0
  0
LINE
  5
3B
330
1E
100
AcDbEntity
  8
0
100
AcDbLine
 10
115.5739649999999
 20
0.249999999999997
 30
0.0
 11
122.0739649999999
 21
0.249999999999996
 31
0.0
  0
LINE
  5
3C
330
1E
100
AcDbEntity
  8
0
100
AcDbLine
 10
89.173965
 20
7.75
 30
0.0
 11
90.173965
 21
10.25
 31
0.0
  0
LINE
  5
3D
330
1E
100
AcDbEntity
  8
0
100
AcDbLine
 10
87.673965
 20
5.25
 30
0.0
 11
89.173965
 21
7.75
 31
0.0
  0
LINE
  5
3E
330
1E
100
AcDbEntity
  8
0
100
AcDbLine
 10
90.173965
 20
10.25
 30
0.0
 11
90.67396499999999
 21
13.25
 31
0.0
  0
LINE
  5
3F
330
1E
100
AcDbEntity
  8
0
100
AcDbLine
 10
2.325645000000009
 20
68.1904
 30
0.0
 11
10.053065
 21
68.82909999999999
 31
0.0
  0
LINE
  5
40
330
1E
100
AcDbEntity
  8
0
100
AcDbLine
 10
10.109865
 20
68.1434
 30
0.0
 11
10.44216499999999
 21
67.8579
 31
0.0
  0
LINE
  5
41
330
1E
100
AcDbEntity
  8
0
100
AcDbLine
 10
10.44216499999999
 20
67.8579
 30
0.0
 11
17.80166499999999
 21
68.4662
 31
0.0
  0
LINE
  5
42
330
1E
100
AcDbEntity
  8
0
100
AcDbLine
 10
2.021015000000009
 20
68.8877
 30
0.0
 11
2.05657500000001
 21
68.4572
 31
0.0
  0
LINE
  5
43
330
1E
100
AcDbEntity
  8
0
100
AcDbLine
 10
2.05657500000001
 20
68.4572
 30
0.0
 11
2.325645000000009
 21
68.1904
 31
0.0
  0
LINE
  5
44
330
1E
100
AcDbEntity
  8
0
100
AcDbLine
 10
2.290085000000009
 20
68.62090000000001
 30
0.0
 11
2.325645000000009
 21
68.1904
 31
0.0
  0
LINE
  5
45
330
1E
100
AcDbEntity
  8
0
100
AcDbLine
 10
2.195165000000019
 20
69.76899999999999
 30
0.0
 11
2.290085000000009
 21
68.62090000000001
 31
0.0
  0
LINE
  5
46
330
1E
100
AcDbEntity
  8
0
100
AcDbLine
 10
10.0184077198466
 20
69.24938053819899
 30
0.0
 11
10.07126499999999
 21
68.6099
 31
0.0
  0
LINE
  5
47
330
1E
100
AcDbEntity
  8
0
100
AcDbLine
 10
10.0184077198466
 20
69.24938053819899
 30
0.0
 11
10.053065
 21
68.82909999999999
 31
0.0
  0
LINE
  5
48
330
1E
100
AcDbEntity
  8
0
100
AcDbLine
 10
10.07126499999999
 20
68.6099
 30
0.0
 11
10.109865
 21
68.1434
 31
0.0
  0
LINE
  5
49
330
1E
100
AcDbEntity
  8
0
100
AcDbLine
 10
1.92608500000001
 20
70.03579999999999
 30
0.0
 11
2.021015000000009
 21
68.8877
 31
0.0
  0
LINE
  5
4A
330
1E
100
AcDbEntity
  8
0
100
AcDbLine
 10
9.922565000000009
 20
70.40770000000001
 30
0.0
 11
10.01571473978809
 21
69.28196088157179
 31
0.0
  0
LINE
  5
4B
330
1E
100
AcDbEntity
  8
0
100
AcDbLine
 10
9.84960787697064
 20
71.29126617035879
 30
0.0
 11
9.922565000000009
 21
70.40770000000001
 31
0.0
  0
LINE
  5
4C
330
1E
100
AcDbEntity
  8
0
100
AcDbLine
 10
9.968465000000009
 20
69.8536
 30
0.0
 11
10.07126499999999
 21
68.6099
 31
0.0
  0
LINE
  5
4D
330
1E
100
AcDbEntity
  8
0
100
AcDbLine
 10
9.968465000000009
 20
69.8536
 30
0.0
 11
10.01571473978809
 21
69.28196088157179
 31
0.0
  0
LINE
  5
4E
330
1E
100
AcDbEntity
  8
0
100
AcDbLine
 10
10.40356499999999
 20
68.32429999999999
 30
0.0
 11
10.44216499999999
 21
67.8579
 31
0.0
  0
LINE
  5
4F
330
1E
100
AcDbEntity
  8
0
100
AcDbLine
 10
10.300765
 20
69.568
 30
0.0
 11
10.40356499999999
 21
68.32429999999999
 31
0.0
  0
LINE
  5
50
330
1E
100
AcDbEntity
  8
0
100
AcDbLine
 10
1.77190500000001
 20
71.90139999999999
 30
0.0
 11
1.92608500000001
 21
70.03579999999999
 31
0.0
  0
LINE
  5
51
330
1E
100
AcDbEntity
  8
0
100
AcDbLine
 10
2.03698500000002
 20
71.6825
 30
0.0
 11
2.195165000000019
 21
69.76899999999999
 31
0.0
  0
LINE
  5
52
330
1E
100
AcDbEntity
  8
0
100
AcDbLine
 10
9.801365000000009
 20
71.87479999999999
 30
0.0
 11
9.968465000000009
 21
69.8536
 31
0.0
  0
LINE
  5
53
330
1E
100
AcDbEntity
  8
0
100
AcDbLine
 10
10.129365
 20
71.64100000000001
 30
0.0
 11
10.300765
 21
69.568
 31
0.0
  0
LINE
  5
54
330
1E
100
AcDbEntity
  8
0
100
AcDbLine
 10
18.02596499999999
 20
69.4881
 30
0.0
 11
25.68326499999999
 21
70.1113105386722
 31
0.0
  0
LINE
  5
55
330
1E
100
AcDbEntity
  8
0
100
AcDbLine
 10
17.990365
 20
69.91859999999999
 30
0.0
 11
18.02596499999999
 21
69.4881
 31
0.0
  0
LINE
  5
56
330
1E
100
AcDbEntity
  8
0
100
AcDbLine
 10
25.68326499999999
 20
70.15
 30
0.0
 11
25.68326499999999
 21
73.9643559246406
 31
0.0
  0
LINE
  5
57
330
1E
100
AcDbEntity
  8
0
100
AcDbLine
 10
25.68326499999999
 20
70.15
 30
0.0
 11
25.68326499999999
 21
68.75
 31
0.0
  0
LINE
  5
58
330
1E
100
AcDbEntity
  8
0
100
AcDbLine
 10
18.04406499999999
 20
69.2688
 30
0.0
 11
18.08256499999999
 21
68.8024
 31
0.0
  0
LINE
  5
59
330
1E
100
AcDbEntity
  8
0
100
AcDbLine
 10
17.80166499999999
 20
68.4662
 30
0.0
 11
18.08256499999999
 21
68.8024
 31
0.0
  0
LINE
  5
5A
330
1E
100
AcDbEntity
  8
0
100
AcDbLine
 10
17.763065
 20
68.9325
 30
0.0
 11
17.80166499999999
 21
68.4662
 31
0.0
  0
LINE
  5
5B
330
1E
100
AcDbEntity
  8
0
100
AcDbLine
 10
17.89546499999999
 20
71.0667
 30
0.0
 11
17.990365
 21
69.91859999999999
 31
0.0
  0
LINE
  5
5C
330
1E
100
AcDbEntity
  8
0
100
AcDbLine
 10
25.65736499999999
 20
70.54259999999999
 30
0.0
 11
25.68326499999999
 21
70.2293991573034
 31
0.0
  0
LINE
  5
5D
330
1E
100
AcDbEntity
  8
0
100
AcDbLine
 10
25.562465
 20
71.6908
 30
0.0
 11
25.65736499999999
 21
70.54259999999999
 31
0.0
  0
LINE
  5
5E
330
1E
100
AcDbEntity
  8
0
100
AcDbLine
 10
17.94126499999999
 20
70.5126
 30
0.0
 11
18.04406499999999
 21
69.2688
 31
0.0
  0
LINE
  5
5F
330
1E
100
AcDbEntity
  8
0
100
AcDbLine
 10
17.66026499999999
 20
70.1764
 30
0.0
 11
17.763065
 21
68.9325
 31
0.0
  0
LINE
  5
60
330
1E
100
AcDbEntity
  8
0
100
AcDbLine
 10
17.737265
 20
72.9802
 30
0.0
 11
17.89546499999999
 21
71.0667
 31
0.0
  0
LINE
  5
61
330
1E
100
AcDbEntity
  8
0
100
AcDbLine
 10
25.404265
 20
73.60420000000001
 30
0.0
 11
25.562465
 21
71.6908
 31
0.0
  0
LINE
  5
62
330
1E
100
AcDbEntity
  8
0
100
AcDbLine
 10
17.774165
 20
72.5337
 30
0.0
 11
17.94126499999999
 21
70.5126
 31
0.0
  0
LINE
  5
63
330
1E
100
AcDbEntity
  8
0
100
AcDbLine
 10
17.488865
 20
72.2492
 30
0.0
 11
17.66026499999999
 21
70.1764
 31
0.0
  0
LINE
  5
64
330
1E
100
AcDbEntity
  8
0
100
AcDbLine
 10
25.68326499999999
 20
68.25
 30
0.0
 11
26.183265
 21
67.25
 31
0.0
  0
LINE
  5
65
330
1E
100
AcDbEntity
  8
0
100
AcDbLine
 10
25.68326499999999
 20
68.25
 30
0.0
 11
25.68326499999999
 21
68.75
 31
0.0
  0
LINE
  5
66
330
1E
100
AcDbEntity
  8
0
100
AcDbLine
 10
25.68326499999999
 20
68.75
 30
0.0
 11
25.68326499999999
 21
68.25
 31
0.0
  0
LINE
  5
67
330
1E
100
AcDbEntity
  8
0
100
AcDbLine
 10
25.68326499999999
 20
68.75
 30
0.0
 11
25.68326499999999
 21
70.15
 31
0.0
  0
LINE
  5
68
330
1E
100
AcDbEntity
  8
0
100
AcDbLine
 10
1.57029500000002
 20
74.3411
 30
0.0
 11
1.77190500000001
 21
71.90139999999999
 31
0.0
  0
LINE
  5
69
330
1E
100
AcDbEntity
  8
0
100
AcDbLine
 10
1.34091500000002
 20
77.1156
 30
0.0
 11
1.57029500000002
 21
74.3411
 31
0.0
  0
LINE
  5
6A
330
1E
100
AcDbEntity
  8
0
100
AcDbLine
 10
1.091805000000019
 20
80.1293
 30
0.0
 11
1.34091500000002
 21
77.1156
 31
0.0
  0
LINE
  5
6B
330
1E
100
AcDbEntity
  8
0
100
AcDbLine
 10
1.82741500000001
 20
74.2179
 30
0.0
 11
2.03698500000002
 21
71.6825
 31
0.0
  0
LINE
  5
6C
330
1E
100
AcDbEntity
  8
0
100
AcDbLine
 10
1.590155000000019
 20
77.08809999999999
 30
0.0
 11
1.82741500000001
 21
74.2179
 31
0.0
  0
LINE
  5
6D
330
1E
100
AcDbEntity
  8
0
100
AcDbLine
 10
1.337165000000019
 20
80.1496
 30
0.0
 11
1.590155000000019
 21
77.08809999999999
 31
0.0
  0
LINE
  5
6E
330
1E
100
AcDbEntity
  8
0
100
AcDbLine
 10
9.334465000000019
 20
77.52349999999999
 30
0.0
 11
9.582865000000008
 21
74.5177
 31
0.0
  0
LINE
  5
6F
330
1E
100
AcDbEntity
  8
0
100
AcDbLine
 10
9.064565000000019
 20
80.78830000000001
 30
0.0
 11
9.334465000000019
 21
77.52349999999999
 31
0.0
  0
LINE
  5
70
330
1E
100
AcDbEntity
  8
0
100
AcDbLine
 10
9.582865000000008
 20
74.5177
 30
0.0
 11
9.801365000000009
 21
71.87479999999999
 31
0.0
  0
LINE
  5
71
330
1E
100
AcDbEntity
  8
0
100
AcDbLine
 10
9.90246500000001
 20
74.38760000000001
 30
0.0
 11
10.129365
 21
71.64100000000001
 31
0.0
  0
LINE
  5
72
330
1E
100
AcDbEntity
  8
0
100
AcDbLine
 10
9.645365000000019
 20
77.497
 30
0.0
 11
9.90246500000001
 21
74.38760000000001
 31
0.0
  0
LINE
  5
73
330
1E
100
AcDbEntity
  8
0
100
AcDbLine
 10
9.371265000000018
 20
80.81369999999999
 30
0.0
 11
9.645365000000019
 21
77.497
 31
0.0
  0
LINE
  5
74
330
1E
100
AcDbEntity
  8
0
100
AcDbLine
 10
0.8426950000000159
 20
83.1431
 30
0.0
 11
1.091805000000019
 21
80.1293
 31
0.0
  0
LINE
  5
75
330
1E
100
AcDbEntity
  8
0
100
AcDbLine
 10
8.811565000000019
 20
83.8499
 30
0.0
 11
9.064565000000019
 21
80.78830000000001
 31
0.0
  0
LINE
  5
76
330
1E
100
AcDbEntity
  8
0
100
AcDbLine
 10
1.084075000000019
 20
83.2112
 30
0.0
 11
1.337165000000019
 21
80.1496
 31
0.0
  0
LINE
  5
77
330
1E
100
AcDbEntity
  8
0
100
AcDbLine
 10
8.79486500000001
 20
84.05320000000001
 30
0.0
 11
9.064565000000019
 21
80.78830000000001
 31
0.0
  0
LINE
  5
78
330
1E
100
AcDbEntity
  8
0
100
AcDbLine
 10
9.097165000000019
 20
84.1304
 30
0.0
 11
9.371265000000018
 21
80.81369999999999
 31
0.0
  0
LINE
  5
79
330
1E
100
AcDbEntity
  8
0
100
AcDbLine
 10
16.73076499999999
 20
81.42189999999999
 30
0.0
 11
17.004865
 21
78.10529999999999
 31
0.0
  0
LINE
  5
7A
330
1E
100
AcDbEntity
  8
0
100
AcDbLine
 10
17.52776499999999
 20
75.5155
 30
0.0
 11
17.737265
 21
72.9802
 31
0.0
  0
LINE
  5
7B
330
1E
100
AcDbEntity
  8
0
100
AcDbLine
 10
25.42296499999999
 20
77.11369999999999
 30
0.0
 11
25.68326499999999
 21
77.1352131881731
 31
0.0
  0
LINE
  5
7C
330
1E
100
AcDbEntity
  8
0
100
AcDbLine
 10
25.408165
 20
77.2932
 30
0.0
 11
25.42296499999999
 21
77.11369999999999
 31
0.0
  0
LINE
  5
7D
330
1E
100
AcDbEntity
  8
0
100
AcDbLine
 10
25.368565
 20
77.7714
 30
0.0
 11
25.408165
 21
77.2932
 31
0.0
  0
LINE
  5
7E
330
1E
100
AcDbEntity
  8
0
100
AcDbLine
 10
25.489465
 20
76.30849999999999
 30
0.0
 11
25.68326499999999
 21
73.9643559246406
 31
0.0
  0
LINE
  5
7F
330
1E
100
AcDbEntity
  8
0
100
AcDbLine
 10
25.194665
 20
76.1396
 30
0.0
 11
25.404265
 21
73.60420000000001
 31
0.0
  0
LINE
  5
80
330
1E
100
AcDbEntity
  8
0
100
AcDbLine
 10
17.555665
 20
75.17669999999999
 30
0.0
 11
17.774165
 21
72.5337
 31
0.0
  0
LINE
  5
81
330
1E
100
AcDbEntity
  8
0
100
AcDbLine
 10
17.261965
 20
74.99590000000001
 30
0.0
 11
17.488865
 21
72.2492
 31
0.0
  0
LINE
  5
82
330
1E
100
AcDbEntity
  8
0
100
AcDbLine
 10
17.290465
 20
78.3858
 30
0.0
 11
17.52776499999999
 21
75.5155
 31
0.0
  0
LINE
  5
83
330
1E
100
AcDbEntity
  8
0
100
AcDbLine
 10
25.68326499999999
 20
78.65000000000001
 30
0.0
 11
25.68326499999999
 21
75.25
 31
0.0
  0
LINE
  5
84
330
1E
100
AcDbEntity
  8
0
100
AcDbLine
 10
25.302765
 20
78.5687
 30
0.0
 11
25.368565
 21
77.7714
 31
0.0
  0
LINE
  5
85
330
1E
100
AcDbEntity
  8
0
100
AcDbLine
 10
25.21536499999999
 20
79.62520000000001
 30
0.0
 11
25.302765
 21
78.5687
 31
0.0
  0
LINE
  5
86
330
1E
100
AcDbEntity
  8
0
100
AcDbLine
 10
25.11656499999999
 20
80.8211
 30
0.0
 11
25.21536499999999
 21
79.62520000000001
 31
0.0
  0
LINE
  5
87
330
1E
100
AcDbEntity
  8
0
100
AcDbLine
 10
25.260165
 20
79.083
 30
0.0
 11
25.489465
 21
76.30849999999999
 31
0.0
  0
LINE
  5
88
330
1E
100
AcDbEntity
  8
0
100
AcDbLine
 10
24.957465
 20
79.0098
 30
0.0
 11
25.194665
 21
76.1396
 31
0.0
  0
LINE
  5
89
330
1E
100
AcDbEntity
  8
0
100
AcDbLine
 10
17.307265
 20
78.1825
 30
0.0
 11
17.555665
 21
75.17669999999999
 31
0.0
  0
LINE
  5
8A
330
1E
100
AcDbEntity
  8
0
100
AcDbLine
 10
17.004865
 20
78.10529999999999
 30
0.0
 11
17.261965
 21
74.99590000000001
 31
0.0
  0
LINE
  5
8B
330
1E
100
AcDbEntity
  8
0
100
AcDbLine
 10
16.7776013157846
 20
84.59191789479609
 30
0.0
 11
16.784465
 21
84.50889999999999
 31
0.0
  0
LINE
  5
8C
330
1E
100
AcDbEntity
  8
0
100
AcDbLine
 10
16.784465
 20
84.50889999999999
 30
0.0
 11
17.03736499999999
 21
81.4474
 31
0.0
  0
LINE
  5
8D
330
1E
100
AcDbEntity
  8
0
100
AcDbLine
 10
25.68326499999999
 20
78.65000000000001
 30
0.0
 11
25.68326499999999
 21
87.16939534098129
 31
0.0
  0
LINE
  5
8E
330
1E
100
AcDbEntity
  8
0
100
AcDbLine
 10
25.011065
 20
82.0967
 30
0.0
 11
25.260165
 21
79.083
 31
0.0
  0
LINE
  5
8F
330
1E
100
AcDbEntity
  8
0
100
AcDbLine
 10
25.011065
 20
82.0967
 30
0.0
 11
25.11656499999999
 21
80.8211
 31
0.0
  0
LINE
  5
90
330
1E
100
AcDbEntity
  8
0
100
AcDbLine
 10
24.70436499999999
 20
82.0714
 30
0.0
 11
24.957465
 21
79.0098
 31
0.0
  0
LINE
  5
91
330
1E
100
AcDbEntity
  8
0
100
AcDbLine
 10
17.03736499999999
 20
81.4474
 30
0.0
 11
17.307265
 21
78.1825
 31
0.0
  0
LINE
  5
92
330
1E
100
AcDbEntity
  8
0
100
AcDbLine
 10
17.03736499999999
 20
81.4474
 30
0.0
 11
17.290465
 21
78.3858
 31
0.0
  0
LINE
  5
93
330
1E
100
AcDbEntity
  8
0
100
AcDbLine
 10
16.767665
 20
84.7122
 30
0.0
 11
17.03736499999999
 21
81.4474
 31
0.0
  0
LINE
  5
94
330
1E
100
AcDbEntity
  8
0
100
AcDbLine
 10
0.613405000000016
 20
85.91759999999998
 30
0.0
 11
0.8426950000000159
 21
83.1431
 31
0.0
  0
LINE
  5
95
330
1E
100
AcDbEntity
  8
0
100
AcDbLine
 10
0.8469150000000158
 20
86.0814
 30
0.0
 11
1.084075000000019
 21
83.2112
 31
0.0
  0
LINE
  5
96
330
1E
100
AcDbEntity
  8
0
100
AcDbLine
 10
8.574365000000019
 20
86.7201
 30
0.0
 11
8.811565000000019
 21
83.8499
 31
0.0
  0
LINE
  5
97
330
1E
100
AcDbEntity
  8
0
100
AcDbLine
 10
8.546365000000019
 20
87.0589
 30
0.0
 11
8.79486500000001
 21
84.05320000000001
 31
0.0
  0
LINE
  5
98
330
1E
100
AcDbEntity
  8
0
100
AcDbLine
 10
8.840165000000009
 20
87.23969999999999
 30
0.0
 11
9.097165000000019
 21
84.1304
 31
0.0
  0
LINE
  5
99
330
1E
100
AcDbEntity
  8
0
100
AcDbLine
 10
0.411805000000016
 20
88.35729999999999
 30
0.0
 11
0.613405000000016
 21
85.91759999999998
 31
0.0
  0
LINE
  5
9A
330
1E
100
AcDbEntity
  8
0
100
AcDbLine
 10
0.6373450000000171
 20
88.61679999999999
 30
0.0
 11
0.8469150000000158
 21
86.0814
 31
0.0
  0
LINE
  5
9B
330
1E
100
AcDbEntity
  8
0
100
AcDbLine
 10
16.199665
 20
87.8481
 30
0.0
 11
16.456665
 21
84.7386
 31
0.0
  0
LINE
  5
9C
330
1E
100
AcDbEntity
  8
0
100
AcDbLine
 10
24.76206499999999
 20
85.1105
 30
0.0
 11
25.011065
 21
82.0967
 31
0.0
  0
LINE
  5
9D
330
1E
100
AcDbEntity
  8
0
100
AcDbLine
 10
24.21416499999999
 20
88.00320000000001
 30
0.0
 11
24.451365
 21
85.13290000000001
 31
0.0
  0
LINE
  5
9E
330
1E
100
AcDbEntity
  8
0
100
AcDbLine
 10
24.59923968519119
 20
87.07980617235049
 30
0.0
 11
25.68326499999999
 21
87.16939534098129
 31
0.0
  0
LINE
  5
9F
330
1E
100
AcDbEntity
  8
0
100
AcDbLine
 10
24.62632608786689
 20
86.7522071129612
 30
0.0
 11
24.653665
 21
86.422
 31
0.0
  0
LINE
  5
A0
330
1E
100
AcDbEntity
  8
0
100
AcDbLine
 10
25.68326499999999
 20
87.16939534098129
 30
0.0
 11
25.68326499999999
 21
78.65000000000001
 31
0.0
  0
LINE
  5
A1
330
1E
100
AcDbEntity
  8
0
100
AcDbLine
 10
24.653665
 20
86.422
 30
0.0
 11
24.719565
 21
85.62470000000001
 31
0.0
  0
LINE
  5
A2
330
1E
100
AcDbEntity
  8
0
100
AcDbLine
 10
24.719565
 20
85.62470000000001
 30
0.0
 11
24.7285137654327
 21
85.51628858024029
 31
0.0
  0
LINE
  5
A3
330
1E
100
AcDbEntity
  8
0
100
AcDbLine
 10
24.53266499999999
 20
87.885
 30
0.0
 11
24.76206499999999
 21
85.1105
 31
0.0
  0
LINE
  5
A4
330
1E
100
AcDbEntity
  8
0
100
AcDbLine
 10
24.451365
 20
85.13290000000001
 30
0.0
 11
24.70436499999999
 21
82.0714
 31
0.0
  0
LINE
  5
A5
330
1E
100
AcDbEntity
  8
0
100
AcDbLine
 10
16.519265
 20
87.71799999999998
 30
0.0
 11
16.767665
 21
84.7122
 31
0.0
  0
LINE
  5
A6
330
1E
100
AcDbEntity
  8
0
100
AcDbLine
 10
16.456665
 20
84.7386
 30
0.0
 11
16.73076499999999
 21
81.42189999999999
 31
0.0
  0
LINE
  5
A7
330
1E
100
AcDbEntity
  8
0
100
AcDbLine
 10
25.68326499999999
 20
87.16939534098129
 30
0.0
 11
25.68326499999999
 21
89.25
 31
0.0
  0
LINE
  5
A8
330
1E
100
AcDbEntity
  8
0
100
AcDbLine
 10
8.364765000000009
 20
89.25549999999999
 30
0.0
 11
8.574365000000019
 21
86.7201
 31
0.0
  0
LINE
  5
A9
330
1E
100
AcDbEntity
  8
0
100
AcDbLine
 10
0.257515000000017
 20
90.22299999999999
 30
0.0
 11
0.411805000000016
 21
88.35729999999999
 31
0.0
  0
LINE
  5
AA
330
1E
100
AcDbEntity
  8
0
100
AcDbLine
 10
0.4791750000000161
 20
90.5302
 30
0.0
 11
0.6373450000000171
 21
88.61679999999999
 31
0.0
  0
LINE
  5
AB
330
1E
100
AcDbEntity
  8
0
100
AcDbLine
 10
8.327965000000018
 20
89.70200000000001
 30
0.0
 11
8.546365000000019
 21
87.0589
 31
0.0
  0
LINE
  5
AC
330
1E
100
AcDbEntity
  8
0
100
AcDbLine
 10
8.613165000000019
 20
89.98639999999999
 30
0.0
 11
8.840165000000009
 21
87.23969999999999
 31
0.0
  0
LINE
  5
AD
330
1E
100
AcDbEntity
  8
0
100
AcDbLine
 10
0.162685000000017
 20
91.37109999999999
 30
0.0
 11
0.257515000000017
 21
90.22299999999999
 31
0.0
  0
LINE
  5
AE
330
1E
100
AcDbEntity
  8
0
100
AcDbLine
 10
0.3842550000000171
 20
91.6782
 30
0.0
 11
0.4791750000000161
 21
90.5302
 31
0.0
  0
LINE
  5
AF
330
1E
100
AcDbEntity
  8
0
100
AcDbLine
 10
8.206565000000018
 20
91.16899999999999
 30
0.0
 11
8.364765000000009
 21
89.25549999999999
 31
0.0
  0
LINE
  5
B0
330
1E
100
AcDbEntity
  8
0
100
AcDbLine
 10
0.127035000000016
 20
91.80150000000001
 30
0.0
 11
0.162685000000017
 21
91.37109999999999
 31
0.0
  0
LINE
  5
B1
330
1E
100
AcDbEntity
  8
0
100
AcDbLine
 10
0.127035000000016
 20
91.80150000000001
 30
0.0
 11
0.348685000000017
 21
92.1089
 31
0.0
  0
LINE
  5
B2
330
1E
100
AcDbEntity
  8
0
100
AcDbLine
 10
0.348685000000017
 20
92.1089
 30
0.0
 11
8.076165000000019
 21
92.7476
 31
0.0
  0
LINE
  5
B3
330
1E
100
AcDbEntity
  8
0
100
AcDbLine
 10
0.348685000000017
 20
92.1089
 30
0.0
 11
0.3842550000000171
 21
91.6782
 31
0.0
  0
LINE
  5
B4
330
1E
100
AcDbEntity
  8
0
100
AcDbLine
 10
0.348685000000017
 20
92.1089
 30
0.0
 11
8.076165000000019
 21
92.7476
 31
0.0
  0
LINE
  5
B5
330
1E
100
AcDbEntity
  8
0
100
AcDbLine
 10
8.111765000000019
 20
92.31700000000001
 30
0.0
 11
8.206565000000018
 21
91.16899999999999
 31
0.0
  0
LINE
  5
B6
330
1E
100
AcDbEntity
  8
0
100
AcDbLine
 10
8.160865000000018
 20
91.72299999999999
 30
0.0
 11
8.327965000000018
 21
89.70200000000001
 31
0.0
  0
LINE
  5
B7
330
1E
100
AcDbEntity
  8
0
100
AcDbLine
 10
8.441765000000019
 20
92.0594
 30
0.0
 11
8.613165000000019
 21
89.98639999999999
 31
0.0
  0
LINE
  5
B8
330
1E
100
AcDbEntity
  8
0
100
AcDbLine
 10
8.076165000000019
 20
92.7476
 30
0.0
 11
8.111765000000019
 21
92.31700000000001
 31
0.0
  0
LINE
  5
B9
330
1E
100
AcDbEntity
  8
0
100
AcDbLine
 10
8.058065000000018
 20
92.9668
 30
0.0
 11
8.160865000000018
 21
91.72299999999999
 31
0.0
  0
LINE
  5
BA
330
1E
100
AcDbEntity
  8
0
100
AcDbLine
 10
8.019465000000019
 20
93.4332
 30
0.0
 11
8.058065000000018
 21
92.9668
 31
0.0
  0
LINE
  5
BB
330
1E
100
AcDbEntity
  8
0
100
AcDbLine
 10
8.019465000000019
 20
93.4332
 30
0.0
 11
8.300465000000018
 21
93.76940000000001
 31
0.0
  0
LINE
  5
BC
330
1E
100
AcDbEntity
  8
0
100
AcDbLine
 10
8.300465000000018
 20
93.76940000000001
 30
0.0
 11
8.339065000000019
 21
93.30299999999999
 31
0.0
  0
LINE
  5
BD
330
1E
100
AcDbEntity
  8
0
100
AcDbLine
 10
8.300465000000018
 20
93.76940000000001
 30
0.0
 11
15.65996499999999
 21
94.3778
 31
0.0
  0
LINE
  5
BE
330
1E
100
AcDbEntity
  8
0
100
AcDbLine
 10
8.339065000000019
 20
93.30299999999999
 30
0.0
 11
8.441765000000019
 21
92.0594
 31
0.0
  0
LINE
  5
BF
330
1E
100
AcDbEntity
  8
0
100
AcDbLine
 10
16.049065
 20
93.40659999999999
 30
0.0
 11
16.08372228015389
 21
92.98631946179529
 31
0.0
  0
LINE
  5
C0
330
1E
100
AcDbEntity
  8
0
100
AcDbLine
 10
16.049065
 20
93.40659999999999
 30
0.0
 11
23.71606499999999
 21
94.03060000000001
 31
0.0
  0
LINE
  5
C1
330
1E
100
AcDbEntity
  8
0
100
AcDbLine
 10
15.99236499999999
 20
94.09229999999999
 30
0.0
 11
16.03086499999999
 21
93.62579999999999
 31
0.0
  0
LINE
  5
C2
330
1E
100
AcDbEntity
  8
0
100
AcDbLine
 10
16.03086499999999
 20
93.62579999999999
 30
0.0
 11
16.133665
 21
92.3821
 31
0.0
  0
LINE
  5
C3
330
1E
100
AcDbEntity
  8
0
100
AcDbLine
 10
15.69846499999999
 20
93.9114
 30
0.0
 11
15.80126499999999
 21
92.66769999999999
 31
0.0
  0
LINE
  5
C4
330
1E
100
AcDbEntity
  8
0
100
AcDbLine
 10
15.80126499999999
 20
92.66769999999999
 30
0.0
 11
15.972565
 21
90.59470000000001
 31
0.0
  0
LINE
  5
C5
330
1E
100
AcDbEntity
  8
0
100
AcDbLine
 10
16.179465
 20
91.82799999999998
 30
0.0
 11
16.3164091118123
 21
90.17055181560509
 31
0.0
  0
LINE
  5
C6
330
1E
100
AcDbEntity
  8
0
100
AcDbLine
 10
16.136006121493
 20
92.35376542058951
 30
0.0
 11
16.30066499999999
 21
90.36089999999999
 31
0.0
  0
LINE
  5
C7
330
1E
100
AcDbEntity
  8
0
100
AcDbLine
 10
16.136006121493
 20
92.35376542058951
 30
0.0
 11
16.179465
 21
91.82799999999998
 31
0.0
  0
LINE
  5
C8
330
1E
100
AcDbEntity
  8
0
100
AcDbLine
 10
16.133665
 20
92.3821
 30
0.0
 11
16.30066499999999
 21
90.36089999999999
 31
0.0
  0
LINE
  5
C9
330
1E
100
AcDbEntity
  8
0
100
AcDbLine
 10
15.972565
 20
90.59470000000001
 30
0.0
 11
16.199665
 21
87.8481
 31
0.0
  0
LINE
  5
CA
330
1E
100
AcDbEntity
  8
0
100
AcDbLine
 10
23.71606499999999
 20
94.03060000000001
 30
0.0
 11
23.751565
 21
93.6002
 31
0.0
  0
LINE
  5
CB
330
1E
100
AcDbEntity
  8
0
100
AcDbLine
 10
23.71606499999999
 20
94.03060000000001
 30
0.0
 11
24.046365
 21
93.76890000000001
 31
0.0
  0
LINE
  5
CC
330
1E
100
AcDbEntity
  8
0
100
AcDbLine
 10
23.751565
 20
93.6002
 30
0.0
 11
23.846465
 21
92.45200000000002
 31
0.0
  0
LINE
  5
CD
330
1E
100
AcDbEntity
  8
0
100
AcDbLine
 10
23.846465
 20
92.45200000000002
 30
0.0
 11
24.004565
 21
90.5386
 31
0.0
  0
LINE
  5
CE
330
1E
100
AcDbEntity
  8
0
100
AcDbLine
 10
24.046365
 20
93.76890000000001
 30
0.0
 11
24.081965
 21
93.3384
 31
0.0
  0
LINE
  5
CF
330
1E
100
AcDbEntity
  8
0
100
AcDbLine
 10
24.081965
 20
93.3384
 30
0.0
 11
24.176865
 21
92.19039999999999
 31
0.0
  0
LINE
  5
D0
330
1E
100
AcDbEntity
  8
0
100
AcDbLine
 10
24.176865
 20
92.19039999999999
 30
0.0
 11
24.331065
 21
90.32470000000001
 31
0.0
  0
LINE
  5
D1
330
1E
100
AcDbEntity
  8
0
100
AcDbLine
 10
24.004565
 20
90.5386
 30
0.0
 11
24.21416499999999
 21
88.00320000000001
 31
0.0
  0
LINE
  5
D2
330
1E
100
AcDbEntity
  8
0
100
AcDbLine
 10
24.331065
 20
90.32470000000001
 30
0.0
 11
24.53266499999999
 21
87.885
 31
0.0
  0
LINE
  5
D3
330
1E
100
AcDbEntity
  8
0
100
AcDbLine
 10
16.30066499999999
 20
90.36089999999999
 30
0.0
 11
16.519265
 21
87.71799999999998
 31
0.0
  0
LINE
  5
D4
330
1E
100
AcDbEntity
  8
0
100
AcDbLine
 10
16.30066499999999
 20
90.36089999999999
 30
0.0
 11
16.3164091118123
 21
90.17055181560509
 31
0.0
  0
LINE
  5
D5
330
1E
100
AcDbEntity
  8
0
100
AcDbLine
 10
25.68326499999999
 20
89.25
 30
0.0
 11
25.68326499999999
 21
87.16939534098129
 31
0.0
  0
LINE
  5
D6
330
1E
100
AcDbEntity
  8
0
100
AcDbLine
 10
25.68326499999999
 20
89.25
 30
0.0
 11
25.68326499999999
 21
92.15000000000001
 31
0.0
  0
LINE
  5
D7
330
1E
100
AcDbEntity
  8
0
100
AcDbLine
 10
25.68326499999999
 20
92.15000000000001
 30
0.0
 11
25.68326499999999
 21
94.35
 31
0.0
  0
LINE
  5
D8
330
1E
100
AcDbEntity
  8
0
100
AcDbLine
 10
25.68326499999999
 20
92.15000000000001
 30
0.0
 11
25.68326499999999
 21
89.25
 31
0.0
  0
LINE
  5
D9
330
1E
100
AcDbEntity
  8
0
100
AcDbLine
 10
15.65996499999999
 20
94.3778
 30
0.0
 11
15.69846499999999
 21
93.9114
 31
0.0
  0
LINE
  5
DA
330
1E
100
AcDbEntity
  8
0
100
AcDbLine
 10
15.65996499999999
 20
94.3778
 30
0.0
 11
15.99236499999999
 21
94.09229999999999
 31
0.0
  0
LINE
  5
DB
330
1E
100
AcDbEntity
  8
0
100
AcDbLine
 10
25.68326499999999
 20
96.25
 30
0.0
 11
26.183265
 21
97.25000000000001
 31
0.0
  0
LINE
  5
DC
330
1E
100
AcDbEntity
  8
0
100
AcDbLine
 10
25.68326499999999
 20
96.25
 30
0.0
 11
25.68326499999999
 21
95.75000000000001
 31
0.0
  0
LINE
  5
DD
330
1E
100
AcDbEntity
  8
0
100
AcDbLine
 10
25.68326499999999
 20
94.35
 30
0.0
 11
25.68326499999999
 21
92.15000000000001
 31
0.0
  0
LINE
  5
DE
330
1E
100
AcDbEntity
  8
0
100
AcDbLine
 10
25.68326499999999
 20
94.35
 30
0.0
 11
25.68326499999999
 21
95.75000000000001
 31
0.0
  0
LINE
  5
DF
330
1E
100
AcDbEntity
  8
0
100
AcDbLine
 10
25.68326499999999
 20
95.75000000000001
 30
0.0
 11
25.68326499999999
 21
94.35
 31
0.0
  0
LINE
  5
E0
330
1E
100
AcDbEntity
  8
0
100
AcDbLine
 10
25.68326499999999
 20
95.75000000000001
 30
0.0
 11
25.68326499999999
 21
96.25
 31
0.0
  0
LINE
  5
E1
330
1E
100
AcDbEntity
  8
0
100
AcDbLine
 10
25.68326499999999
 20
73.9643559246406
 30
0.0
 11
25.68326499999999
 21
75.25
 31
0.0
  0
LINE
  5
E2
330
1E
100
AcDbEntity
  8
0
100
AcDbLine
 10
27.683265
 20
67.25
 30
0.0
 11
28.183265
 21
68.25
 31
0.0
  0
LINE
  5
E3
330
1E
100
AcDbEntity
  8
0
100
AcDbLine
 10
27.183265
 20
66.75
 30
0.0
 11
27.683265
 21
67.25
 31
0.0
  0
LINE
  5
E4
330
1E
100
AcDbEntity
  8
0
100
AcDbLine
 10
27.183265
 20
66.75
 30
0.0
 11
27.183265
 21
67.34999999999999
 31
0.0
  0
LINE
  5
E5
330
1E
100
AcDbEntity
  8
0
100
AcDbLine
 10
26.683265
 20
66.75
 30
0.0
 11
27.183265
 21
66.75
 31
0.0
  0
LINE
  5
E6
330
1E
100
AcDbEntity
  8
0
100
AcDbLine
 10
26.683265
 20
66.75
 30
0.0
 11
26.683265
 21
67.34999999999999
 31
0.0
  0
LINE
  5
E7
330
1E
100
AcDbEntity
  8
0
100
AcDbLine
 10
27.183265
 20
67.34999999999999
 30
0.0
 11
27.183265
 21
68.84999999999999
 31
0.0
  0
LINE
  5
E8
330
1E
100
AcDbEntity
  8
0
100
AcDbLine
 10
27.183265
 20
67.34999999999999
 30
0.0
 11
27.183265
 21
66.75
 31
0.0
  0
LINE
  5
E9
330
1E
100
AcDbEntity
  8
0
100
AcDbLine
 10
26.683265
 20
74.55
 30
0.0
 11
26.683265
 21
78.25
 31
0.0
  0
LINE
  5
EA
330
1E
100
AcDbEntity
  8
0
100
AcDbLine
 10
26.683265
 20
74.55
 30
0.0
 11
26.683265
 21
71.34999999999999
 31
0.0
  0
LINE
  5
EB
330
1E
100
AcDbEntity
  8
0
100
AcDbLine
 10
26.683265
 20
71.34999999999999
 30
0.0
 11
26.683265
 21
68.84999999999999
 31
0.0
  0
LINE
  5
EC
330
1E
100
AcDbEntity
  8
0
100
AcDbLine
 10
26.683265
 20
71.34999999999999
 30
0.0
 11
26.683265
 21
74.55
 31
0.0
  0
LINE
  5
ED
330
1E
100
AcDbEntity
  8
0
100
AcDbLine
 10
27.183265
 20
74.55
 30
0.0
 11
27.183265
 21
78.25
 31
0.0
  0
LINE
  5
EE
330
1E
100
AcDbEntity
  8
0
100
AcDbLine
 10
27.183265
 20
74.55
 30
0.0
 11
27.183265
 21
71.34999999999999
 31
0.0
  0
LINE
  5
EF
330
1E
100
AcDbEntity
  8
0
100
AcDbLine
 10
27.183265
 20
78.25
 30
0.0
 11
27.183265
 21
82.24999999999999
 31
0.0
  0
LINE
  5
F0
330
1E
100
AcDbEntity
  8
0
100
AcDbLine
 10
27.183265
 20
78.25
 30
0.0
 11
27.183265
 21
74.55
 31
0.0
  0
LINE
  5
F1
330
1E
100
AcDbEntity
  8
0
100
AcDbLine
 10
26.683265
 20
89.95
 30
0.0
 11
26.683265
 21
93.15000000000001
 31
0.0
  0
LINE
  5
F2
330
1E
100
AcDbEntity
  8
0
100
AcDbLine
 10
26.683265
 20
89.95
 30
0.0
 11
26.683265
 21
86.25
 31
0.0
  0
LINE
  5
F3
330
1E
100
AcDbEntity
  8
0
100
AcDbLine
 10
26.683265
 20
86.25
 30
0.0
 11
26.683265
 21
89.95
 31
0.0
  0
LINE
  5
F4
330
1E
100
AcDbEntity
  8
0
100
AcDbLine
 10
26.683265
 20
86.25
 30
0.0
 11
26.683265
 21
82.24999999999999
 31
0.0
  0
LINE
  5
F5
330
1E
100
AcDbEntity
  8
0
100
AcDbLine
 10
26.683265
 20
93.15000000000001
 30
0.0
 11
26.683265
 21
95.65000000000001
 31
0.0
  0
LINE
  5
F6
330
1E
100
AcDbEntity
  8
0
100
AcDbLine
 10
26.683265
 20
93.15000000000001
 30
0.0
 11
26.683265
 21
89.95
 31
0.0
  0
LINE
  5
F7
330
1E
100
AcDbEntity
  8
0
100
AcDbLine
 10
26.683265
 20
95.65000000000001
 30
0.0
 11
26.683265
 21
97.15000000000001
 31
0.0
  0
LINE
  5
F8
330
1E
100
AcDbEntity
  8
0
100
AcDbLine
 10
26.683265
 20
95.65000000000001
 30
0.0
 11
26.683265
 21
93.15000000000001
 31
0.0
  0
LINE
  5
F9
330
1E
100
AcDbEntity
  8
0
100
AcDbLine
 10
26.683265
 20
97.15000000000001
 30
0.0
 11
26.683265
 21
97.75
 31
0.0
  0
LINE
  5
FA
330
1E
100
AcDbEntity
  8
0
100
AcDbLine
 10
26.683265
 20
97.15000000000001
 30
0.0
 11
26.683265
 21
95.65000000000001
 31
0.0
  0
LINE
  5
FB
330
1E
100
AcDbEntity
  8
0
100
AcDbLine
 10
27.183265
 20
89.95
 30
0.0
 11
27.183265
 21
93.15000000000001
 31
0.0
  0
LINE
  5
FC
330
1E
100
AcDbEntity
  8
0
100
AcDbLine
 10
27.183265
 20
89.95
 30
0.0
 11
27.183265
 21
86.25
 31
0.0
  0
LINE
  5
FD
330
1E
100
AcDbEntity
  8
0
100
AcDbLine
 10
27.183265
 20
86.25
 30
0.0
 11
27.183265
 21
89.95
 31
0.0
  0
LINE
  5
FE
330
1E
100
AcDbEntity
  8
0
100
AcDbLine
 10
27.183265
 20
86.25
 30
0.0
 11
27.183265
 21
82.24999999999999
 31
0.0
  0
LINE
  5
FF
330
1E
100
AcDbEntity
  8
0
100
AcDbLine
 10
27.183265
 20
93.15000000000001
 30
0.0
 11
27.183265
 21
95.65000000000001
 31
0.0
  0
LINE
  5
100
330
1E
100
AcDbEntity
  8
0
100
AcDbLine
 10
27.183265
 20
93.15000000000001
 30
0.0
 11
27.183265
 21
89.95
 31
0.0
  0
LINE
  5
101
330
1E
100
AcDbEntity
  8
0
100
AcDbLine
 10
27.183265
 20
95.65000000000001
 30
0.0
 11
27.183265
 21
97.15000000000001
 31
0.0
  0
LINE
  5
102
330
1E
100
AcDbEntity
  8
0
100
AcDbLine
 10
27.183265
 20
95.65000000000001
 30
0.0
 11
27.183265
 21
93.15000000000001
 31
0.0
  0
LINE
  5
103
330
1E
100
AcDbEntity
  8
0
100
AcDbLine
 10
27.183265
 20
97.15000000000001
 30
0.0
 11
27.183265
 21
97.75
 31
0.0
  0
LINE
  5
104
330
1E
100
AcDbEntity
  8
0
100
AcDbLine
 10
27.183265
 20
97.15000000000001
 30
0.0
 11
27.183265
 21
95.65000000000001
 31
0.0
  0
LINE
  5
105
330
1E
100
AcDbEntity
  8
0
100
AcDbLine
 10
27.183265
 20
82.24999999999999
 30
0.0
 11
27.183265
 21
78.25
 31
0.0
  0
LINE
  5
106
330
1E
100
AcDbEntity
  8
0
100
AcDbLine
 10
27.183265
 20
82.24999999999999
 30
0.0
 11
27.183265
 21
86.25
 31
0.0
  0
LINE
  5
107
330
1E
100
AcDbEntity
  8
0
100
AcDbLine
 10
26.683265
 20
82.24999999999999
 30
0.0
 11
26.683265
 21
78.25
 31
0.0
  0
LINE
  5
108
330
1E
100
AcDbEntity
  8
0
100
AcDbLine
 10
26.683265
 20
82.24999999999999
 30
0.0
 11
26.683265
 21
86.25
 31
0.0
  0
LINE
  5
109
330
1E
100
AcDbEntity
  8
0
100
AcDbLine
 10
26.683265
 20
78.25
 30
0.0
 11
26.683265
 21
82.24999999999999
 31
0.0
  0
LINE
  5
10A
330
1E
100
AcDbEntity
  8
0
100
AcDbLine
 10
27.183265
 20
71.34999999999999
 30
0.0
 11
27.183265
 21
68.84999999999999
 31
0.0
  0
LINE
  5
10B
330
1E
100
AcDbEntity
  8
0
100
AcDbLine
 10
27.183265
 20
71.34999999999999
 30
0.0
 11
27.183265
 21
74.55
 31
0.0
  0
LINE
  5
10C
330
1E
100
AcDbEntity
  8
0
100
AcDbLine
 10
27.183265
 20
68.84999999999999
 30
0.0
 11
27.183265
 21
71.34999999999999
 31
0.0
  0
LINE
  5
10D
330
1E
100
AcDbEntity
  8
0
100
AcDbLine
 10
27.183265
 20
68.84999999999999
 30
0.0
 11
27.183265
 21
67.34999999999999
 31
0.0
  0
LINE
  5
10E
330
1E
100
AcDbEntity
  8
0
100
AcDbLine
 10
26.683265
 20
68.84999999999999
 30
0.0
 11
26.683265
 21
71.34999999999999
 31
0.0
  0
LINE
  5
10F
330
1E
100
AcDbEntity
  8
0
100
AcDbLine
 10
26.683265
 20
68.84999999999999
 30
0.0
 11
26.683265
 21
67.34999999999999
 31
0.0
  0
LINE
  5
110
330
1E
100
AcDbEntity
  8
0
100
AcDbLine
 10
26.683265
 20
67.34999999999999
 30
0.0
 11
26.683265
 21
68.84999999999999
 31
0.0
  0
LINE
  5
111
330
1E
100
AcDbEntity
  8
0
100
AcDbLine
 10
26.683265
 20
67.34999999999999
 30
0.0
 11
26.683265
 21
66.75
 31
0.0
  0
LINE
  5
112
330
1E
100
AcDbEntity
  8
0
100
AcDbLine
 10
28.183265
 20
96.25
 30
0.0
 11
28.683265
 21
95.75000000000001
 31
0.0
  0
LINE
  5
113
330
1E
100
AcDbEntity
  8
0
100
AcDbLine
 10
27.683265
 20
97.25000000000001
 30
0.0
 11
28.183265
 21
96.25
 31
0.0
  0
LINE
  5
114
330
1E
100
AcDbEntity
  8
0
100
AcDbLine
 10
27.183265
 20
97.75
 30
0.0
 11
27.683265
 21
97.25000000000001
 31
0.0
  0
LINE
  5
115
330
1E
100
AcDbEntity
  8
0
100
AcDbLine
 10
27.183265
 20
97.75
 30
0.0
 11
27.183265
 21
97.15000000000001
 31
0.0
  0
LINE
  5
116
330
1E
100
AcDbEntity
  8
0
100
AcDbLine
 10
26.683265
 20
97.75
 30
0.0
 11
27.183265
 21
97.75
 31
0.0
  0
LINE
  5
117
330
1E
100
AcDbEntity
  8
0
100
AcDbLine
 10
26.683265
 20
97.75
 30
0.0
 11
26.683265
 21
97.15000000000001
 31
0.0
  0
LINE
  5
118
330
1E
100
AcDbEntity
  8
0
100
AcDbLine
 10
26.183265
 20
97.25000000000001
 30
0.0
 11
26.683265
 21
97.75
 31
0.0
  0
LINE
  5
119
330
1E
100
AcDbEntity
  8
0
100
AcDbLine
 10
90.67396499999999
 20
68.4166666666667
 30
0.0
 11
90.67396499999999
 21
13.25
 31
0.0
  0
LINE
  5
11A
330
1E
100
AcDbEntity
  8
0
100
AcDbLine
 10
90.173965
 20
68.75
 30
0.0
 11
90.67396499999999
 21
68.4166666666667
 31
0.0
  0
LINE
  5
11B
330
1E
100
AcDbEntity
  8
0
100
AcDbLine
 10
30.183265
 20
95.25
 30
0.0
 11
88.17396499999999
 21
95.25
 31
0.0
  0
LINE
  5
11C
330
1E
100
AcDbEntity
  8
0
100
AcDbLine
 10
28.683265
 20
95.75000000000001
 30
0.0
 11
30.183265
 21
95.25
 31
0.0
  0
LINE
  5
11D
330
1E
100
AcDbEntity
  8
0
100
AcDbLine
 10
30.183265
 20
69.25
 30
0.0
 11
88.17396499999999
 21
69.25
 31
0.0
  0
LINE
  5
11E
330
1E
100
AcDbEntity
  8
0
100
AcDbLine
 10
88.17396499999999
 20
95.25
 30
0.0
 11
90.173965
 21
95.75000000000001
 31
0.0
  0
LINE
  5
11F
330
1E
100
AcDbEntity
  8
0
100
AcDbLine
 10
90.173965
 20
95.75000000000001
 30
0.0
 11
90.67396499999999
 21
96.0833333333333
 31
0.0
  0
LINE
  5
120
330
1E
100
AcDbEntity
  8
0
100
AcDbLine
 10
30.183265
 20
95.25
 30
0.0
 11
88.17396499999999
 21
95.25
 31
0.0
  0
LINE
  5
121
330
1E
100
AcDbEntity
  8
0
100
AcDbLine
 10
88.17396499999999
 20
69.25
 30
0.0
 11
90.173965
 21
68.75
 31
0.0
  0
LINE
  5
122
330
1E
100
AcDbEntity
  8
0
100
AcDbLine
 10
30.183265
 20
69.25
 30
0.0
 11
88.17396499999999
 21
69.25
 31
0.0
  0
LINE
  5
123
330
1E
100
AcDbEntity
  8
0
100
AcDbLine
 10
28.683265
 20
68.75
 30
0.0
 11
30.183265
 21
69.25
 31
0.0
  0
LINE
  5
124
330
1E
100
AcDbEntity
  8
0
100
AcDbLine
 10
28.183265
 20
68.25
 30
0.0
 11
28.683265
 21
68.75
 31
0.0
  0
LINE
  5
125
330
1E
100
AcDbEntity
  8
0
100
AcDbLine
 10
26.183265
 20
67.25
 30
0.0
 11
26.683265
 21
66.75
 31
0.0
  0
LINE
  5
126
330
1E
100
AcDbEntity
  8
0
100
AcDbLine
 10
25.68326499999999
 20
75.25
 30
0.0
 11
25.68326499999999
 21
73.9643559246406
 31
0.0
  0
LINE
  5
127
330
1E
100
AcDbEntity
  8
0
100
AcDbLine
 10
25.68326499999999
 20
75.25
 30
0.0
 11
25.68326499999999
 21
78.65000000000001
 31
0.0
  0
LINE
  5
128
330
1E
100
AcDbEntity
  8
0
100
AcDbLine
 10
90.67396499999999
 20
104.2499999999999
 30
0.0
 11
91.17396499999999
 21
104.75
 31
0.0
  0
LINE
  5
129
330
1E
100
AcDbEntity
  8
0
100
AcDbLine
 10
90.67396499999999
 20
104.2499999999999
 30
0.0
 11
90.67396499999999
 21
96.0833333333333
 31
0.0
  0
LINE
  5
12A
330
1E
100
AcDbEntity
  8
0
100
AcDbLine
 10
90.67396499999999
 20
104.2499999999999
 30
0.0
 11
91.37396499999999
 21
104.2499999999999
 31
0.0
  0
LINE
  5
12F
330
1E
100
AcDbEntity
  8
0
100
AcDbLine
 10
124.2739649999999
 20
40.8268133033795
 30
0.0
 11
125.6394466248209
 21
43.5594970758743
 31
0.0
  0
LINE
  5
130
330
1E
100
AcDbEntity
  8
0
100
AcDbLine
 10
125.6394466248209
 20
43.5594970758743
 30
0.0
 11
134.618965
 21
43.55939999999999
 31
0.0
  0
LINE
  5
131
330
1E
100
AcDbEntity
  8
0
100
AcDbLine
 10
95.973965
 20
104.2499999999999
 30
0.0
 11
99.77396500000001
 21
104.2499999999999
 31
0.0
  0
LINE
  5
132
330
1E
100
AcDbEntity
  8
0
100
AcDbLine
 10
121.3739649999999
 20
104.2499999999999
 30
0.0
 11
124.2739649999999
 21
104.2499999999999
 31
0.0
  0
LINE
  5
133
330
1E
100
AcDbEntity
  8
0
100
AcDbLine
 10
117.5739649999999
 20
104.2499999999999
 30
0.0
 11
121.3739649999999
 21
104.2499999999999
 31
0.0
  0
LINE
  5
134
330
1E
100
AcDbEntity
  8
0
100
AcDbLine
 10
113.2739649999999
 20
104.2499999999999
 30
0.0
 11
117.5739649999999
 21
104.2499999999999
 31
0.0
  0
LINE
  5
135
330
1E
100
AcDbEntity
  8
0
100
AcDbLine
 10
108.6739649999999
 20
104.2499999999999
 30
0.0
 11
113.2739649999999
 21
104.2499999999999
 31
0.0
  0
LINE
  5
136
330
1E
100
AcDbEntity
  8
0
100
AcDbLine
 10
99.77396500000001
 20
104.2499999999999
 30
0.0
 11
104.073965
 21
104.2499999999999
 31
0.0
  0
LINE
  5
137
330
1E
100
AcDbEntity
  8
0
100
AcDbLine
 10
104.073965
 20
104.2499999999999
 30
0.0
 11
108.6739649999999
 21
104.2499999999999
 31
0.0
  0
LINE
  5
138
330
1E
100
AcDbEntity
  8
0
100
AcDbLine
 10
93.07396500000001
 20
104.2499999999999
 30
0.0
 11
95.973965
 21
104.2499999999999
 31
0.0
  0
LINE
  5
139
330
1E
100
AcDbEntity
  8
0
100
AcDbLine
 10
91.37396499999999
 20
104.2499999999999
 30
0.0
 11
93.07396500000001
 21
104.2499999999999
 31
0.0
  0
LINE
  5
13A
330
1E
100
AcDbEntity
  8
0
100
AcDbLine
 10
124.2739649999999
 20
104.2499999999999
 30
0.0
 11
125.9739649999999
 21
104.2499999999999
 31
0.0
  0
LINE
  5
13B
330
1E
100
AcDbEntity
  8
0
100
AcDbLine
 10
126.6739649999999
 20
48.5594
 30
0.0
 11
126.6739649999999
 21
104.2499999999999
 31
0.0
  0
LINE
  5
13C
330
1E
100
AcDbEntity
  8
0
100
AcDbLine
 10
125.9739649999999
 20
104.2499999999999
 30
0.0
 11
126.6739649999999
 21
104.2499999999999
 31
0.0
  0
LINE
  5
13D
330
1E
100
AcDbEntity
  8
0
100
AcDbLine
 10
125.3729649999999
 20
48.5594
 30
0.0
 11
134.6229649999999
 21
48.5594
 31
0.0
  0
LINE
  5
13E
330
1E
100
AcDbEntity
  8
0
100
AcDbLine
 10
124.5129649999999
 20
48.4598
 30
0.0
 11
125.3729649999999
 21
48.5594
 31
0.0
  0
LINE
  5
13F
330
1E
100
AcDbEntity
  8
0
100
AcDbLine
 10
123.6869649999999
 20
48.1648
 30
0.0
 11
124.5129649999999
 21
48.4598
 31
0.0
  0
LINE
  5
140
330
1E
100
AcDbEntity
  8
0
100
AcDbLine
 10
123.2719649999999
 20
47.9911
 30
0.0
 11
123.6869649999999
 21
48.1648
 31
0.0
  0
LINE
  5
142
330
1E
100
AcDbEntity
  8
0
100
AcDbLine
 10
90.67396499999999
 20
96.0833333333333
 30
0.0
 11
90.67396499999999
 21
104.2499999999999
 31
0.0
  0
LINE
  5
143
330
1E
100
AcDbEntity
  8
0
100
AcDbLine
 10
90.67396499999999
 20
13.25
 30
0.0
 11
90.67396499999999
 21
68.4166666666667
 31
0.0
  0
LINE
  5
144
330
1E
100
AcDbEntity
  8
0
100
AcDbLine
 10
126.6739649999999
 20
43.55948589189189
 30
0.0
 11
126.6739649999999
 21
13.25
 31
0.0
  0
LINE
  5
145
330
1E
100
AcDbEntity
  8
0
100
AcDbLine
 10
91.773965
 20
104.75
 30
0.0
 11
93.473965
 21
104.75
 31
0.0
  0
LINE
  5
146
330
1E
100
AcDbEntity
  8
0
100
AcDbLine
 10
91.17396499999999
 20
104.75
 30
0.0
 11
91.773965
 21
104.75
 31
0.0
  0
LINE
  5
147
330
1E
100
AcDbEntity
  8
0
100
AcDbLine
 10
91.37396499999999
 20
106.75
 30
0.0
 11
92.673965
 21
106.75
 31
0.0
  0
LINE
  5
148
330
1E
100
AcDbEntity
  8
0
100
AcDbLine
 10
91.37396499999999
 20
106.75
 30
0.0
 11
93.07396500000001
 21
106.75
 31
0.0
  0
LINE
  5
149
330
1E
100
AcDbEntity
  8
0
100
AcDbLine
 10
90.67396499999999
 20
106.75
 30
0.0
 11
91.37396499999999
 21
106.75
 31
0.0
  0
LINE
  5
14A
330
1E
100
AcDbEntity
  8
0
100
AcDbLine
 10
90.67396499999999
 20
106.75
 30
0.0
 11
90.67396499999999
 21
116.857
 31
0.0
  0
LINE
  5
14B
330
1E
100
AcDbEntity
  8
0
100
AcDbLine
 10
92.673965
 20
106.75
 30
0.0
 11
92.673965
 21
104.75
 31
0.0
  0
LINE
  5
14C
330
1E
100
AcDbEntity
  8
0
100
AcDbLine
 10
96.27396500000001
 20
104.75
 30
0.0
 11
99.973965
 21
104.75
 31
0.0
  0
LINE
  5
14D
330
1E
100
AcDbEntity
  8
0
100
AcDbLine
 10
121.0739649999999
 20
104.75
 30
0.0
 11
123.8739649999999
 21
104.75
 31
0.0
  0
LINE
  5
14E
330
1E
100
AcDbEntity
  8
0
100
AcDbLine
 10
123.8739649999999
 20
104.75
 30
0.0
 11
125.5739649999999
 21
104.75
 31
0.0
  0
LINE
  5
14F
330
1E
100
AcDbEntity
  8
0
100
AcDbLine
 10
125.5739649999999
 20
104.75
 30
0.0
 11
126.1739649999999
 21
104.75
 31
0.0
  0
LINE
  5
150
330
1E
100
AcDbEntity
  8
0
100
AcDbLine
 10
117.3739649999999
 20
104.75
 30
0.0
 11
121.0739649999999
 21
104.75
 31
0.0
  0
LINE
  5
151
330
1E
100
AcDbEntity
  8
0
100
AcDbLine
 10
113.1739649999999
 20
104.75
 30
0.0
 11
117.3739649999999
 21
104.75
 31
0.0
  0
LINE
  5
152
330
1E
100
AcDbEntity
  8
0
100
AcDbLine
 10
108.6739649999999
 20
104.75
 30
0.0
 11
113.1739649999999
 21
104.75
 31
0.0
  0
LINE
  5
153
330
1E
100
AcDbEntity
  8
0
100
AcDbLine
 10
99.973965
 20
104.75
 30
0.0
 11
104.173965
 21
104.75
 31
0.0
  0
LINE
  5
154
330
1E
100
AcDbEntity
  8
0
100
AcDbLine
 10
104.173965
 20
104.75
 30
0.0
 11
108.6739649999999
 21
104.75
 31
0.0
  0
LINE
  5
155
330
1E
100
AcDbEntity
  8
0
100
AcDbLine
 10
93.473965
 20
104.75
 30
0.0
 11
96.27396500000001
 21
104.75
 31
0.0
  0
LINE
  5
156
330
1E
100
AcDbEntity
  8
0
100
AcDbLine
 10
95.973965
 20
106.75
 30
0.0
 11
99.77396500000001
 21
106.75
 31
0.0
  0
LINE
  5
157
330
1E
100
AcDbEntity
  8
0
100
AcDbLine
 10
99.77396500000001
 20
106.75
 30
0.0
 11
104.073965
 21
106.75
 31
0.0
  0
LINE
  5
158
330
1E
100
AcDbEntity
  8
0
100
AcDbLine
 10
104.073965
 20
106.75
 30
0.0
 11
108.6739649999999
 21
106.75
 31
0.0
  0
LINE
  5
159
330
1E
100
AcDbEntity
  8
0
100
AcDbLine
 10
93.07396500000001
 20
106.75
 30
0.0
 11
95.973965
 21
106.75
 31
0.0
  0
LINE
  5
15A
330
1E
100
AcDbEntity
  8
0
100
AcDbLine
 10
108.6739649999999
 20
106.75
 30
0.0
 11
113.2419649999999
 21
108.071
 31
0.0
  0
LINE
  5
15B
330
1E
100
AcDbEntity
  8
0
100
AcDbLine
 10
124.673965
 20
104.75
 30
0.0
 11
124.673965
 21
106.75
 31
0.0
  0
LINE
  5
15C
330
1E
100
AcDbEntity
  8
0
100
AcDbLine
 10
92.673965
 20
104.75
 30
0.0
 11
92.673965
 21
106.75
 31
0.0
  0
LINE
  5
15D
330
1E
100
AcDbEntity
  8
0
100
AcDbLine
 10
117.5619649999999
 20
109.222
 30
0.0
 11
121.304965
 21
110.277
 31
0.0
  0
LINE
  5
15E
330
1E
100
AcDbEntity
  8
0
100
AcDbLine
 10
113.2419649999999
 20
108.071
 30
0.0
 11
117.5619649999999
 21
109.222
 31
0.0
  0
LINE
  5
15F
330
1E
100
AcDbEntity
  8
0
100
AcDbLine
 10
121.304965
 20
110.277
 30
0.0
 11
124.3289649999999
 21
111.092
 31
0.0
  0
LINE
  5
17C
330
1E
100
AcDbEntity
  8
0
100
AcDbLine
 10
29.360165
 20
129.456
 30
0.0
 11
30.006265
 21
129.706
 31
0.0
  0
LINE
  5
17D
330
1E
100
AcDbEntity
  8
0
100
AcDbLine
 10
29.360165
 20
129.456
 30
0.0
 11
29.360165
 21
129.622
 31
0.0
  0
LINE
  5
17E
330
1E
100
AcDbEntity
  8
0
100
AcDbLine
 10
29.360165
 20
129.622
 30
0.0
 11
29.360165
 21
129.456
 31
0.0
  0
LINE
  5
17F
330
1E
100
AcDbEntity
  8
0
100
AcDbLine
 10
29.360165
 20
129.622
 30
0.0
 11
29.360165
 21
130.122
 31
0.0
  0
LINE
  5
180
330
1E
100
AcDbEntity
  8
0
100
AcDbLine
 10
30.006265
 20
129.706
 30
0.0
 11
30.283165
 21
130.2889999999999
 31
0.0
  0
LINE
  5
181
330
1E
100
AcDbEntity
  8
0
100
AcDbLine
 10
30.006265
 20
129.706
 30
0.0
 11
30.006265
 21
129.872
 31
0.0
  0
LINE
  5
182
330
1E
100
AcDbEntity
  8
0
100
AcDbLine
 10
30.006265
 20
129.872
 30
0.0
 11
30.006265
 21
129.706
 31
0.0
  0
LINE
  5
183
330
1E
100
AcDbEntity
  8
0
100
AcDbLine
 10
30.006265
 20
129.872
 30
0.0
 11
30.006265
 21
130.372
 31
0.0
  0
LINE
  5
184
330
1E
100
AcDbEntity
  8
0
100
AcDbLine
 10
29.360165
 20
130.122
 30
0.0
 11
29.360165
 21
129.622
 31
0.0
  0
LINE
  5
185
330
1E
100
AcDbEntity
  8
0
100
AcDbLine
 10
29.360165
 20
130.122
 30
0.0
 11
29.360165
 21
130.956
 31
0.0
  0
LINE
  5
186
330
1E
100
AcDbEntity
  8
0
100
AcDbLine
 10
28.713965
 20
129.872
 30
0.0
 11
28.713965
 21
129.706
 31
0.0
  0
LINE
  5
187
330
1E
100
AcDbEntity
  8
0
100
AcDbLine
 10
28.713965
 20
129.872
 30
0.0
 11
28.713965
 21
130.372
 31
0.0
  0
LINE
  5
188
330
1E
100
AcDbEntity
  8
0
100
AcDbLine
 10
86.49866499999999
 20
129.872
 30
0.0
 11
86.49866499999999
 21
130.372
 31
0.0
  0
LINE
  5
189
330
1E
100
AcDbEntity
  8
0
100
AcDbLine
 10
86.49866499999999
 20
129.872
 30
0.0
 11
86.49866499999999
 21
129.706
 31
0.0
  0
LINE
  5
18A
330
1E
100
AcDbEntity
  8
0
100
AcDbLine
 10
30.283165
 20
130.2889999999999
 30
0.0
 11
35.17556499999999
 21
130.706
 31
0.0
  0
LINE
  5
18B
330
1E
100
AcDbEntity
  8
0
100
AcDbLine
 10
30.283165
 20
130.2889999999999
 30
0.0
 11
30.283165
 21
130.456
 31
0.0
  0
LINE
  5
18C
330
1E
100
AcDbEntity
  8
0
100
AcDbLine
 10
28.713965
 20
129.706
 30
0.0
 11
29.360165
 21
129.456
 31
0.0
  0
LINE
  5
18D
330
1E
100
AcDbEntity
  8
0
100
AcDbLine
 10
28.713965
 20
129.706
 30
0.0
 11
28.713965
 21
129.872
 31
0.0
  0
LINE
  5
18E
330
1E
100
AcDbEntity
  8
0
100
AcDbLine
 10
28.437065
 20
130.2889999999999
 30
0.0
 11
28.713965
 21
129.706
 31
0.0
  0
LINE
  5
18F
330
1E
100
AcDbEntity
  8
0
100
AcDbLine
 10
28.437065
 20
130.2889999999999
 30
0.0
 11
28.437065
 21
130.456
 31
0.0
  0
LINE
  5
190
330
1E
100
AcDbEntity
  8
0
100
AcDbLine
 10
30.283165
 20
130.456
 30
0.0
 11
30.283165
 21
130.2889999999999
 31
0.0
  0
LINE
  5
191
330
1E
100
AcDbEntity
  8
0
100
AcDbLine
 10
30.283165
 20
130.456
 30
0.0
 11
30.283165
 21
130.872
 31
0.0
  0
LINE
  5
192
330
1E
100
AcDbEntity
  8
0
100
AcDbLine
 10
30.006265
 20
130.372
 30
0.0
 11
30.006265
 21
129.872
 31
0.0
  0
LINE
  5
193
330
1E
100
AcDbEntity
  8
0
100
AcDbLine
 10
30.006265
 20
130.372
 30
0.0
 11
30.006265
 21
131.122
 31
0.0
  0
LINE
  5
194
330
1E
100
AcDbEntity
  8
0
100
AcDbLine
 10
28.713965
 20
130.372
 30
0.0
 11
28.713965
 21
129.872
 31
0.0
  0
LINE
  5
195
330
1E
100
AcDbEntity
  8
0
100
AcDbLine
 10
28.713965
 20
130.372
 30
0.0
 11
28.713965
 21
131.122
 31
0.0
  0
LINE
  5
196
330
1E
100
AcDbEntity
  8
0
100
AcDbLine
 10
35.17556499999999
 20
130.706
 30
0.0
 11
43.483165
 21
131.122
 31
0.0
  0
LINE
  5
197
330
1E
100
AcDbEntity
  8
0
100
AcDbLine
 10
28.437065
 20
130.456
 30
0.0
 11
28.437065
 21
130.872
 31
0.0
  0
LINE
  5
198
330
1E
100
AcDbEntity
  8
0
100
AcDbLine
 10
28.437065
 20
130.456
 30
0.0
 11
28.437065
 21
130.2889999999999
 31
0.0
  0
LINE
  5
199
330
1E
100
AcDbEntity
  8
0
100
AcDbLine
 10
30.283165
 20
130.872
 30
0.0
 11
30.283165
 21
130.456
 31
0.0
  0
LINE
  5
19A
330
1E
100
AcDbEntity
  8
0
100
AcDbLine
 10
30.283165
 20
130.872
 30
0.0
 11
30.283165
 21
131.5389999999999
 31
0.0
  0
LINE
  5
19B
330
1E
100
AcDbEntity
  8
0
100
AcDbLine
 10
30.006265
 20
131.122
 30
0.0
 11
30.006265
 21
132.122
 31
0.0
  0
LINE
  5
19C
330
1E
100
AcDbEntity
  8
0
100
AcDbLine
 10
30.006265
 20
131.122
 30
0.0
 11
30.006265
 21
130.372
 31
0.0
  0
LINE
  5
19D
330
1E
100
AcDbEntity
  8
0
100
AcDbLine
 10
29.360165
 20
130.956
 30
0.0
 11
29.360165
 21
131.956
 31
0.0
  0
LINE
  5
19E
330
1E
100
AcDbEntity
  8
0
100
AcDbLine
 10
29.360165
 20
130.956
 30
0.0
 11
29.360165
 21
130.122
 31
0.0
  0
LINE
  5
19F
330
1E
100
AcDbEntity
  8
0
100
AcDbLine
 10
28.713965
 20
131.122
 30
0.0
 11
28.713965
 21
132.122
 31
0.0
  0
LINE
  5
1A0
330
1E
100
AcDbEntity
  8
0
100
AcDbLine
 10
28.713965
 20
131.122
 30
0.0
 11
28.713965
 21
130.372
 31
0.0
  0
LINE
  5
1A1
330
1E
100
AcDbEntity
  8
0
100
AcDbLine
 10
43.483165
 20
131.122
 30
0.0
 11
58.252365
 21
131.122
 31
0.0
  0
LINE
  5
1A2
330
1E
100
AcDbEntity
  8
0
100
AcDbLine
 10
28.437065
 20
130.872
 30
0.0
 11
28.437065
 21
130.706
 31
0.0
  0
LINE
  5
1A3
330
1E
100
AcDbEntity
  8
0
100
AcDbLine
 10
28.437065
 20
130.872
 30
0.0
 11
28.437065
 21
131.5389999999999
 31
0.0
  0
LINE
  5
1A4
330
1E
100
AcDbEntity
  8
0
100
AcDbLine
 10
28.437065
 20
130.872
 30
0.0
 11
28.437065
 21
130.456
 31
0.0
  0
LINE
  5
1A5
330
1E
100
AcDbEntity
  8
0
100
AcDbLine
 10
28.437065
 20
130.706
 30
0.0
 11
28.437065
 21
130.872
 31
0.0
  0
LINE
  5
1A6
330
1E
100
AcDbEntity
  8
0
100
AcDbLine
 10
58.252365
 20
131.122
 30
0.0
 11
73.02156499999999
 21
131.122
 31
0.0
  0
LINE
  5
1A7
330
1E
100
AcDbEntity
  8
0
100
AcDbLine
 10
28.437065
 20
131.206
 30
0.0
 11
28.437065
 21
131.789
 31
0.0
  0
LINE
  5
1A8
330
1E
100
AcDbEntity
  8
0
100
AcDbLine
 10
30.283165
 20
131.5389999999999
 30
0.0
 11
30.283165
 21
132.372
 31
0.0
  0
LINE
  5
1A9
330
1E
100
AcDbEntity
  8
0
100
AcDbLine
 10
30.283165
 20
131.5389999999999
 30
0.0
 11
30.283165
 21
130.872
 31
0.0
  0
LINE
  5
1AA
330
1E
100
AcDbEntity
  8
0
100
AcDbLine
 10
28.437065
 20
132.372
 30
0.0
 11
28.437065
 21
133.372
 31
0.0
  0
LINE
  5
1AB
330
1E
100
AcDbEntity
  8
0
100
AcDbLine
 10
28.437065
 20
131.789
 30
0.0
 11
28.437065
 21
132.622
 31
0.0
  0
LINE
  5
1AC
330
1E
100
AcDbEntity
  8
0
100
AcDbLine
 10
28.437065
 20
131.789
 30
0.0
 11
28.437065
 21
131.206
 31
0.0
  0
LINE
  5
1AD
330
1E
100
AcDbEntity
  8
0
100
AcDbLine
 10
28.437065
 20
133.372
 30
0.0
 11
28.437065
 21
132.372
 31
0.0
  0
LINE
  5
1AE
330
1E
100
AcDbEntity
  8
0
100
AcDbLine
 10
28.437065
 20
133.372
 30
0.0
 11
28.437065
 21
134.456
 31
0.0
  0
LINE
  5
1AF
330
1E
100
AcDbEntity
  8
0
100
AcDbLine
 10
28.437065
 20
132.622
 30
0.0
 11
28.437065
 21
131.789
 31
0.0
  0
LINE
  5
1B0
330
1E
100
AcDbEntity
  8
0
100
AcDbLine
 10
28.437065
 20
134.456
 30
0.0
 11
28.437065
 21
135.5389999999999
 31
0.0
  0
LINE
  5
1B1
330
1E
100
AcDbEntity
  8
0
100
AcDbLine
 10
28.437065
 20
134.456
 30
0.0
 11
28.437065
 21
133.372
 31
0.0
  0
LINE
  5
1B2
330
1E
100
AcDbEntity
  8
0
100
AcDbLine
 10
29.360165
 20
131.956
 30
0.0
 11
29.360165
 21
130.956
 31
0.0
  0
LINE
  5
1B3
330
1E
100
AcDbEntity
  8
0
100
AcDbLine
 10
29.360165
 20
131.956
 30
0.0
 11
29.360165
 21
133.206
 31
0.0
  0
LINE
  5
1B4
330
1E
100
AcDbEntity
  8
0
100
AcDbLine
 10
29.360165
 20
133.206
 30
0.0
 11
29.360165
 21
131.956
 31
0.0
  0
LINE
  5
1B5
330
1E
100
AcDbEntity
  8
0
100
AcDbLine
 10
29.360165
 20
133.206
 30
0.0
 11
29.360165
 21
134.456
 31
0.0
  0
LINE
  5
1B6
330
1E
100
AcDbEntity
  8
0
100
AcDbLine
 10
28.713965
 20
132.122
 30
0.0
 11
28.713965
 21
131.122
 31
0.0
  0
LINE
  5
1B7
330
1E
100
AcDbEntity
  8
0
100
AcDbLine
 10
28.713965
 20
132.122
 30
0.0
 11
28.713965
 21
133.206
 31
0.0
  0
LINE
  5
1B8
330
1E
100
AcDbEntity
  8
0
100
AcDbLine
 10
28.713965
 20
133.206
 30
0.0
 11
28.713965
 21
132.122
 31
0.0
  0
LINE
  5
1B9
330
1E
100
AcDbEntity
  8
0
100
AcDbLine
 10
28.713965
 20
133.206
 30
0.0
 11
28.713965
 21
134.456
 31
0.0
  0
LINE
  5
1BA
330
1E
100
AcDbEntity
  8
0
100
AcDbLine
 10
30.283165
 20
132.372
 30
0.0
 11
30.283165
 21
131.5389999999999
 31
0.0
  0
LINE
  5
1BB
330
1E
100
AcDbEntity
  8
0
100
AcDbLine
 10
30.283165
 20
132.372
 30
0.0
 11
30.283165
 21
133.372
 31
0.0
  0
LINE
  5
1BC
330
1E
100
AcDbEntity
  8
0
100
AcDbLine
 10
30.006265
 20
132.122
 30
0.0
 11
30.006265
 21
131.122
 31
0.0
  0
LINE
  5
1BD
330
1E
100
AcDbEntity
  8
0
100
AcDbLine
 10
30.006265
 20
132.122
 30
0.0
 11
30.006265
 21
133.206
 31
0.0
  0
LINE
  5
1BE
330
1E
100
AcDbEntity
  8
0
100
AcDbLine
 10
30.283165
 20
133.372
 30
0.0
 11
30.283165
 21
132.372
 31
0.0
  0
LINE
  5
1BF
330
1E
100
AcDbEntity
  8
0
100
AcDbLine
 10
30.283165
 20
133.372
 30
0.0
 11
30.283165
 21
134.456
 31
0.0
  0
LINE
  5
1C0
330
1E
100
AcDbEntity
  8
0
100
AcDbLine
 10
30.006265
 20
133.206
 30
0.0
 11
30.006265
 21
132.122
 31
0.0
  0
LINE
  5
1C1
330
1E
100
AcDbEntity
  8
0
100
AcDbLine
 10
30.006265
 20
133.206
 30
0.0
 11
30.006265
 21
134.456
 31
0.0
  0
LINE
  5
1C2
330
1E
100
AcDbEntity
  8
0
100
AcDbLine
 10
30.283165
 20
134.456
 30
0.0
 11
30.283165
 21
135.5389999999999
 31
0.0
  0
LINE
  5
1C3
330
1E
100
AcDbEntity
  8
0
100
AcDbLine
 10
30.283165
 20
134.456
 30
0.0
 11
30.283165
 21
133.372
 31
0.0
  0
LINE
  5
1C4
330
1E
100
AcDbEntity
  8
0
100
AcDbLine
 10
30.006265
 20
134.456
 30
0.0
 11
30.006265
 21
135.706
 31
0.0
  0
LINE
  5
1C5
330
1E
100
AcDbEntity
  8
0
100
AcDbLine
 10
30.006265
 20
134.456
 30
0.0
 11
30.006265
 21
133.206
 31
0.0
  0
LINE
  5
1C6
330
1E
100
AcDbEntity
  8
0
100
AcDbLine
 10
29.360165
 20
134.456
 30
0.0
 11
29.360165
 21
135.706
 31
0.0
  0
LINE
  5
1C7
330
1E
100
AcDbEntity
  8
0
100
AcDbLine
 10
29.360165
 20
134.456
 30
0.0
 11
29.360165
 21
133.206
 31
0.0
  0
LINE
  5
1C8
330
1E
100
AcDbEntity
  8
0
100
AcDbLine
 10
30.283165
 20
135.5389999999999
 30
0.0
 11
30.283165
 21
134.456
 31
0.0
  0
LINE
  5
1C9
330
1E
100
AcDbEntity
  8
0
100
AcDbLine
 10
30.283165
 20
135.5389999999999
 30
0.0
 11
30.283165
 21
136.5389999999999
 31
0.0
  0
LINE
  5
1CA
330
1E
100
AcDbEntity
  8
0
100
AcDbLine
 10
30.006265
 20
135.706
 30
0.0
 11
30.006265
 21
134.456
 31
0.0
  0
LINE
  5
1CB
330
1E
100
AcDbEntity
  8
0
100
AcDbLine
 10
30.006265
 20
135.706
 30
0.0
 11
30.006265
 21
136.7889999999999
 31
0.0
  0
LINE
  5
1CC
330
1E
100
AcDbEntity
  8
0
100
AcDbLine
 10
29.360165
 20
135.706
 30
0.0
 11
29.360165
 21
134.456
 31
0.0
  0
LINE
  5
1CD
330
1E
100
AcDbEntity
  8
0
100
AcDbLine
 10
29.360165
 20
135.706
 30
0.0
 11
29.360165
 21
136.956
 31
0.0
  0
LINE
  5
1CE
330
1E
100
AcDbEntity
  8
0
100
AcDbLine
 10
28.713965
 20
134.456
 30
0.0
 11
28.713965
 21
135.706
 31
0.0
  0
LINE
  5
1CF
330
1E
100
AcDbEntity
  8
0
100
AcDbLine
 10
28.713965
 20
134.456
 30
0.0
 11
28.713965
 21
133.206
 31
0.0
  0
LINE
  5
1D0
330
1E
100
AcDbEntity
  8
0
100
AcDbLine
 10
28.437065
 20
135.5389999999999
 30
0.0
 11
28.437065
 21
136.5389999999999
 31
0.0
  0
LINE
  5
1D1
330
1E
100
AcDbEntity
  8
0
100
AcDbLine
 10
28.713965
 20
135.706
 30
0.0
 11
28.713965
 21
134.456
 31
0.0
  0
LINE
  5
1D2
330
1E
100
AcDbEntity
  8
0
100
AcDbLine
 10
28.713965
 20
135.706
 30
0.0
 11
28.713965
 21
136.7889999999999
 31
0.0
  0
LINE
  5
1D3
330
1E
100
AcDbEntity
  8
0
100
AcDbLine
 10
28.437065
 20
132.233333333333
 30
0.0
 11
28.437065
 21
131.5389999999999
 31
0.0
  0
LINE
  5
1D4
330
1E
100
AcDbEntity
  8
0
100
AcDbLine
 10
28.437065
 20
131.5389999999999
 30
0.0
 11
28.437065
 21
130.872
 31
0.0
  0
LINE
  5
1D5
330
1E
100
AcDbEntity
  8
0
100
AcDbLine
 10
28.437065
 20
131.5389999999999
 30
0.0
 11
28.437065
 21
132.233333333333
 31
0.0
  0
LINE
  5
1D6
330
1E
100
AcDbEntity
  8
0
100
AcDbLine
 10
28.344765
 20
132.7889999999999
 30
0.0
 11
28.437065
 21
132.233333333333
 31
0.0
  0
LINE
  5
1D7
330
1E
100
AcDbEntity
  8
0
100
AcDbLine
 10
30.283165
 20
136.5389999999999
 30
0.0
 11
30.283165
 21
135.5389999999999
 31
0.0
  0
LINE
  5
1D8
330
1E
100
AcDbEntity
  8
0
100
AcDbLine
 10
30.283165
 20
136.5389999999999
 30
0.0
 11
30.283165
 21
137.372
 31
0.0
  0
LINE
  5
1D9
330
1E
100
AcDbEntity
  8
0
100
AcDbLine
 10
28.437065
 20
136.5389999999999
 30
0.0
 11
28.437065
 21
135.5389999999999
 31
0.0
  0
LINE
  5
1DA
330
1E
100
AcDbEntity
  8
0
100
AcDbLine
 10
28.437065
 20
136.5389999999999
 30
0.0
 11
28.437065
 21
137.372
 31
0.0
  0
LINE
  5
1DB
330
1E
100
AcDbEntity
  8
0
100
AcDbLine
 10
28.344765
 20
136.122
 30
0.0
 11
28.437065
 21
136.6776666666669
 31
0.0
  0
LINE
  5
1DC
330
1E
100
AcDbEntity
  8
0
100
AcDbLine
 10
28.252465
 20
134.456
 30
0.0
 11
28.344765
 21
136.122
 31
0.0
  0
LINE
  5
1DD
330
1E
100
AcDbEntity
  8
0
100
AcDbLine
 10
28.252465
 20
134.456
 30
0.0
 11
28.344765
 21
132.7889999999999
 31
0.0
  0
LINE
  5
1DE
330
1E
100
AcDbEntity
  8
0
100
AcDbLine
 10
28.437065
 20
137.706
 30
0.0
 11
28.437065
 21
138.039
 31
0.0
  0
LINE
  5
1DF
330
1E
100
AcDbEntity
  8
0
100
AcDbLine
 10
28.713965
 20
137.7889999999999
 30
0.0
 11
28.713965
 21
136.7889999999999
 31
0.0
  0
LINE
  5
1E0
330
1E
100
AcDbEntity
  8
0
100
AcDbLine
 10
28.713965
 20
137.7889999999999
 30
0.0
 11
28.713965
 21
138.5389999999999
 31
0.0
  0
LINE
  5
1E1
330
1E
100
AcDbEntity
  8
0
100
AcDbLine
 10
30.006265
 20
136.7889999999999
 30
0.0
 11
30.006265
 21
135.706
 31
0.0
  0
LINE
  5
1E2
330
1E
100
AcDbEntity
  8
0
100
AcDbLine
 10
30.006265
 20
136.7889999999999
 30
0.0
 11
30.006265
 21
137.7889999999999
 31
0.0
  0
LINE
  5
1E3
330
1E
100
AcDbEntity
  8
0
100
AcDbLine
 10
30.283165
 20
137.372
 30
0.0
 11
30.283165
 21
136.5389999999999
 31
0.0
  0
LINE
  5
1E4
330
1E
100
AcDbEntity
  8
0
100
AcDbLine
 10
30.283165
 20
137.372
 30
0.0
 11
30.283165
 21
138.039
 31
0.0
  0
LINE
  5
1E5
330
1E
100
AcDbEntity
  8
0
100
AcDbLine
 10
30.006265
 20
137.7889999999999
 30
0.0
 11
30.006265
 21
136.7889999999999
 31
0.0
  0
LINE
  5
1E6
330
1E
100
AcDbEntity
  8
0
100
AcDbLine
 10
30.006265
 20
137.7889999999999
 30
0.0
 11
30.006265
 21
138.5389999999999
 31
0.0
  0
LINE
  5
1E7
330
1E
100
AcDbEntity
  8
0
100
AcDbLine
 10
29.360165
 20
136.956
 30
0.0
 11
29.360165
 21
135.706
 31
0.0
  0
LINE
  5
1E8
330
1E
100
AcDbEntity
  8
0
100
AcDbLine
 10
29.360165
 20
136.956
 30
0.0
 11
29.360165
 21
137.956
 31
0.0
  0
LINE
  5
1E9
330
1E
100
AcDbEntity
  8
0
100
AcDbLine
 10
28.713965
 20
136.7889999999999
 30
0.0
 11
28.713965
 21
135.706
 31
0.0
  0
LINE
  5
1EA
330
1E
100
AcDbEntity
  8
0
100
AcDbLine
 10
28.713965
 20
136.7889999999999
 30
0.0
 11
28.713965
 21
137.7889999999999
 31
0.0
  0
LINE
  5
1EB
330
1E
100
AcDbEntity
  8
0
100
AcDbLine
 10
43.483165
 20
137.7889999999999
 30
0.0
 11
58.252365
 21
137.7889999999999
 31
0.0
  0
LINE
  5
1EC
330
1E
100
AcDbEntity
  8
0
100
AcDbLine
 10
28.437065
 20
137.372
 30
0.0
 11
28.437065
 21
136.6776666666669
 31
0.0
  0
LINE
  5
1ED
330
1E
100
AcDbEntity
  8
0
100
AcDbLine
 10
28.437065
 20
137.372
 30
0.0
 11
28.437065
 21
138.039
 31
0.0
  0
LINE
  5
1EE
330
1E
100
AcDbEntity
  8
0
100
AcDbLine
 10
28.437065
 20
137.372
 30
0.0
 11
28.437065
 21
136.5389999999999
 31
0.0
  0
LINE
  5
1EF
330
1E
100
AcDbEntity
  8
0
100
AcDbLine
 10
28.437065
 20
136.6776666666669
 30
0.0
 11
28.437065
 21
137.372
 31
0.0
  0
LINE
  5
1F0
330
1E
100
AcDbEntity
  8
0
100
AcDbLine
 10
58.252365
 20
137.7889999999999
 30
0.0
 11
73.02156499999999
 21
137.7889999999999
 31
0.0
  0
LINE
  5
1F1
330
1E
100
AcDbEntity
  8
0
100
AcDbLine
 10
28.437065
 20
138.456
 30
0.0
 11
28.437065
 21
138.039
 31
0.0
  0
LINE
  5
1F2
330
1E
100
AcDbEntity
  8
0
100
AcDbLine
 10
28.437065
 20
138.622
 30
0.0
 11
28.713965
 21
139.206
 31
0.0
  0
LINE
  5
1F3
330
1E
100
AcDbEntity
  8
0
100
AcDbLine
 10
28.437065
 20
138.206
 30
0.0
 11
28.437065
 21
138.039
 31
0.0
  0
LINE
  5
1F4
330
1E
100
AcDbEntity
  8
0
100
AcDbLine
 10
28.713965
 20
138.5389999999999
 30
0.0
 11
28.713965
 21
137.7889999999999
 31
0.0
  0
LINE
  5
1F5
330
1E
100
AcDbEntity
  8
0
100
AcDbLine
 10
28.713965
 20
138.5389999999999
 30
0.0
 11
28.713965
 21
139.0389999999999
 31
0.0
  0
LINE
  5
1F6
330
1E
100
AcDbEntity
  8
0
100
AcDbLine
 10
30.006265
 20
138.5389999999999
 30
0.0
 11
30.006265
 21
137.7889999999999
 31
0.0
  0
LINE
  5
1F7
330
1E
100
AcDbEntity
  8
0
100
AcDbLine
 10
30.006265
 20
138.5389999999999
 30
0.0
 11
30.006265
 21
139.0389999999999
 31
0.0
  0
LINE
  5
1F8
330
1E
100
AcDbEntity
  8
0
100
AcDbLine
 10
30.006265
 20
139.0389999999999
 30
0.0
 11
30.006265
 21
138.5389999999999
 31
0.0
  0
LINE
  5
1F9
330
1E
100
AcDbEntity
  8
0
100
AcDbLine
 10
30.006265
 20
139.0389999999999
 30
0.0
 11
30.006265
 21
139.206
 31
0.0
  0
LINE
  5
1FA
330
1E
100
AcDbEntity
  8
0
100
AcDbLine
 10
29.360165
 20
138.7889999999999
 30
0.0
 11
29.360165
 21
137.956
 31
0.0
  0
LINE
  5
1FB
330
1E
100
AcDbEntity
  8
0
100
AcDbLine
 10
29.360165
 20
138.7889999999999
 30
0.0
 11
29.360165
 21
139.2889999999999
 31
0.0
  0
LINE
  5
1FC
330
1E
100
AcDbEntity
  8
0
100
AcDbLine
 10
28.713965
 20
139.0389999999999
 30
0.0
 11
28.713965
 21
138.5389999999999
 31
0.0
  0
LINE
  5
1FD
330
1E
100
AcDbEntity
  8
0
100
AcDbLine
 10
28.713965
 20
139.0389999999999
 30
0.0
 11
28.713965
 21
139.206
 31
0.0
  0
LINE
  5
1FE
330
1E
100
AcDbEntity
  8
0
100
AcDbLine
 10
29.360165
 20
137.956
 30
0.0
 11
29.360165
 21
136.956
 31
0.0
  0
LINE
  5
1FF
330
1E
100
AcDbEntity
  8
0
100
AcDbLine
 10
29.360165
 20
137.956
 30
0.0
 11
29.360165
 21
138.7889999999999
 31
0.0
  0
LINE
  5
200
330
1E
100
AcDbEntity
  8
0
100
AcDbLine
 10
30.283165
 20
138.039
 30
0.0
 11
30.283165
 21
137.372
 31
0.0
  0
LINE
  5
201
330
1E
100
AcDbEntity
  8
0
100
AcDbLine
 10
30.283165
 20
138.039
 30
0.0
 11
30.283165
 21
138.456
 31
0.0
  0
LINE
  5
202
330
1E
100
AcDbEntity
  8
0
100
AcDbLine
 10
30.283165
 20
138.456
 30
0.0
 11
30.283165
 21
138.039
 31
0.0
  0
LINE
  5
203
330
1E
100
AcDbEntity
  8
0
100
AcDbLine
 10
30.283165
 20
138.456
 30
0.0
 11
30.283165
 21
138.622
 31
0.0
  0
LINE
  5
204
330
1E
100
AcDbEntity
  8
0
100
AcDbLine
 10
35.17556499999999
 20
138.206
 30
0.0
 11
43.483165
 21
137.7889999999999
 31
0.0
  0
LINE
  5
205
330
1E
100
AcDbEntity
  8
0
100
AcDbLine
 10
30.283165
 20
138.622
 30
0.0
 11
35.17556499999999
 21
138.206
 31
0.0
  0
LINE
  5
206
330
1E
100
AcDbEntity
  8
0
100
AcDbLine
 10
30.283165
 20
138.622
 30
0.0
 11
30.283165
 21
138.456
 31
0.0
  0
LINE
  5
207
330
1E
100
AcDbEntity
  8
0
100
AcDbLine
 10
30.006265
 20
139.206
 30
0.0
 11
30.283165
 21
138.622
 31
0.0
  0
LINE
  5
208
330
1E
100
AcDbEntity
  8
0
100
AcDbLine
 10
30.006265
 20
139.206
 30
0.0
 11
30.006265
 21
139.0389999999999
 31
0.0
  0
LINE
  5
209
330
1E
100
AcDbEntity
  8
0
100
AcDbLine
 10
29.360165
 20
139.2889999999999
 30
0.0
 11
29.360165
 21
138.7889999999999
 31
0.0
  0
LINE
  5
20A
330
1E
100
AcDbEntity
  8
0
100
AcDbLine
 10
29.360165
 20
139.2889999999999
 30
0.0
 11
29.360165
 21
139.456
 31
0.0
  0
LINE
  5
20B
330
1E
100
AcDbEntity
  8
0
100
AcDbLine
 10
29.360165
 20
139.456
 30
0.0
 11
30.006265
 21
139.206
 31
0.0
  0
LINE
  5
20C
330
1E
100
AcDbEntity
  8
0
100
AcDbLine
 10
29.360165
 20
139.456
 30
0.0
 11
29.360165
 21
139.2889999999999
 31
0.0
  0
LINE
  5
20D
330
1E
100
AcDbEntity
  8
0
100
AcDbLine
 10
28.713965
 20
139.206
 30
0.0
 11
29.360165
 21
139.456
 31
0.0
  0
LINE
  5
20E
330
1E
100
AcDbEntity
  8
0
100
AcDbLine
 10
28.713965
 20
139.206
 30
0.0
 11
28.713965
 21
139.0389999999999
 31
0.0
  0
LINE
  5
20F
330
1E
100
AcDbEntity
  8
0
100
AcDbLine
 10
28.437065
 20
138.039
 30
0.0
 11
28.437065
 21
138.206
 31
0.0
  0
LINE
  5
210
330
1E
100
AcDbEntity
  8
0
100
AcDbLine
 10
28.437065
 20
138.039
 30
0.0
 11
28.437065
 21
137.706
 31
0.0
  0
LINE
  5
211
330
1E
100
AcDbEntity
  8
0
100
AcDbLine
 10
28.437065
 20
138.039
 30
0.0
 11
28.437065
 21
137.372
 31
0.0
  0
LINE
  5
212
330
1E
100
AcDbEntity
  8
0
100
AcDbLine
 10
28.437065
 20
138.039
 30
0.0
 11
28.437065
 21
138.622
 31
0.0
  0
LINE
  5
213
330
1E
100
AcDbEntity
  8
0
100
AcDbLine
 10
73.02156499999999
 20
137.7889999999999
 30
0.0
 11
81.32926500000001
 21
138.206
 31
0.0
  0
LINE
  5
214
330
1E
100
AcDbEntity
  8
0
100
AcDbLine
 10
81.32926500000001
 20
138.206
 30
0.0
 11
86.221665
 21
138.622
 31
0.0
  0
LINE
  5
215
330
1E
100
AcDbEntity
  8
0
100
AcDbLine
 10
73.02156499999999
 20
131.122
 30
0.0
 11
81.32926500000001
 21
130.706
 31
0.0
  0
LINE
  5
216
330
1E
100
AcDbEntity
  8
0
100
AcDbLine
 10
86.221665
 20
130.872
 30
0.0
 11
86.221665
 21
131.5389999999999
 31
0.0
  0
LINE
  5
217
330
1E
100
AcDbEntity
  8
0
100
AcDbLine
 10
86.221665
 20
130.872
 30
0.0
 11
86.221665
 21
130.456
 31
0.0
  0
LINE
  5
218
330
1E
100
AcDbEntity
  8
0
100
AcDbLine
 10
86.221665
 20
130.456
 30
0.0
 11
86.221665
 21
130.872
 31
0.0
  0
LINE
  5
219
330
1E
100
AcDbEntity
  8
0
100
AcDbLine
 10
86.221665
 20
130.456
 30
0.0
 11
86.221665
 21
130.2889999999999
 31
0.0
  0
LINE
  5
21A
330
1E
100
AcDbEntity
  8
0
100
AcDbLine
 10
86.221665
 20
131.5389999999999
 30
0.0
 11
86.221665
 21
132.372
 31
0.0
  0
LINE
  5
21B
330
1E
100
AcDbEntity
  8
0
100
AcDbLine
 10
86.221665
 20
131.5389999999999
 30
0.0
 11
86.221665
 21
130.872
 31
0.0
  0
LINE
  5
21C
330
1E
100
AcDbEntity
  8
0
100
AcDbLine
 10
86.221665
 20
132.372
 30
0.0
 11
86.221665
 21
133.372
 31
0.0
  0
LINE
  5
21D
330
1E
100
AcDbEntity
  8
0
100
AcDbLine
 10
86.221665
 20
132.372
 30
0.0
 11
86.221665
 21
131.5389999999999
 31
0.0
  0
LINE
  5
21E
330
1E
100
AcDbEntity
  8
0
100
AcDbLine
 10
86.221665
 20
136.5389999999999
 30
0.0
 11
86.221665
 21
137.372
 31
0.0
  0
LINE
  5
21F
330
1E
100
AcDbEntity
  8
0
100
AcDbLine
 10
86.221665
 20
136.5389999999999
 30
0.0
 11
86.221665
 21
135.5389999999999
 31
0.0
  0
LINE
  5
220
330
1E
100
AcDbEntity
  8
0
100
AcDbLine
 10
86.221665
 20
135.5389999999999
 30
0.0
 11
86.221665
 21
136.5389999999999
 31
0.0
  0
LINE
  5
221
330
1E
100
AcDbEntity
  8
0
100
AcDbLine
 10
86.221665
 20
135.5389999999999
 30
0.0
 11
86.221665
 21
134.456
 31
0.0
  0
LINE
  5
222
330
1E
100
AcDbEntity
  8
0
100
AcDbLine
 10
86.221665
 20
137.372
 30
0.0
 11
86.221665
 21
138.039
 31
0.0
  0
LINE
  5
223
330
1E
100
AcDbEntity
  8
0
100
AcDbLine
 10
86.221665
 20
137.372
 30
0.0
 11
86.221665
 21
136.5389999999999
 31
0.0
  0
LINE
  5
224
330
1E
100
AcDbEntity
  8
0
100
AcDbLine
 10
86.221665
 20
138.039
 30
0.0
 11
86.221665
 21
138.456
 31
0.0
  0
LINE
  5
225
330
1E
100
AcDbEntity
  8
0
100
AcDbLine
 10
86.221665
 20
138.039
 30
0.0
 11
86.221665
 21
137.372
 31
0.0
  0
LINE
  5
226
330
1E
100
AcDbEntity
  8
0
100
AcDbLine
 10
86.221665
 20
138.456
 30
0.0
 11
86.221665
 21
138.622
 31
0.0
  0
LINE
  5
227
330
1E
100
AcDbEntity
  8
0
100
AcDbLine
 10
86.221665
 20
138.456
 30
0.0
 11
86.221665
 21
138.039
 31
0.0
  0
LINE
  5
228
330
1E
100
AcDbEntity
  8
0
100
AcDbLine
 10
86.221665
 20
134.456
 30
0.0
 11
86.221665
 21
133.372
 31
0.0
  0
LINE
  5
229
330
1E
100
AcDbEntity
  8
0
100
AcDbLine
 10
86.221665
 20
134.456
 30
0.0
 11
86.221665
 21
135.5389999999999
 31
0.0
  0
LINE
  5
22A
330
1E
100
AcDbEntity
  8
0
100
AcDbLine
 10
86.221665
 20
133.372
 30
0.0
 11
86.221665
 21
134.456
 31
0.0
  0
LINE
  5
22B
330
1E
100
AcDbEntity
  8
0
100
AcDbLine
 10
86.221665
 20
133.372
 30
0.0
 11
86.221665
 21
132.372
 31
0.0
  0
LINE
  5
22C
330
1E
100
AcDbEntity
  8
0
100
AcDbLine
 10
86.49866499999999
 20
130.372
 30
0.0
 11
86.49866499999999
 21
131.122
 31
0.0
  0
LINE
  5
22D
330
1E
100
AcDbEntity
  8
0
100
AcDbLine
 10
86.49866499999999
 20
130.372
 30
0.0
 11
86.49866499999999
 21
129.872
 31
0.0
  0
LINE
  5
22E
330
1E
100
AcDbEntity
  8
0
100
AcDbLine
 10
86.49866499999999
 20
131.122
 30
0.0
 11
86.49866499999999
 21
132.122
 31
0.0
  0
LINE
  5
22F
330
1E
100
AcDbEntity
  8
0
100
AcDbLine
 10
86.49866499999999
 20
131.122
 30
0.0
 11
86.49866499999999
 21
130.372
 31
0.0
  0
LINE
  5
230
330
1E
100
AcDbEntity
  8
0
100
AcDbLine
 10
86.49866499999999
 20
132.122
 30
0.0
 11
86.49866499999999
 21
133.206
 31
0.0
  0
LINE
  5
231
330
1E
100
AcDbEntity
  8
0
100
AcDbLine
 10
86.49866499999999
 20
132.122
 30
0.0
 11
86.49866499999999
 21
131.122
 31
0.0
  0
LINE
  5
232
330
1E
100
AcDbEntity
  8
0
100
AcDbLine
 10
86.49866499999999
 20
136.7889999999999
 30
0.0
 11
86.49866499999999
 21
137.7889999999999
 31
0.0
  0
LINE
  5
233
330
1E
100
AcDbEntity
  8
0
100
AcDbLine
 10
86.49866499999999
 20
136.7889999999999
 30
0.0
 11
86.49866499999999
 21
135.706
 31
0.0
  0
LINE
  5
234
330
1E
100
AcDbEntity
  8
0
100
AcDbLine
 10
86.49866499999999
 20
135.706
 30
0.0
 11
86.49866499999999
 21
136.7889999999999
 31
0.0
  0
LINE
  5
235
330
1E
100
AcDbEntity
  8
0
100
AcDbLine
 10
86.49866499999999
 20
135.706
 30
0.0
 11
86.49866499999999
 21
134.456
 31
0.0
  0
LINE
  5
236
330
1E
100
AcDbEntity
  8
0
100
AcDbLine
 10
86.49866499999999
 20
137.7889999999999
 30
0.0
 11
86.49866499999999
 21
138.5389999999999
 31
0.0
  0
LINE
  5
237
330
1E
100
AcDbEntity
  8
0
100
AcDbLine
 10
86.49866499999999
 20
137.7889999999999
 30
0.0
 11
86.49866499999999
 21
136.7889999999999
 31
0.0
  0
LINE
  5
238
330
1E
100
AcDbEntity
  8
0
100
AcDbLine
 10
86.49866499999999
 20
138.5389999999999
 30
0.0
 11
86.49866499999999
 21
139.0389999999999
 31
0.0
  0
LINE
  5
239
330
1E
100
AcDbEntity
  8
0
100
AcDbLine
 10
86.49866499999999
 20
138.5389999999999
 30
0.0
 11
86.49866499999999
 21
137.7889999999999
 31
0.0
  0
LINE
  5
23A
330
1E
100
AcDbEntity
  8
0
100
AcDbLine
 10
86.49866499999999
 20
139.0389999999999
 30
0.0
 11
86.49866499999999
 21
139.206
 31
0.0
  0
LINE
  5
23B
330
1E
100
AcDbEntity
  8
0
100
AcDbLine
 10
86.49866499999999
 20
139.0389999999999
 30
0.0
 11
86.49866499999999
 21
138.5389999999999
 31
0.0
  0
LINE
  5
23C
330
1E
100
AcDbEntity
  8
0
100
AcDbLine
 10
86.49866499999999
 20
134.456
 30
0.0
 11
86.49866499999999
 21
133.206
 31
0.0
  0
LINE
  5
23D
330
1E
100
AcDbEntity
  8
0
100
AcDbLine
 10
86.49866499999999
 20
134.456
 30
0.0
 11
86.49866499999999
 21
135.706
 31
0.0
  0
LINE
  5
23E
330
1E
100
AcDbEntity
  8
0
100
AcDbLine
 10
86.49866499999999
 20
133.206
 30
0.0
 11
86.49866499999999
 21
134.456
 31
0.0
  0
LINE
  5
23F
330
1E
100
AcDbEntity
  8
0
100
AcDbLine
 10
86.49866499999999
 20
133.206
 30
0.0
 11
86.49866499999999
 21
132.122
 31
0.0
  0
LINE
  5
240
330
1E
100
AcDbEntity
  8
0
100
AcDbLine
 10
86.221665
 20
138.622
 30
0.0
 11
86.49866499999999
 21
139.206
 31
0.0
  0
LINE
  5
241
330
1E
100
AcDbEntity
  8
0
100
AcDbLine
 10
86.221665
 20
138.622
 30
0.0
 11
86.221665
 21
138.456
 31
0.0
  0
LINE
  5
242
330
1E
100
AcDbEntity
  8
0
100
AcDbLine
 10
86.49866499999999
 20
139.206
 30
0.0
 11
87.144665
 21
139.456
 31
0.0
  0
LINE
  5
243
330
1E
100
AcDbEntity
  8
0
100
AcDbLine
 10
86.49866499999999
 20
139.206
 30
0.0
 11
86.49866499999999
 21
139.0389999999999
 31
0.0
  0
LINE
  5
244
330
1E
100
AcDbEntity
  8
0
100
AcDbLine
 10
81.32926500000001
 20
130.706
 30
0.0
 11
86.221665
 21
130.2889999999999
 31
0.0
  0
LINE
  5
245
330
1E
100
AcDbEntity
  8
0
100
AcDbLine
 10
86.221665
 20
130.2889999999999
 30
0.0
 11
86.49866499999999
 21
129.706
 31
0.0
  0
LINE
  5
246
330
1E
100
AcDbEntity
  8
0
100
AcDbLine
 10
86.221665
 20
130.2889999999999
 30
0.0
 11
86.221665
 21
130.456
 31
0.0
  0
LINE
  5
247
330
1E
100
AcDbEntity
  8
0
100
AcDbLine
 10
87.144665
 20
130.122
 30
0.0
 11
87.144665
 21
130.956
 31
0.0
  0
LINE
  5
248
330
1E
100
AcDbEntity
  8
0
100
AcDbLine
 10
87.144665
 20
130.122
 30
0.0
 11
87.144665
 21
129.622
 31
0.0
  0
LINE
  5
249
330
1E
100
AcDbEntity
  8
0
100
AcDbLine
 10
87.144665
 20
129.622
 30
0.0
 11
87.144665
 21
130.122
 31
0.0
  0
LINE
  5
24A
330
1E
100
AcDbEntity
  8
0
100
AcDbLine
 10
87.144665
 20
129.622
 30
0.0
 11
87.144665
 21
129.456
 31
0.0
  0
LINE
  5
24B
330
1E
100
AcDbEntity
  8
0
100
AcDbLine
 10
87.79096499999999
 20
130.372
 30
0.0
 11
87.79096499999999
 21
131.122
 31
0.0
  0
LINE
  5
24C
330
1E
100
AcDbEntity
  8
0
100
AcDbLine
 10
87.79096499999999
 20
130.372
 30
0.0
 11
87.79096499999999
 21
129.872
 31
0.0
  0
LINE
  5
24D
330
1E
100
AcDbEntity
  8
0
100
AcDbLine
 10
87.79096499999999
 20
129.872
 30
0.0
 11
87.79096499999999
 21
130.372
 31
0.0
  0
LINE
  5
24E
330
1E
100
AcDbEntity
  8
0
100
AcDbLine
 10
87.79096499999999
 20
129.872
 30
0.0
 11
87.79096499999999
 21
129.706
 31
0.0
  0
LINE
  5
24F
330
1E
100
AcDbEntity
  8
0
100
AcDbLine
 10
87.144665
 20
130.956
 30
0.0
 11
87.144665
 21
131.956
 31
0.0
  0
LINE
  5
250
330
1E
100
AcDbEntity
  8
0
100
AcDbLine
 10
87.144665
 20
130.956
 30
0.0
 11
87.144665
 21
130.122
 31
0.0
  0
LINE
  5
251
330
1E
100
AcDbEntity
  8
0
100
AcDbLine
 10
87.144665
 20
131.956
 30
0.0
 11
87.144665
 21
133.206
 31
0.0
  0
LINE
  5
252
330
1E
100
AcDbEntity
  8
0
100
AcDbLine
 10
87.144665
 20
131.956
 30
0.0
 11
87.144665
 21
130.956
 31
0.0
  0
LINE
  5
253
330
1E
100
AcDbEntity
  8
0
100
AcDbLine
 10
87.79096499999999
 20
131.122
 30
0.0
 11
87.79096499999999
 21
132.122
 31
0.0
  0
LINE
  5
254
330
1E
100
AcDbEntity
  8
0
100
AcDbLine
 10
87.79096499999999
 20
131.122
 30
0.0
 11
87.79096499999999
 21
130.372
 31
0.0
  0
LINE
  5
255
330
1E
100
AcDbEntity
  8
0
100
AcDbLine
 10
87.144665
 20
136.956
 30
0.0
 11
87.144665
 21
137.956
 31
0.0
  0
LINE
  5
256
330
1E
100
AcDbEntity
  8
0
100
AcDbLine
 10
87.144665
 20
136.956
 30
0.0
 11
87.144665
 21
135.706
 31
0.0
  0
LINE
  5
257
330
1E
100
AcDbEntity
  8
0
100
AcDbLine
 10
87.144665
 20
135.706
 30
0.0
 11
87.144665
 21
136.956
 31
0.0
  0
LINE
  5
258
330
1E
100
AcDbEntity
  8
0
100
AcDbLine
 10
87.144665
 20
135.706
 30
0.0
 11
87.144665
 21
134.456
 31
0.0
  0
LINE
  5
259
330
1E
100
AcDbEntity
  8
0
100
AcDbLine
 10
87.144665
 20
137.956
 30
0.0
 11
87.144665
 21
138.7889999999999
 31
0.0
  0
LINE
  5
25A
330
1E
100
AcDbEntity
  8
0
100
AcDbLine
 10
87.144665
 20
137.956
 30
0.0
 11
87.144665
 21
136.956
 31
0.0
  0
LINE
  5
25B
330
1E
100
AcDbEntity
  8
0
100
AcDbLine
 10
87.144665
 20
138.7889999999999
 30
0.0
 11
87.144665
 21
139.2889999999999
 31
0.0
  0
LINE
  5
25C
330
1E
100
AcDbEntity
  8
0
100
AcDbLine
 10
87.144665
 20
138.7889999999999
 30
0.0
 11
87.144665
 21
137.956
 31
0.0
  0
LINE
  5
25D
330
1E
100
AcDbEntity
  8
0
100
AcDbLine
 10
87.144665
 20
134.456
 30
0.0
 11
87.144665
 21
133.206
 31
0.0
  0
LINE
  5
25E
330
1E
100
AcDbEntity
  8
0
100
AcDbLine
 10
87.144665
 20
134.456
 30
0.0
 11
87.144665
 21
135.706
 31
0.0
  0
LINE
  5
25F
330
1E
100
AcDbEntity
  8
0
100
AcDbLine
 10
87.79096499999999
 20
136.7889999999999
 30
0.0
 11
87.79096499999999
 21
137.7889999999999
 31
0.0
  0
LINE
  5
260
330
1E
100
AcDbEntity
  8
0
100
AcDbLine
 10
87.79096499999999
 20
136.7889999999999
 30
0.0
 11
87.79096499999999
 21
135.706
 31
0.0
  0
LINE
  5
261
330
1E
100
AcDbEntity
  8
0
100
AcDbLine
 10
87.79096499999999
 20
135.706
 30
0.0
 11
87.79096499999999
 21
136.7889999999999
 31
0.0
  0
LINE
  5
262
330
1E
100
AcDbEntity
  8
0
100
AcDbLine
 10
87.79096499999999
 20
135.706
 30
0.0
 11
87.79096499999999
 21
134.456
 31
0.0
  0
LINE
  5
263
330
1E
100
AcDbEntity
  8
0
100
AcDbLine
 10
87.79096499999999
 20
137.7889999999999
 30
0.0
 11
87.79096499999999
 21
138.5389999999999
 31
0.0
  0
LINE
  5
264
330
1E
100
AcDbEntity
  8
0
100
AcDbLine
 10
87.79096499999999
 20
137.7889999999999
 30
0.0
 11
87.79096499999999
 21
136.7889999999999
 31
0.0
  0
LINE
  5
265
330
1E
100
AcDbEntity
  8
0
100
AcDbLine
 10
87.79096499999999
 20
138.5389999999999
 30
0.0
 11
87.79096499999999
 21
139.0389999999999
 31
0.0
  0
LINE
  5
266
330
1E
100
AcDbEntity
  8
0
100
AcDbLine
 10
87.79096499999999
 20
138.5389999999999
 30
0.0
 11
87.79096499999999
 21
137.7889999999999
 31
0.0
  0
LINE
  5
267
330
1E
100
AcDbEntity
  8
0
100
AcDbLine
 10
87.79096499999999
 20
139.0389999999999
 30
0.0
 11
87.79096499999999
 21
139.206
 31
0.0
  0
LINE
  5
268
330
1E
100
AcDbEntity
  8
0
100
AcDbLine
 10
87.79096499999999
 20
139.0389999999999
 30
0.0
 11
87.79096499999999
 21
138.5389999999999
 31
0.0
  0
LINE
  5
269
330
1E
100
AcDbEntity
  8
0
100
AcDbLine
 10
87.79096499999999
 20
134.456
 30
0.0
 11
87.79096499999999
 21
133.206
 31
0.0
  0
LINE
  5
26A
330
1E
100
AcDbEntity
  8
0
100
AcDbLine
 10
87.79096499999999
 20
134.456
 30
0.0
 11
87.79096499999999
 21
135.706
 31
0.0
  0
LINE
  5
26B
330
1E
100
AcDbEntity
  8
0
100
AcDbLine
 10
87.144665
 20
133.206
 30
0.0
 11
87.144665
 21
134.456
 31
0.0
  0
LINE
  5
26C
330
1E
100
AcDbEntity
  8
0
100
AcDbLine
 10
87.144665
 20
133.206
 30
0.0
 11
87.144665
 21
131.956
 31
0.0
  0
LINE
  5
26D
330
1E
100
AcDbEntity
  8
0
100
AcDbLine
 10
87.79096499999999
 20
132.122
 30
0.0
 11
87.79096499999999
 21
133.206
 31
0.0
  0
LINE
  5
26E
330
1E
100
AcDbEntity
  8
0
100
AcDbLine
 10
87.79096499999999
 20
132.122
 30
0.0
 11
87.79096499999999
 21
131.122
 31
0.0
  0
LINE
  5
26F
330
1E
100
AcDbEntity
  8
0
100
AcDbLine
 10
87.79096499999999
 20
133.206
 30
0.0
 11
87.79096499999999
 21
134.456
 31
0.0
  0
LINE
  5
270
330
1E
100
AcDbEntity
  8
0
100
AcDbLine
 10
87.79096499999999
 20
133.206
 30
0.0
 11
87.79096499999999
 21
132.122
 31
0.0
  0
LINE
  5
271
330
1E
100
AcDbEntity
  8
0
100
AcDbLine
 10
87.144665
 20
139.2889999999999
 30
0.0
 11
87.144665
 21
139.456
 31
0.0
  0
LINE
  5
272
330
1E
100
AcDbEntity
  8
0
100
AcDbLine
 10
87.144665
 20
139.2889999999999
 30
0.0
 11
87.144665
 21
138.7889999999999
 31
0.0
  0
LINE
  5
273
330
1E
100
AcDbEntity
  8
0
100
AcDbLine
 10
87.144665
 20
139.456
 30
0.0
 11
87.79096499999999
 21
139.206
 31
0.0
  0
LINE
  5
274
330
1E
100
AcDbEntity
  8
0
100
AcDbLine
 10
87.144665
 20
139.456
 30
0.0
 11
87.144665
 21
139.2889999999999
 31
0.0
  0
LINE
  5
275
330
1E
100
AcDbEntity
  8
0
100
AcDbLine
 10
87.79096499999999
 20
139.206
 30
0.0
 11
88.06786499999999
 21
138.622
 31
0.0
  0
LINE
  5
276
330
1E
100
AcDbEntity
  8
0
100
AcDbLine
 10
87.79096499999999
 20
139.206
 30
0.0
 11
87.79096499999999
 21
139.0389999999999
 31
0.0
  0
LINE
  5
277
330
1E
100
AcDbEntity
  8
0
100
AcDbLine
 10
86.49866499999999
 20
129.706
 30
0.0
 11
87.144665
 21
129.456
 31
0.0
  0
LINE
  5
278
330
1E
100
AcDbEntity
  8
0
100
AcDbLine
 10
86.49866499999999
 20
129.706
 30
0.0
 11
86.49866499999999
 21
129.872
 31
0.0
  0
LINE
  5
279
330
1E
100
AcDbEntity
  8
0
100
AcDbLine
 10
87.144665
 20
129.456
 30
0.0
 11
87.79096499999999
 21
129.706
 31
0.0
  0
LINE
  5
27A
330
1E
100
AcDbEntity
  8
0
100
AcDbLine
 10
87.144665
 20
129.456
 30
0.0
 11
87.144665
 21
129.622
 31
0.0
  0
LINE
  5
27B
330
1E
100
AcDbEntity
  8
0
100
AcDbLine
 10
88.06786499999999
 20
137.956
 30
0.0
 11
90.67396499999999
 21
137.956
 31
0.0
  0
LINE
  5
27C
330
1E
100
AcDbEntity
  8
0
100
AcDbLine
 10
88.06786499999999
 20
130.956
 30
0.0
 11
90.67396499999999
 21
130.956
 31
0.0
  0
LINE
  5
27D
330
1E
100
AcDbEntity
  8
0
100
AcDbLine
 10
88.06786499999999
 20
130.872
 30
0.0
 11
88.06786499999999
 21
130.456
 31
0.0
  0
LINE
  5
27E
330
1E
100
AcDbEntity
  8
0
100
AcDbLine
 10
88.06786499999999
 20
130.456
 30
0.0
 11
88.06786499999999
 21
130.872
 31
0.0
  0
LINE
  5
27F
330
1E
100
AcDbEntity
  8
0
100
AcDbLine
 10
87.79096499999999
 20
129.706
 30
0.0
 11
88.06786499999999
 21
130.2889999999999
 31
0.0
  0
LINE
  5
280
330
1E
100
AcDbEntity
  8
0
100
AcDbLine
 10
87.79096499999999
 20
129.706
 30
0.0
 11
87.79096499999999
 21
129.872
 31
0.0
  0
LINE
  5
281
330
1E
100
AcDbEntity
  8
0
100
AcDbLine
 10
90.67396499999999
 20
116.857
 30
0.0
 11
90.67396499999999
 21
137.930639901174
 31
0.0
  0
LINE
  5
282
330
1E
100
AcDbEntity
  8
0
100
AcDbLine
 10
90.67396499999999
 20
137.930639901174
 30
0.0
 11
90.67396499999999
 21
141.25
 31
0.0
  0
LINE
  5
283
330
1E
100
AcDbEntity
  8
0
100
AcDbLine
 10
90.67396499999999
 20
116.857
 30
0.0
 11
90.67396499999999
 21
106.75
 31
0.0
  0
LINE
  5
284
330
1E
100
AcDbEntity
  8
0
100
AcDbLine
 10
95.973965
 20
141.25
 30
0.0
 11
99.77396500000001
 21
141.25
 31
0.0
  0
LINE
  5
285
330
1E
100
AcDbEntity
  8
0
100
AcDbLine
 10
99.77396500000001
 20
141.25
 30
0.0
 11
104.073965
 21
141.25
 31
0.0
  0
LINE
  5
286
330
1E
100
AcDbEntity
  8
0
100
AcDbLine
 10
104.073965
 20
141.25
 30
0.0
 11
108.6739649999999
 21
141.25
 31
0.0
  0
LINE
  5
287
330
1E
100
AcDbEntity
  8
0
100
AcDbLine
 10
93.07396500000001
 20
141.25
 30
0.0
 11
95.973965
 21
141.25
 31
0.0
  0
LINE
  5
288
330
1E
100
AcDbEntity
  8
0
100
AcDbLine
 10
91.37396499999999
 20
141.25
 30
0.0
 11
93.07396500000001
 21
141.25
 31
0.0
  0
LINE
  5
289
330
1E
100
AcDbEntity
  8
0
100
AcDbLine
 10
117.5739649999999
 20
141.25
 30
0.0
 11
121.3739649999999
 21
141.25
 31
0.0
  0
LINE
  5
28A
330
1E
100
AcDbEntity
  8
0
100
AcDbLine
 10
113.2739649999999
 20
141.25
 30
0.0
 11
117.5739649999999
 21
141.25
 31
0.0
  0
LINE
  5
28B
330
1E
100
AcDbEntity
  8
0
100
AcDbLine
 10
108.6739649999999
 20
141.25
 30
0.0
 11
113.2739649999999
 21
141.25
 31
0.0
  0
LINE
  5
28C
330
1E
100
AcDbEntity
  8
0
100
AcDbLine
 10
121.3739649999999
 20
141.25
 30
0.0
 11
124.2739649999999
 21
141.25
 31
0.0
  0
LINE
  5
28D
330
1E
100
AcDbEntity
  8
0
100
AcDbLine
 10
90.67396499999999
 20
137.930639901174
 30
0.0
 11
90.67396499999999
 21
116.857
 31
0.0
  0
LINE
  5
28E
330
1E
100
AcDbEntity
  8
0
100
AcDbLine
 10
91.17396499999999
 20
141.7499999999999
 30
0.0
 11
91.773965
 21
141.7499999999999
 31
0.0
  0
LINE
  5
28F
330
1E
100
AcDbEntity
  8
0
100
AcDbLine
 10
96.27396500000001
 20
141.7499999999999
 30
0.0
 11
99.973965
 21
141.7499999999999
 31
0.0
  0
LINE
  5
290
330
1E
100
AcDbEntity
  8
0
100
AcDbLine
 10
99.973965
 20
141.7499999999999
 30
0.0
 11
104.173965
 21
141.7499999999999
 31
0.0
  0
LINE
  5
291
330
1E
100
AcDbEntity
  8
0
100
AcDbLine
 10
104.173965
 20
141.7499999999999
 30
0.0
 11
108.6739649999999
 21
141.7499999999999
 31
0.0
  0
LINE
  5
292
330
1E
100
AcDbEntity
  8
0
100
AcDbLine
 10
93.473965
 20
141.7499999999999
 30
0.0
 11
96.27396500000001
 21
141.7499999999999
 31
0.0
  0
LINE
  5
293
330
1E
100
AcDbEntity
  8
0
100
AcDbLine
 10
91.773965
 20
141.7499999999999
 30
0.0
 11
93.473965
 21
141.7499999999999
 31
0.0
  0
LINE
  5
294
330
1E
100
AcDbEntity
  8
0
100
AcDbLine
 10
117.3739649999999
 20
141.7499999999999
 30
0.0
 11
121.0739649999999
 21
141.7499999999999
 31
0.0
  0
LINE
  5
295
330
1E
100
AcDbEntity
  8
0
100
AcDbLine
 10
113.1739649999999
 20
141.7499999999999
 30
0.0
 11
117.3739649999999
 21
141.7499999999999
 31
0.0
  0
LINE
  5
296
330
1E
100
AcDbEntity
  8
0
100
AcDbLine
 10
108.6739649999999
 20
141.7499999999999
 30
0.0
 11
113.1739649999999
 21
141.7499999999999
 31
0.0
  0
LINE
  5
297
330
1E
100
AcDbEntity
  8
0
100
AcDbLine
 10
121.0739649999999
 20
141.7499999999999
 30
0.0
 11
123.8739649999999
 21
141.7499999999999
 31
0.0
  0
LINE
  5
298
330
1E
100
AcDbEntity
  8
0
100
AcDbLine
 10
123.8739649999999
 20
141.7499999999999
 30
0.0
 11
125.5739649999999
 21
141.7499999999999
 31
0.0
  0
LINE
  5
299
330
1E
100
AcDbEntity
  8
0
100
AcDbLine
 10
97.77396500000001
 20
143.75
 30
0.0
 11
100.9739649999999
 21
143.75
 31
0.0
  0
LINE
  5
29A
330
1E
100
AcDbEntity
  8
0
100
AcDbLine
 10
100.9739649999999
 20
143.75
 30
0.0
 11
104.6739649999999
 21
143.75
 31
0.0
  0
LINE
  5
29B
330
1E
100
AcDbEntity
  8
0
100
AcDbLine
 10
104.6739649999999
 20
143.75
 30
0.0
 11
108.6739649999999
 21
143.75
 31
0.0
  0
LINE
  5
29C
330
1E
100
AcDbEntity
  8
0
100
AcDbLine
 10
95.273965
 20
143.75
 30
0.0
 11
97.77396500000001
 21
143.75
 31
0.0
  0
LINE
  5
29D
330
1E
100
AcDbEntity
  8
0
100
AcDbLine
 10
93.77396500000001
 20
143.75
 30
0.0
 11
95.273965
 21
143.75
 31
0.0
  0
LINE
  5
29E
330
1E
100
AcDbEntity
  8
0
100
AcDbLine
 10
93.17396499999999
 20
143.75
 30
0.0
 11
93.77396500000001
 21
143.75
 31
0.0
  0
LINE
  5
29F
330
1E
100
AcDbEntity
  8
0
100
AcDbLine
 10
116.3739649999999
 20
143.75
 30
0.0
 11
119.5739649999999
 21
143.75
 31
0.0
  0
LINE
  5
2A0
330
1E
100
AcDbEntity
  8
0
100
AcDbLine
 10
112.6739649999999
 20
143.75
 30
0.0
 11
116.3739649999999
 21
143.75
 31
0.0
  0
LINE
  5
2A1
330
1E
100
AcDbEntity
  8
0
100
AcDbLine
 10
108.6739649999999
 20
143.75
 30
0.0
 11
112.6739649999999
 21
143.75
 31
0.0
  0
LINE
  5
2A2
330
1E
100
AcDbEntity
  8
0
100
AcDbLine
 10
119.5739649999999
 20
143.75
 30
0.0
 11
122.0739649999999
 21
143.75
 31
0.0
  0
LINE
  5
2A3
330
1E
100
AcDbEntity
  8
0
100
AcDbLine
 10
122.0739649999999
 20
143.75
 30
0.0
 11
123.5739649999999
 21
143.75
 31
0.0
  0
LINE
  5
2A4
330
1E
100
AcDbEntity
  8
0
100
AcDbLine
 10
123.5739649999999
 20
143.75
 30
0.0
 11
124.1739649999999
 21
143.75
 31
0.0
  0
LINE
  5
2A5
330
1E
100
AcDbEntity
  8
0
100
AcDbLine
 10
92.673965
 20
143.25
 30
0.0
 11
93.17396499999999
 21
143.75
 31
0.0
  0
LINE
  5
2A6
330
1E
100
AcDbEntity
  8
0
100
AcDbLine
 10
92.17396499999999
 20
142.25
 30
0.0
 11
92.673965
 21
143.25
 31
0.0
  0
LINE
  5
2A7
330
1E
100
AcDbEntity
  8
0
100
AcDbLine
 10
91.673965
 20
141.7499999999999
 30
0.0
 11
92.17396499999999
 21
142.25
 31
0.0
  0
LINE
  5
2A8
330
1E
100
AcDbEntity
  8
0
100
AcDbLine
 10
90.67396499999999
 20
141.25
 30
0.0
 11
90.67396499999999
 21
137.930639901174
 31
0.0
  0
LINE
  5
2A9
330
1E
100
AcDbEntity
  8
0
100
AcDbLine
 10
90.67396499999999
 20
141.25
 30
0.0
 11
91.17396499999999
 21
141.7499999999999
 31
0.0
  0
LINE
  5
2AA
330
1E
100
AcDbEntity
  8
0
100
AcDbLine
 10
90.67396499999999
 20
141.25
 30
0.0
 11
91.37396499999999
 21
141.25
 31
0.0
  0
LINE
  5
2AB
330
1E
100
AcDbEntity
  8
0
100
AcDbLine
 10
124.1739649999999
 20
143.75
 30
0.0
 11
124.673965
 21
143.25
 31
0.0
  0
LINE
  5
2AC
330
1E
100
AcDbEntity
  8
0
100
AcDbLine
 10
123.961675939556
 20
110.993011711554
 30
0.0
 11
124.1739649999999
 21
110.25
 31
0.0
  0
LINE
  5
2AD
330
1E
100
AcDbEntity
  8
0
100
AcDbLine
 10
125.5739649999999
 20
141.7499999999999
 30
0.0
 11
126.1739649999999
 21
141.7499999999999
 31
0.0
  0
LINE
  5
2AE
330
1E
100
AcDbEntity
  8
0
100
AcDbLine
 10
124.2739649999999
 20
141.25
 30
0.0
 11
125.9739649999999
 21
141.25
 31
0.0
  0
LINE
  5
2AF
330
1E
100
AcDbEntity
  8
0
100
AcDbLine
 10
124.3289649999999
 20
111.092
 30
0.0
 11
125.9129649999999
 21
111.572
 31
0.0
  0
LINE
  5
2B0
330
1E
100
AcDbEntity
  8
0
100
AcDbLine
 10
125.9739649999999
 20
141.25
 30
0.0
 11
126.6739649999999
 21
141.25
 31
0.0
  0
LINE
  5
2B1
330
1E
100
AcDbEntity
  8
0
100
AcDbLine
 10
125.9129649999999
 20
111.572
 30
0.0
 11
126.6739649999999
 21
111.7499999999999
 31
0.0
  0
LINE
  5
2B2
330
1E
100
AcDbEntity
  8
0
100
AcDbLine
 10
124.673965
 20
143.25
 30
0.0
 11
125.1739649999999
 21
142.25
 31
0.0
  0
LINE
  5
2B3
330
1E
100
AcDbEntity
  8
0
100
AcDbLine
 10
125.1739649999999
 20
142.25
 30
0.0
 11
125.6739649999999
 21
141.7499999999999
 31
0.0
  0
LINE
  5
2B4
330
1E
100
AcDbEntity
  8
0
100
AcDbLine
 10
124.1739649999999
 20
110.25
 30
0.0
 11
124.673965
 21
106.75
 31
0.0
  0
LINE
  5
2B5
330
1E
100
AcDbEntity
  8
0
100
AcDbLine
 10
124.673965
 20
106.75
 30
0.0
 11
124.673965
 21
104.75
 31
0.0
  0
LINE
  5
2B6
330
1E
100
AcDbEntity
  8
0
100
AcDbLine
 10
126.1739649999999
 20
141.7499999999999
 30
0.0
 11
126.6739649999999
 21
141.25
 31
0.0
  0
LINE
  5
2B7
330
1E
100
AcDbEntity
  8
0
100
AcDbLine
 10
126.1739649999999
 20
104.75
 30
0.0
 11
126.6739649999999
 21
104.2499999999999
 31
0.0
  0
LINE
  5
2B8
330
1E
100
AcDbEntity
  8
0
100
AcDbLine
 10
126.6739649999999
 20
104.2499999999999
 30
0.0
 11
126.6739649999999
 21
48.5594
 31
0.0
  0
LINE
  5
2B9
330
1E
100
AcDbEntity
  8
0
100
AcDbLine
 10
126.6739649999999
 20
141.25
 30
0.0
 11
126.6739649999999
 21
111.7499999999999
 31
0.0
  0
LINE
  5
2BA
330
1E
100
AcDbEntity
  8
0
100
AcDbLine
 10
126.6739649999999
 20
111.7499999999999
 30
0.0
 11
126.6739649999999
 21
141.25
 31
0.0
  0
LINE
  5
2BB
330
1E
100
AcDbEntity
  8
0
100
AcDbLine
 10
126.6739649999999
 20
13.25
 30
0.0
 11
127.1739649999999
 21
10.25
 31
0.0
  0
LINE
  5
2BC
330
1E
100
AcDbEntity
  8
0
100
AcDbLine
 10
126.6739649999999
 20
13.25
 30
0.0
 11
126.6739649999999
 21
43.55948589189189
 31
0.0
  0
LINE
  5
2BD
330
1E
100
AcDbEntity
  8
0
100
AcDbLine
 10
127.1739649999999
 20
10.25
 30
0.0
 11
128.1739649999999
 21
7.75
 31
0.0
  0
LINE
  5
2BE
330
1E
100
AcDbEntity
  8
0
100
AcDbLine
 10
133.4649649999999
 20
47.01979999999999
 30
0.0
 11
133.737965
 21
47.83
 31
0.0
  0
LINE
  5
2BF
330
1E
100
AcDbEntity
  8
0
100
AcDbLine
 10
133.3689649999999
 20
46.0634
 30
0.0
 11
133.4639649999999
 21
45.10629999999999
 31
0.0
  0
LINE
  5
2C0
330
1E
100
AcDbEntity
  8
0
100
AcDbLine
 10
133.3689649999999
 20
46.0634
 30
0.0
 11
133.4649649999999
 21
47.01979999999999
 31
0.0
  0
LINE
  5
2C1
330
1E
100
AcDbEntity
  8
0
100
AcDbLine
 10
133.4639649999999
 20
45.10629999999999
 30
0.0
 11
133.7349649999999
 21
44.2945
 31
0.0
  0
LINE
  5
2C2
330
1E
100
AcDbEntity
  8
0
100
AcDbLine
 10
128.1739649999999
 20
7.75
 30
0.0
 11
129.6739649999999
 21
5.25
 31
0.0
  0
LINE
  5
2C3
330
1E
100
AcDbEntity
  8
0
100
AcDbLine
 10
129.6739649999999
 20
5.25
 30
0.0
 11
133.6739649999999
 21
1.75
 31
0.0
  0
LINE
  5
2C4
330
1E
100
AcDbEntity
  8
0
100
AcDbLine
 10
129.6739649999999
 20
5.25
 30
0.0
 11
133.6739649999999
 21
1.75
 31
0.0
  0
LINE
  5
2C5
330
1E
100
AcDbEntity
  8
0
100
AcDbLine
 10
134.1439649999999
 20
48.3707
 30
0.0
 11
134.6229649999999
 21
48.5594
 31
0.0
  0
LINE
  5
2C6
330
1E
100
AcDbEntity
  8
0
100
AcDbLine
 10
133.737965
 20
47.83
 30
0.0
 11
134.1439649999999
 21
48.3707
 31
0.0
  0
LINE
  5
2C7
330
1E
100
AcDbEntity
  8
0
100
AcDbLine
 10
133.7349649999999
 20
44.2945
 30
0.0
 11
134.1399649999999
 21
43.75119999999999
 31
0.0
  0
LINE
  5
2C8
330
1E
100
AcDbEntity
  8
0
100
AcDbLine
 10
134.1399649999999
 20
43.75119999999999
 30
0.0
 11
134.618965
 21
43.55939999999999
 31
0.0
  0
LINE
  5
2C9
330
1E
100
AcDbEntity
  8
0
100
AcDbLine
 10
134.6739649999999
 20
0.749999999999996
 30
0.0
 11
135.6739649999999
 21
0.7499999999999949
 31
0.0
  0
LINE
  5
2CA
330
1E
100
AcDbEntity
  8
0
100
AcDbLine
 10
134.618965
 20
43.55939999999999
 30
0.0
 11
135.098965
 21
43.7481
 31
0.0
  0
LINE
  5
2CB
330
1E
100
AcDbEntity
  8
0
100
AcDbLine
 10
134.6229649999999
 20
48.5594
 30
0.0
 11
135.1019649999999
 21
48.3676
 31
0.0
  0
LINE
  5
2CC
330
1E
100
AcDbEntity
  8
0
100
AcDbLine
 10
133.6739649999999
 20
1.75
 30
0.0
 11
135.6739649999999
 21
0.7499999999999949
 31
0.0
  0
LINE
  5
2CD
330
1E
100
AcDbEntity
  8
0
100
AcDbLine
 10
127.6739649999999
 20
0.249999999999996
 30
0.0
 11
132.0739649999999
 21
0.249999999999996
 31
0.0
  0
LINE
  5
2CE
330
1E
100
AcDbEntity
  8
0
100
AcDbLine
 10
135.6739649999999
 20
0.249999999999996
 30
0.0
 11
135.6739649999999
 21
0.7499999999999949
 31
0.0
  0
LINE
  5
2CF
330
1E
100
AcDbEntity
  8
0
100
AcDbLine
 10
135.098965
 20
43.7481
 30
0.0
 11
135.5049649999999
 21
44.2888
 31
0.0
  0
LINE
  5
2D0
330
1E
100
AcDbEntity
  8
0
100
AcDbLine
 10
135.5049649999999
 20
44.2888
 30
0.0
 11
135.7769649999999
 21
45.099
 31
0.0
  0
LINE
  5
2D1
330
1E
100
AcDbEntity
  8
0
100
AcDbLine
 10
135.7769649999999
 20
45.099
 30
0.0
 11
135.8729649999999
 21
46.0554
 31
0.0
  0
LINE
  5
2D2
330
1E
100
AcDbEntity
  8
0
100
AcDbLine
 10
135.7779649999999
 20
47.0125
 30
0.0
 11
135.8729649999999
 21
46.0554
 31
0.0
  0
LINE
  5
2D3
330
1E
100
AcDbEntity
  8
0
100
AcDbLine
 10
135.5079649999999
 20
47.8243
 30
0.0
 11
135.7779649999999
 21
47.0125
 31
0.0
  0
LINE
  5
2D4
330
1E
100
AcDbEntity
  8
0
100
AcDbLine
 10
135.1019649999999
 20
48.3676
 30
0.0
 11
135.5079649999999
 21
47.8243
 31
0.0
  0
LINE
  5
2D5
330
1E
100
AcDbEntity
  8
0
100
AcDbLine
 10
135.6739649999999
 20
0.7499999999999949
 30
0.0
 11
135.6739649999999
 21
0.249999999999996
 31
0.0
  0
LINE
  5
2D6
330
1E
100
AcDbEntity
  8
0
100
AcDbLine
 10
134.6739649999999
 20
0.249999999999996
 30
0.0
 11
135.6739649999999
 21
0.249999999999996
 31
0.0
  0
LINE
  5
2DB
330
1E
100
AcDbEntity
  8
0
100
AcDbLine
 10
88.06786499999999
 20
138.622
 30
0.0
 11
88.06786499999999
 21
130.2889999999999
 31
0.0
  0
ENDSEC
  0
SECTION
  2
OBJECTS
  0
DICTIONARY
  5
C
330
0
100
AcDbDictionary
  3
ACAD_GROUP
350
D
  3
ACAD_LAYOUT
350
19
  3
ACAD_MLINESTYLE
350
16
  3
ACAD_PLOTSETTINGS
350
18
  3
ACAD_PLOTSTYLENAME
350
E
  3
ACDBHEADERROUNDTRIPXREC
350
2DF
  3
ACDBVARIABLEDICTIONARY
350
2DC
  0
DICTIONARY
  5
301
330
1E
100
AcDbDictionary
280
     1
  3
ACAD_LAYOUTSELFREF
360
302
  0
DICTIONARY
  5
2FF
330
1A
100
AcDbDictionary
280
     1
  3
ACAD_LAYOUTSELFREF
360
300
  0
DICTIONARY
  5
D
102
{ACAD_REACTORS
330
C
102
}
330
C
100
AcDbDictionary
  0
DICTIONARY
  5
19
102
{ACAD_REACTORS
330
C
102
}
330
C
100
AcDbDictionary
  0
DICTIONARY
  5
16
102
{ACAD_REACTORS
330
C
102
}
330
C
100
AcDbDictionary
  3
STANDARD
350
17
  0
DICTIONARY
  5
18
102
{ACAD_REACTORS
330
C
102
}
330
C
100
AcDbDictionary
  0
ACDBDICTIONARYWDFLT
  5
E
102
{ACAD_REACTORS
330
C
102
}
330
C
100
AcDbDictionary
281
     1
  3
Normal
350
F
100
AcDbDictionaryWithDefault
340
F
  0
DICTIONARY
  5
2DF
102
{ACAD_REACTORS
330
C
102
}
330
C
100
AcDbDictionary
  3
CEPSNTYPE
350
2E9
  3
FINGERPRINTGUID
350
2EA
  3
HYPERLINKBASE
350
2E2
  3
INSUNITS
350
2E8
  3
LAYOUTDICT
350
2E4
  3
LWETCUNION
350
2E7
  3
PLOTSETDICT
350
2E5
  3
PLOTSTYLNAMDICT
350
2E6
  3
PSVPSCALE
350
2EC
  3
PUCSBASE
350
2EF
  3
PUCSORGBACK
350
2F5
  3
PUCSORGBOTTOM
350
2F1
  3
PUCSORGFRONT
350
2F4
  3
PUCSORGLEFT
350
2F2
  3
PUCSORGRIGHT
350
2F3
  3
PUCSORGTOP
350
2F0
  3
PUCSORTHOREF
350
2ED
  3
PUCSORTHOVIEW
350
2EE
  3
STYLESHEET
350
2E3
  3
TSTACKALIGN
350
2E0
  3
TSTACKSIZE
350
2E1
  3
UCSBASE
350
2F8
  3
UCSORGBACK
350
2FE
  3
UCSORGBOTTOM
350
2FA
  3
UCSORGFRONT
350
2FD
  3
UCSORGLEFT
350
2FB
  3
UCSORGRIGHT
350
2FC
  3
UCSORGTOP
350
2F9
  3
UCSORTHOREF
350
2F6
  3
UCSORTHOVIEW
350
2F7
  3
VERSIONGUID
350
2EB
  0
DICTIONARY
  5
2DC
102
{ACAD_REACTORS
330
C
102
}
330
C
100
AcDbDictionary
  3
DIMASSOC
350
2DD
  0
XRECORD
  5
302
102
{ACAD_REACTORS
330
301
102
}
330
301
100
AcDbXrecord
340
1E
  0
XRECORD
  5
300
102
{ACAD_REACTORS
330
2FF
102
}
330
2FF
100
AcDbXrecord
340
1A
  0
MLINESTYLE
  5
17
102
{ACAD_REACTORS
330
16
102
}
330
16
100
AcDbMlineStyle
  2
STANDARD
 70
     0
  3

 62
   256
 51
90.0
 52
90.0
 71
     2
 49
0.5
 62
   256
  6
BYLAYER
 49
-0.5
 62
   256
  6
BYLAYER
  0
ACDBPLACEHOLDER
  5
F
102
{ACAD_REACTORS
330
E
102
}
330
E
100
AcDbPlaceHolder
280
     0
  0
XRECORD
  5
2E9
102
{ACAD_REACTORS
330
2DF
102
}
330
2DF
100
AcDbXrecord
 90
        0
  0
XRECORD
  5
2EA
102
{ACAD_REACTORS
330
2DF
102
}
330
2DF
100
AcDbXrecord
  1
{6AA58E75-02B4-48CE-8751-E352E5D7D17B}
  0
XRECORD
  5
2E2
102
{ACAD_REACTORS
330
2DF
102
}
330
2DF
100
AcDbXrecord
  1

  0
XRECORD
  5
2E8
102
{ACAD_REACTORS
330
2DF
102
}
330
2DF
100
AcDbXrecord
 90
        0
  0
XRECORD
  5
2E4
102
{ACAD_REACTORS
330
2DF
102
}
330
2DF
100
AcDbXrecord
340
19
  0
XRECORD
  5
2E7
102
{ACAD_REACTORS
330
2DF
102
}
330
2DF
100
AcDbXrecord
 90
    10781
  0
XRECORD
  5
2E5
102
{ACAD_REACTORS
330
2DF
102
}
330
2DF
100
AcDbXrecord
340
18
  0
XRECORD
  5
2E6
102
{ACAD_REACTORS
330
2DF
102
}
330
2DF
100
AcDbXrecord
340
E
  0
XRECORD
  5
2EC
102
{ACAD_REACTORS
330
2DF
102
}
330
2DF
100
AcDbXrecord
 40
0.0
  0
XRECORD
  5
2EF
102
{ACAD_REACTORS
330
2DF
102
}
330
2DF
100
AcDbXrecord
340
0
  0
XRECORD
  5
2F5
102
{ACAD_REACTORS
330
2DF
102
}
330
2DF
100
AcDbXrecord
 10
0.0
 20
0.0
 30
0.0
  0
XRECORD
  5
2F1
102
{ACAD_REACTORS
330
2DF
102
}
330
2DF
100
AcDbXrecord
 10
0.0
 20
0.0
 30
0.0
  0
XRECORD
  5
2F4
102
{ACAD_REACTORS
330
2DF
102
}
330
2DF
100
AcDbXrecord
 10
0.0
 20
0.0
 30
0.0
  0
XRECORD
  5
2F2
102
{ACAD_REACTORS
330
2DF
102
}
330
2DF
100
AcDbXrecord
 10
0.0
 20
0.0
 30
0.0
  0
XRECORD
  5
2F3
102
{ACAD_REACTORS
330
2DF
102
}
330
2DF
100
AcDbXrecord
 10
0.0
 20
0.0
 30
0.0
  0
XRECORD
  5
2F0
102
{ACAD_REACTORS
330
2DF
102
}
330
2DF
100
AcDbXrecord
 10
0.0
 20
0.0
 30
0.0
  0
XRECORD
  5
2ED
102
{ACAD_REACTORS
330
2DF
102
}
330
2DF
100
AcDbXrecord
340
0
  0
XRECORD
  5
2EE
102
{ACAD_REACTORS
330
2DF
102
}
330
2DF
100
AcDbXrecord
 70
     0
  0
XRECORD
  5
2E3
102
{ACAD_REACTORS
330
2DF
102
}
330
2DF
100
AcDbXrecord
  1

  0
XRECORD
  5
2E0
102
{ACAD_REACTORS
330
2DF
102
}
330
2DF
100
AcDbXrecord
 90
        1
  0
XRECORD
  5
2E1
102
{ACAD_REACTORS
330
2DF
102
}
330
2DF
100
AcDbXrecord
 90
       70
  0
XRECORD
  5
2F8
102
{ACAD_REACTORS
330
2DF
102
}
330
2DF
100
AcDbXrecord
340
0
  0
XRECORD
  5
2FE
102
{ACAD_REACTORS
330
2DF
102
}
330
2DF
100
AcDbXrecord
 10
0.0
 20
0.0
 30
0.0
  0
XRECORD
  5
2FA
102
{ACAD_REACTORS
330
2DF
102
}
330
2DF
100
AcDbXrecord
 10
0.0
 20
0.0
 30
0.0
  0
XRECORD
  5
2FD
102
{ACAD_REACTORS
330
2DF
102
}
330
2DF
100
AcDbXrecord
 10
0.0
 20
0.0
 30
0.0
  0
XRECORD
  5
2FB
102
{ACAD_REACTORS
330
2DF
102
}
330
2DF
100
AcDbXrecord
 10
0.0
 20
0.0
 30
0.0
  0
XRECORD
  5
2FC
102
{ACAD_REACTORS
330
2DF
102
}
330
2DF
100
AcDbXrecord
 10
0.0
 20
0.0
 30
0.0
  0
XRECORD
  5
2F9
102
{ACAD_REACTORS
330
2DF
102
}
330
2DF
100
AcDbXrecord
 10
0.0
 20
0.0
 30
0.0
  0
XRECORD
  5
2F6
102
{ACAD_REACTORS
330
2DF
102
}
330
2DF
100
AcDbXrecord
340
0
  0
XRECORD
  5
2F7
102
{ACAD_REACTORS
330
2DF
102
}
330
2DF
100
AcDbXrecord
 70
     1
  0
XRECORD
  5
2EB
102
{ACAD_REACTORS
330
2DF
102
}
330
2DF
100
AcDbXrecord
  1
{4FD3AED6-7C8F-4FC3-AEBC-F66CCC67C289}
  0
DICTIONARYVAR
  5
2DD
102
{ACAD_REACTORS
330
2DC
102
}
330
2DC
100
DictionaryVariables
280
     0
  1
1
  0
ENDSEC
  0
EOF
