  0
SECTION
  2
HEADER
  9
$ACADVER
  1
AC1014
  9
$ACADMAINTVER
 70
     9
  9
$DWGCODEPAGE
  3
ANSI_1252
  9
$INSBASE
 10
0.0
 20
0.0
 30
0.0
  9
$EXTMIN
 10
-0.242092999999988
 20
0.249999999999984
 30
0.0
  9
$EXTMAX
 10
199.2420929999999
 20
325.75
 30
0.0
  9
$LIMMIN
 10
0.0
 20
0.0
  9
$LIMMAX
 10
12.0
 20
9.0
  9
$ORTHOMODE
 70
     0
  9
$REGENMODE
 70
     1
  9
$FILLMODE
 70
     1
  9
$QTEXTMODE
 70
     0
  9
$MIRRTEXT
 70
     1
  9
$DRAGMODE
 70
     2
  9
$LTSCALE
 40
1.0
  9
$OSMODE
 70
    37
  9
$ATTMODE
 70
     1
  9
$TEXTSIZE
 40
0.2
  9
$TRACEWID
 40
0.05
  9
$TEXTSTYLE
  7
STANDARD
  9
$CLAYER
  8
0
  9
$CELTYPE
  6
CONTINUOUS
  9
$CECOLOR
 62
   256
  9
$CELTSCALE
 40
1.0
  9
$DELOBJ
 70
     1
  9
$DISPSILH
 70
     0
  9
$DIMSCALE
 40
1.0
  9
$DIMASZ
 40
0.18
  9
$DIMEXO
 40
0.0625
  9
$DIMDLI
 40
0.38
  9
$DIMRND
 40
0.0
  9
$DIMDLE
 40
0.0
  9
$DIMEXE
 40
0.18
  9
$DIMTP
 40
0.0
  9
$DIMTM
 40
0.0
  9
$DIMTXT
 40
0.18
  9
$DIMCEN
 40
0.09
  9
$DIMTSZ
 40
0.0
  9
$DIMTOL
 70
     0
  9
$DIMLIM
 70
     0
  9
$DIMTIH
 70
     1
  9
$DIMTOH
 70
     1
  9
$DIMSE1
 70
     0
  9
$DIMSE2
 70
     0
  9
$DIMTAD
 70
     0
  9
$DIMZIN
 70
     0
  9
$DIMBLK
  1

  9
$DIMASO
 70
     1
  9
$DIMSHO
 70
     1
  9
$DIMPOST
  1

  9
$DIMAPOST
  1

  9
$DIMALT
 70
     0
  9
$DIMALTD
 70
     2
  9
$DIMALTF
 40
25.4
  9
$DIMLFAC
 40
1.0
  9
$DIMTOFL
 70
     0
  9
$DIMTVP
 40
0.0
  9
$DIMTIX
 70
     0
  9
$DIMSOXD
 70
     0
  9
$DIMSAH
 70
     0
  9
$DIMBLK1
  1

  9
$DIMBLK2
  1

  9
$DIMSTYLE
  2
STANDARD
  9
$DIMCLRD
 70
     0
  9
$DIMCLRE
 70
     0
  9
$DIMCLRT
 70
     0
  9
$DIMTFAC
 40
1.0
  9
$DIMGAP
 40
0.09
  9
$DIMJUST
 70
     0
  9
$DIMSD1
 70
     0
  9
$DIMSD2
 70
     0
  9
$DIMTOLJ
 70
     1
  9
$DIMTZIN
 70
     0
  9
$DIMALTZ
 70
     0
  9
$DIMALTTZ
 70
     0
  9
$DIMFIT
 70
     3
  9
$DIMUPT
 70
     0
  9
$DIMUNIT
 70
     2
  9
$DIMDEC
 70
     4
  9
$DIMTDEC
 70
     4
  9
$DIMALTU
 70
     2
  9
$DIMALTTD
 70
     2
  9
$DIMTXSTY
  7
STANDARD
  9
$DIMAUNIT
 70
     0
  9
$LUNITS
 70
     2
  9
$LUPREC
 70
     4
  9
$SKETCHINC
 40
0.1
  9
$FILLETRAD
 40
0.0
  9
$AUNITS
 70
     0
  9
$AUPREC
 70
     0
  9
$MENU
  1
.
  9
$ELEVATION
 40
0.0
  9
$PELEVATION
 40
0.0
  9
$THICKNESS
 40
0.0
  9
$LIMCHECK
 70
     0
  9
$BLIPMODE
 70
     0
  9
$CHAMFERA
 40
0.0
  9
$CHAMFERB
 40
0.0
  9
$CHAMFERC
 40
0.0
  9
$CHAMFERD
 40
0.0
  9
$SKPOLY
 70
     0
  9
$TDCREATE
 40
2454698.386678773
  9
$TDUPDATE
 40
2454698.387414814
  9
$TDINDWG
 40
0.0007360417
  9
$TDUSRTIMER
 40
0.0007360417
  9
$USRTIMER
 70
     1
  9
$ANGBASE
 50
0.0
  9
$ANGDIR
 70
     0
  9
$PDMODE
 70
     0
  9
$PDSIZE
 40
0.0
  9
$PLINEWID
 40
0.0
  9
$COORDS
 70
     1
  9
$SPLFRAME
 70
     0
  9
$SPLINETYPE
 70
     6
  9
$SPLINESEGS
 70
     8
  9
$ATTDIA
 70
     0
  9
$ATTREQ
 70
     1
  9
$HANDLING
 70
 22529
  9
$HANDSEED
  5
289
  9
$SURFTAB1
 70
     6
  9
$SURFTAB2
 70
     6
  9
$SURFTYPE
 70
     6
  9
$SURFU
 70
     6
  9
$SURFV
 70
     6
  9
$UCSNAME
  2

  9
$UCSORG
 10
0.0
 20
0.0
 30
0.0
  9
$UCSXDIR
 10
1.0
 20
0.0
 30
0.0
  9
$UCSYDIR
 10
0.0
 20
1.0
 30
0.0
  9
$PUCSNAME
  2

  9
$PUCSORG
 10
0.0
 20
0.0
 30
0.0
  9
$PUCSXDIR
 10
1.0
 20
0.0
 30
0.0
  9
$PUCSYDIR
 10
0.0
 20
1.0
 30
0.0
  9
$USERI1
 70
     0
  9
$USERI2
 70
     0
  9
$USERI3
 70
     0
  9
$USERI4
 70
     0
  9
$USERI5
 70
     0
  9
$USERR1
 40
0.0
  9
$USERR2
 40
0.0
  9
$USERR3
 40
0.0
  9
$USERR4
 40
0.0
  9
$USERR5
 40
0.0
  9
$WORLDVIEW
 70
     1
  9
$SHADEDGE
 70
     3
  9
$SHADEDIF
 70
    70
  9
$TILEMODE
 70
     1
  9
$MAXACTVP
 70
    64
  9
$PINSBASE
 10
0.0
 20
0.0
 30
0.0
  9
$PLIMCHECK
 70
     0
  9
$PEXTMIN
 10
1.000000000000000E+20
 20
1.000000000000000E+20
 30
1.000000000000000E+20
  9
$PEXTMAX
 10
-1.000000000000000E+20
 20
-1.000000000000000E+20
 30
-1.000000000000000E+20
  9
$PLIMMIN
 10
0.0
 20
0.0
  9
$PLIMMAX
 10
12.0
 20
9.0
  9
$UNITMODE
 70
     0
  9
$VISRETAIN
 70
     1
  9
$PLINEGEN
 70
     0
  9
$PSLTSCALE
 70
     1
  9
$TREEDEPTH
 70
  3020
  9
$PICKSTYLE
 70
     1
  9
$CMLSTYLE
  2
STANDARD
  9
$CMLJUST
 70
     0
  9
$CMLSCALE
 40
1.0
  9
$PROXYGRAPHICS
 70
     1
  9
$MEASUREMENT
 70
     0
  0
ENDSEC
  0
SECTION
  2
CLASSES
  0
CLASS
  1
ACDBDICTIONARYWDFLT
  2
AcDbDictionaryWithDefault
  3
AutoCAD 2000
 90
        0
280
     0
281
     0
  0
CLASS
  1
ACDBPLACEHOLDER
  2
AcDbPlaceHolder
  3
AutoCAD 2000
 90
        0
280
     0
281
     0
  0
CLASS
  1
LAYOUT
  2
AcDbLayout
  3
AutoCAD 2000
 90
        0
280
     0
281
     0
  0
CLASS
  1
DICTIONARYVAR
  2
AcDbDictionaryVar
  3
AutoCAD 2000
 90
        0
280
     0
281
     0
  0
CLASS
  1
LONG_TRANSACTION
  2
AcDbLongTransaction
  3
AutoCAD 2000
 90
        0
280
     0
281
     0
  0
CLASS
  1
LWPOLYLINE
  2
AcDbPolyline
  3
AutoCAD 2000
 90
        0
280
     0
281
     1
  0
CLASS
  1
HATCH
  2
AcDbHatch
  3
AutoCAD 2000
 90
        0
280
     0
281
     1
  0
CLASS
  1
XRECORD
  2
AcDbXrecord
  3
AutoCAD 2000
 90
        0
280
     0
281
     0
  0
ENDSEC
  0
SECTION
  2
TABLES
  0
TABLE
  2
VPORT
  5
8
330
0
100
AcDbSymbolTable
 70
     2
  0
VPORT
  5
264
330
8
100
AcDbSymbolTableRecord
100
AcDbViewportTableRecord
  2
*ACTIVE
 70
     0
 10
0.0
 20
0.0
 11
1.0
 21
1.0
 12
99.50000000000001
 22
162.9999999999999
 13
0.0
 23
0.0
 14
1.0
 24
1.0
 15
0.0
 25
0.0
 16
0.0
 26
0.0
 36
1.0
 17
0.0
 27
0.0
 37
0.0
 40
327.9974424552429
 41
2.078104993597951
 42
50.0
 43
0.0
 44
0.0
 50
0.0
 51
0.0
 71
     0
 72
   100
 73
     1
 74
     3
 75
     0
 76
     0
 77
     0
 78
     0
  0
ENDTAB
  0
TABLE
  2
LTYPE
  5
5
330
0
100
AcDbSymbolTable
 70
     1
  0
LTYPE
  5
13
330
5
100
AcDbSymbolTableRecord
100
AcDbLinetypeTableRecord
  2
BYBLOCK
 70
     0
  3

 72
    65
 73
     0
 40
0.0
  0
LTYPE
  5
14
330
5
100
AcDbSymbolTableRecord
100
AcDbLinetypeTableRecord
  2
BYLAYER
 70
     0
  3

 72
    65
 73
     0
 40
0.0
  0
LTYPE
  5
15
330
5
100
AcDbSymbolTableRecord
100
AcDbLinetypeTableRecord
  2
CONTINUOUS
 70
     0
  3
Solid line
 72
    65
 73
     0
 40
0.0
  0
ENDTAB
  0
TABLE
  2
LAYER
  5
2
330
0
100
AcDbSymbolTable
 70
     1
  0
LAYER
  5
10
330
2
100
AcDbSymbolTableRecord
100
AcDbLayerTableRecord
  2
0
 70
     0
 62
     7
  6
CONTINUOUS
  0
ENDTAB
  0
TABLE
  2
STYLE
  5
3
330
0
100
AcDbSymbolTable
 70
     1
  0
STYLE
  5
11
330
3
100
AcDbSymbolTableRecord
100
AcDbTextStyleTableRecord
  2
STANDARD
 70
     0
 40
0.0
 41
1.0
 50
0.0
 71
     0
 42
0.2
  3
txt
  4

  0
ENDTAB
  0
TABLE
  2
VIEW
  5
6
330
0
100
AcDbSymbolTable
 70
     0
  0
ENDTAB
  0
TABLE
  2
UCS
  5
7
330
0
100
AcDbSymbolTable
 70
     0
  0
ENDTAB
  0
TABLE
  2
APPID
  5
9
330
0
100
AcDbSymbolTable
 70
     1
  0
APPID
  5
12
330
9
100
AcDbSymbolTableRecord
100
AcDbRegAppTableRecord
  2
ACAD
 70
     0
  0
ENDTAB
  0
TABLE
  2
DIMSTYLE
  5
A
330
0
100
AcDbSymbolTable
 70
     1
  0
DIMSTYLE
105
25E
330
A
100
AcDbSymbolTableRecord
100
AcDbDimStyleTableRecord
  2
STANDARD
 70
     0
  3

  4

  5

  6

  7

 40
1.0
 41
0.18
 42
0.0625
 43
0.38
 44
0.18
 45
0.0
 46
0.0
 47
0.0
 48
0.0
140
0.18
141
0.09
142
0.0
143
25.4
144
1.0
145
0.0
146
1.0
147
0.09
 71
     0
 72
     0
 73
     1
 74
     1
 75
     0
 76
     0
 77
     0
 78
     0
170
     0
171
     2
172
     0
173
     0
174
     0
175
     0
176
     0
177
     0
178
     0
270
     2
271
     4
272
     4
273
     2
274
     2
340
11
275
     0
280
     0
281
     0
282
     0
283
     1
284
     0
285
     0
286
     0
287
     3
288
     0
  0
ENDTAB
  0
TABLE
  2
BLOCK_RECORD
  5
1
330
0
100
AcDbSymbolTable
 70
     0
  0
BLOCK_RECORD
  5
1E
102
{ACAD_XDICTIONARY
360
287
102
}
330
1
100
AcDbSymbolTableRecord
100
AcDbBlockTableRecord
  2
*MODEL_SPACE
  0
BLOCK_RECORD
  5
1A
102
{ACAD_XDICTIONARY
360
285
102
}
330
1
100
AcDbSymbolTableRecord
100
AcDbBlockTableRecord
  2
*PAPER_SPACE
  0
ENDTAB
  0
ENDSEC
  0
SECTION
  2
BLOCKS
  0
BLOCK
  5
1F
330
1E
100
AcDbEntity
  8
0
100
AcDbBlockBegin
  2
*MODEL_SPACE
 70
     0
 10
0.0
 20
0.0
 30
0.0
  3
*MODEL_SPACE
  1

  0
ENDBLK
  5
20
330
1E
100
AcDbEntity
  8
0
100
AcDbBlockEnd
  0
BLOCK
  5
1B
330
1A
100
AcDbEntity
 67
     1
  8
0
100
AcDbBlockBegin
  2
*PAPER_SPACE
 70
     0
 10
0.0
 20
0.0
 30
0.0
  3
*PAPER_SPACE
  1

  0
ENDBLK
  5
1C
330
1A
100
AcDbEntity
 67
     1
  8
0
100
AcDbBlockEnd
  0
ENDSEC
  0
SECTION
  2
ENTITIES
  0
LINE
  5
22
330
1E
100
AcDbEntity
  8
0
100
AcDbLine
 10
164.143093
 20
0.2499999999999861
 30
0.0
 11
171.043093
 21
0.2499999999999861
 31
0.0
  0
LINE
  5
23
330
1E
100
AcDbEntity
  8
0
100
AcDbLine
 10
152.043093
 20
0.249999999999987
 30
0.0
 11
157.6430929999999
 21
0.2499999999999861
 31
0.0
  0
LINE
  5
24
330
1E
100
AcDbEntity
  8
0
100
AcDbLine
 10
147.643093
 20
0.249999999999987
 30
0.0
 11
152.043093
 21
0.249999999999987
 31
0.0
  0
LINE
  5
25
330
1E
100
AcDbEntity
  8
0
100
AcDbLine
 10
157.6430929999999
 20
0.2499999999999861
 30
0.0
 11
164.143093
 21
0.2499999999999861
 31
0.0
  0
LINE
  5
26
330
1E
100
AcDbEntity
  8
0
100
AcDbLine
 10
145.043093
 20
0.249999999999987
 30
0.0
 11
147.643093
 21
0.249999999999987
 31
0.0
  0
LINE
  5
27
330
1E
100
AcDbEntity
  8
0
100
AcDbLine
 10
152.043093
 20
0.7499999999999871
 30
0.0
 11
157.6430929999999
 21
0.749999999999986
 31
0.0
  0
LINE
  5
28
330
1E
100
AcDbEntity
  8
0
100
AcDbLine
 10
157.6430929999999
 20
0.749999999999986
 30
0.0
 11
164.143093
 21
0.749999999999986
 31
0.0
  0
LINE
  5
29
330
1E
100
AcDbEntity
  8
0
100
AcDbLine
 10
171.043093
 20
0.749999999999986
 30
0.0
 11
177.943093
 21
0.7499999999999849
 31
0.0
  0
LINE
  5
2A
330
1E
100
AcDbEntity
  8
0
100
AcDbLine
 10
164.143093
 20
0.749999999999986
 30
0.0
 11
171.043093
 21
0.749999999999986
 31
0.0
  0
LINE
  5
2B
330
1E
100
AcDbEntity
  8
0
100
AcDbLine
 10
147.643093
 20
0.7499999999999871
 30
0.0
 11
152.043093
 21
0.7499999999999871
 31
0.0
  0
LINE
  5
2C
330
1E
100
AcDbEntity
  8
0
100
AcDbLine
 10
145.043093
 20
0.7499999999999871
 30
0.0
 11
147.643093
 21
0.7499999999999871
 31
0.0
  0
LINE
  5
2D
330
1E
100
AcDbEntity
  8
0
100
AcDbLine
 10
146.043093
 20
1.749999999999989
 30
0.0
 11
150.043093
 21
5.24999999999999
 31
0.0
  0
LINE
  5
2E
330
1E
100
AcDbEntity
  8
0
100
AcDbLine
 10
146.043093
 20
1.749999999999989
 30
0.0
 11
150.043093
 21
5.24999999999999
 31
0.0
  0
LINE
  5
2F
330
1E
100
AcDbEntity
  8
0
100
AcDbLine
 10
144.0430929999999
 20
0.7499999999999871
 30
0.0
 11
146.043093
 21
1.749999999999989
 31
0.0
  0
LINE
  5
30
330
1E
100
AcDbEntity
  8
0
100
AcDbLine
 10
144.0430929999999
 20
0.7499999999999871
 30
0.0
 11
144.0430929999999
 21
0.249999999999987
 31
0.0
  0
LINE
  5
31
330
1E
100
AcDbEntity
  8
0
100
AcDbLine
 10
144.0430929999999
 20
0.7499999999999871
 30
0.0
 11
145.043093
 21
0.7499999999999871
 31
0.0
  0
LINE
  5
32
330
1E
100
AcDbEntity
  8
0
100
AcDbLine
 10
144.0430929999999
 20
0.249999999999987
 30
0.0
 11
145.043093
 21
0.249999999999987
 31
0.0
  0
LINE
  5
33
330
1E
100
AcDbEntity
  8
0
100
AcDbLine
 10
144.0430929999999
 20
0.249999999999987
 30
0.0
 11
144.0430929999999
 21
0.7499999999999871
 31
0.0
  0
LINE
  5
34
330
1E
100
AcDbEntity
  8
0
100
AcDbLine
 10
190.0430929999999
 20
0.249999999999984
 30
0.0
 11
194.443093
 21
0.249999999999984
 31
0.0
  0
LINE
  5
35
330
1E
100
AcDbEntity
  8
0
100
AcDbLine
 10
184.443093
 20
0.249999999999985
 30
0.0
 11
190.0430929999999
 21
0.249999999999984
 31
0.0
  0
LINE
  5
36
330
1E
100
AcDbEntity
  8
0
100
AcDbLine
 10
190.0430929999999
 20
0.7499999999999841
 30
0.0
 11
194.443093
 21
0.7499999999999841
 31
0.0
  0
LINE
  5
37
330
1E
100
AcDbEntity
  8
0
100
AcDbLine
 10
194.443093
 20
0.7499999999999841
 30
0.0
 11
197.043093
 21
0.7499999999999841
 31
0.0
  0
LINE
  5
38
330
1E
100
AcDbEntity
  8
0
100
AcDbLine
 10
184.443093
 20
0.7499999999999849
 30
0.0
 11
190.0430929999999
 21
0.7499999999999841
 31
0.0
  0
LINE
  5
39
330
1E
100
AcDbEntity
  8
0
100
AcDbLine
 10
177.943093
 20
0.7499999999999849
 30
0.0
 11
184.443093
 21
0.7499999999999849
 31
0.0
  0
LINE
  5
3A
330
1E
100
AcDbEntity
  8
0
100
AcDbLine
 10
177.943093
 20
0.249999999999985
 30
0.0
 11
184.443093
 21
0.249999999999985
 31
0.0
  0
LINE
  5
3B
330
1E
100
AcDbEntity
  8
0
100
AcDbLine
 10
171.043093
 20
0.2499999999999861
 30
0.0
 11
177.943093
 21
0.249999999999985
 31
0.0
  0
LINE
  5
3C
330
1E
100
AcDbEntity
  8
0
100
AcDbLine
 10
151.5430929999999
 20
7.74999999999999
 30
0.0
 11
152.5430929999999
 21
10.25
 31
0.0
  0
LINE
  5
3D
330
1E
100
AcDbEntity
  8
0
100
AcDbLine
 10
150.043093
 20
5.24999999999999
 30
0.0
 11
151.5430929999999
 21
7.74999999999999
 31
0.0
  0
LINE
  5
3E
330
1E
100
AcDbEntity
  8
0
100
AcDbLine
 10
153.043093
 20
13.25
 30
0.0
 11
153.043093
 21
250.4166666666669
 31
0.0
  0
LINE
  5
3F
330
1E
100
AcDbEntity
  8
0
100
AcDbLine
 10
152.5430929999999
 20
10.25
 30
0.0
 11
153.043093
 21
13.25
 31
0.0
  0
LINE
  5
44
330
1E
100
AcDbEntity
  8
0
100
AcDbLine
 10
186.804364461582
 20
39.1482994187543
 30
0.0
 11
189.008574624821
 21
43.5594970758743
 31
0.0
  0
LINE
  5
45
330
1E
100
AcDbEntity
  8
0
100
AcDbLine
 10
189.008574624821
 20
43.5594970758743
 30
0.0
 11
197.988093
 21
43.55939999999999
 31
0.0
  0
LINE
  5
49
330
1E
100
AcDbEntity
  8
0
100
AcDbLine
 10
187.882093
 20
48.4598
 30
0.0
 11
188.7420929999999
 21
48.5594
 31
0.0
  0
LINE
  5
4A
330
1E
100
AcDbEntity
  8
0
100
AcDbLine
 10
187.056093
 20
48.1648
 30
0.0
 11
187.882093
 21
48.4598
 31
0.0
  0
LINE
  5
4B
330
1E
100
AcDbEntity
  8
0
100
AcDbLine
 10
186.6410929999999
 20
47.9911
 30
0.0
 11
187.056093
 21
48.1648
 31
0.0
  0
LINE
  5
4C
330
1E
100
AcDbEntity
  8
0
100
AcDbLine
 10
185.9120929999999
 20
47.5306
 30
0.0
 11
186.6410929999999
 21
47.9911
 31
0.0
  0
LINE
  5
50
330
1E
100
AcDbEntity
  8
0
100
AcDbLine
 10
153.043093
 20
13.25
 30
0.0
 11
153.043093
 21
250.4166666666669
 31
0.0
  0
LINE
  5
51
330
1E
100
AcDbEntity
  8
0
100
AcDbLine
 10
189.0430929999999
 20
13.25
 30
0.0
 11
189.0430929999999
 21
43.5594967027027
 31
0.0
  0
LINE
  5
52
330
1E
100
AcDbEntity
  8
0
100
AcDbLine
 10
22.330293
 20
226.404
 30
0.0
 11
22.718093
 21
226.555
 31
0.0
  0
LINE
  5
53
330
1E
100
AcDbEntity
  8
0
100
AcDbLine
 10
19.198093
 20
227.865
 30
0.0
 11
20.894693
 21
227.0739999999999
 31
0.0
  0
LINE
  5
54
330
1E
100
AcDbEntity
  8
0
100
AcDbLine
 10
16.97939299999999
 20
228.9
 30
0.0
 11
19.198093
 21
227.865
 31
0.0
  0
LINE
  5
55
330
1E
100
AcDbEntity
  8
0
100
AcDbLine
 10
17.236693
 20
229.1109999999999
 30
0.0
 11
19.542393
 21
228.0349999999999
 31
0.0
  0
LINE
  5
56
330
1E
100
AcDbEntity
  8
0
100
AcDbLine
 10
19.542393
 20
228.0349999999999
 30
0.0
 11
21.28249299999999
 21
227.224
 31
0.0
  0
LINE
  5
57
330
1E
100
AcDbEntity
  8
0
100
AcDbLine
 10
21.938693
 20
226.587
 30
0.0
 11
22.330293
 21
226.404
 31
0.0
  0
LINE
  5
58
330
1E
100
AcDbEntity
  8
0
100
AcDbLine
 10
21.28249299999999
 20
227.224
 30
0.0
 11
22.32649299999999
 21
226.737
 31
0.0
  0
LINE
  5
59
330
1E
100
AcDbEntity
  8
0
100
AcDbLine
 10
22.32649299999999
 20
226.737
 30
0.0
 11
22.718093
 21
226.555
 31
0.0
  0
LINE
  5
5A
330
1E
100
AcDbEntity
  8
0
100
AcDbLine
 10
20.894693
 20
227.0739999999999
 30
0.0
 11
21.938693
 21
226.587
 31
0.0
  0
LINE
  5
5B
330
1E
100
AcDbEntity
  8
0
100
AcDbLine
 10
22.718093
 20
226.555
 30
0.0
 11
24.3191975639861
 21
229.988068689532
 31
0.0
  0
LINE
  5
5C
330
1E
100
AcDbEntity
  8
0
100
AcDbLine
 10
27.188993
 20
229.2009999999999
 30
0.0
 11
27.853493
 21
229.4429999999999
 31
0.0
  0
LINE
  5
5D
330
1E
100
AcDbEntity
  8
0
100
AcDbLine
 10
26.071393
 20
229.171
 30
0.0
 11
27.188993
 21
229.2009999999999
 31
0.0
  0
LINE
  5
5E
330
1E
100
AcDbEntity
  8
0
100
AcDbLine
 10
0.966663000000012
 20
236.697
 30
0.0
 11
1.100893000000009
 21
236.304
 31
0.0
  0
LINE
  5
5F
330
1E
100
AcDbEntity
  8
0
100
AcDbLine
 10
0.966663000000012
 20
236.697
 30
0.0
 11
1.35818300000001
 21
236.5149999999999
 31
0.0
  0
LINE
  5
60
330
1E
100
AcDbEntity
  8
0
100
AcDbLine
 10
0.966663000000012
 20
236.697
 30
0.0
 11
2.567644474053319
 21
240.130610773532
 31
0.0
  0
LINE
  5
61
330
1E
100
AcDbEntity
  8
0
100
AcDbLine
 10
2.402253000000009
 20
236.0279999999999
 30
0.0
 11
4.142363000000009
 21
235.217
 31
0.0
  0
LINE
  5
62
330
1E
100
AcDbEntity
  8
0
100
AcDbLine
 10
6.448013000000009
 20
234.1409999999999
 30
0.0
 11
9.058193000000009
 21
232.9239999999999
 31
0.0
  0
LINE
  5
63
330
1E
100
AcDbEntity
  8
0
100
AcDbLine
 10
11.84239299999999
 20
231.6259999999999
 30
0.0
 11
14.62649299999999
 21
230.3279999999999
 31
0.0
  0
LINE
  5
64
330
1E
100
AcDbEntity
  8
0
100
AcDbLine
 10
11.71559299999999
 20
231.354
 30
0.0
 11
14.45619299999999
 21
230.0759999999999
 31
0.0
  0
LINE
  5
65
330
1E
100
AcDbEntity
  8
0
100
AcDbLine
 10
23.89569299999999
 20
231.84
 30
0.0
 11
26.161493
 21
230.784
 31
0.0
  0
LINE
  5
66
330
1E
100
AcDbEntity
  8
0
100
AcDbLine
 10
23.68439299999999
 20
231.387
 30
0.0
 11
25.950193
 21
230.33
 31
0.0
  0
LINE
  5
68
330
1E
100
AcDbEntity
  8
0
100
AcDbLine
 10
14.62649299999999
 20
230.3279999999999
 30
0.0
 11
17.236693
 21
229.1109999999999
 31
0.0
  0
LINE
  5
69
330
1E
100
AcDbEntity
  8
0
100
AcDbLine
 10
14.45619299999999
 20
230.0759999999999
 30
0.0
 11
16.97939299999999
 21
228.9
 31
0.0
  0
LINE
  5
6A
330
1E
100
AcDbEntity
  8
0
100
AcDbLine
 10
20.995593
 20
233.192
 30
0.0
 11
23.89569299999999
 21
231.84
 31
0.0
  0
LINE
  5
6B
330
1E
100
AcDbEntity
  8
0
100
AcDbLine
 10
20.78429299999999
 20
232.739
 30
0.0
 11
23.68439299999999
 21
231.387
 31
0.0
  0
LINE
  5
6C
330
1E
100
AcDbEntity
  8
0
100
AcDbLine
 10
17.64219299999999
 20
234.7559999999999
 30
0.0
 11
20.995593
 21
233.192
 31
0.0
  0
LINE
  5
6D
330
1E
100
AcDbEntity
  8
0
100
AcDbLine
 10
17.43089299999999
 20
234.303
 30
0.0
 11
20.78429299999999
 21
232.739
 31
0.0
  0
LINE
  5
6E
330
1E
100
AcDbEntity
  8
0
100
AcDbLine
 10
9.058193000000009
 20
232.9239999999999
 30
0.0
 11
11.84239299999999
 21
231.6259999999999
 31
0.0
  0
LINE
  5
6F
330
1E
100
AcDbEntity
  8
0
100
AcDbLine
 10
8.974893000000008
 20
232.6319999999999
 30
0.0
 11
11.71559299999999
 21
231.354
 31
0.0
  0
LINE
  5
70
330
1E
100
AcDbEntity
  8
0
100
AcDbLine
 10
6.451733000000009
 20
233.809
 30
0.0
 11
8.974893000000008
 21
232.6319999999999
 31
0.0
  0
LINE
  5
71
330
1E
100
AcDbEntity
  8
0
100
AcDbLine
 10
13.805693
 20
235.9929999999999
 30
0.0
 11
17.43089299999999
 21
234.303
 31
0.0
  0
LINE
  5
72
330
1E
100
AcDbEntity
  8
0
100
AcDbLine
 10
4.142363000000009
 20
235.217
 30
0.0
 11
6.448013000000009
 21
234.1409999999999
 31
0.0
  0
LINE
  5
73
330
1E
100
AcDbEntity
  8
0
100
AcDbLine
 10
4.233093000000009
 20
234.843
 30
0.0
 11
6.451733000000009
 21
233.809
 31
0.0
  0
LINE
  5
74
330
1E
100
AcDbEntity
  8
0
100
AcDbLine
 10
2.536483000000009
 20
235.634
 30
0.0
 11
4.233093000000009
 21
234.843
 31
0.0
  0
LINE
  5
75
330
1E
100
AcDbEntity
  8
0
100
AcDbLine
 10
1.100893000000009
 20
236.304
 30
0.0
 11
1.49241300000001
 21
236.1209999999999
 31
0.0
  0
LINE
  5
76
330
1E
100
AcDbEntity
  8
0
100
AcDbLine
 10
1.35818300000001
 20
236.5149999999999
 30
0.0
 11
2.402253000000009
 21
236.0279999999999
 31
0.0
  0
LINE
  5
77
330
1E
100
AcDbEntity
  8
0
100
AcDbLine
 10
7.038413000000009
 20
239.7009999999999
 30
0.0
 11
10.391793
 21
238.1369999999999
 31
0.0
  0
LINE
  5
78
330
1E
100
AcDbEntity
  8
0
100
AcDbLine
 10
6.827113000000009
 20
239.2479999999999
 30
0.0
 11
10.18049299999999
 21
237.684
 31
0.0
  0
LINE
  5
79
330
1E
100
AcDbEntity
  8
0
100
AcDbLine
 10
14.01699299999999
 20
236.447
 30
0.0
 11
17.64219299999999
 21
234.7559999999999
 31
0.0
  0
LINE
  5
7A
330
1E
100
AcDbEntity
  8
0
100
AcDbLine
 10
10.391793
 20
238.1369999999999
 30
0.0
 11
14.01699299999999
 21
236.447
 31
0.0
  0
LINE
  5
7B
330
1E
100
AcDbEntity
  8
0
100
AcDbLine
 10
10.18049299999999
 20
237.684
 30
0.0
 11
13.805693
 21
235.9929999999999
 31
0.0
  0
LINE
  5
7C
330
1E
100
AcDbEntity
  8
0
100
AcDbLine
 10
1.49241300000001
 20
236.1209999999999
 30
0.0
 11
2.536483000000009
 21
235.634
 31
0.0
  0
LINE
  5
7D
330
1E
100
AcDbEntity
  8
0
100
AcDbLine
 10
0.966663000000012
 20
236.697
 30
0.0
 11
2.567644474053319
 21
240.130610773532
 31
0.0
  0
LINE
  5
7E
330
1E
100
AcDbEntity
  8
0
100
AcDbLine
 10
-0.0002479999999874
 20
241.88
 30
0.0
 11
0.6947530000000121
 21
241.004
 31
0.0
  0
LINE
  5
7F
330
1E
100
AcDbEntity
  8
0
100
AcDbLine
 10
-0.0307839999999875
 20
242.997
 30
0.0
 11
0.513003000000012
 21
242.744
 31
0.0
  0
LINE
  5
80
330
1E
100
AcDbEntity
  8
0
100
AcDbLine
 10
-0.0307839999999875
 20
242.997
 30
0.0
 11
0.633683000000013
 21
243.239
 31
0.0
  0
LINE
  5
81
330
1E
100
AcDbEntity
  8
0
100
AcDbLine
 10
-0.0307839999999875
 20
242.997
 30
0.0
 11
0.633683000000013
 21
243.239
 31
0.0
  0
LINE
  5
82
330
1E
100
AcDbEntity
  8
0
100
AcDbLine
 10
-0.0307839999999875
 20
242.997
 30
0.0
 11
0.513003000000012
 21
242.744
 31
0.0
  0
LINE
  5
83
330
1E
100
AcDbEntity
  8
0
100
AcDbLine
 10
-0.242092999999988
 20
242.544
 30
0.0
 11
-0.0002479999999874
 21
241.88
 31
0.0
  0
LINE
  5
84
330
1E
100
AcDbEntity
  8
0
100
AcDbLine
 10
-0.242092999999988
 20
242.544
 30
0.0
 11
-0.0307839999999875
 21
242.997
 31
0.0
  0
LINE
  5
85
330
1E
100
AcDbEntity
  8
0
100
AcDbLine
 10
-0.242092999999988
 20
242.544
 30
0.0
 11
-0.0002479999999874
 21
241.88
 31
0.0
  0
LINE
  5
86
330
1E
100
AcDbEntity
  8
0
100
AcDbLine
 10
-0.242092999999988
 20
242.544
 30
0.0
 11
0.301693000000012
 21
242.2909999999999
 31
0.0
  0
LINE
  5
87
330
1E
100
AcDbEntity
  8
0
100
AcDbLine
 10
-0.242092999999988
 20
242.544
 30
0.0
 11
-0.0307839999999875
 21
242.997
 31
0.0
  0
LINE
  5
88
330
1E
100
AcDbEntity
  8
0
100
AcDbLine
 10
0.301693000000012
 20
242.2909999999999
 30
0.0
 11
1.66115300000001
 21
241.657
 31
0.0
  0
LINE
  5
89
330
1E
100
AcDbEntity
  8
0
100
AcDbLine
 10
0.513003000000012
 20
242.744
 30
0.0
 11
1.87246300000001
 21
242.11
 31
0.0
  0
LINE
  5
8A
330
1E
100
AcDbEntity
  8
0
100
AcDbLine
 10
0.513003000000012
 20
242.744
 30
0.0
 11
1.87246300000001
 21
242.11
 31
0.0
  0
LINE
  5
8B
330
1E
100
AcDbEntity
  8
0
100
AcDbLine
 10
0.301693000000012
 20
242.2909999999999
 30
0.0
 11
1.66115300000001
 21
241.657
 31
0.0
  0
LINE
  5
8C
330
1E
100
AcDbEntity
  8
0
100
AcDbLine
 10
4.138233000000009
 20
241.053
 30
0.0
 11
7.038413000000009
 21
239.7009999999999
 31
0.0
  0
LINE
  5
8D
330
1E
100
AcDbEntity
  8
0
100
AcDbLine
 10
3.926923000000009
 20
240.6
 30
0.0
 11
6.827113000000009
 21
239.2479999999999
 31
0.0
  0
LINE
  5
8E
330
1E
100
AcDbEntity
  8
0
100
AcDbLine
 10
1.87246300000001
 20
242.11
 30
0.0
 11
4.138233000000009
 21
241.053
 31
0.0
  0
LINE
  5
8F
330
1E
100
AcDbEntity
  8
0
100
AcDbLine
 10
1.66115300000001
 20
241.657
 30
0.0
 11
3.926923000000009
 21
240.6
 31
0.0
  0
LINE
  5
90
330
1E
100
AcDbEntity
  8
0
100
AcDbLine
 10
0.6947530000000121
 20
241.004
 30
0.0
 11
2.41673300000001
 21
240.201
 31
0.0
  0
LINE
  5
91
330
1E
100
AcDbEntity
  8
0
100
AcDbLine
 10
10.36619299999999
 20
259.25
 30
0.0
 11
12.982393
 21
263.165
 31
0.0
  0
LINE
  5
92
330
1E
100
AcDbEntity
  8
0
100
AcDbLine
 10
12.982393
 20
263.165
 30
0.0
 11
16.087293
 21
266.7059999999999
 31
0.0
  0
LINE
  5
93
330
1E
100
AcDbEntity
  8
0
100
AcDbLine
 10
23.543093
 20
272.427
 30
0.0
 11
27.766493
 21
274.5099999999999
 31
0.0
  0
LINE
  5
94
330
1E
100
AcDbEntity
  8
0
100
AcDbLine
 10
19.627693
 20
269.8109999999999
 30
0.0
 11
23.543093
 21
272.427
 31
0.0
  0
LINE
  5
95
330
1E
100
AcDbEntity
  8
0
100
AcDbLine
 10
16.087293
 20
266.7059999999999
 30
0.0
 11
19.627693
 21
269.8109999999999
 31
0.0
  0
LINE
  5
96
330
1E
100
AcDbEntity
  8
0
100
AcDbLine
 10
3.502843000000009
 20
244.66
 30
0.0
 11
10.36619299999999
 21
259.25
 31
0.0
  0
LINE
  5
97
330
1E
100
AcDbEntity
  8
0
100
AcDbLine
 10
2.415763000000009
 20
243.5109999999999
 30
0.0
 11
3.502843000000009
 21
244.66
 31
0.0
  0
LINE
  5
98
330
1E
100
AcDbEntity
  8
0
100
AcDbLine
 10
1.75129300000001
 20
243.27
 30
0.0
 11
2.415763000000009
 21
243.5109999999999
 31
0.0
  0
LINE
  5
99
330
1E
100
AcDbEntity
  8
0
100
AcDbLine
 10
0.633683000000013
 20
243.239
 30
0.0
 11
1.75129300000001
 21
243.27
 31
0.0
  0
LINE
  5
9A
330
1E
100
AcDbEntity
  8
0
100
AcDbLine
 10
-0.0002479999999874
 20
241.88
 30
0.0
 11
0.6947530000000121
 21
241.004
 31
0.0
  0
LINE
  5
9B
330
1E
100
AcDbEntity
  8
0
100
AcDbLine
 10
2.41673300000001
 20
240.201
 30
0.0
 11
2.567644474053319
 21
240.130610773532
 31
0.0
  0
LINE
  5
9C
330
1E
100
AcDbEntity
  8
0
100
AcDbLine
 10
2.41673300000001
 20
240.201
 30
0.0
 11
25.61819299999999
 21
229.382
 31
0.0
  0
LINE
  5
9D
330
1E
100
AcDbEntity
  8
0
100
AcDbLine
 10
26.161493
 20
230.784
 30
0.0
 11
27.520993
 21
230.15
 31
0.0
  0
LINE
  5
9E
330
1E
100
AcDbEntity
  8
0
100
AcDbLine
 10
25.950193
 20
230.33
 30
0.0
 11
27.30969299999999
 21
229.6959999999999
 31
0.0
  0
LINE
  5
9F
330
1E
100
AcDbEntity
  8
0
100
AcDbLine
 10
27.520993
 20
230.15
 30
0.0
 11
28.06479299999999
 21
229.896
 31
0.0
  0
LINE
  5
A0
330
1E
100
AcDbEntity
  8
0
100
AcDbLine
 10
27.30969299999999
 20
229.6959999999999
 30
0.0
 11
27.853493
 21
229.4429999999999
 31
0.0
  0
LINE
  5
A1
330
1E
100
AcDbEntity
  8
0
100
AcDbLine
 10
27.766493
 20
274.5099999999999
 30
0.0
 11
32.22559299999999
 21
276.0229999999999
 31
0.0
  0
LINE
  5
A2
330
1E
100
AcDbEntity
  8
0
100
AcDbLine
 10
27.066893
 20
233.672
 30
0.0
 11
32.882793
 21
246.2499999999999
 31
0.0
  0
LINE
  5
A3
330
1E
100
AcDbEntity
  8
0
100
AcDbLine
 10
26.88609299999999
 20
232.101
 30
0.0
 11
27.127893
 21
231.4359999999999
 31
0.0
  0
LINE
  5
A4
330
1E
100
AcDbEntity
  8
0
100
AcDbLine
 10
26.88609299999999
 20
232.101
 30
0.0
 11
27.066893
 21
233.672
 31
0.0
  0
LINE
  5
A5
330
1E
100
AcDbEntity
  8
0
100
AcDbLine
 10
27.127893
 20
231.4359999999999
 30
0.0
 11
27.822893
 21
230.5609999999999
 31
0.0
  0
LINE
  5
A6
330
1E
100
AcDbEntity
  8
0
100
AcDbLine
 10
32.882793
 20
246.2499999999999
 30
0.0
 11
33.60959299999999
 21
247.338
 31
0.0
  0
LINE
  5
A7
330
1E
100
AcDbEntity
  8
0
100
AcDbLine
 10
33.60959299999999
 20
247.338
 30
0.0
 11
34.47199299999999
 21
248.321
 31
0.0
  0
LINE
  5
A8
330
1E
100
AcDbEntity
  8
0
100
AcDbLine
 10
37.716293
 20
250.489
 30
0.0
 11
38.95489299999999
 21
250.909
 31
0.0
  0
LINE
  5
A9
330
1E
100
AcDbEntity
  8
0
100
AcDbLine
 10
36.54309299999999
 20
249.9099999999999
 30
0.0
 11
37.716293
 21
250.489
 31
0.0
  0
LINE
  5
AA
330
1E
100
AcDbEntity
  8
0
100
AcDbLine
 10
35.45549299999999
 20
249.184
 30
0.0
 11
36.54309299999999
 21
249.9099999999999
 31
0.0
  0
LINE
  5
AB
330
1E
100
AcDbEntity
  8
0
100
AcDbLine
 10
34.47199299999999
 20
248.321
 30
0.0
 11
35.45549299999999
 21
249.184
 31
0.0
  0
LINE
  5
AC
330
1E
100
AcDbEntity
  8
0
100
AcDbLine
 10
38.95489299999999
 20
250.909
 30
0.0
 11
40.237793
 21
251.164
 31
0.0
  0
LINE
  5
AD
330
1E
100
AcDbEntity
  8
0
100
AcDbLine
 10
41.543093
 20
251.25
 30
0.0
 11
150.5430929999999
 21
251.25
 31
0.0
  0
LINE
  5
AE
330
1E
100
AcDbEntity
  8
0
100
AcDbLine
 10
40.237793
 20
251.164
 30
0.0
 11
41.543093
 21
251.25
 31
0.0
  0
LINE
  5
AF
330
1E
100
AcDbEntity
  8
0
100
AcDbLine
 10
32.22559299999999
 20
276.0229999999999
 30
0.0
 11
36.844193
 21
276.942
 31
0.0
  0
LINE
  5
B0
330
1E
100
AcDbEntity
  8
0
100
AcDbLine
 10
36.844193
 20
276.942
 30
0.0
 11
41.543093
 21
277.2499999999999
 31
0.0
  0
LINE
  5
B1
330
1E
100
AcDbEntity
  8
0
100
AcDbLine
 10
41.543093
 20
277.2499999999999
 30
0.0
 11
150.5430929999999
 21
277.2499999999999
 31
0.0
  0
LINE
  5
B2
330
1E
100
AcDbEntity
  8
0
100
AcDbLine
 10
150.5430929999999
 20
277.2499999999999
 30
0.0
 11
152.5430929999999
 21
277.7499999999999
 31
0.0
  0
LINE
  5
B3
330
1E
100
AcDbEntity
  8
0
100
AcDbLine
 10
153.5430929999999
 20
286.75
 30
0.0
 11
154.1430929999999
 21
286.75
 31
0.0
  0
LINE
  5
B4
330
1E
100
AcDbEntity
  8
0
100
AcDbLine
 10
153.743093
 20
286.25
 30
0.0
 11
155.443093
 21
286.25
 31
0.0
  0
LINE
  5
B5
330
1E
100
AcDbEntity
  8
0
100
AcDbLine
 10
153.043093
 20
286.25
 30
0.0
 11
153.5430929999999
 21
286.75
 31
0.0
  0
LINE
  5
B6
330
1E
100
AcDbEntity
  8
0
100
AcDbLine
 10
153.043093
 20
286.25
 30
0.0
 11
153.743093
 21
286.25
 31
0.0
  0
LINE
  5
B7
330
1E
100
AcDbEntity
  8
0
100
AcDbLine
 10
153.043093
 20
278.083333333333
 30
0.0
 11
153.043093
 21
286.25
 31
0.0
  0
LINE
  5
B8
330
1E
100
AcDbEntity
  8
0
100
AcDbLine
 10
154.1430929999999
 20
286.75
 30
0.0
 11
155.8430929999999
 21
286.75
 31
0.0
  0
LINE
  5
B9
330
1E
100
AcDbEntity
  8
0
100
AcDbLine
 10
153.743093
 20
288.75
 30
0.0
 11
155.043093
 21
288.75
 31
0.0
  0
LINE
  5
BA
330
1E
100
AcDbEntity
  8
0
100
AcDbLine
 10
153.743093
 20
288.75
 30
0.0
 11
155.443093
 21
288.75
 31
0.0
  0
LINE
  5
BB
330
1E
100
AcDbEntity
  8
0
100
AcDbLine
 10
153.043093
 20
288.75
 30
0.0
 11
153.743093
 21
288.75
 31
0.0
  0
LINE
  5
BC
330
1E
100
AcDbEntity
  8
0
100
AcDbLine
 10
153.043093
 20
288.75
 30
0.0
 11
153.043093
 21
298.79904
 31
0.0
  0
LINE
  5
BD
330
1E
100
AcDbEntity
  8
0
100
AcDbLine
 10
155.043093
 20
288.75
 30
0.0
 11
155.043093
 21
286.75
 31
0.0
  0
LINE
  5
BE
330
1E
100
AcDbEntity
  8
0
100
AcDbLine
 10
152.5430929999999
 20
277.7499999999999
 30
0.0
 11
153.043093
 21
278.083333333333
 31
0.0
  0
LINE
  5
BF
330
1E
100
AcDbEntity
  8
0
100
AcDbLine
 10
150.5430929999999
 20
251.25
 30
0.0
 11
152.5430929999999
 21
250.7499999999999
 31
0.0
  0
LINE
  5
C0
330
1E
100
AcDbEntity
  8
0
100
AcDbLine
 10
152.5430929999999
 20
250.7499999999999
 30
0.0
 11
153.043093
 21
250.4166666666669
 31
0.0
  0
LINE
  5
C1
330
1E
100
AcDbEntity
  8
0
100
AcDbLine
 10
27.822893
 20
230.5609999999999
 30
0.0
 11
28.06479299999999
 21
229.896
 31
0.0
  0
LINE
  5
C2
330
1E
100
AcDbEntity
  8
0
100
AcDbLine
 10
27.853493
 20
229.4429999999999
 30
0.0
 11
28.06479299999999
 21
229.896
 31
0.0
  0
LINE
  5
C3
330
1E
100
AcDbEntity
  8
0
100
AcDbLine
 10
25.61819299999999
 20
229.382
 30
0.0
 11
26.071393
 21
229.171
 31
0.0
  0
LINE
  5
C4
330
1E
100
AcDbEntity
  8
0
100
AcDbLine
 10
155.443093
 20
286.25
 30
0.0
 11
158.3430929999999
 21
286.25
 31
0.0
  0
LINE
  5
C5
330
1E
100
AcDbEntity
  8
0
100
AcDbLine
 10
158.3430929999999
 20
286.25
 30
0.0
 11
162.143093
 21
286.25
 31
0.0
  0
LINE
  5
C6
330
1E
100
AcDbEntity
  8
0
100
AcDbLine
 10
162.143093
 20
286.25
 30
0.0
 11
166.4430929999999
 21
286.25
 31
0.0
  0
LINE
  5
C7
330
1E
100
AcDbEntity
  8
0
100
AcDbLine
 10
166.4430929999999
 20
286.25
 30
0.0
 11
171.043093
 21
286.25
 31
0.0
  0
LINE
  5
C8
330
1E
100
AcDbEntity
  8
0
100
AcDbLine
 10
179.9430929999999
 20
286.25
 30
0.0
 11
183.743093
 21
286.25
 31
0.0
  0
LINE
  5
C9
330
1E
100
AcDbEntity
  8
0
100
AcDbLine
 10
175.643093
 20
286.25
 30
0.0
 11
179.9430929999999
 21
286.25
 31
0.0
  0
LINE
  5
CA
330
1E
100
AcDbEntity
  8
0
100
AcDbLine
 10
171.043093
 20
286.25
 30
0.0
 11
175.643093
 21
286.25
 31
0.0
  0
LINE
  5
CB
330
1E
100
AcDbEntity
  8
0
100
AcDbLine
 10
183.743093
 20
286.25
 30
0.0
 11
186.6430929999999
 21
286.25
 31
0.0
  0
LINE
  5
CC
330
1E
100
AcDbEntity
  8
0
100
AcDbLine
 10
155.8430929999999
 20
286.75
 30
0.0
 11
158.6430929999999
 21
286.75
 31
0.0
  0
LINE
  5
CD
330
1E
100
AcDbEntity
  8
0
100
AcDbLine
 10
158.6430929999999
 20
286.75
 30
0.0
 11
162.3430929999999
 21
286.75
 31
0.0
  0
LINE
  5
CE
330
1E
100
AcDbEntity
  8
0
100
AcDbLine
 10
162.3430929999999
 20
286.75
 30
0.0
 11
166.543093
 21
286.75
 31
0.0
  0
LINE
  5
CF
330
1E
100
AcDbEntity
  8
0
100
AcDbLine
 10
166.543093
 20
286.75
 30
0.0
 11
171.043093
 21
286.75
 31
0.0
  0
LINE
  5
D0
330
1E
100
AcDbEntity
  8
0
100
AcDbLine
 10
179.7430929999999
 20
286.75
 30
0.0
 11
183.443093
 21
286.75
 31
0.0
  0
LINE
  5
D1
330
1E
100
AcDbEntity
  8
0
100
AcDbLine
 10
175.5430929999999
 20
286.75
 30
0.0
 11
179.7430929999999
 21
286.75
 31
0.0
  0
LINE
  5
D2
330
1E
100
AcDbEntity
  8
0
100
AcDbLine
 10
171.043093
 20
286.75
 30
0.0
 11
175.5430929999999
 21
286.75
 31
0.0
  0
LINE
  5
D3
330
1E
100
AcDbEntity
  8
0
100
AcDbLine
 10
183.443093
 20
286.75
 30
0.0
 11
186.243093
 21
286.75
 31
0.0
  0
LINE
  5
D4
330
1E
100
AcDbEntity
  8
0
100
AcDbLine
 10
186.243093
 20
286.75
 30
0.0
 11
187.943093
 21
286.75
 31
0.0
  0
LINE
  5
D5
330
1E
100
AcDbEntity
  8
0
100
AcDbLine
 10
187.943093
 20
286.75
 30
0.0
 11
188.543093
 21
286.75
 31
0.0
  0
LINE
  5
D6
330
1E
100
AcDbEntity
  8
0
100
AcDbLine
 10
186.6430929999999
 20
286.25
 30
0.0
 11
188.3430929999999
 21
286.25
 31
0.0
  0
LINE
  5
D7
330
1E
100
AcDbEntity
  8
0
100
AcDbLine
 10
188.3430929999999
 20
286.25
 30
0.0
 11
189.0430929999999
 21
286.25
 31
0.0
  0
LINE
  5
D8
330
1E
100
AcDbEntity
  8
0
100
AcDbLine
 10
158.3430929999999
 20
288.75
 30
0.0
 11
162.143093
 21
288.75
 31
0.0
  0
LINE
  5
D9
330
1E
100
AcDbEntity
  8
0
100
AcDbLine
 10
162.143093
 20
288.75
 30
0.0
 11
166.4430929999999
 21
288.75
 31
0.0
  0
LINE
  5
DA
330
1E
100
AcDbEntity
  8
0
100
AcDbLine
 10
166.4430929999999
 20
288.75
 30
0.0
 11
171.043093
 21
288.75
 31
0.0
  0
LINE
  5
DB
330
1E
100
AcDbEntity
  8
0
100
AcDbLine
 10
155.443093
 20
288.75
 30
0.0
 11
158.3430929999999
 21
288.75
 31
0.0
  0
LINE
  5
DC
330
1E
100
AcDbEntity
  8
0
100
AcDbLine
 10
171.043093
 20
288.75
 30
0.0
 11
175.611093
 21
290.0709999999999
 31
0.0
  0
LINE
  5
DD
330
1E
100
AcDbEntity
  8
0
100
AcDbLine
 10
187.0430929999999
 20
286.75
 30
0.0
 11
187.0430929999999
 21
288.75
 31
0.0
  0
LINE
  5
DE
330
1E
100
AcDbEntity
  8
0
100
AcDbLine
 10
155.043093
 20
286.75
 30
0.0
 11
155.043093
 21
288.75
 31
0.0
  0
LINE
  5
DF
330
1E
100
AcDbEntity
  8
0
100
AcDbLine
 10
179.931093
 20
291.2219999999999
 30
0.0
 11
183.6740929999999
 21
292.2769999999999
 31
0.0
  0
LINE
  5
E0
330
1E
100
AcDbEntity
  8
0
100
AcDbLine
 10
175.611093
 20
290.0709999999999
 30
0.0
 11
179.931093
 21
291.2219999999999
 31
0.0
  0
LINE
  5
E1
330
1E
100
AcDbEntity
  8
0
100
AcDbLine
 10
183.6740929999999
 20
292.2769999999999
 30
0.0
 11
186.698093
 21
293.092
 31
0.0
  0
LINE
  5
FC
330
1E
100
AcDbEntity
  8
0
100
AcDbLine
 10
91.72919300000001
 20
311.4559999999999
 30
0.0
 11
92.37539299999999
 21
311.7059999999999
 31
0.0
  0
LINE
  5
FD
330
1E
100
AcDbEntity
  8
0
100
AcDbLine
 10
91.72919300000001
 20
311.4559999999999
 30
0.0
 11
91.72919300000001
 21
311.622
 31
0.0
  0
LINE
  5
FE
330
1E
100
AcDbEntity
  8
0
100
AcDbLine
 10
91.72919300000001
 20
311.622
 30
0.0
 11
91.72919300000001
 21
311.4559999999999
 31
0.0
  0
LINE
  5
FF
330
1E
100
AcDbEntity
  8
0
100
AcDbLine
 10
91.72919300000001
 20
311.622
 30
0.0
 11
91.72919300000001
 21
312.122
 31
0.0
  0
LINE
  5
100
330
1E
100
AcDbEntity
  8
0
100
AcDbLine
 10
92.37539299999999
 20
311.7059999999999
 30
0.0
 11
92.65239300000001
 21
312.2889999999999
 31
0.0
  0
LINE
  5
101
330
1E
100
AcDbEntity
  8
0
100
AcDbLine
 10
92.37539299999999
 20
311.7059999999999
 30
0.0
 11
92.37539299999999
 21
311.872
 31
0.0
  0
LINE
  5
102
330
1E
100
AcDbEntity
  8
0
100
AcDbLine
 10
92.37539299999999
 20
311.872
 30
0.0
 11
92.37539299999999
 21
311.7059999999999
 31
0.0
  0
LINE
  5
103
330
1E
100
AcDbEntity
  8
0
100
AcDbLine
 10
92.37539299999999
 20
311.872
 30
0.0
 11
92.37539299999999
 21
312.372
 31
0.0
  0
LINE
  5
104
330
1E
100
AcDbEntity
  8
0
100
AcDbLine
 10
91.72919300000001
 20
312.122
 30
0.0
 11
91.72919300000001
 21
311.622
 31
0.0
  0
LINE
  5
105
330
1E
100
AcDbEntity
  8
0
100
AcDbLine
 10
91.72919300000001
 20
312.122
 30
0.0
 11
91.72919300000001
 21
312.9559999999999
 31
0.0
  0
LINE
  5
106
330
1E
100
AcDbEntity
  8
0
100
AcDbLine
 10
91.082993
 20
311.872
 30
0.0
 11
91.082993
 21
311.7059999999999
 31
0.0
  0
LINE
  5
107
330
1E
100
AcDbEntity
  8
0
100
AcDbLine
 10
91.082993
 20
311.872
 30
0.0
 11
91.082993
 21
312.372
 31
0.0
  0
LINE
  5
108
330
1E
100
AcDbEntity
  8
0
100
AcDbLine
 10
148.8680929999999
 20
311.872
 30
0.0
 11
148.8680929999999
 21
312.372
 31
0.0
  0
LINE
  5
109
330
1E
100
AcDbEntity
  8
0
100
AcDbLine
 10
148.8680929999999
 20
311.872
 30
0.0
 11
148.8680929999999
 21
311.7059999999999
 31
0.0
  0
LINE
  5
10A
330
1E
100
AcDbEntity
  8
0
100
AcDbLine
 10
92.65239300000001
 20
312.2889999999999
 30
0.0
 11
97.544593
 21
312.7059999999999
 31
0.0
  0
LINE
  5
10B
330
1E
100
AcDbEntity
  8
0
100
AcDbLine
 10
92.65239300000001
 20
312.2889999999999
 30
0.0
 11
92.65239300000001
 21
312.4559999999999
 31
0.0
  0
LINE
  5
10C
330
1E
100
AcDbEntity
  8
0
100
AcDbLine
 10
91.082993
 20
311.7059999999999
 30
0.0
 11
91.72919300000001
 21
311.4559999999999
 31
0.0
  0
LINE
  5
10D
330
1E
100
AcDbEntity
  8
0
100
AcDbLine
 10
91.082993
 20
311.7059999999999
 30
0.0
 11
91.082993
 21
311.872
 31
0.0
  0
LINE
  5
10E
330
1E
100
AcDbEntity
  8
0
100
AcDbLine
 10
90.80619300000009
 20
312.2889999999999
 30
0.0
 11
90.80619300000009
 21
312.4559999999999
 31
0.0
  0
LINE
  5
10F
330
1E
100
AcDbEntity
  8
0
100
AcDbLine
 10
90.80619300000009
 20
312.2889999999999
 30
0.0
 11
91.082993
 21
311.7059999999999
 31
0.0
  0
LINE
  5
110
330
1E
100
AcDbEntity
  8
0
100
AcDbLine
 10
92.65239300000001
 20
312.4559999999999
 30
0.0
 11
92.65239300000001
 21
312.2889999999999
 31
0.0
  0
LINE
  5
111
330
1E
100
AcDbEntity
  8
0
100
AcDbLine
 10
92.65239300000001
 20
312.4559999999999
 30
0.0
 11
92.65239300000001
 21
312.872
 31
0.0
  0
LINE
  5
112
330
1E
100
AcDbEntity
  8
0
100
AcDbLine
 10
92.37539299999999
 20
312.372
 30
0.0
 11
92.37539299999999
 21
311.872
 31
0.0
  0
LINE
  5
113
330
1E
100
AcDbEntity
  8
0
100
AcDbLine
 10
92.37539299999999
 20
312.372
 30
0.0
 11
92.37539299999999
 21
313.122
 31
0.0
  0
LINE
  5
114
330
1E
100
AcDbEntity
  8
0
100
AcDbLine
 10
91.082993
 20
312.372
 30
0.0
 11
91.082993
 21
311.872
 31
0.0
  0
LINE
  5
115
330
1E
100
AcDbEntity
  8
0
100
AcDbLine
 10
91.082993
 20
312.372
 30
0.0
 11
91.082993
 21
313.122
 31
0.0
  0
LINE
  5
116
330
1E
100
AcDbEntity
  8
0
100
AcDbLine
 10
92.65239300000001
 20
312.872
 30
0.0
 11
92.65239300000001
 21
312.4559999999999
 31
0.0
  0
LINE
  5
117
330
1E
100
AcDbEntity
  8
0
100
AcDbLine
 10
92.65239300000001
 20
312.872
 30
0.0
 11
92.65239300000001
 21
313.539
 31
0.0
  0
LINE
  5
118
330
1E
100
AcDbEntity
  8
0
100
AcDbLine
 10
97.544593
 20
312.7059999999999
 30
0.0
 11
105.852093
 21
313.122
 31
0.0
  0
LINE
  5
119
330
1E
100
AcDbEntity
  8
0
100
AcDbLine
 10
90.80619300000009
 20
312.4559999999999
 30
0.0
 11
90.80619300000009
 21
312.2889999999999
 31
0.0
  0
LINE
  5
11A
330
1E
100
AcDbEntity
  8
0
100
AcDbLine
 10
92.37539299999999
 20
313.122
 30
0.0
 11
92.37539299999999
 21
314.122
 31
0.0
  0
LINE
  5
11B
330
1E
100
AcDbEntity
  8
0
100
AcDbLine
 10
91.72919300000001
 20
312.9559999999999
 30
0.0
 11
91.72919300000001
 21
313.9559999999999
 31
0.0
  0
LINE
  5
11C
330
1E
100
AcDbEntity
  8
0
100
AcDbLine
 10
91.72919300000001
 20
312.9559999999999
 30
0.0
 11
91.72919300000001
 21
312.122
 31
0.0
  0
LINE
  5
11D
330
1E
100
AcDbEntity
  8
0
100
AcDbLine
 10
91.082993
 20
313.122
 30
0.0
 11
91.082993
 21
314.122
 31
0.0
  0
LINE
  5
11E
330
1E
100
AcDbEntity
  8
0
100
AcDbLine
 10
91.082993
 20
313.122
 30
0.0
 11
91.082993
 21
312.372
 31
0.0
  0
LINE
  5
11F
330
1E
100
AcDbEntity
  8
0
100
AcDbLine
 10
105.852093
 20
313.122
 30
0.0
 11
120.6210929999999
 21
313.122
 31
0.0
  0
LINE
  5
120
330
1E
100
AcDbEntity
  8
0
100
AcDbLine
 10
90.80619300000009
 20
312.4559999999999
 30
0.0
 11
90.80619300000009
 21
313.2059999999999
 31
0.0
  0
LINE
  5
121
330
1E
100
AcDbEntity
  8
0
100
AcDbLine
 10
90.80619300000009
 20
312.4559999999999
 30
0.0
 11
90.80619300000009
 21
313.539
 31
0.0
  0
LINE
  5
122
330
1E
100
AcDbEntity
  8
0
100
AcDbLine
 10
120.6210929999999
 20
313.122
 30
0.0
 11
135.3910929999999
 21
313.122
 31
0.0
  0
LINE
  5
123
330
1E
100
AcDbEntity
  8
0
100
AcDbLine
 10
90.80619300000009
 20
313.789
 30
0.0
 11
90.80619300000009
 21
314.622
 31
0.0
  0
LINE
  5
124
330
1E
100
AcDbEntity
  8
0
100
AcDbLine
 10
90.80619300000009
 20
313.789
 30
0.0
 11
90.80619300000009
 21
313.2059999999999
 31
0.0
  0
LINE
  5
125
330
1E
100
AcDbEntity
  8
0
100
AcDbLine
 10
90.80619300000009
 20
314.622
 30
0.0
 11
90.80619300000009
 21
313.789
 31
0.0
  0
LINE
  5
126
330
1E
100
AcDbEntity
  8
0
100
AcDbLine
 10
90.80619300000009
 20
314.622
 30
0.0
 11
90.80619300000009
 21
315.4559999999999
 31
0.0
  0
LINE
  5
127
330
1E
100
AcDbEntity
  8
0
100
AcDbLine
 10
90.80619300000009
 20
315.4559999999999
 30
0.0
 11
90.80619300000009
 21
314.622
 31
0.0
  0
LINE
  5
128
330
1E
100
AcDbEntity
  8
0
100
AcDbLine
 10
90.80619300000009
 20
315.4559999999999
 30
0.0
 11
90.80619300000009
 21
316.4559999999999
 31
0.0
  0
LINE
  5
129
330
1E
100
AcDbEntity
  8
0
100
AcDbLine
 10
90.80619300000009
 20
316.4559999999999
 30
0.0
 11
90.80619300000009
 21
317.539
 31
0.0
  0
LINE
  5
12A
330
1E
100
AcDbEntity
  8
0
100
AcDbLine
 10
90.80619300000009
 20
316.4559999999999
 30
0.0
 11
90.80619300000009
 21
315.4559999999999
 31
0.0
  0
LINE
  5
12B
330
1E
100
AcDbEntity
  8
0
100
AcDbLine
 10
90.80619300000009
 20
317.539
 30
0.0
 11
90.80619300000009
 21
316.4559999999999
 31
0.0
  0
LINE
  5
12C
330
1E
100
AcDbEntity
  8
0
100
AcDbLine
 10
90.80619300000009
 20
317.539
 30
0.0
 11
90.80619300000009
 21
318.5389999999999
 31
0.0
  0
LINE
  5
12D
330
1E
100
AcDbEntity
  8
0
100
AcDbLine
 10
90.80619300000009
 20
314.233333333333
 30
0.0
 11
90.80619300000009
 21
313.539
 31
0.0
  0
LINE
  5
12E
330
1E
100
AcDbEntity
  8
0
100
AcDbLine
 10
91.082993
 20
314.122
 30
0.0
 11
91.082993
 21
313.122
 31
0.0
  0
LINE
  5
12F
330
1E
100
AcDbEntity
  8
0
100
AcDbLine
 10
91.082993
 20
314.122
 30
0.0
 11
91.082993
 21
315.2059999999999
 31
0.0
  0
LINE
  5
130
330
1E
100
AcDbEntity
  8
0
100
AcDbLine
 10
91.082993
 20
315.2059999999999
 30
0.0
 11
91.082993
 21
314.122
 31
0.0
  0
LINE
  5
131
330
1E
100
AcDbEntity
  8
0
100
AcDbLine
 10
91.082993
 20
315.2059999999999
 30
0.0
 11
91.082993
 21
316.4559999999999
 31
0.0
  0
LINE
  5
132
330
1E
100
AcDbEntity
  8
0
100
AcDbLine
 10
91.72919300000001
 20
313.9559999999999
 30
0.0
 11
91.72919300000001
 21
312.9559999999999
 31
0.0
  0
LINE
  5
133
330
1E
100
AcDbEntity
  8
0
100
AcDbLine
 10
91.72919300000001
 20
313.9559999999999
 30
0.0
 11
91.72919300000001
 21
315.2059999999999
 31
0.0
  0
LINE
  5
134
330
1E
100
AcDbEntity
  8
0
100
AcDbLine
 10
91.72919300000001
 20
315.2059999999999
 30
0.0
 11
91.72919300000001
 21
313.9559999999999
 31
0.0
  0
LINE
  5
135
330
1E
100
AcDbEntity
  8
0
100
AcDbLine
 10
91.72919300000001
 20
315.2059999999999
 30
0.0
 11
91.72919300000001
 21
316.4559999999999
 31
0.0
  0
LINE
  5
136
330
1E
100
AcDbEntity
  8
0
100
AcDbLine
 10
92.37539299999999
 20
314.122
 30
0.0
 11
92.37539299999999
 21
313.122
 31
0.0
  0
LINE
  5
137
330
1E
100
AcDbEntity
  8
0
100
AcDbLine
 10
92.37539299999999
 20
314.122
 30
0.0
 11
92.37539299999999
 21
315.2059999999999
 31
0.0
  0
LINE
  5
138
330
1E
100
AcDbEntity
  8
0
100
AcDbLine
 10
92.37539299999999
 20
315.2059999999999
 30
0.0
 11
92.37539299999999
 21
314.122
 31
0.0
  0
LINE
  5
139
330
1E
100
AcDbEntity
  8
0
100
AcDbLine
 10
92.37539299999999
 20
315.2059999999999
 30
0.0
 11
92.37539299999999
 21
316.4559999999999
 31
0.0
  0
LINE
  5
13A
330
1E
100
AcDbEntity
  8
0
100
AcDbLine
 10
92.65239300000001
 20
313.539
 30
0.0
 11
92.65239300000001
 21
314.372
 31
0.0
  0
LINE
  5
13B
330
1E
100
AcDbEntity
  8
0
100
AcDbLine
 10
92.65239300000001
 20
313.539
 30
0.0
 11
92.65239300000001
 21
312.872
 31
0.0
  0
LINE
  5
13C
330
1E
100
AcDbEntity
  8
0
100
AcDbLine
 10
92.65239300000001
 20
314.372
 30
0.0
 11
92.65239300000001
 21
313.539
 31
0.0
  0
LINE
  5
13D
330
1E
100
AcDbEntity
  8
0
100
AcDbLine
 10
92.65239300000001
 20
314.372
 30
0.0
 11
92.65239300000001
 21
315.372
 31
0.0
  0
LINE
  5
13E
330
1E
100
AcDbEntity
  8
0
100
AcDbLine
 10
92.65239300000001
 20
315.372
 30
0.0
 11
92.65239300000001
 21
314.372
 31
0.0
  0
LINE
  5
13F
330
1E
100
AcDbEntity
  8
0
100
AcDbLine
 10
92.65239300000001
 20
315.372
 30
0.0
 11
92.65239300000001
 21
316.4559999999999
 31
0.0
  0
LINE
  5
140
330
1E
100
AcDbEntity
  8
0
100
AcDbLine
 10
92.65239300000001
 20
316.4559999999999
 30
0.0
 11
92.65239300000001
 21
317.539
 31
0.0
  0
LINE
  5
141
330
1E
100
AcDbEntity
  8
0
100
AcDbLine
 10
92.65239300000001
 20
316.4559999999999
 30
0.0
 11
92.65239300000001
 21
315.372
 31
0.0
  0
LINE
  5
142
330
1E
100
AcDbEntity
  8
0
100
AcDbLine
 10
92.65239300000001
 20
317.539
 30
0.0
 11
92.65239300000001
 21
316.4559999999999
 31
0.0
  0
LINE
  5
143
330
1E
100
AcDbEntity
  8
0
100
AcDbLine
 10
92.65239300000001
 20
317.539
 30
0.0
 11
92.65239300000001
 21
318.5389999999999
 31
0.0
  0
LINE
  5
144
330
1E
100
AcDbEntity
  8
0
100
AcDbLine
 10
92.37539299999999
 20
316.4559999999999
 30
0.0
 11
92.37539299999999
 21
317.7059999999999
 31
0.0
  0
LINE
  5
145
330
1E
100
AcDbEntity
  8
0
100
AcDbLine
 10
92.37539299999999
 20
316.4559999999999
 30
0.0
 11
92.37539299999999
 21
315.2059999999999
 31
0.0
  0
LINE
  5
146
330
1E
100
AcDbEntity
  8
0
100
AcDbLine
 10
92.37539299999999
 20
317.7059999999999
 30
0.0
 11
92.37539299999999
 21
316.4559999999999
 31
0.0
  0
LINE
  5
147
330
1E
100
AcDbEntity
  8
0
100
AcDbLine
 10
92.37539299999999
 20
317.7059999999999
 30
0.0
 11
92.37539299999999
 21
318.7889999999999
 31
0.0
  0
LINE
  5
148
330
1E
100
AcDbEntity
  8
0
100
AcDbLine
 10
91.72919300000001
 20
316.4559999999999
 30
0.0
 11
91.72919300000001
 21
317.7059999999999
 31
0.0
  0
LINE
  5
149
330
1E
100
AcDbEntity
  8
0
100
AcDbLine
 10
91.72919300000001
 20
316.4559999999999
 30
0.0
 11
91.72919300000001
 21
315.2059999999999
 31
0.0
  0
LINE
  5
14A
330
1E
100
AcDbEntity
  8
0
100
AcDbLine
 10
91.72919300000001
 20
317.7059999999999
 30
0.0
 11
91.72919300000001
 21
316.4559999999999
 31
0.0
  0
LINE
  5
14B
330
1E
100
AcDbEntity
  8
0
100
AcDbLine
 10
91.72919300000001
 20
317.7059999999999
 30
0.0
 11
91.72919300000001
 21
318.9559999999999
 31
0.0
  0
LINE
  5
14C
330
1E
100
AcDbEntity
  8
0
100
AcDbLine
 10
91.082993
 20
316.4559999999999
 30
0.0
 11
91.082993
 21
317.7059999999999
 31
0.0
  0
LINE
  5
14D
330
1E
100
AcDbEntity
  8
0
100
AcDbLine
 10
91.082993
 20
316.4559999999999
 30
0.0
 11
91.082993
 21
315.2059999999999
 31
0.0
  0
LINE
  5
14E
330
1E
100
AcDbEntity
  8
0
100
AcDbLine
 10
91.082993
 20
317.7059999999999
 30
0.0
 11
91.082993
 21
316.4559999999999
 31
0.0
  0
LINE
  5
14F
330
1E
100
AcDbEntity
  8
0
100
AcDbLine
 10
91.082993
 20
317.7059999999999
 30
0.0
 11
91.082993
 21
318.7889999999999
 31
0.0
  0
LINE
  5
150
330
1E
100
AcDbEntity
  8
0
100
AcDbLine
 10
90.80619300000009
 20
313.539
 30
0.0
 11
90.80619300000009
 21
312.4559999999999
 31
0.0
  0
LINE
  5
151
330
1E
100
AcDbEntity
  8
0
100
AcDbLine
 10
90.80619300000009
 20
313.539
 30
0.0
 11
90.80619300000009
 21
314.233333333333
 31
0.0
  0
LINE
  5
152
330
1E
100
AcDbEntity
  8
0
100
AcDbLine
 10
90.80619300000009
 20
313.2059999999999
 30
0.0
 11
90.80619300000009
 21
312.4559999999999
 31
0.0
  0
LINE
  5
153
330
1E
100
AcDbEntity
  8
0
100
AcDbLine
 10
90.80619300000009
 20
313.2059999999999
 30
0.0
 11
90.80619300000009
 21
313.789
 31
0.0
  0
LINE
  5
154
330
1E
100
AcDbEntity
  8
0
100
AcDbLine
 10
90.71389299999999
 20
314.7889999999999
 30
0.0
 11
90.80619300000009
 21
314.233333333333
 31
0.0
  0
LINE
  5
155
330
1E
100
AcDbEntity
  8
0
100
AcDbLine
 10
92.65239300000001
 20
318.5389999999999
 30
0.0
 11
92.65239300000001
 21
317.539
 31
0.0
  0
LINE
  5
156
330
1E
100
AcDbEntity
  8
0
100
AcDbLine
 10
92.65239300000001
 20
318.5389999999999
 30
0.0
 11
92.65239300000001
 21
319.372
 31
0.0
  0
LINE
  5
157
330
1E
100
AcDbEntity
  8
0
100
AcDbLine
 10
90.80619300000009
 20
318.5389999999999
 30
0.0
 11
90.80619300000009
 21
317.539
 31
0.0
  0
LINE
  5
158
330
1E
100
AcDbEntity
  8
0
100
AcDbLine
 10
90.80619300000009
 20
318.5389999999999
 30
0.0
 11
90.80619300000009
 21
319.372
 31
0.0
  0
LINE
  5
159
330
1E
100
AcDbEntity
  8
0
100
AcDbLine
 10
90.71389299999999
 20
318.122
 30
0.0
 11
90.80619300000009
 21
318.6776666666669
 31
0.0
  0
LINE
  5
15A
330
1E
100
AcDbEntity
  8
0
100
AcDbLine
 10
90.62159300000001
 20
316.4559999999999
 30
0.0
 11
90.71389299999999
 21
318.122
 31
0.0
  0
LINE
  5
15B
330
1E
100
AcDbEntity
  8
0
100
AcDbLine
 10
90.62159300000001
 20
316.4559999999999
 30
0.0
 11
90.71389299999999
 21
314.7889999999999
 31
0.0
  0
LINE
  5
15C
330
1E
100
AcDbEntity
  8
0
100
AcDbLine
 10
90.80619300000009
 20
319.7059999999999
 30
0.0
 11
90.80619300000009
 21
319.122
 31
0.0
  0
LINE
  5
15D
330
1E
100
AcDbEntity
  8
0
100
AcDbLine
 10
90.80619300000009
 20
319.372
 30
0.0
 11
90.80619300000009
 21
320.039
 31
0.0
  0
LINE
  5
15E
330
1E
100
AcDbEntity
  8
0
100
AcDbLine
 10
90.80619300000009
 20
319.372
 30
0.0
 11
90.80619300000009
 21
318.5389999999999
 31
0.0
  0
LINE
  5
15F
330
1E
100
AcDbEntity
  8
0
100
AcDbLine
 10
91.082993
 20
319.789
 30
0.0
 11
91.082993
 21
318.7889999999999
 31
0.0
  0
LINE
  5
160
330
1E
100
AcDbEntity
  8
0
100
AcDbLine
 10
91.082993
 20
319.789
 30
0.0
 11
91.082993
 21
320.5389999999999
 31
0.0
  0
LINE
  5
161
330
1E
100
AcDbEntity
  8
0
100
AcDbLine
 10
92.37539299999999
 20
318.7889999999999
 30
0.0
 11
92.37539299999999
 21
317.7059999999999
 31
0.0
  0
LINE
  5
162
330
1E
100
AcDbEntity
  8
0
100
AcDbLine
 10
92.37539299999999
 20
318.7889999999999
 30
0.0
 11
92.37539299999999
 21
319.789
 31
0.0
  0
LINE
  5
163
330
1E
100
AcDbEntity
  8
0
100
AcDbLine
 10
92.65239300000001
 20
319.372
 30
0.0
 11
92.65239300000001
 21
318.5389999999999
 31
0.0
  0
LINE
  5
164
330
1E
100
AcDbEntity
  8
0
100
AcDbLine
 10
92.65239300000001
 20
319.372
 30
0.0
 11
92.65239300000001
 21
320.039
 31
0.0
  0
LINE
  5
165
330
1E
100
AcDbEntity
  8
0
100
AcDbLine
 10
92.37539299999999
 20
319.789
 30
0.0
 11
92.37539299999999
 21
318.7889999999999
 31
0.0
  0
LINE
  5
166
330
1E
100
AcDbEntity
  8
0
100
AcDbLine
 10
92.37539299999999
 20
319.789
 30
0.0
 11
92.37539299999999
 21
320.5389999999999
 31
0.0
  0
LINE
  5
167
330
1E
100
AcDbEntity
  8
0
100
AcDbLine
 10
91.72919300000001
 20
318.9559999999999
 30
0.0
 11
91.72919300000001
 21
317.7059999999999
 31
0.0
  0
LINE
  5
168
330
1E
100
AcDbEntity
  8
0
100
AcDbLine
 10
91.72919300000001
 20
318.9559999999999
 30
0.0
 11
91.72919300000001
 21
319.9559999999999
 31
0.0
  0
LINE
  5
169
330
1E
100
AcDbEntity
  8
0
100
AcDbLine
 10
91.082993
 20
318.7889999999999
 30
0.0
 11
91.082993
 21
317.7059999999999
 31
0.0
  0
LINE
  5
16A
330
1E
100
AcDbEntity
  8
0
100
AcDbLine
 10
91.082993
 20
318.7889999999999
 30
0.0
 11
91.082993
 21
319.789
 31
0.0
  0
LINE
  5
16B
330
1E
100
AcDbEntity
  8
0
100
AcDbLine
 10
105.852093
 20
319.789
 30
0.0
 11
120.6210929999999
 21
319.789
 31
0.0
  0
LINE
  5
16C
330
1E
100
AcDbEntity
  8
0
100
AcDbLine
 10
90.80619300000009
 20
319.122
 30
0.0
 11
90.80619300000009
 21
318.6776666666669
 31
0.0
  0
LINE
  5
16D
330
1E
100
AcDbEntity
  8
0
100
AcDbLine
 10
90.80619300000009
 20
319.122
 30
0.0
 11
90.80619300000009
 21
319.7059999999999
 31
0.0
  0
LINE
  5
16E
330
1E
100
AcDbEntity
  8
0
100
AcDbLine
 10
90.80619300000009
 20
318.6776666666669
 30
0.0
 11
90.80619300000009
 21
319.122
 31
0.0
  0
LINE
  5
16F
330
1E
100
AcDbEntity
  8
0
100
AcDbLine
 10
120.6210929999999
 20
319.789
 30
0.0
 11
135.3910929999999
 21
319.789
 31
0.0
  0
LINE
  5
170
330
1E
100
AcDbEntity
  8
0
100
AcDbLine
 10
90.80619300000009
 20
320.622
 30
0.0
 11
90.80619300000009
 21
320.039
 31
0.0
  0
LINE
  5
171
330
1E
100
AcDbEntity
  8
0
100
AcDbLine
 10
90.80619300000009
 20
320.622
 30
0.0
 11
91.082993
 21
321.2059999999999
 31
0.0
  0
LINE
  5
172
330
1E
100
AcDbEntity
  8
0
100
AcDbLine
 10
90.80619300000009
 20
320.2059999999999
 30
0.0
 11
90.80619300000009
 21
320.039
 31
0.0
  0
LINE
  5
173
330
1E
100
AcDbEntity
  8
0
100
AcDbLine
 10
91.082993
 20
320.5389999999999
 30
0.0
 11
91.082993
 21
319.789
 31
0.0
  0
LINE
  5
174
330
1E
100
AcDbEntity
  8
0
100
AcDbLine
 10
91.082993
 20
320.5389999999999
 30
0.0
 11
91.082993
 21
321.0389999999999
 31
0.0
  0
LINE
  5
175
330
1E
100
AcDbEntity
  8
0
100
AcDbLine
 10
92.37539299999999
 20
320.5389999999999
 30
0.0
 11
92.37539299999999
 21
319.789
 31
0.0
  0
LINE
  5
176
330
1E
100
AcDbEntity
  8
0
100
AcDbLine
 10
92.37539299999999
 20
320.5389999999999
 30
0.0
 11
92.37539299999999
 21
321.0389999999999
 31
0.0
  0
LINE
  5
177
330
1E
100
AcDbEntity
  8
0
100
AcDbLine
 10
92.37539299999999
 20
321.0389999999999
 30
0.0
 11
92.37539299999999
 21
320.5389999999999
 31
0.0
  0
LINE
  5
178
330
1E
100
AcDbEntity
  8
0
100
AcDbLine
 10
92.37539299999999
 20
321.0389999999999
 30
0.0
 11
92.37539299999999
 21
321.2059999999999
 31
0.0
  0
LINE
  5
179
330
1E
100
AcDbEntity
  8
0
100
AcDbLine
 10
91.72919300000001
 20
320.7889999999999
 30
0.0
 11
91.72919300000001
 21
319.9559999999999
 31
0.0
  0
LINE
  5
17A
330
1E
100
AcDbEntity
  8
0
100
AcDbLine
 10
91.72919300000001
 20
320.7889999999999
 30
0.0
 11
91.72919300000001
 21
321.2889999999999
 31
0.0
  0
LINE
  5
17B
330
1E
100
AcDbEntity
  8
0
100
AcDbLine
 10
91.082993
 20
321.0389999999999
 30
0.0
 11
91.082993
 21
320.5389999999999
 31
0.0
  0
LINE
  5
17C
330
1E
100
AcDbEntity
  8
0
100
AcDbLine
 10
91.082993
 20
321.0389999999999
 30
0.0
 11
91.082993
 21
321.2059999999999
 31
0.0
  0
LINE
  5
17D
330
1E
100
AcDbEntity
  8
0
100
AcDbLine
 10
91.72919300000001
 20
319.9559999999999
 30
0.0
 11
91.72919300000001
 21
318.9559999999999
 31
0.0
  0
LINE
  5
17E
330
1E
100
AcDbEntity
  8
0
100
AcDbLine
 10
91.72919300000001
 20
319.9559999999999
 30
0.0
 11
91.72919300000001
 21
320.7889999999999
 31
0.0
  0
LINE
  5
17F
330
1E
100
AcDbEntity
  8
0
100
AcDbLine
 10
92.65239300000001
 20
320.039
 30
0.0
 11
92.65239300000001
 21
319.372
 31
0.0
  0
LINE
  5
180
330
1E
100
AcDbEntity
  8
0
100
AcDbLine
 10
92.65239300000001
 20
320.039
 30
0.0
 11
92.65239300000001
 21
320.4559999999999
 31
0.0
  0
LINE
  5
181
330
1E
100
AcDbEntity
  8
0
100
AcDbLine
 10
92.65239300000001
 20
320.4559999999999
 30
0.0
 11
92.65239300000001
 21
320.039
 31
0.0
  0
LINE
  5
182
330
1E
100
AcDbEntity
  8
0
100
AcDbLine
 10
92.65239300000001
 20
320.4559999999999
 30
0.0
 11
92.65239300000001
 21
320.622
 31
0.0
  0
LINE
  5
183
330
1E
100
AcDbEntity
  8
0
100
AcDbLine
 10
97.544593
 20
320.2059999999999
 30
0.0
 11
105.852093
 21
319.789
 31
0.0
  0
LINE
  5
184
330
1E
100
AcDbEntity
  8
0
100
AcDbLine
 10
92.65239300000001
 20
320.622
 30
0.0
 11
97.544593
 21
320.2059999999999
 31
0.0
  0
LINE
  5
185
330
1E
100
AcDbEntity
  8
0
100
AcDbLine
 10
92.65239300000001
 20
320.622
 30
0.0
 11
92.65239300000001
 21
320.4559999999999
 31
0.0
  0
LINE
  5
186
330
1E
100
AcDbEntity
  8
0
100
AcDbLine
 10
92.37539299999999
 20
321.2059999999999
 30
0.0
 11
92.65239300000001
 21
320.622
 31
0.0
  0
LINE
  5
187
330
1E
100
AcDbEntity
  8
0
100
AcDbLine
 10
92.37539299999999
 20
321.2059999999999
 30
0.0
 11
92.37539299999999
 21
321.0389999999999
 31
0.0
  0
LINE
  5
188
330
1E
100
AcDbEntity
  8
0
100
AcDbLine
 10
91.72919300000001
 20
321.2889999999999
 30
0.0
 11
91.72919300000001
 21
320.7889999999999
 31
0.0
  0
LINE
  5
189
330
1E
100
AcDbEntity
  8
0
100
AcDbLine
 10
91.72919300000001
 20
321.2889999999999
 30
0.0
 11
91.72919300000001
 21
321.4559999999999
 31
0.0
  0
LINE
  5
18A
330
1E
100
AcDbEntity
  8
0
100
AcDbLine
 10
91.72919300000001
 20
321.4559999999999
 30
0.0
 11
92.37539299999999
 21
321.2059999999999
 31
0.0
  0
LINE
  5
18B
330
1E
100
AcDbEntity
  8
0
100
AcDbLine
 10
91.72919300000001
 20
321.4559999999999
 30
0.0
 11
91.72919300000001
 21
321.2889999999999
 31
0.0
  0
LINE
  5
18C
330
1E
100
AcDbEntity
  8
0
100
AcDbLine
 10
91.082993
 20
321.2059999999999
 30
0.0
 11
91.72919300000001
 21
321.4559999999999
 31
0.0
  0
LINE
  5
18D
330
1E
100
AcDbEntity
  8
0
100
AcDbLine
 10
91.082993
 20
321.2059999999999
 30
0.0
 11
91.082993
 21
321.0389999999999
 31
0.0
  0
LINE
  5
18E
330
1E
100
AcDbEntity
  8
0
100
AcDbLine
 10
90.80619300000009
 20
320.039
 30
0.0
 11
90.80619300000009
 21
320.2059999999999
 31
0.0
  0
LINE
  5
18F
330
1E
100
AcDbEntity
  8
0
100
AcDbLine
 10
90.80619300000009
 20
320.039
 30
0.0
 11
90.80619300000009
 21
320.622
 31
0.0
  0
LINE
  5
190
330
1E
100
AcDbEntity
  8
0
100
AcDbLine
 10
90.80619300000009
 20
320.039
 30
0.0
 11
90.80619300000009
 21
319.372
 31
0.0
  0
LINE
  5
191
330
1E
100
AcDbEntity
  8
0
100
AcDbLine
 10
135.3910929999999
 20
319.789
 30
0.0
 11
143.698093
 21
320.2059999999999
 31
0.0
  0
LINE
  5
192
330
1E
100
AcDbEntity
  8
0
100
AcDbLine
 10
143.698093
 20
320.2059999999999
 30
0.0
 11
148.591093
 21
320.622
 31
0.0
  0
LINE
  5
193
330
1E
100
AcDbEntity
  8
0
100
AcDbLine
 10
135.3910929999999
 20
313.122
 30
0.0
 11
143.698093
 21
312.7059999999999
 31
0.0
  0
LINE
  5
194
330
1E
100
AcDbEntity
  8
0
100
AcDbLine
 10
148.591093
 20
312.872
 30
0.0
 11
148.591093
 21
313.539
 31
0.0
  0
LINE
  5
195
330
1E
100
AcDbEntity
  8
0
100
AcDbLine
 10
148.591093
 20
312.872
 30
0.0
 11
148.591093
 21
312.4559999999999
 31
0.0
  0
LINE
  5
196
330
1E
100
AcDbEntity
  8
0
100
AcDbLine
 10
148.591093
 20
312.4559999999999
 30
0.0
 11
148.591093
 21
312.872
 31
0.0
  0
LINE
  5
197
330
1E
100
AcDbEntity
  8
0
100
AcDbLine
 10
148.591093
 20
312.4559999999999
 30
0.0
 11
148.591093
 21
312.2889999999999
 31
0.0
  0
LINE
  5
198
330
1E
100
AcDbEntity
  8
0
100
AcDbLine
 10
148.591093
 20
313.539
 30
0.0
 11
148.591093
 21
314.372
 31
0.0
  0
LINE
  5
199
330
1E
100
AcDbEntity
  8
0
100
AcDbLine
 10
148.591093
 20
313.539
 30
0.0
 11
148.591093
 21
312.872
 31
0.0
  0
LINE
  5
19A
330
1E
100
AcDbEntity
  8
0
100
AcDbLine
 10
148.591093
 20
314.372
 30
0.0
 11
148.591093
 21
315.372
 31
0.0
  0
LINE
  5
19B
330
1E
100
AcDbEntity
  8
0
100
AcDbLine
 10
148.591093
 20
314.372
 30
0.0
 11
148.591093
 21
313.539
 31
0.0
  0
LINE
  5
19C
330
1E
100
AcDbEntity
  8
0
100
AcDbLine
 10
148.591093
 20
318.5389999999999
 30
0.0
 11
148.591093
 21
319.372
 31
0.0
  0
LINE
  5
19D
330
1E
100
AcDbEntity
  8
0
100
AcDbLine
 10
148.591093
 20
318.5389999999999
 30
0.0
 11
148.591093
 21
317.539
 31
0.0
  0
LINE
  5
19E
330
1E
100
AcDbEntity
  8
0
100
AcDbLine
 10
148.591093
 20
317.539
 30
0.0
 11
148.591093
 21
318.5389999999999
 31
0.0
  0
LINE
  5
19F
330
1E
100
AcDbEntity
  8
0
100
AcDbLine
 10
148.591093
 20
317.539
 30
0.0
 11
148.591093
 21
316.4559999999999
 31
0.0
  0
LINE
  5
1A0
330
1E
100
AcDbEntity
  8
0
100
AcDbLine
 10
148.591093
 20
319.372
 30
0.0
 11
148.591093
 21
320.039
 31
0.0
  0
LINE
  5
1A1
330
1E
100
AcDbEntity
  8
0
100
AcDbLine
 10
148.591093
 20
319.372
 30
0.0
 11
148.591093
 21
318.5389999999999
 31
0.0
  0
LINE
  5
1A2
330
1E
100
AcDbEntity
  8
0
100
AcDbLine
 10
148.591093
 20
320.039
 30
0.0
 11
148.591093
 21
320.4559999999999
 31
0.0
  0
LINE
  5
1A3
330
1E
100
AcDbEntity
  8
0
100
AcDbLine
 10
148.591093
 20
320.039
 30
0.0
 11
148.591093
 21
319.372
 31
0.0
  0
LINE
  5
1A4
330
1E
100
AcDbEntity
  8
0
100
AcDbLine
 10
148.591093
 20
320.4559999999999
 30
0.0
 11
148.591093
 21
320.622
 31
0.0
  0
LINE
  5
1A5
330
1E
100
AcDbEntity
  8
0
100
AcDbLine
 10
148.591093
 20
320.4559999999999
 30
0.0
 11
148.591093
 21
320.039
 31
0.0
  0
LINE
  5
1A6
330
1E
100
AcDbEntity
  8
0
100
AcDbLine
 10
148.591093
 20
316.4559999999999
 30
0.0
 11
148.591093
 21
315.372
 31
0.0
  0
LINE
  5
1A7
330
1E
100
AcDbEntity
  8
0
100
AcDbLine
 10
148.591093
 20
316.4559999999999
 30
0.0
 11
148.591093
 21
317.539
 31
0.0
  0
LINE
  5
1A8
330
1E
100
AcDbEntity
  8
0
100
AcDbLine
 10
148.591093
 20
315.372
 30
0.0
 11
148.591093
 21
316.4559999999999
 31
0.0
  0
LINE
  5
1A9
330
1E
100
AcDbEntity
  8
0
100
AcDbLine
 10
148.591093
 20
315.372
 30
0.0
 11
148.591093
 21
314.372
 31
0.0
  0
LINE
  5
1AA
330
1E
100
AcDbEntity
  8
0
100
AcDbLine
 10
148.8680929999999
 20
312.372
 30
0.0
 11
148.8680929999999
 21
313.122
 31
0.0
  0
LINE
  5
1AB
330
1E
100
AcDbEntity
  8
0
100
AcDbLine
 10
148.8680929999999
 20
312.372
 30
0.0
 11
148.8680929999999
 21
311.872
 31
0.0
  0
LINE
  5
1AC
330
1E
100
AcDbEntity
  8
0
100
AcDbLine
 10
148.8680929999999
 20
313.122
 30
0.0
 11
148.8680929999999
 21
314.122
 31
0.0
  0
LINE
  5
1AD
330
1E
100
AcDbEntity
  8
0
100
AcDbLine
 10
148.8680929999999
 20
313.122
 30
0.0
 11
148.8680929999999
 21
312.372
 31
0.0
  0
LINE
  5
1AE
330
1E
100
AcDbEntity
  8
0
100
AcDbLine
 10
148.8680929999999
 20
314.122
 30
0.0
 11
148.8680929999999
 21
315.2059999999999
 31
0.0
  0
LINE
  5
1AF
330
1E
100
AcDbEntity
  8
0
100
AcDbLine
 10
148.8680929999999
 20
314.122
 30
0.0
 11
148.8680929999999
 21
313.122
 31
0.0
  0
LINE
  5
1B0
330
1E
100
AcDbEntity
  8
0
100
AcDbLine
 10
148.8680929999999
 20
318.7889999999999
 30
0.0
 11
148.8680929999999
 21
319.789
 31
0.0
  0
LINE
  5
1B1
330
1E
100
AcDbEntity
  8
0
100
AcDbLine
 10
148.8680929999999
 20
318.7889999999999
 30
0.0
 11
148.8680929999999
 21
317.7059999999999
 31
0.0
  0
LINE
  5
1B2
330
1E
100
AcDbEntity
  8
0
100
AcDbLine
 10
148.8680929999999
 20
317.7059999999999
 30
0.0
 11
148.8680929999999
 21
318.7889999999999
 31
0.0
  0
LINE
  5
1B3
330
1E
100
AcDbEntity
  8
0
100
AcDbLine
 10
148.8680929999999
 20
317.7059999999999
 30
0.0
 11
148.8680929999999
 21
316.4559999999999
 31
0.0
  0
LINE
  5
1B4
330
1E
100
AcDbEntity
  8
0
100
AcDbLine
 10
148.8680929999999
 20
319.789
 30
0.0
 11
148.8680929999999
 21
320.5389999999999
 31
0.0
  0
LINE
  5
1B5
330
1E
100
AcDbEntity
  8
0
100
AcDbLine
 10
148.8680929999999
 20
319.789
 30
0.0
 11
148.8680929999999
 21
318.7889999999999
 31
0.0
  0
LINE
  5
1B6
330
1E
100
AcDbEntity
  8
0
100
AcDbLine
 10
148.8680929999999
 20
320.5389999999999
 30
0.0
 11
148.8680929999999
 21
321.0389999999999
 31
0.0
  0
LINE
  5
1B7
330
1E
100
AcDbEntity
  8
0
100
AcDbLine
 10
148.8680929999999
 20
320.5389999999999
 30
0.0
 11
148.8680929999999
 21
319.789
 31
0.0
  0
LINE
  5
1B8
330
1E
100
AcDbEntity
  8
0
100
AcDbLine
 10
148.8680929999999
 20
321.0389999999999
 30
0.0
 11
148.8680929999999
 21
321.2059999999999
 31
0.0
  0
LINE
  5
1B9
330
1E
100
AcDbEntity
  8
0
100
AcDbLine
 10
148.8680929999999
 20
321.0389999999999
 30
0.0
 11
148.8680929999999
 21
320.5389999999999
 31
0.0
  0
LINE
  5
1BA
330
1E
100
AcDbEntity
  8
0
100
AcDbLine
 10
148.8680929999999
 20
316.4559999999999
 30
0.0
 11
148.8680929999999
 21
315.2059999999999
 31
0.0
  0
LINE
  5
1BB
330
1E
100
AcDbEntity
  8
0
100
AcDbLine
 10
148.8680929999999
 20
316.4559999999999
 30
0.0
 11
148.8680929999999
 21
317.7059999999999
 31
0.0
  0
LINE
  5
1BC
330
1E
100
AcDbEntity
  8
0
100
AcDbLine
 10
148.8680929999999
 20
315.2059999999999
 30
0.0
 11
148.8680929999999
 21
316.4559999999999
 31
0.0
  0
LINE
  5
1BD
330
1E
100
AcDbEntity
  8
0
100
AcDbLine
 10
148.8680929999999
 20
315.2059999999999
 30
0.0
 11
148.8680929999999
 21
314.122
 31
0.0
  0
LINE
  5
1BE
330
1E
100
AcDbEntity
  8
0
100
AcDbLine
 10
148.591093
 20
320.622
 30
0.0
 11
148.8680929999999
 21
321.2059999999999
 31
0.0
  0
LINE
  5
1BF
330
1E
100
AcDbEntity
  8
0
100
AcDbLine
 10
148.591093
 20
320.622
 30
0.0
 11
148.591093
 21
320.4559999999999
 31
0.0
  0
LINE
  5
1C0
330
1E
100
AcDbEntity
  8
0
100
AcDbLine
 10
148.8680929999999
 20
321.2059999999999
 30
0.0
 11
149.5140929999999
 21
321.4559999999999
 31
0.0
  0
LINE
  5
1C1
330
1E
100
AcDbEntity
  8
0
100
AcDbLine
 10
148.8680929999999
 20
321.2059999999999
 30
0.0
 11
148.8680929999999
 21
321.0389999999999
 31
0.0
  0
LINE
  5
1C2
330
1E
100
AcDbEntity
  8
0
100
AcDbLine
 10
143.698093
 20
312.7059999999999
 30
0.0
 11
148.591093
 21
312.2889999999999
 31
0.0
  0
LINE
  5
1C3
330
1E
100
AcDbEntity
  8
0
100
AcDbLine
 10
148.591093
 20
312.2889999999999
 30
0.0
 11
148.8680929999999
 21
311.7059999999999
 31
0.0
  0
LINE
  5
1C4
330
1E
100
AcDbEntity
  8
0
100
AcDbLine
 10
148.591093
 20
312.2889999999999
 30
0.0
 11
148.591093
 21
312.4559999999999
 31
0.0
  0
LINE
  5
1C5
330
1E
100
AcDbEntity
  8
0
100
AcDbLine
 10
149.5140929999999
 20
312.122
 30
0.0
 11
149.5140929999999
 21
312.9559999999999
 31
0.0
  0
LINE
  5
1C6
330
1E
100
AcDbEntity
  8
0
100
AcDbLine
 10
149.5140929999999
 20
312.122
 30
0.0
 11
149.5140929999999
 21
311.622
 31
0.0
  0
LINE
  5
1C7
330
1E
100
AcDbEntity
  8
0
100
AcDbLine
 10
149.5140929999999
 20
311.622
 30
0.0
 11
149.5140929999999
 21
312.122
 31
0.0
  0
LINE
  5
1C8
330
1E
100
AcDbEntity
  8
0
100
AcDbLine
 10
149.5140929999999
 20
311.622
 30
0.0
 11
149.5140929999999
 21
311.4559999999999
 31
0.0
  0
LINE
  5
1C9
330
1E
100
AcDbEntity
  8
0
100
AcDbLine
 10
150.1600929999999
 20
312.372
 30
0.0
 11
150.1600929999999
 21
313.122
 31
0.0
  0
LINE
  5
1CA
330
1E
100
AcDbEntity
  8
0
100
AcDbLine
 10
150.1600929999999
 20
312.372
 30
0.0
 11
150.1600929999999
 21
311.872
 31
0.0
  0
LINE
  5
1CB
330
1E
100
AcDbEntity
  8
0
100
AcDbLine
 10
150.1600929999999
 20
311.872
 30
0.0
 11
150.1600929999999
 21
312.372
 31
0.0
  0
LINE
  5
1CC
330
1E
100
AcDbEntity
  8
0
100
AcDbLine
 10
150.1600929999999
 20
311.872
 30
0.0
 11
150.1600929999999
 21
311.7059999999999
 31
0.0
  0
LINE
  5
1CD
330
1E
100
AcDbEntity
  8
0
100
AcDbLine
 10
149.5140929999999
 20
312.9559999999999
 30
0.0
 11
149.5140929999999
 21
313.9559999999999
 31
0.0
  0
LINE
  5
1CE
330
1E
100
AcDbEntity
  8
0
100
AcDbLine
 10
149.5140929999999
 20
312.9559999999999
 30
0.0
 11
149.5140929999999
 21
312.122
 31
0.0
  0
LINE
  5
1CF
330
1E
100
AcDbEntity
  8
0
100
AcDbLine
 10
149.5140929999999
 20
313.9559999999999
 30
0.0
 11
149.5140929999999
 21
315.2059999999999
 31
0.0
  0
LINE
  5
1D0
330
1E
100
AcDbEntity
  8
0
100
AcDbLine
 10
149.5140929999999
 20
313.9559999999999
 30
0.0
 11
149.5140929999999
 21
312.9559999999999
 31
0.0
  0
LINE
  5
1D1
330
1E
100
AcDbEntity
  8
0
100
AcDbLine
 10
150.1600929999999
 20
313.122
 30
0.0
 11
150.1600929999999
 21
314.122
 31
0.0
  0
LINE
  5
1D2
330
1E
100
AcDbEntity
  8
0
100
AcDbLine
 10
150.1600929999999
 20
313.122
 30
0.0
 11
150.1600929999999
 21
312.372
 31
0.0
  0
LINE
  5
1D3
330
1E
100
AcDbEntity
  8
0
100
AcDbLine
 10
149.5140929999999
 20
318.9559999999999
 30
0.0
 11
149.5140929999999
 21
319.9559999999999
 31
0.0
  0
LINE
  5
1D4
330
1E
100
AcDbEntity
  8
0
100
AcDbLine
 10
149.5140929999999
 20
318.9559999999999
 30
0.0
 11
149.5140929999999
 21
317.7059999999999
 31
0.0
  0
LINE
  5
1D5
330
1E
100
AcDbEntity
  8
0
100
AcDbLine
 10
149.5140929999999
 20
317.7059999999999
 30
0.0
 11
149.5140929999999
 21
318.9559999999999
 31
0.0
  0
LINE
  5
1D6
330
1E
100
AcDbEntity
  8
0
100
AcDbLine
 10
149.5140929999999
 20
317.7059999999999
 30
0.0
 11
149.5140929999999
 21
316.4559999999999
 31
0.0
  0
LINE
  5
1D7
330
1E
100
AcDbEntity
  8
0
100
AcDbLine
 10
149.5140929999999
 20
319.9559999999999
 30
0.0
 11
149.5140929999999
 21
320.7889999999999
 31
0.0
  0
LINE
  5
1D8
330
1E
100
AcDbEntity
  8
0
100
AcDbLine
 10
149.5140929999999
 20
319.9559999999999
 30
0.0
 11
149.5140929999999
 21
318.9559999999999
 31
0.0
  0
LINE
  5
1D9
330
1E
100
AcDbEntity
  8
0
100
AcDbLine
 10
149.5140929999999
 20
320.7889999999999
 30
0.0
 11
149.5140929999999
 21
321.2889999999999
 31
0.0
  0
LINE
  5
1DA
330
1E
100
AcDbEntity
  8
0
100
AcDbLine
 10
149.5140929999999
 20
320.7889999999999
 30
0.0
 11
149.5140929999999
 21
319.9559999999999
 31
0.0
  0
LINE
  5
1DB
330
1E
100
AcDbEntity
  8
0
100
AcDbLine
 10
149.5140929999999
 20
316.4559999999999
 30
0.0
 11
149.5140929999999
 21
315.2059999999999
 31
0.0
  0
LINE
  5
1DC
330
1E
100
AcDbEntity
  8
0
100
AcDbLine
 10
149.5140929999999
 20
316.4559999999999
 30
0.0
 11
149.5140929999999
 21
317.7059999999999
 31
0.0
  0
LINE
  5
1DD
330
1E
100
AcDbEntity
  8
0
100
AcDbLine
 10
150.1600929999999
 20
318.7889999999999
 30
0.0
 11
150.1600929999999
 21
319.789
 31
0.0
  0
LINE
  5
1DE
330
1E
100
AcDbEntity
  8
0
100
AcDbLine
 10
150.1600929999999
 20
318.7889999999999
 30
0.0
 11
150.1600929999999
 21
317.7059999999999
 31
0.0
  0
LINE
  5
1DF
330
1E
100
AcDbEntity
  8
0
100
AcDbLine
 10
150.1600929999999
 20
317.7059999999999
 30
0.0
 11
150.1600929999999
 21
318.7889999999999
 31
0.0
  0
LINE
  5
1E0
330
1E
100
AcDbEntity
  8
0
100
AcDbLine
 10
150.1600929999999
 20
317.7059999999999
 30
0.0
 11
150.1600929999999
 21
316.4559999999999
 31
0.0
  0
LINE
  5
1E1
330
1E
100
AcDbEntity
  8
0
100
AcDbLine
 10
150.1600929999999
 20
319.789
 30
0.0
 11
150.1600929999999
 21
320.5389999999999
 31
0.0
  0
LINE
  5
1E2
330
1E
100
AcDbEntity
  8
0
100
AcDbLine
 10
150.1600929999999
 20
319.789
 30
0.0
 11
150.1600929999999
 21
318.7889999999999
 31
0.0
  0
LINE
  5
1E3
330
1E
100
AcDbEntity
  8
0
100
AcDbLine
 10
150.1600929999999
 20
320.5389999999999
 30
0.0
 11
150.1600929999999
 21
321.0389999999999
 31
0.0
  0
LINE
  5
1E4
330
1E
100
AcDbEntity
  8
0
100
AcDbLine
 10
150.1600929999999
 20
320.5389999999999
 30
0.0
 11
150.1600929999999
 21
319.789
 31
0.0
  0
LINE
  5
1E5
330
1E
100
AcDbEntity
  8
0
100
AcDbLine
 10
150.1600929999999
 20
321.0389999999999
 30
0.0
 11
150.1600929999999
 21
321.2059999999999
 31
0.0
  0
LINE
  5
1E6
330
1E
100
AcDbEntity
  8
0
100
AcDbLine
 10
150.1600929999999
 20
321.0389999999999
 30
0.0
 11
150.1600929999999
 21
320.5389999999999
 31
0.0
  0
LINE
  5
1E7
330
1E
100
AcDbEntity
  8
0
100
AcDbLine
 10
150.1600929999999
 20
316.4559999999999
 30
0.0
 11
150.1600929999999
 21
315.2059999999999
 31
0.0
  0
LINE
  5
1E8
330
1E
100
AcDbEntity
  8
0
100
AcDbLine
 10
150.1600929999999
 20
316.4559999999999
 30
0.0
 11
150.1600929999999
 21
317.7059999999999
 31
0.0
  0
LINE
  5
1E9
330
1E
100
AcDbEntity
  8
0
100
AcDbLine
 10
149.5140929999999
 20
315.2059999999999
 30
0.0
 11
149.5140929999999
 21
316.4559999999999
 31
0.0
  0
LINE
  5
1EA
330
1E
100
AcDbEntity
  8
0
100
AcDbLine
 10
149.5140929999999
 20
315.2059999999999
 30
0.0
 11
149.5140929999999
 21
313.9559999999999
 31
0.0
  0
LINE
  5
1EB
330
1E
100
AcDbEntity
  8
0
100
AcDbLine
 10
150.1600929999999
 20
314.122
 30
0.0
 11
150.1600929999999
 21
315.2059999999999
 31
0.0
  0
LINE
  5
1EC
330
1E
100
AcDbEntity
  8
0
100
AcDbLine
 10
150.1600929999999
 20
314.122
 30
0.0
 11
150.1600929999999
 21
313.122
 31
0.0
  0
LINE
  5
1ED
330
1E
100
AcDbEntity
  8
0
100
AcDbLine
 10
150.1600929999999
 20
315.2059999999999
 30
0.0
 11
150.1600929999999
 21
316.4559999999999
 31
0.0
  0
LINE
  5
1EE
330
1E
100
AcDbEntity
  8
0
100
AcDbLine
 10
150.1600929999999
 20
315.2059999999999
 30
0.0
 11
150.1600929999999
 21
314.122
 31
0.0
  0
LINE
  5
1EF
330
1E
100
AcDbEntity
  8
0
100
AcDbLine
 10
149.5140929999999
 20
321.2889999999999
 30
0.0
 11
149.5140929999999
 21
321.4559999999999
 31
0.0
  0
LINE
  5
1F0
330
1E
100
AcDbEntity
  8
0
100
AcDbLine
 10
149.5140929999999
 20
321.2889999999999
 30
0.0
 11
149.5140929999999
 21
320.7889999999999
 31
0.0
  0
LINE
  5
1F1
330
1E
100
AcDbEntity
  8
0
100
AcDbLine
 10
149.5140929999999
 20
321.4559999999999
 30
0.0
 11
150.1600929999999
 21
321.2059999999999
 31
0.0
  0
LINE
  5
1F2
330
1E
100
AcDbEntity
  8
0
100
AcDbLine
 10
149.5140929999999
 20
321.4559999999999
 30
0.0
 11
149.5140929999999
 21
321.2889999999999
 31
0.0
  0
LINE
  5
1F3
330
1E
100
AcDbEntity
  8
0
100
AcDbLine
 10
150.1600929999999
 20
321.2059999999999
 30
0.0
 11
150.437093
 21
320.622
 31
0.0
  0
LINE
  5
1F4
330
1E
100
AcDbEntity
  8
0
100
AcDbLine
 10
150.1600929999999
 20
321.2059999999999
 30
0.0
 11
150.1600929999999
 21
321.0389999999999
 31
0.0
  0
LINE
  5
1F5
330
1E
100
AcDbEntity
  8
0
100
AcDbLine
 10
148.8680929999999
 20
311.7059999999999
 30
0.0
 11
149.5140929999999
 21
311.4559999999999
 31
0.0
  0
LINE
  5
1F6
330
1E
100
AcDbEntity
  8
0
100
AcDbLine
 10
148.8680929999999
 20
311.7059999999999
 30
0.0
 11
148.8680929999999
 21
311.872
 31
0.0
  0
LINE
  5
1F7
330
1E
100
AcDbEntity
  8
0
100
AcDbLine
 10
149.5140929999999
 20
311.4559999999999
 30
0.0
 11
150.1600929999999
 21
311.7059999999999
 31
0.0
  0
LINE
  5
1F8
330
1E
100
AcDbEntity
  8
0
100
AcDbLine
 10
149.5140929999999
 20
311.4559999999999
 30
0.0
 11
149.5140929999999
 21
311.622
 31
0.0
  0
LINE
  5
1F9
330
1E
100
AcDbEntity
  8
0
100
AcDbLine
 10
150.437093
 20
312.9559999999999
 30
0.0
 11
153.043093
 21
312.9559999999999
 31
0.0
  0
LINE
  5
1FE
330
1E
100
AcDbEntity
  8
0
100
AcDbLine
 10
150.437093
 20
319.9559999999999
 30
0.0
 11
153.043093
 21
319.9559999999999
 31
0.0
  0
LINE
  5
201
330
1E
100
AcDbEntity
  8
0
100
AcDbLine
 10
150.437093
 20
320.622
 30
0.0
 11
150.437093
 21
312.2889999999999
 31
0.0
  0
LINE
  5
202
330
1E
100
AcDbEntity
  8
0
100
AcDbLine
 10
150.437093
 20
312.2889999999999
 30
0.0
 11
150.437093
 21
320.622
 31
0.0
  0
LINE
  5
205
330
1E
100
AcDbEntity
  8
0
100
AcDbLine
 10
150.1600929999999
 20
311.7059999999999
 30
0.0
 11
150.437093
 21
312.2889999999999
 31
0.0
  0
LINE
  5
206
330
1E
100
AcDbEntity
  8
0
100
AcDbLine
 10
150.1600929999999
 20
311.7059999999999
 30
0.0
 11
150.1600929999999
 21
311.872
 31
0.0
  0
LINE
  5
207
330
1E
100
AcDbEntity
  8
0
100
AcDbLine
 10
153.043093
 20
298.79904
 30
0.0
 11
153.043093
 21
312.9559999999999
 31
0.0
  0
LINE
  5
208
330
1E
100
AcDbEntity
  8
0
100
AcDbLine
 10
153.043093
 20
319.9306369411759
 30
0.0
 11
153.043093
 21
323.2499999999999
 31
0.0
  0
LINE
  5
209
330
1E
100
AcDbEntity
  8
0
100
AcDbLine
 10
153.043093
 20
298.79904
 30
0.0
 11
153.043093
 21
288.75
 31
0.0
  0
LINE
  5
20A
330
1E
100
AcDbEntity
  8
0
100
AcDbLine
 10
158.3430929999999
 20
323.2499999999999
 30
0.0
 11
162.143093
 21
323.2499999999999
 31
0.0
  0
LINE
  5
20B
330
1E
100
AcDbEntity
  8
0
100
AcDbLine
 10
162.143093
 20
323.2499999999999
 30
0.0
 11
166.4430929999999
 21
323.2499999999999
 31
0.0
  0
LINE
  5
20C
330
1E
100
AcDbEntity
  8
0
100
AcDbLine
 10
166.4430929999999
 20
323.2499999999999
 30
0.0
 11
171.043093
 21
323.2499999999999
 31
0.0
  0
LINE
  5
20D
330
1E
100
AcDbEntity
  8
0
100
AcDbLine
 10
155.443093
 20
323.2499999999999
 30
0.0
 11
158.3430929999999
 21
323.2499999999999
 31
0.0
  0
LINE
  5
20E
330
1E
100
AcDbEntity
  8
0
100
AcDbLine
 10
153.743093
 20
323.2499999999999
 30
0.0
 11
155.443093
 21
323.2499999999999
 31
0.0
  0
LINE
  5
20F
330
1E
100
AcDbEntity
  8
0
100
AcDbLine
 10
179.9430929999999
 20
323.2499999999999
 30
0.0
 11
183.743093
 21
323.2499999999999
 31
0.0
  0
LINE
  5
210
330
1E
100
AcDbEntity
  8
0
100
AcDbLine
 10
175.643093
 20
323.2499999999999
 30
0.0
 11
179.9430929999999
 21
323.2499999999999
 31
0.0
  0
LINE
  5
211
330
1E
100
AcDbEntity
  8
0
100
AcDbLine
 10
171.043093
 20
323.2499999999999
 30
0.0
 11
175.643093
 21
323.2499999999999
 31
0.0
  0
LINE
  5
212
330
1E
100
AcDbEntity
  8
0
100
AcDbLine
 10
183.743093
 20
323.2499999999999
 30
0.0
 11
186.6430929999999
 21
323.2499999999999
 31
0.0
  0
LINE
  5
213
330
1E
100
AcDbEntity
  8
0
100
AcDbLine
 10
153.043093
 20
312.9559999999999
 30
0.0
 11
153.043093
 21
298.79904
 31
0.0
  0
LINE
  5
214
330
1E
100
AcDbEntity
  8
0
100
AcDbLine
 10
153.5430929999999
 20
323.75
 30
0.0
 11
154.1430929999999
 21
323.75
 31
0.0
  0
LINE
  5
215
330
1E
100
AcDbEntity
  8
0
100
AcDbLine
 10
158.6430929999999
 20
323.75
 30
0.0
 11
162.3430929999999
 21
323.75
 31
0.0
  0
LINE
  5
216
330
1E
100
AcDbEntity
  8
0
100
AcDbLine
 10
162.3430929999999
 20
323.75
 30
0.0
 11
166.543093
 21
323.75
 31
0.0
  0
LINE
  5
217
330
1E
100
AcDbEntity
  8
0
100
AcDbLine
 10
166.543093
 20
323.75
 30
0.0
 11
171.043093
 21
323.75
 31
0.0
  0
LINE
  5
218
330
1E
100
AcDbEntity
  8
0
100
AcDbLine
 10
155.8430929999999
 20
323.75
 30
0.0
 11
158.6430929999999
 21
323.75
 31
0.0
  0
LINE
  5
219
330
1E
100
AcDbEntity
  8
0
100
AcDbLine
 10
154.1430929999999
 20
323.75
 30
0.0
 11
155.8430929999999
 21
323.75
 31
0.0
  0
LINE
  5
21A
330
1E
100
AcDbEntity
  8
0
100
AcDbLine
 10
179.7430929999999
 20
323.75
 30
0.0
 11
183.443093
 21
323.75
 31
0.0
  0
LINE
  5
21B
330
1E
100
AcDbEntity
  8
0
100
AcDbLine
 10
175.5430929999999
 20
323.75
 30
0.0
 11
179.7430929999999
 21
323.75
 31
0.0
  0
LINE
  5
21C
330
1E
100
AcDbEntity
  8
0
100
AcDbLine
 10
171.043093
 20
323.75
 30
0.0
 11
175.5430929999999
 21
323.75
 31
0.0
  0
LINE
  5
21D
330
1E
100
AcDbEntity
  8
0
100
AcDbLine
 10
183.443093
 20
323.75
 30
0.0
 11
186.243093
 21
323.75
 31
0.0
  0
LINE
  5
21E
330
1E
100
AcDbEntity
  8
0
100
AcDbLine
 10
186.243093
 20
323.75
 30
0.0
 11
187.943093
 21
323.75
 31
0.0
  0
LINE
  5
21F
330
1E
100
AcDbEntity
  8
0
100
AcDbLine
 10
160.143093
 20
325.75
 30
0.0
 11
163.3430929999999
 21
325.75
 31
0.0
  0
LINE
  5
220
330
1E
100
AcDbEntity
  8
0
100
AcDbLine
 10
163.3430929999999
 20
325.75
 30
0.0
 11
167.043093
 21
325.75
 31
0.0
  0
LINE
  5
221
330
1E
100
AcDbEntity
  8
0
100
AcDbLine
 10
167.043093
 20
325.75
 30
0.0
 11
171.043093
 21
325.75
 31
0.0
  0
LINE
  5
222
330
1E
100
AcDbEntity
  8
0
100
AcDbLine
 10
157.6430929999999
 20
325.75
 30
0.0
 11
160.143093
 21
325.75
 31
0.0
  0
LINE
  5
223
330
1E
100
AcDbEntity
  8
0
100
AcDbLine
 10
156.143093
 20
325.75
 30
0.0
 11
157.6430929999999
 21
325.75
 31
0.0
  0
LINE
  5
224
330
1E
100
AcDbEntity
  8
0
100
AcDbLine
 10
155.5430929999999
 20
325.75
 30
0.0
 11
156.143093
 21
325.75
 31
0.0
  0
LINE
  5
225
330
1E
100
AcDbEntity
  8
0
100
AcDbLine
 10
178.743093
 20
325.75
 30
0.0
 11
181.943093
 21
325.75
 31
0.0
  0
LINE
  5
226
330
1E
100
AcDbEntity
  8
0
100
AcDbLine
 10
175.043093
 20
325.75
 30
0.0
 11
178.743093
 21
325.75
 31
0.0
  0
LINE
  5
227
330
1E
100
AcDbEntity
  8
0
100
AcDbLine
 10
171.043093
 20
325.75
 30
0.0
 11
175.043093
 21
325.75
 31
0.0
  0
LINE
  5
228
330
1E
100
AcDbEntity
  8
0
100
AcDbLine
 10
181.943093
 20
325.75
 30
0.0
 11
184.443093
 21
325.75
 31
0.0
  0
LINE
  5
229
330
1E
100
AcDbEntity
  8
0
100
AcDbLine
 10
184.443093
 20
325.75
 30
0.0
 11
185.943093
 21
325.75
 31
0.0
  0
LINE
  5
22A
330
1E
100
AcDbEntity
  8
0
100
AcDbLine
 10
185.943093
 20
325.75
 30
0.0
 11
186.543093
 21
325.75
 31
0.0
  0
LINE
  5
22B
330
1E
100
AcDbEntity
  8
0
100
AcDbLine
 10
155.043093
 20
325.2499999999999
 30
0.0
 11
155.5430929999999
 21
325.75
 31
0.0
  0
LINE
  5
22C
330
1E
100
AcDbEntity
  8
0
100
AcDbLine
 10
154.543093
 20
324.25
 30
0.0
 11
155.043093
 21
325.2499999999999
 31
0.0
  0
LINE
  5
22D
330
1E
100
AcDbEntity
  8
0
100
AcDbLine
 10
154.043093
 20
323.75
 30
0.0
 11
154.543093
 21
324.25
 31
0.0
  0
LINE
  5
22E
330
1E
100
AcDbEntity
  8
0
100
AcDbLine
 10
153.043093
 20
323.2499999999999
 30
0.0
 11
153.043093
 21
319.9306369411759
 31
0.0
  0
LINE
  5
22F
330
1E
100
AcDbEntity
  8
0
100
AcDbLine
 10
153.043093
 20
323.2499999999999
 30
0.0
 11
153.5430929999999
 21
323.75
 31
0.0
  0
LINE
  5
230
330
1E
100
AcDbEntity
  8
0
100
AcDbLine
 10
153.043093
 20
323.2499999999999
 30
0.0
 11
153.743093
 21
323.2499999999999
 31
0.0
  0
LINE
  5
231
330
1E
100
AcDbEntity
  8
0
100
AcDbLine
 10
186.543093
 20
325.75
 30
0.0
 11
187.0430929999999
 21
325.2499999999999
 31
0.0
  0
LINE
  5
232
330
1E
100
AcDbEntity
  8
0
100
AcDbLine
 10
186.330803939556
 20
292.993011711554
 30
0.0
 11
186.543093
 21
292.2499999999999
 31
0.0
  0
LINE
  5
233
330
1E
100
AcDbEntity
  8
0
100
AcDbLine
 10
186.698093
 20
293.092
 30
0.0
 11
188.282093
 21
293.5719999999999
 31
0.0
  0
LINE
  5
234
330
1E
100
AcDbEntity
  8
0
100
AcDbLine
 10
186.6430929999999
 20
323.2499999999999
 30
0.0
 11
188.3430929999999
 21
323.2499999999999
 31
0.0
  0
LINE
  5
235
330
1E
100
AcDbEntity
  8
0
100
AcDbLine
 10
187.0430929999999
 20
325.2499999999999
 30
0.0
 11
187.543093
 21
324.25
 31
0.0
  0
LINE
  5
236
330
1E
100
AcDbEntity
  8
0
100
AcDbLine
 10
187.943093
 20
323.75
 30
0.0
 11
188.543093
 21
323.75
 31
0.0
  0
LINE
  5
237
330
1E
100
AcDbEntity
  8
0
100
AcDbLine
 10
188.3430929999999
 20
323.2499999999999
 30
0.0
 11
189.0430929999999
 21
323.2499999999999
 31
0.0
  0
LINE
  5
238
330
1E
100
AcDbEntity
  8
0
100
AcDbLine
 10
187.543093
 20
324.25
 30
0.0
 11
188.0430929999999
 21
323.75
 31
0.0
  0
LINE
  5
239
330
1E
100
AcDbEntity
  8
0
100
AcDbLine
 10
188.282093
 20
293.5719999999999
 30
0.0
 11
189.0430929999999
 21
293.75
 31
0.0
  0
LINE
  5
23A
330
1E
100
AcDbEntity
  8
0
100
AcDbLine
 10
186.543093
 20
292.2499999999999
 30
0.0
 11
187.0430929999999
 21
288.75
 31
0.0
  0
LINE
  5
23B
330
1E
100
AcDbEntity
  8
0
100
AcDbLine
 10
187.0430929999999
 20
288.75
 30
0.0
 11
187.0430929999999
 21
286.75
 31
0.0
  0
LINE
  5
23C
330
1E
100
AcDbEntity
  8
0
100
AcDbLine
 10
188.7420929999999
 20
48.5594
 30
0.0
 11
197.9920929999999
 21
48.5594
 31
0.0
  0
LINE
  5
23D
330
1E
100
AcDbEntity
  8
0
100
AcDbLine
 10
189.0430929999999
 20
48.5594
 30
0.0
 11
189.0430929999999
 21
286.25
 31
0.0
  0
LINE
  5
23E
330
1E
100
AcDbEntity
  8
0
100
AcDbLine
 10
188.543093
 20
323.75
 30
0.0
 11
189.0430929999999
 21
323.2499999999999
 31
0.0
  0
LINE
  5
23F
330
1E
100
AcDbEntity
  8
0
100
AcDbLine
 10
188.543093
 20
286.75
 30
0.0
 11
189.0430929999999
 21
286.25
 31
0.0
  0
LINE
  5
240
330
1E
100
AcDbEntity
  8
0
100
AcDbLine
 10
189.0430929999999
 20
48.5594
 30
0.0
 11
189.0430929999999
 21
286.25
 31
0.0
  0
LINE
  5
241
330
1E
100
AcDbEntity
  8
0
100
AcDbLine
 10
189.0430929999999
 20
323.2499999999999
 30
0.0
 11
189.0430929999999
 21
293.75
 31
0.0
  0
LINE
  5
242
330
1E
100
AcDbEntity
  8
0
100
AcDbLine
 10
189.0430929999999
 20
293.75
 30
0.0
 11
189.0430929999999
 21
323.2499999999999
 31
0.0
  0
LINE
  5
243
330
1E
100
AcDbEntity
  8
0
100
AcDbLine
 10
189.0430929999999
 20
13.25
 30
0.0
 11
189.543093
 21
10.25
 31
0.0
  0
LINE
  5
244
330
1E
100
AcDbEntity
  8
0
100
AcDbLine
 10
189.0430929999999
 20
13.25
 30
0.0
 11
189.0430929999999
 21
43.5594967027027
 31
0.0
  0
LINE
  5
245
330
1E
100
AcDbEntity
  8
0
100
AcDbLine
 10
189.543093
 20
10.25
 30
0.0
 11
190.5430929999999
 21
7.749999999999981
 31
0.0
  0
LINE
  5
246
330
1E
100
AcDbEntity
  8
0
100
AcDbLine
 10
190.5430929999999
 20
7.749999999999981
 30
0.0
 11
192.043093
 21
5.24999999999998
 31
0.0
  0
LINE
  5
247
330
1E
100
AcDbEntity
  8
0
100
AcDbLine
 10
192.043093
 20
5.24999999999998
 30
0.0
 11
196.043093
 21
1.74999999999998
 31
0.0
  0
LINE
  5
248
330
1E
100
AcDbEntity
  8
0
100
AcDbLine
 10
196.738093
 20
46.0634
 30
0.0
 11
196.833093
 21
45.10629999999999
 31
0.0
  0
LINE
  5
249
330
1E
100
AcDbEntity
  8
0
100
AcDbLine
 10
196.738093
 20
46.0634
 30
0.0
 11
196.834093
 21
47.01979999999999
 31
0.0
  0
LINE
  5
24A
330
1E
100
AcDbEntity
  8
0
100
AcDbLine
 10
196.834093
 20
47.01979999999999
 30
0.0
 11
197.1070929999999
 21
47.83
 31
0.0
  0
LINE
  5
24B
330
1E
100
AcDbEntity
  8
0
100
AcDbLine
 10
196.833093
 20
45.10629999999999
 30
0.0
 11
197.104093
 21
44.2945
 31
0.0
  0
LINE
  5
24C
330
1E
100
AcDbEntity
  8
0
100
AcDbLine
 10
197.043093
 20
0.7499999999999841
 30
0.0
 11
198.0430929999999
 21
0.7499999999999841
 31
0.0
  0
LINE
  5
24D
330
1E
100
AcDbEntity
  8
0
100
AcDbLine
 10
196.043093
 20
1.74999999999998
 30
0.0
 11
198.0430929999999
 21
0.7499999999999841
 31
0.0
  0
LINE
  5
24E
330
1E
100
AcDbEntity
  8
0
100
AcDbLine
 10
194.443093
 20
0.249999999999984
 30
0.0
 11
197.043093
 21
0.249999999999984
 31
0.0
  0
LINE
  5
24F
330
1E
100
AcDbEntity
  8
0
100
AcDbLine
 10
198.0430929999999
 20
0.249999999999984
 30
0.0
 11
198.0430929999999
 21
0.7499999999999841
 31
0.0
  0
LINE
  5
250
330
1E
100
AcDbEntity
  8
0
100
AcDbLine
 10
197.1070929999999
 20
47.83
 30
0.0
 11
197.5130929999999
 21
48.3707
 31
0.0
  0
LINE
  5
251
330
1E
100
AcDbEntity
  8
0
100
AcDbLine
 10
197.104093
 20
44.2945
 30
0.0
 11
197.509093
 21
43.75119999999999
 31
0.0
  0
LINE
  5
252
330
1E
100
AcDbEntity
  8
0
100
AcDbLine
 10
197.5130929999999
 20
48.3707
 30
0.0
 11
197.9920929999999
 21
48.5594
 31
0.0
  0
LINE
  5
253
330
1E
100
AcDbEntity
  8
0
100
AcDbLine
 10
197.509093
 20
43.75119999999999
 30
0.0
 11
197.988093
 21
43.55939999999999
 31
0.0
  0
LINE
  5
254
330
1E
100
AcDbEntity
  8
0
100
AcDbLine
 10
197.988093
 20
43.55939999999999
 30
0.0
 11
198.4680929999999
 21
43.7481
 31
0.0
  0
LINE
  5
255
330
1E
100
AcDbEntity
  8
0
100
AcDbLine
 10
198.4680929999999
 20
43.7481
 30
0.0
 11
198.8740929999999
 21
44.2888
 31
0.0
  0
LINE
  5
256
330
1E
100
AcDbEntity
  8
0
100
AcDbLine
 10
198.8740929999999
 20
44.2888
 30
0.0
 11
199.146093
 21
45.099
 31
0.0
  0
LINE
  5
257
330
1E
100
AcDbEntity
  8
0
100
AcDbLine
 10
199.146093
 20
45.099
 30
0.0
 11
199.2420929999999
 21
46.0554
 31
0.0
  0
LINE
  5
258
330
1E
100
AcDbEntity
  8
0
100
AcDbLine
 10
199.147093
 20
47.0125
 30
0.0
 11
199.2420929999999
 21
46.0554
 31
0.0
  0
LINE
  5
259
330
1E
100
AcDbEntity
  8
0
100
AcDbLine
 10
198.877093
 20
47.8243
 30
0.0
 11
199.147093
 21
47.0125
 31
0.0
  0
LINE
  5
25A
330
1E
100
AcDbEntity
  8
0
100
AcDbLine
 10
198.471093
 20
48.3676
 30
0.0
 11
198.877093
 21
47.8243
 31
0.0
  0
LINE
  5
25B
330
1E
100
AcDbEntity
  8
0
100
AcDbLine
 10
197.9920929999999
 20
48.5594
 30
0.0
 11
198.471093
 21
48.3676
 31
0.0
  0
LINE
  5
25C
330
1E
100
AcDbEntity
  8
0
100
AcDbLine
 10
198.0430929999999
 20
0.7499999999999841
 30
0.0
 11
198.0430929999999
 21
0.249999999999984
 31
0.0
  0
LINE
  5
25D
330
1E
100
AcDbEntity
  8
0
100
AcDbLine
 10
197.043093
 20
0.249999999999984
 30
0.0
 11
198.0430929999999
 21
0.249999999999984
 31
0.0
  0
ENDSEC
  0
SECTION
  2
OBJECTS
  0
DICTIONARY
  5
C
330
0
100
AcDbDictionary
  3
ACAD_GROUP
350
D
  3
ACAD_LAYOUT
350
19
  3
ACAD_MLINESTYLE
350
16
  3
ACAD_PLOTSETTINGS
350
18
  3
ACAD_PLOTSTYLENAME
350
E
  3
ACDBHEADERROUNDTRIPXREC
350
265
  3
ACDBVARIABLEDICTIONARY
350
262
  0
DICTIONARY
  5
287
330
1E
100
AcDbDictionary
280
     1
  3
ACAD_LAYOUTSELFREF
360
288
  0
DICTIONARY
  5
285
330
1A
100
AcDbDictionary
280
     1
  3
ACAD_LAYOUTSELFREF
360
286
  0
DICTIONARY
  5
D
102
{ACAD_REACTORS
330
C
102
}
330
C
100
AcDbDictionary
  0
DICTIONARY
  5
19
102
{ACAD_REACTORS
330
C
102
}
330
C
100
AcDbDictionary
  0
DICTIONARY
  5
16
102
{ACAD_REACTORS
330
C
102
}
330
C
100
AcDbDictionary
  3
STANDARD
350
17
  0
DICTIONARY
  5
18
102
{ACAD_REACTORS
330
C
102
}
330
C
100
AcDbDictionary
  0
ACDBDICTIONARYWDFLT
  5
E
102
{ACAD_REACTORS
330
C
102
}
330
C
100
AcDbDictionary
281
     1
  3
Normal
350
F
100
AcDbDictionaryWithDefault
340
F
  0
DICTIONARY
  5
265
102
{ACAD_REACTORS
330
C
102
}
330
C
100
AcDbDictionary
  3
CEPSNTYPE
350
26F
  3
FINGERPRINTGUID
350
270
  3
HYPERLINKBASE
350
268
  3
INSUNITS
350
26E
  3
LAYOUTDICT
350
26A
  3
LWETCUNION
350
26D
  3
PLOTSETDICT
350
26B
  3
PLOTSTYLNAMDICT
350
26C
  3
PSVPSCALE
350
272
  3
PUCSBASE
350
275
  3
PUCSORGBACK
350
27B
  3
PUCSORGBOTTOM
350
277
  3
PUCSORGFRONT
350
27A
  3
PUCSORGLEFT
350
278
  3
PUCSORGRIGHT
350
279
  3
PUCSORGTOP
350
276
  3
PUCSORTHOREF
350
273
  3
PUCSORTHOVIEW
350
274
  3
STYLESHEET
350
269
  3
TSTACKALIGN
350
266
  3
TSTACKSIZE
350
267
  3
UCSBASE
350
27E
  3
UCSORGBACK
350
284
  3
UCSORGBOTTOM
350
280
  3
UCSORGFRONT
350
283
  3
UCSORGLEFT
350
281
  3
UCSORGRIGHT
350
282
  3
UCSORGTOP
350
27F
  3
UCSORTHOREF
350
27C
  3
UCSORTHOVIEW
350
27D
  3
VERSIONGUID
350
271
  0
DICTIONARY
  5
262
102
{ACAD_REACTORS
330
C
102
}
330
C
100
AcDbDictionary
  3
DIMASSOC
350
263
  0
XRECORD
  5
288
102
{ACAD_REACTORS
330
287
102
}
330
287
100
AcDbXrecord
340
1E
  0
XRECORD
  5
286
102
{ACAD_REACTORS
330
285
102
}
330
285
100
AcDbXrecord
340
1A
  0
MLINESTYLE
  5
17
102
{ACAD_REACTORS
330
16
102
}
330
16
100
AcDbMlineStyle
  2
STANDARD
 70
     0
  3

 62
   256
 51
90.0
 52
90.0
 71
     2
 49
0.5
 62
   256
  6
BYLAYER
 49
-0.5
 62
   256
  6
BYLAYER
  0
ACDBPLACEHOLDER
  5
F
102
{ACAD_REACTORS
330
E
102
}
330
E
100
AcDbPlaceHolder
280
     0
  0
XRECORD
  5
26F
102
{ACAD_REACTORS
330
265
102
}
330
265
100
AcDbXrecord
 90
        0
  0
XRECORD
  5
270
102
{ACAD_REACTORS
330
265
102
}
330
265
100
AcDbXrecord
  1
{4F0C18A7-6D16-40A9-8EE7-D1F506808B59}
  0
XRECORD
  5
268
102
{ACAD_REACTORS
330
265
102
}
330
265
100
AcDbXrecord
  1

  0
XRECORD
  5
26E
102
{ACAD_REACTORS
330
265
102
}
330
265
100
AcDbXrecord
 90
        0
  0
XRECORD
  5
26A
102
{ACAD_REACTORS
330
265
102
}
330
265
100
AcDbXrecord
340
19
  0
XRECORD
  5
26D
102
{ACAD_REACTORS
330
265
102
}
330
265
100
AcDbXrecord
 90
    10781
  0
XRECORD
  5
26B
102
{ACAD_REACTORS
330
265
102
}
330
265
100
AcDbXrecord
340
18
  0
XRECORD
  5
26C
102
{ACAD_REACTORS
330
265
102
}
330
265
100
AcDbXrecord
340
E
  0
XRECORD
  5
272
102
{ACAD_REACTORS
330
265
102
}
330
265
100
AcDbXrecord
 40
0.0
  0
XRECORD
  5
275
102
{ACAD_REACTORS
330
265
102
}
330
265
100
AcDbXrecord
340
0
  0
XRECORD
  5
27B
102
{ACAD_REACTORS
330
265
102
}
330
265
100
AcDbXrecord
 10
0.0
 20
0.0
 30
0.0
  0
XRECORD
  5
277
102
{ACAD_REACTORS
330
265
102
}
330
265
100
AcDbXrecord
 10
0.0
 20
0.0
 30
0.0
  0
XRECORD
  5
27A
102
{ACAD_REACTORS
330
265
102
}
330
265
100
AcDbXrecord
 10
0.0
 20
0.0
 30
0.0
  0
XRECORD
  5
278
102
{ACAD_REACTORS
330
265
102
}
330
265
100
AcDbXrecord
 10
0.0
 20
0.0
 30
0.0
  0
XRECORD
  5
279
102
{ACAD_REACTORS
330
265
102
}
330
265
100
AcDbXrecord
 10
0.0
 20
0.0
 30
0.0
  0
XRECORD
  5
276
102
{ACAD_REACTORS
330
265
102
}
330
265
100
AcDbXrecord
 10
0.0
 20
0.0
 30
0.0
  0
XRECORD
  5
273
102
{ACAD_REACTORS
330
265
102
}
330
265
100
AcDbXrecord
340
0
  0
XRECORD
  5
274
102
{ACAD_REACTORS
330
265
102
}
330
265
100
AcDbXrecord
 70
     0
  0
XRECORD
  5
269
102
{ACAD_REACTORS
330
265
102
}
330
265
100
AcDbXrecord
  1

  0
XRECORD
  5
266
102
{ACAD_REACTORS
330
265
102
}
330
265
100
AcDbXrecord
 90
        1
  0
XRECORD
  5
267
102
{ACAD_REACTORS
330
265
102
}
330
265
100
AcDbXrecord
 90
       70
  0
XRECORD
  5
27E
102
{ACAD_REACTORS
330
265
102
}
330
265
100
AcDbXrecord
340
0
  0
XRECORD
  5
284
102
{ACAD_REACTORS
330
265
102
}
330
265
100
AcDbXrecord
 10
0.0
 20
0.0
 30
0.0
  0
XRECORD
  5
280
102
{ACAD_REACTORS
330
265
102
}
330
265
100
AcDbXrecord
 10
0.0
 20
0.0
 30
0.0
  0
XRECORD
  5
283
102
{ACAD_REACTORS
330
265
102
}
330
265
100
AcDbXrecord
 10
0.0
 20
0.0
 30
0.0
  0
XRECORD
  5
281
102
{ACAD_REACTORS
330
265
102
}
330
265
100
AcDbXrecord
 10
0.0
 20
0.0
 30
0.0
  0
XRECORD
  5
282
102
{ACAD_REACTORS
330
265
102
}
330
265
100
AcDbXrecord
 10
0.0
 20
0.0
 30
0.0
  0
XRECORD
  5
27F
102
{ACAD_REACTORS
330
265
102
}
330
265
100
AcDbXrecord
 10
0.0
 20
0.0
 30
0.0
  0
XRECORD
  5
27C
102
{ACAD_REACTORS
330
265
102
}
330
265
100
AcDbXrecord
340
0
  0
XRECORD
  5
27D
102
{ACAD_REACTORS
330
265
102
}
330
265
100
AcDbXrecord
 70
     1
  0
XRECORD
  5
271
102
{ACAD_REACTORS
330
265
102
}
330
265
100
AcDbXrecord
  1
{51C6EE4B-663B-44E3-8B69-7631E1453228}
  0
DICTIONARYVAR
  5
263
102
{ACAD_REACTORS
330
262
102
}
330
262
100
DictionaryVariables
280
     0
  1
1
  0
ENDSEC
  0
EOF
